  0
SECTION
  2
HEADER
  9
$ACADVER
  1
AC1032
  9
$ACADMAINTVER
 90
        4
  9
$DWGCODEPAGE
  3
ANSI_932
  9
$LASTSAVEDBY
  1
9128
  9
$REQUIREDVERSIONS
160
                 0
  9
$INSBASE
 10
0.0
 20
0.0
 30
0.0
  9
$EXTMIN
 10
144.5611532613706
 20
93.85285870145381
 30
0.0
  9
$EXTMAX
 10
556.7975708515178
 20
939.1537006284041
 30
0.0
  9
$LIMMIN
 10
0.0
 20
0.0
  9
$LIMMAX
 10
210.0
 20
297.0
  9
$ORTHOMODE
 70
     0
  9
$REGENMODE
 70
     1
  9
$FILLMODE
 70
     1
  9
$QTEXTMODE
 70
     0
  9
$MIRRTEXT
 70
     1
  9
$LTSCALE
 40
1.0
  9
$ATTMODE
 70
     1
  9
$TEXTSIZE
 40
3.5
  9
$TRACEWID
 40
1.0
  9
$TEXTSTYLE
  7
Standard
  9
$CLAYER
  8
0
  9
$CELTYPE
  6
ByLayer
  9
$CECOLOR
 62
   256
  9
$CELTSCALE
 40
1.0
  9
$DISPSILH
 70
     0
  9
$DIMSCALE
 40
1.0
  9
$DIMASZ
 40
3.302
  9
$DIMEXO
 40
1.0
  9
$DIMDLI
 40
3.75
  9
$DIMRND
 40
0.0
  9
$DIMDLE
 40
0.0
  9
$DIMEXE
 40
1.0
  9
$DIMTP
 40
0.0
  9
$DIMTM
 40
0.0
  9
$DIMTXT
 40
3.5
  9
$DIMCEN
 40
2.5
  9
$DIMTSZ
 40
0.0
  9
$DIMTOL
 70
     0
  9
$DIMLIM
 70
     0
  9
$DIMTIH
 70
     1
  9
$DIMTOH
 70
     1
  9
$DIMSE1
 70
     0
  9
$DIMSE2
 70
     0
  9
$DIMTAD
 70
     1
  9
$DIMZIN
 70
     1
  9
$DIMBLK
  1

  9
$DIMASO
 70
     1
  9
$DIMSHO
 70
     1
  9
$DIMPOST
  1

  9
$DIMAPOST
  1

  9
$DIMALT
 70
     0
  9
$DIMALTD
 70
     3
  9
$DIMALTF
 40
0.0393700787401575
  9
$DIMLFAC
 40
10.0
  9
$DIMTOFL
 70
     1
  9
$DIMTVP
 40
0.0
  9
$DIMTIX
 70
     0
  9
$DIMSOXD
 70
     0
  9
$DIMSAH
 70
     0
  9
$DIMBLK1
  1

  9
$DIMBLK2
  1

  9
$DIMSTYLE
  2
ISO-25
  9
$DIMCLRD
 70
     0
  9
$DIMCLRE
 70
     0
  9
$DIMCLRT
 70
     0
  9
$DIMTFAC
 40
1.0
  9
$DIMGAP
 40
1.524
  9
$DIMJUST
 70
     0
  9
$DIMSD1
 70
     0
  9
$DIMSD2
 70
     0
  9
$DIMTOLJ
 70
     0
  9
$DIMTZIN
 70
     1
  9
$DIMALTZ
 70
     0
  9
$DIMALTTZ
 70
     0
  9
$DIMUPT
 70
     0
  9
$DIMDEC
 70
     2
  9
$DIMTDEC
 70
     2
  9
$DIMALTU
 70
     2
  9
$DIMALTTD
 70
     3
  9
$DIMTXSTY
  7
Standard
  9
$DIMAUNIT
 70
     0
  9
$DIMADEC
 70
     2
  9
$DIMALTRND
 40
0.0
  9
$DIMAZIN
 70
     0
  9
$DIMDSEP
 70
    44
  9
$DIMATFIT
 70
     3
  9
$DIMFRAC
 70
     0
  9
$DIMLDRBLK
  1

  9
$DIMLUNIT
 70
     2
  9
$DIMLWD
 70
    -2
  9
$DIMLWE
 70
    -2
  9
$DIMTMOVE
 70
     0
  9
$DIMFXL
 40
1.0
  9
$DIMFXLON
 70
     0
  9
$DIMJOGANG
 40
0.7853981633974483
  9
$DIMTFILL
 70
     0
  9
$DIMTFILLCLR
 70
     0
  9
$DIMARCSYM
 70
     0
  9
$DIMLTYPE
  6

  9
$DIMLTEX1
  6

  9
$DIMLTEX2
  6

  9
$DIMTXTDIRECTION
 70
     0
  9
$LUNITS
 70
     2
  9
$LUPREC
 70
     2
  9
$SKETCHINC
 40
1.0
  9
$FILLETRAD
 40
10.0
  9
$AUNITS
 70
     0
  9
$AUPREC
 70
     2
  9
$MENU
  1
.
  9
$ELEVATION
 40
0.0
  9
$PELEVATION
 40
0.0
  9
$THICKNESS
 40
0.0
  9
$LIMCHECK
 70
     0
  9
$CHAMFERA
 40
0.0
  9
$CHAMFERB
 40
0.0
  9
$CHAMFERC
 40
0.0
  9
$CHAMFERD
 40
0.0
  9
$SKPOLY
 70
     0
  9
$TDCREATE
 40
2460012.365352141
  9
$TDUCREATE
 40
2460011.990352141
  9
$TDUPDATE
 40
2460018.606715602
  9
$TDUUPDATE
 40
2460018.231715602
  9
$TDINDWG
 40
0.0010928704
  9
$TDUSRTIMER
 40
0.000075081
  9
$USRTIMER
 70
     1
  9
$ANGBASE
 50
0.0
  9
$ANGDIR
 70
     0
  9
$PDMODE
 70
     0
  9
$PDSIZE
 40
-1.0
  9
$PLINEWID
 40
0.0
  9
$SPLFRAME
 70
     0
  9
$SPLINETYPE
 70
     6
  9
$SPLINESEGS
 70
     8
  9
$HANDSEED
  5
16C
  9
$SURFTAB1
 70
     6
  9
$SURFTAB2
 70
     6
  9
$SURFTYPE
 70
     6
  9
$SURFU
 70
     6
  9
$SURFV
 70
     6
  9
$UCSBASE
  2

  9
$UCSNAME
  2

  9
$UCSORG
 10
0.0
 20
0.0
 30
0.0
  9
$UCSXDIR
 10
1.0
 20
0.0
 30
0.0
  9
$UCSYDIR
 10
0.0
 20
1.0
 30
0.0
  9
$UCSORTHOREF
  2

  9
$UCSORTHOVIEW
 70
     0
  9
$UCSORGTOP
 10
0.0
 20
0.0
 30
0.0
  9
$UCSORGBOTTOM
 10
0.0
 20
0.0
 30
0.0
  9
$UCSORGLEFT
 10
0.0
 20
0.0
 30
0.0
  9
$UCSORGRIGHT
 10
0.0
 20
0.0
 30
0.0
  9
$UCSORGFRONT
 10
0.0
 20
0.0
 30
0.0
  9
$UCSORGBACK
 10
0.0
 20
0.0
 30
0.0
  9
$PUCSBASE
  2

  9
$PUCSNAME
  2

  9
$PUCSORG
 10
0.0
 20
0.0
 30
0.0
  9
$PUCSXDIR
 10
1.0
 20
0.0
 30
0.0
  9
$PUCSYDIR
 10
0.0
 20
1.0
 30
0.0
  9
$PUCSORTHOREF
  2

  9
$PUCSORTHOVIEW
 70
     0
  9
$PUCSORGTOP
 10
0.0
 20
0.0
 30
0.0
  9
$PUCSORGBOTTOM
 10
0.0
 20
0.0
 30
0.0
  9
$PUCSORGLEFT
 10
0.0
 20
0.0
 30
0.0
  9
$PUCSORGRIGHT
 10
0.0
 20
0.0
 30
0.0
  9
$PUCSORGFRONT
 10
0.0
 20
0.0
 30
0.0
  9
$PUCSORGBACK
 10
0.0
 20
0.0
 30
0.0
  9
$USERI1
 70
     0
  9
$USERI2
 70
     0
  9
$USERI3
 70
     0
  9
$USERI4
 70
     0
  9
$USERI5
 70
     0
  9
$USERR1
 40
0.0
  9
$USERR2
 40
0.0
  9
$USERR3
 40
0.0
  9
$USERR4
 40
0.0
  9
$USERR5
 40
0.0
  9
$WORLDVIEW
 70
     1
  9
$SHADEDGE
 70
     3
  9
$SHADEDIF
 70
    70
  9
$TILEMODE
 70
     1
  9
$MAXACTVP
 70
    64
  9
$PINSBASE
 10
0.0
 20
0.0
 30
0.0
  9
$PLIMCHECK
 70
     0
  9
$PEXTMIN
 10
1.000000000000000E+20
 20
1.000000000000000E+20
 30
1.000000000000000E+20
  9
$PEXTMAX
 10
-1.000000000000000E+20
 20
-1.000000000000000E+20
 30
-1.000000000000000E+20
  9
$PLIMMIN
 10
0.0
 20
0.0
  9
$PLIMMAX
 10
0.0
 20
0.0
  9
$UNITMODE
 70
     0
  9
$VISRETAIN
 70
     1
  9
$PLINEGEN
 70
     0
  9
$PSLTSCALE
 70
     1
  9
$TREEDEPTH
 70
  3020
  9
$CMLSTYLE
  2
Standard
  9
$CMLJUST
 70
     0
  9
$CMLSCALE
 40
20.0
  9
$PROXYGRAPHICS
 70
     1
  9
$MEASUREMENT
 70
     1
  9
$CELWEIGHT
370
    -1
  9
$ENDCAPS
280
     0
  9
$JOINSTYLE
280
     0
  9
$LWDISPLAY
290
     1
  9
$INSUNITS
 70
     4
  9
$HYPERLINKBASE
  1

  9
$STYLESHEET
  1

  9
$XEDIT
290
     1
  9
$CEPSNTYPE
380
     0
  9
$PSTYLEMODE
290
     1
  9
$FINGERPRINTGUID
  2
{62fc6a43-8f87-4486-97b5-a87282b061f3}
  9
$VERSIONGUID
  2
{FAEB1C32-E019-11D5-929B-00C0DF256EC4}
  9
$EXTNAMES
290
     1
  9
$PSVPSCALE
 40
0.0
  9
$OLESTARTUP
290
     0
  9
$SORTENTS
280
   127
  9
$INDEXCTL
280
     0
  9
$HIDETEXT
280
     1
  9
$XCLIPFRAME
280
     2
  9
$HALOGAP
280
     0
  9
$OBSCOLOR
 70
   257
  9
$OBSLTYPE
280
     0
  9
$INTERSECTIONDISPLAY
280
     0
  9
$INTERSECTIONCOLOR
 70
   257
  9
$DIMASSOC
280
     2
  9
$PROJECTNAME
  1

  9
$CAMERADISPLAY
290
     0
  9
$LENSLENGTH
 40
50.0
  9
$CAMERAHEIGHT
 40
0.0
  9
$STEPSPERSEC
 40
2.0
  9
$STEPSIZE
 40
6.0
  9
$3DDWFPREC
 40
2.0
  9
$PSOLWIDTH
 40
0.25
  9
$PSOLHEIGHT
 40
4.0
  9
$LOFTANG1
 40
1.570796326794897
  9
$LOFTANG2
 40
1.570796326794897
  9
$LOFTMAG1
 40
0.0
  9
$LOFTMAG2
 40
0.0
  9
$LOFTPARAM
 70
     7
  9
$LOFTNORMALS
280
     1
  9
$LATITUDE
 40
37.795
  9
$LONGITUDE
 40
-122.394
  9
$NORTHDIRECTION
 40
0.0
  9
$TIMEZONE
 70
 -8000
  9
$LIGHTGLYPHDISPLAY
280
     1
  9
$TILEMODELIGHTSYNCH
280
     1
  9
$SOLIDHIST
280
     0
  9
$SHOWHIST
280
     1
  9
$DWFFRAME
280
     2
  9
$DGNFRAME
280
     2
  9
$REALWORLDSCALE
290
     1
  9
$INTERFERECOLOR
 62
   256
  9
$CSHADOW
280
     0
  9
$SHADOWPLANELOCATION
 40
0.0
  0
ENDSEC
  0
SECTION
  2
CLASSES
  0
CLASS
  1
ACDBDICTIONARYWDFLT
  2
AcDbDictionaryWithDefault
  3
ObjectDBX Classes
 90
        0
 91
        3
280
     0
281
     0
  0
CLASS
  1
VISUALSTYLE
  2
AcDbVisualStyle
  3
ObjectDBX Classes
 90
     4095
 91
        3
280
     0
281
     0
  0
CLASS
  1
MATERIAL
  2
AcDbMaterial
  3
ObjectDBX Classes
 90
     1153
 91
        3
280
     0
281
     0
  0
CLASS
  1
SCALE
  2
AcDbScale
  3
ObjectDBX Classes
 90
     1153
 91
        3
280
     0
281
     0
  0
CLASS
  1
TABLESTYLE
  2
AcDbTableStyle
  3
ObjectDBX Classes
 90
     4095
 91
        3
280
     0
281
     0
  0
CLASS
  1
MLEADERSTYLE
  2
AcDbMLeaderStyle
  3
ACDB_MLEADERSTYLE_CLASS
 90
     4095
 91
        3
280
     0
281
     0
  0
CLASS
  1
SUN
  2
AcDbSun
  3
SCENEOE
 90
     1153
 91
        3
280
     0
281
     0
  0
CLASS
  1
ACDBPLACEHOLDER
  2
AcDbPlaceHolder
  3
ObjectDBX Classes
 90
        0
 91
        1
280
     0
281
     0
  0
CLASS
  1
LAYOUT
  2
AcDbLayout
  3
ObjectDBX Classes
 90
        0
 91
        1
280
     0
281
     0
  0
CLASS
  1
DICTIONARYVAR
  2
AcDbDictionaryVar
  3
ObjectDBX Classes
 90
        0
 91
        3
280
     0
281
     0
  0
CLASS
  1
CELLSTYLEMAP
  2
AcDbCellStyleMap
  3
ObjectDBX Classes
 90
     1152
 91
        3
280
     0
281
     0
  0
ENDSEC
  0
SECTION
  2
TABLES
  0
TABLE
  2
VPORT
  5
8
330
0
100
AcDbSymbolTable
 70
     1
  0
VPORT
  5
29
330
8
100
AcDbSymbolTableRecord
100
AcDbViewportTableRecord
  2
*Active
 70
     0
 10
0.0
 20
0.0
 11
1.0
 21
1.0
 12
521.9529831205862
 22
348.162652079978
 13
0.0
 23
0.0
 14
10.0
 24
10.0
 15
10.0
 25
10.0
 16
0.0
 26
0.0
 36
1.0
 17
0.0
 27
0.0
 37
0.0
 40
2212.822437286377
 41
1.450686641697878
 42
50.0
 43
0.0
 44
0.0
 50
0.0
 51
0.0
 71
    16
 72
  2000
 73
     1
 74
     3
 75
     0
 76
     0
 77
     0
 78
     0
281
     0
 65
     1
110
0.0
120
0.0
130
0.0
111
1.0
121
0.0
131
0.0
112
0.0
122
1.0
132
0.0
 79
     0
146
0.0
348
132
 60
     3
 61
     5
292
     1
282
     1
141
0.0
142
0.0
 63
   256
361
156
  0
ENDTAB
  0
TABLE
  2
LTYPE
  5
5
330
0
100
AcDbSymbolTable
 70
     6
  0
LTYPE
  5
14
330
5
100
AcDbSymbolTableRecord
100
AcDbLinetypeTableRecord
  2
ByBlock
 70
     0
  3

 72
    65
 73
     0
 40
0.0
  0
LTYPE
  5
15
330
5
100
AcDbSymbolTableRecord
100
AcDbLinetypeTableRecord
  2
ByLayer
 70
     0
  3

 72
    65
 73
     0
 40
0.0
  0
LTYPE
  5
16
330
5
100
AcDbSymbolTableRecord
100
AcDbLinetypeTableRecord
  2
Continuous
 70
     0
  3
Solid line
 72
    65
 73
     0
 40
0.0
  0
LTYPE
  5
6E
330
5
100
AcDbSymbolTableRecord
100
AcDbLinetypeTableRecord
  2
HIDDEN
 70
     0
  3
Hidden __ __ __ __ __ __ __ __ __ __ __ __ __ __
 72
    65
 73
     2
 40
1.905
 49
1.27
 74
     0
 49
-0.635
 74
     0
  0
LTYPE
  5
6F
330
5
100
AcDbSymbolTableRecord
100
AcDbLinetypeTableRecord
  2
PHANTOM
 70
     0
  3
Phantom ______  __  __  ______  __  __  ______
 72
    65
 73
     6
 40
12.7
 49
6.35
 74
     0
 49
-1.27
 74
     0
 49
1.27
 74
     0
 49
-1.27
 74
     0
 49
1.27
 74
     0
 49
-1.27
 74
     0
  0
LTYPE
  5
70
330
5
100
AcDbSymbolTableRecord
100
AcDbLinetypeTableRecord
  2
CENTER
 70
     0
  3
Center ____ _ ____ _ ____ _ ____ _ ____ _ ____
 72
    65
 73
     4
 40
10.16
 49
6.35
 74
     0
 49
-1.27
 74
     0
 49
1.27
 74
     0
 49
-1.27
 74
     0
  0
LTYPE
  5
71
330
5
100
AcDbSymbolTableRecord
100
AcDbLinetypeTableRecord
  2
CENTERX2
 70
     0
  3
Center (2x) ________  __  ________  __  _____
 72
    65
 73
     4
 40
20.32
 49
12.7
 74
     0
 49
-2.54
 74
     0
 49
2.54
 74
     0
 49
-2.54
 74
     0
  0
LTYPE
  5
72
330
5
100
AcDbSymbolTableRecord
100
AcDbLinetypeTableRecord
  2
DOT2
 70
     0
  3
Dot (.5x) ........................................
 72
    65
 73
     2
 40
0.635
 49
0.0
 74
     0
 49
-0.635
 74
     0
  0
ENDTAB
  0
TABLE
  2
LAYER
  5
2
102
{ACAD_XDICTIONARY
360
162
102
}
330
0
100
AcDbSymbolTable
 70
     2
  0
LAYER
  5
10
330
2
100
AcDbSymbolTableRecord
100
AcDbLayerTableRecord
  2
0
 70
     0
 62
     7
  6
Continuous
370
    -3
390
F
347
149
348
0
  0
LAYER
  5
73
330
2
100
AcDbSymbolTableRecord
100
AcDbLayerTableRecord
  2
FORMAT
 70
     0
 62
     7
  6
Continuous
370
    -3
390
F
347
149
348
0
  0
ENDTAB
  0
TABLE
  2
STYLE
  5
3
330
0
100
AcDbSymbolTable
 70
     1
  0
STYLE
  5
11
330
3
100
AcDbSymbolTableRecord
100
AcDbTextStyleTableRecord
  2
Standard
 70
     0
 40
0.0
 41
1.0
 50
0.0
 71
     0
 42
3.5
  3
txt
  4
bigfont
  0
ENDTAB
  0
TABLE
  2
VIEW
  5
6
330
0
100
AcDbSymbolTable
 70
     0
  0
ENDTAB
  0
TABLE
  2
UCS
  5
7
330
0
100
AcDbSymbolTable
 70
     0
  0
ENDTAB
  0
TABLE
  2
APPID
  5
9
330
0
100
AcDbSymbolTable
 70
     2
  0
APPID
  5
12
330
9
100
AcDbSymbolTableRecord
100
AcDbRegAppTableRecord
  2
ACAD
 70
     0
  0
APPID
  5
168
330
9
100
AcDbSymbolTableRecord
100
AcDbRegAppTableRecord
  2
PLOTTRANSPARENCY
 70
     0
  0
ENDTAB
  0
TABLE
  2
DIMSTYLE
  5
A
330
0
100
AcDbSymbolTable
 70
     2
100
AcDbDimStyleTable
  0
DIMSTYLE
105
27
330
A
100
AcDbSymbolTableRecord
100
AcDbDimStyleTableRecord
  2
ISO-25
 70
     0
 41
2.5
 42
0.625
 43
3.75
 44
1.25
 73
     0
 74
     0
 77
     1
 78
     8
140
2.5
141
2.5
143
0.03937007874016
147
0.625
171
     3
172
     1
178
     0
271
     2
272
     2
274
     3
278
    44
283
     0
284
     8
340
11
  0
DIMSTYLE
105
15A
330
A
100
AcDbSymbolTableRecord
100
AcDbDimStyleTableRecord
  2
Standard
 70
     0
178
     0
340
11
  0
ENDTAB
  0
TABLE
  2
BLOCK_RECORD
  5
1
330
0
100
AcDbSymbolTable
 70
     1
  0
BLOCK_RECORD
  5
1F
330
1
100
AcDbSymbolTableRecord
100
AcDbBlockTableRecord
  2
*Model_Space
340
22
 70
     0
280
     1
281
     0
  0
BLOCK_RECORD
  5
1B
330
1
100
AcDbSymbolTableRecord
100
AcDbBlockTableRecord
  2
*Paper_Space
340
1E
 70
     0
280
     1
281
     0
  0
BLOCK_RECORD
  5
23
330
1
100
AcDbSymbolTableRecord
100
AcDbBlockTableRecord
  2
*Paper_Space0
340
26
 70
     0
280
     1
281
     0
  0
ENDTAB
  0
ENDSEC
  0
SECTION
  2
BLOCKS
  0
BLOCK
  5
20
330
1F
100
AcDbEntity
  8
0
100
AcDbBlockBegin
  2
*Model_Space
 70
     0
 10
0.0
 20
0.0
 30
0.0
  3
*Model_Space
  1

  0
ENDBLK
  5
21
330
1F
100
AcDbEntity
  8
0
100
AcDbBlockEnd
  0
BLOCK
  5
1C
330
1B
100
AcDbEntity
 67
     1
  8
0
100
AcDbBlockBegin
  2
*Paper_Space
 70
     0
 10
0.0
 20
0.0
 30
0.0
  3
*Paper_Space
  1

  0
ENDBLK
  5
1D
330
1B
100
AcDbEntity
 67
     1
  8
0
100
AcDbBlockEnd
  0
BLOCK
  5
24
330
23
100
AcDbEntity
  8
0
100
AcDbBlockBegin
  2
*Paper_Space0
 70
     0
 10
0.0
 20
0.0
 30
0.0
  3
*Paper_Space0
  1

  0
ENDBLK
  5
25
330
23
100
AcDbEntity
  8
0
100
AcDbBlockEnd
  0
ENDSEC
  0
SECTION
  2
ENTITIES
  0
LINE
  5
74
330
1F
100
AcDbEntity
  8
0
  6
Continuous
 62
     7
370
    25
100
AcDbLine
 10
168.2840362656128
 20
276.7826399734221
 30
0.0
 11
168.2840362656128
 21
103.5603646660548
 31
0.0
  0
LINE
  5
75
330
1F
100
AcDbEntity
  8
0
  6
Continuous
 62
     7
370
    25
100
AcDbLine
 10
270.5163263071516
 20
110.6085999705606
 30
0.0
 11
270.5163263071516
 21
242.3326446215987
 31
0.0
  0
LINE
  5
76
330
1F
100
AcDbEntity
  8
0
  6
Continuous
 62
     7
370
    25
100
AcDbLine
 10
144.7492437140737
 20
908.7390783955956
 30
0.0
 11
144.7492437140729
 21
232.5909999932476
 31
0.0
  0
LINE
  5
77
330
1F
100
AcDbEntity
  8
0
  6
Continuous
 62
     7
370
    25
100
AcDbLine
 10
283.6915300546722
 20
247.3931193925918
 30
0.0
 11
283.6915300546715
 21
923.5411977949392
 31
0.0
  0
SPLINE
  5
78
330
1F
100
AcDbEntity
  8
0
  6
Continuous
 62
     7
370
    25
100
AcDbSpline
210
0.0
220
0.0
230
1.0
 70
     8
 71
     3
 72
    11
 73
     7
 74
     0
 42
0.000000001
 43
0.00000001
 40
0.0
 40
0.0
 40
0.0
 40
0.0
 40
0.2853528396399652
 40
0.6447009901260884
 40
0.9761876280842859
 40
1.0
 40
1.0
 40
1.0
 40
1.0
 10
223.5879345758876
 20
897.0653898065005
 30
0.0
 10
223.6417505505695
 20
897.0585200110353
 30
0.0
 10
223.763337608213
 20
897.0429990022238
 30
0.0
 10
223.9475663935955
 20
897.0701861000829
 30
0.0
 10
224.0797251055395
 20
897.1058334644043
 30
0.0
 10
224.1392456704739
 20
897.1372150307428
 30
0.0
 10
224.143234777647
 20
897.1393182438343
 30
0.0
  0
LINE
  5
79
330
1F
100
AcDbEntity
  8
0
  6
Continuous
 62
     7
370
    25
100
AcDbLine
 10
145.5565721356176
 20
908.7222825029259
 30
0.0
 11
223.5872544396615
 21
897.0622165312019
 31
0.0
  0
LINE
  5
7A
330
1F
100
AcDbEntity
  8
0
  6
Continuous
 62
     7
370
    25
100
AcDbLine
 10
224.1441077299417
 20
897.1387302597522
 30
0.0
 11
283.1951431632318
 21
923.6105852475595
 31
0.0
  0
SPLINE
  5
7B
330
1F
100
AcDbEntity
  8
0
  6
Continuous
 62
     7
370
    25
100
AcDbSpline
210
0.0
220
0.0
230
1.0
 70
     8
 71
     3
 72
    15
 73
    11
 74
     0
 42
0.000000001
 43
0.00000001
 40
0.0
 40
0.0
 40
0.0
 40
0.0
 40
0.0064304352007729
 40
0.1775911051593191
 40
0.3494144364175594
 40
0.5225385250021661
 40
0.6989724679947441
 40
0.8578448763432333
 40
0.9713621854912937
 40
1.0
 40
1.0
 40
1.0
 40
1.0
 10
145.1588057858565
 20
912.5479012616587
 30
0.0
 10
145.156412148122
 20
912.5471129584226
 30
0.0
 10
145.0903063936339
 20
912.5253421702092
 30
0.0
 10
144.9741403363172
 20
912.4476989201011
 30
0.0
 10
144.8203537194711
 20
912.3162288910502
 30
0.0
 10
144.6975311187744
 20
912.1506696522721
 30
0.0
 10
144.6118065872769
 20
911.9691073322807
 30
0.0
 10
144.5718442310082
 20
911.797276755705
 30
0.0
 10
144.5582388285732
 20
911.6791999729259
 30
0.0
 10
144.5625704701854
 20
911.6236298711977
 30
0.0
 10
144.5634430996469
 20
911.6124350143078
 30
0.0
  0
LINE
  5
7C
330
1F
100
AcDbEntity
  8
0
  6
Continuous
 62
     7
370
    25
100
AcDbLine
 10
144.5639433150767
 20
911.558930697931
 30
0.0
 11
144.7071240307898
 21
909.6370086786911
 31
0.0
  0
SPLINE
  5
7D
330
1F
100
AcDbEntity
  8
0
  6
Continuous
 62
     7
370
    25
100
AcDbSpline
210
0.0
220
0.0
230
1.0
 70
     8
 71
     3
 72
     9
 73
     5
 74
     0
 42
0.000000001
 43
0.00000001
 40
0.0
 40
0.0
 40
0.0
 40
0.0
 40
0.8568238766747377
 40
1.0
 40
1.0
 40
1.0
 40
1.0
 10
145.3309148010148
 20
908.783649470049
 30
0.0
 10
145.394060300485
 20
908.7610047350312
 30
0.0
 10
145.4677574758196
 20
908.7345760422344
 30
0.0
 10
145.5449877242906
 20
908.7247376096067
 30
0.0
 10
145.5560452518702
 20
908.7233289809636
 30
0.0
  0
SPLINE
  5
7E
330
1F
100
AcDbEntity
  8
0
  6
Continuous
 62
     7
370
    25
100
AcDbSpline
210
0.0
220
0.0
230
1.0
 70
     8
 71
     3
 72
    14
 73
    10
 74
     0
 42
0.000000001
 43
0.00000001
 40
0.0
 40
0.0
 40
0.0
 40
0.0
 40
0.1453409120813431
 40
0.3316659645254454
 40
0.5015386488184624
 40
0.6677884745473857
 40
0.7781600951630128
 40
0.8972553408129578
 40
1.0
 40
1.0
 40
1.0
 40
1.0
 10
144.7105854956232
 20
909.6365513335533
 30
0.0
 10
144.7157965158692
 20
909.5827978910157
 30
0.0
 10
144.7276879924759
 20
909.4601332736655
 30
0.0
 10
144.7937239662799
 20
909.2840396094356
 30
0.0
 10
144.8927443945797
 20
909.1169093481743
 30
0.0
 10
145.0034326959652
 20
908.992403456978
 30
0.0
 10
145.1167365185201
 20
908.8990183223592
 30
0.0
 10
145.22080991735
 20
908.8322994923532
 30
0.0
 10
145.2960619768178
 20
908.7990492472262
 30
0.0
 10
145.3309148010148
 20
908.783649470049
 30
0.0
  0
LINE
  5
7F
330
1F
100
AcDbEntity
  8
0
  6
Continuous
 62
     7
370
    25
100
AcDbLine
 10
204.3079658496985
 20
939.0645713281393
 30
0.0
 11
145.1521148578484
 21
912.545728810879
 31
0.0
  0
SPLINE
  5
80
330
1F
100
AcDbEntity
  8
0
  6
Continuous
 62
     7
370
    25
100
AcDbSpline
210
0.0
220
0.0
230
1.0
 70
     8
 71
     3
 72
    15
 73
    11
 74
     0
 42
0.000000001
 43
0.00000001
 40
0.0
 40
0.0
 40
0.0
 40
0.0
 40
0.142188799248151
 40
0.2112006849123256
 40
0.3282363842633103
 40
0.4556059636736808
 40
0.5902910563007043
 40
0.7281358246772744
 40
0.8674809682865587
 40
1.0
 40
1.0
 40
1.0
 40
1.0
 10
283.9292475982575
 20
926.4601064295504
 30
0.0
 10
283.9257778061048
 20
926.5276952023597
 30
0.0
 10
283.9206239368618
 20
926.6280884484187
 30
0.0
 10
283.8814506704713
 20
926.779191412434
 30
0.0
 10
283.8265173104565
 20
926.9179452200243
 30
0.0
 10
283.7313823813836
 20
927.071653534566
 30
0.0
 10
283.6027758651563
 20
927.2127143701922
 30
0.0
 10
283.4445852681952
 20
927.3288852993938
 30
0.0
 10
283.2679735230478
 20
927.4144934683258
 30
0.0
 10
283.141192655505
 20
927.4400464299468
 30
0.0
 10
283.0793938628299
 20
927.4525021120072
 30
0.0
  0
SPLINE
  5
81
330
1F
100
AcDbEntity
  8
0
  6
Continuous
 62
     7
370
    25
100
AcDbSpline
210
0.0
220
0.0
230
1.0
 70
     8
 71
     3
 72
    14
 73
    10
 74
     0
 42
0.000000001
 43
0.00000001
 40
0.0
 40
0.0
 40
0.0
 40
0.0
 40
0.2153956128910412
 40
0.3060103901801426
 40
0.4575331291854661
 40
0.6185254835777929
 40
0.7943277821227818
 40
0.9808720467590922
 40
1.0
 40
1.0
 40
1.0
 40
1.0
 10
283.3190780199347
 20
923.6769751504875
 30
0.0
 10
283.3740045104186
 20
923.7159788199455
 30
0.0
 10
283.4520380253943
 20
923.7713909425471
 30
0.0
 10
283.5503583313579
 20
923.8751158972678
 30
0.0
 10
283.6268199223165
 20
923.9751413249429
 30
0.0
 10
283.7012505136402
 20
924.10885437164
 30
0.0
 10
283.7546654119729
 20
924.2629138334052
 30
0.0
 10
283.7825282373211
 20
924.3803293666177
 30
0.0
 10
283.7820059694791
 20
924.4444425252383
 30
0.0
 10
283.7819573974603
 20
924.4504051852069
 30
0.0
  0
SPLINE
  5
82
330
1F
100
AcDbEntity
  8
0
  6
Continuous
 62
     7
370
    25
100
AcDbSpline
210
0.0
220
0.0
230
1.0
 70
     8
 71
     3
 72
     9
 73
     5
 74
     0
 42
0.000000001
 43
0.00000001
 40
0.0
 40
0.0
 40
0.0
 40
0.0
 40
0.4000974510639162
 40
1.0
 40
1.0
 40
1.0
 40
1.0
 10
283.1905323140533
 20
923.6110521697937
 30
0.0
 10
283.2084482518268
 20
923.6182955018361
 30
0.0
 10
283.2532271868734
 20
923.6363994213267
 30
0.0
 10
283.2943864644214
 20
923.6617607967352
 30
0.0
 10
283.3190780199347
 20
923.6769751504875
 30
0.0
  0
LINE
  5
83
330
1F
100
AcDbEntity
  8
0
  6
Continuous
 62
     7
370
    25
100
AcDbLine
 10
283.783370715913
 20
924.4495533831979
 30
0.0
 11
283.9265514316261
 21
926.3913346691137
 31
0.0
  0
LINE
  5
84
330
1F
100
AcDbEntity
  8
0
  6
Continuous
 62
     7
370
    25
100
AcDbLine
 10
283.0770473168722
 20
927.4538908221876
 30
0.0
 11
204.8648191399774
 21
939.14108505669
 31
0.0
  0
SPLINE
  5
85
330
1F
100
AcDbEntity
  8
0
  6
Continuous
 62
     7
370
    25
100
AcDbSpline
210
0.0
220
0.0
230
1.0
 70
     8
 71
     3
 72
    11
 73
     7
 74
     0
 42
0.000000001
 43
0.00000001
 40
0.0
 40
0.0
 40
0.0
 40
0.0
 40
0.0489394080497708
 40
0.3821457408328376
 40
0.7110104543179954
 40
1.0
 40
1.0
 40
1.0
 40
1.0
 10
204.8665040626848
 20
939.1385742635035
 30
0.0
 10
204.8575334463556
 20
939.140660299135
 30
0.0
 10
204.7874859537636
 20
939.1569492095156
 30
0.0
 10
204.651890036372
 20
939.1532606706252
 30
0.0
 10
204.4738294715287
 20
939.129543672744
 30
0.0
 10
204.3654800701631
 20
939.0863407034602
 30
0.0
 10
204.3148017041713
 20
939.0661333385677
 30
0.0
  0
ARC
  5
86
330
1F
100
AcDbEntity
  8
0
  6
Continuous
 62
     7
370
    25
100
AcDbCircle
 10
233.0121618223845
 20
94.73100065222303
 30
0.0
 40
0.878141950769214
100
AcDbArc
 50
260.440437234456
 51
287.4938243671951
  0
LINE
  5
87
330
1F
100
AcDbEntity
  8
0
  6
Continuous
 62
     7
370
    25
100
AcDbLine
 10
232.8663263071354
 20
93.8650530278295
 30
0.0
 11
168.4340362656289
 21
103.493121505635
 31
0.0
  0
LWPOLYLINE
  5
88
330
1F
100
AcDbEntity
  8
0
  6
Continuous
 62
     7
370
    25
100
AcDbPolyline
 90
       82
 70
   128
 43
0.0
 10
200.6501812863822
 20
120.4124183582362
 10
201.153509323152
 20
120.3154219611285
 10
201.6538102858848
 20
120.1754399749578
 10
202.1480753057233
 20
119.9933142678605
 10
202.6333318146806
 20
119.770140165268
 10
203.1066614230144
 20
119.5072598624935
 10
203.5652174707664
 20
119.2062543526092
 10
204.0062421479092
 20
118.8689339181694
 10
204.4270830801422
 20
118.4973272439573
 10
204.8252092805802
 20
118.0936692162366
 10
205.1982263714091
 20
117.6603874818822
 10
205.5438909839535
 20
117.2000878482261
 10
205.8601242505612
 20
116.7155386114263
 10
206.1450243071575
 20
116.209653907607
 10
206.3968777312793
 20
115.6854761869014
 10
206.6141698467998
 20
115.1461579157995
 10
206.7955938333687
 20
114.5949426178416
 10
206.9400585857838
 20
114.0351453666884
 10
207.0466952760254
 20
113.4701328488764
 10
207.1148625784912
 20
112.9033031161696
 10
207.1441505270034
 20
112.3380651492764
 10
207.1343829803934
 20
111.777818355838
 10
207.0856186818357
 20
111.225932125991
 10
206.9981509055598
 20
110.6857255684594
 10
206.8725056930643
 20
110.1604475490431
 10
206.7094386894404
 20
109.6532571515573
 10
206.5099305988359
 20
109.1672046787309
 10
206.2751812863821
 20
108.7052133073266
 10
206.006602562066
 20
108.270061507812
 10
205.7058096899378
 20
107.8643663343111
 10
205.374611673723
 20
107.4905676853334
 10
205.0150003772614
 20
107.1509136299364
 10
204.6291385452035
 20
106.8474468875746
 10
204.2193467960091
 20
106.5819925429438
 10
203.7880896654763
 20
106.3561470697071
 10
203.3379607847313
 20
106.1712687291147
 10
202.8716672818273
 20
106.0284694012604
 10
202.3920135007568
 20
105.9286078981041
 10
201.9018841357974
 20
105.8722847984764
 10
201.4042268826207
 20
105.8598388361252
 10
200.9020347105039
 20
105.8913448625329
 10
200.3983278622603
 20
105.9666133967492
 10
199.8961356901435
 20
106.0851917649531
 10
199.3984784369667
 20
106.2463668228859
 10
198.9083490720074
 20
106.4491692447845
 10
198.4286952909369
 20
106.6923793530207
 10
197.9624017880329
 20
106.9745344533868
 10
197.5122729072879
 20
107.2939376319095
 10
197.081015776755
 20
107.6486679602904
 10
196.6712240275608
 20
108.0365920485961
 10
196.2853621955028
 20
108.4553768757142
 10
195.9257508990412
 20
108.9025038204186
 10
195.5945528828265
 20
109.3752838086527
 10
195.2937600106982
 20
109.8708734859379
 10
195.0251812863822
 20
110.386292317642
 10
194.7904319739284
 20
110.9184405142643
 10
194.5909238833238
 20
111.4641176739356
 10
194.4278568797
 20
112.0200420300111
 10
194.3022116672044
 20
112.5828701880005
 10
194.2147438909285
 20
113.1492172331368
 10
194.1659795923709
 20
113.7156770876517
 10
194.1562120457609
 20
114.2788429953281
 10
194.185499994273
 20
114.8353280101327
 10
194.2536672967389
 20
115.3817853657079
 10
194.3603039869805
 20
115.9149286032186
 10
194.5047687393955
 20
116.4315513365023
 10
194.6861927259644
 20
116.9285465356534
 10
194.9034848414851
 20
117.402925213065
 10
195.1553382656069
 20
117.851834399554
 10
195.4402383222031
 20
118.2725743024523
 10
195.7564715888108
 20
118.6626145424772
 10
196.1021362013553
 20
119.019609371732
 10
196.4751532921841
 20
119.3414117813076
 10
196.8732794926223
 20
119.6260864136481
 10
197.294120424855
 20
119.8719212020189
 10
197.7351451019979
 20
120.0774376670763
 10
198.1937011497498
 20
120.2413998086177
 10
198.6670307580837
 20
120.3628215390313
 10
199.1522872670411
 20
120.4409726137434
 10
199.6465522868795
 20
120.4753830229948
 10
200.1468532496124
 20
120.4658458185359
 10
200.6501812863822
 20
120.4124183582362
  0
LWPOLYLINE
  5
89
330
1F
100
AcDbEntity
  8
0
  6
Continuous
 62
     7
370
    25
100
AcDbPolyline
 90
       67
 70
   128
 43
0.0
 10
200.6501812863822
 20
441.5827555993513
 10
201.0617860278055
 20
441.4993808788029
 10
201.4696632129518
 20
441.3730233433336
 10
201.8701190428713
 20
441.2048273063518
 10
202.2595269275558
 20
440.9963159772139
 10
202.6343603289008
 20
440.7493776668059
 10
202.9912246975788
 20
440.4662486867056
 10
203.3268882146055
 20
440.1494930968007
 10
203.6383110591919
 20
439.8019794847642
 10
203.9226729378325
 20
439.4268549876805
 10
204.1773986253195
 20
439.0275167910845
 10
204.4001812863822
 20
438.6075813635236
 10
204.5890033667428
 20
438.1708517052589
 10
204.7421548644021
 20
437.7212829077042
 10
204.858248815681
 20
437.2629463355082
 10
204.9362338557793
 20
436.7999927556435
 10
204.9754037400974
 20
436.3366147474196
 10
204.9754037400974
 20
435.877008733835
 10
204.9362338557793
 20
435.4253369781204
 10
204.858248815681
 20
434.9856898896383
 10
204.7421548644021
 20
434.5620489805037
 10
204.5890033667428
 20
434.1582508083913
 10
204.4001812863821
 20
433.7779522320783
 10
204.1773986253195
 20
433.4245972943619
 10
203.9226729378324
 20
433.1013860322766
 10
203.6383110591919
 20
432.8112454970625
 10
203.3268882146054
 20
432.5568032463355
 10
202.9912246975788
 20
432.3403635485199
 10
202.6343603289007
 20
432.1638865150356
 10
202.2595269275558
 20
432.0289703492257
 10
201.8701190428713
 20
431.9368368727802
 10
201.4696632129517
 20
431.8883204607293
 10
201.0617860278054
 20
431.8838604852131
 10
200.6501812863821
 20
431.9234973364607
 10
200.2385765449588
 20
432.0068720570093
 10
199.8306993598124
 20
432.1332295924785
 10
199.430243529893
 20
432.3014256294603
 10
199.0408356452084
 20
432.5099369585981
 10
198.6660022438635
 20
432.7568752690063
 10
198.3091378751854
 20
433.0400042491064
 10
197.9734743581587
 20
433.3567598390114
 10
197.6620515135723
 20
433.7042734510481
 10
197.3776896349318
 20
434.0793979481318
 10
197.1229639474446
 20
434.4787361447277
 10
196.9001812863821
 20
434.8986715722885
 10
196.7113592060214
 20
435.3354012305534
 10
196.5582077083621
 20
435.7849700281078
 10
196.4421137570832
 20
436.2433066003038
 10
196.364128716985
 20
436.7062601801687
 10
196.3249588326669
 20
437.1696381883924
 10
196.3249588326669
 20
437.629244201977
 10
196.364128716985
 20
438.0809159576917
 10
196.4421137570832
 20
438.5205630461737
 10
196.5582077083622
 20
438.9442039553084
 10
196.7113592060214
 20
439.3480021274207
 10
196.9001812863822
 20
439.7283007037339
 10
197.1229639474447
 20
440.0816556414503
 10
197.3776896349318
 20
440.4048669035355
 10
197.6620515135724
 20
440.6950074387495
 10
197.9734743581587
 20
440.9494496894765
 10
198.3091378751855
 20
441.1658893872921
 10
198.6660022438635
 20
441.3423664207766
 10
199.0408356452084
 20
441.4772825865862
 10
199.4302435298931
 20
441.5694160630317
 10
199.8306993598125
 20
441.6179324750828
 10
200.2385765449589
 20
441.6223924505989
 10
200.6501812863822
 20
441.5827555993513
  0
LINE
  5
8A
330
1F
100
AcDbEntity
  8
0
  6
Continuous
 62
     7
370
    25
100
AcDbLine
 10
213.6405623431487
 20
212.6490435831515
 30
0.0
 11
213.6405623431487
 21
174.0120105315888
 31
0.0
  0
LWPOLYLINE
  5
8B
330
1F
100
AcDbEntity
  8
0
  6
Continuous
 62
     7
370
    25
100
AcDbPolyline
 90
       58
 70
   128
 43
0.0
 10
187.6598002296156
 20
216.5313292596892
 10
187.6795259097752
 20
217.3265420227912
 10
187.7386430440119
 20
218.1134445638663
 10
187.8369720955318
 20
218.8896470857605
 10
187.9742144422374
 20
219.652792286926
 10
188.1499532836322
 20
220.4005625204688
 10
188.363654906631
 20
221.1306868327661
 10
188.6146703064284
 20
221.8409478602785
 10
188.9022371575051
 20
222.5291885636091
 10
189.225482128786
 20
223.1933187783624
 10
189.5834235359171
 20
223.8313215629034
 10
189.9749743226091
 20
224.4412593237448
 10
190.3989453619922
 20
225.0212796999533
 10
190.8540490679539
 20
225.5696211887101
 10
191.3389033054972
 20
226.0846184949353
 10
191.852035588238
 20
226.5647075887368
 10
192.3918875502988
 20
227.0084304553152
 10
192.9568196790137
 20
227.4144395229086
 10
193.5451162940753
 20
227.7815017553227
 10
194.1549907579989
 20
228.1085023966219
 10
194.7845909020822
 20
228.3944483566061
 10
195.4320046513805
 20
228.6384712267926
 10
196.0952658316153
 20
228.8398299177449
 10
196.7723601403815
 20
228.9979129097367
 10
197.4612312645172
 20
229.112240109917
 10
198.1597871250593
 20
229.1824643103363
 10
198.8659062308184
 20
229.208372242406
 10
199.5774441212782
 20
229.189885224588
 10
200.2922398792512
 20
229.1270594013476
 10
201.0081226935133
 20
229.0200855726452
 10
201.7229184514861
 20
228.869288614483
 10
202.4344563419459
 20
228.6751264922662
 10
203.140575447705
 20
228.4381888699787
 10
203.8391313082472
 20
228.1591953193923
 10
204.5280024323829
 20
227.8389931347504
 10
205.2050967411491
 20
227.4785547595638
 10
205.8683579213838
 20
227.0789748333315
 10
206.5157716706821
 20
226.6414668671566
 10
207.1453718147655
 20
226.1673595583531
 10
207.7552462786891
 20
225.6580927552351
 10
208.3435428937507
 20
225.1152130843464
 10
208.9084750224656
 20
224.5403692534046
 10
209.4483269845262
 20
223.935307044231
 10
209.9614592672671
 20
223.3018640108685
 10
210.4463135048105
 20
222.6419638989905
 10
210.9014172107722
 20
221.9576108035479
 10
211.3253882501553
 20
221.2508830823992
 10
211.7169390368472
 20
220.5239270444057
 10
212.0748804439783
 20
219.7789504311623
 10
212.3981254152591
 20
219.0182157121583
 10
212.6856922663359
 20
218.2440332137332
 10
212.9367076661333
 20
217.4587541026892
 10
213.150409289132
 20
216.6647632458773
 10
213.3261481305269
 20
215.864471967434
 10
213.4633904772324
 20
215.060310725669
 10
213.5617195287523
 20
214.2547217318433
 10
213.620836662989
 20
213.4501515332543
 10
213.6405623431487
 20
212.6490435831515
  0
LINE
  5
8C
330
1F
100
AcDbEntity
  8
0
  6
Continuous
 62
     7
370
    25
100
AcDbLine
 10
187.6598002296156
 20
177.8942962081265
 30
0.0
 11
187.6598002296156
 21
216.5313292596892
 31
0.0
  0
LWPOLYLINE
  5
8D
330
1F
100
AcDbEntity
  8
0
  6
Continuous
 62
     7
370
    25
100
AcDbPolyline
 90
       58
 70
   128
 43
0.0
 10
213.6405623431487
 20
174.0120105315888
 10
213.620836662989
 20
173.2167977684869
 10
213.5617195287523
 20
172.4298952274117
 10
213.4633904772325
 20
171.6536927055176
 10
213.326148130527
 20
170.890547504352
 10
213.1504092891321
 20
170.1427772708093
 10
212.9367076661334
 20
169.412652958512
 10
212.6856922663359
 20
168.7023919309995
 10
212.3981254152591
 20
168.0141512276689
 10
212.0748804439783
 20
167.3500210129158
 10
211.7169390368474
 20
166.7120182283747
 10
211.3253882501553
 20
166.1020804675333
 10
210.9014172107722
 20
165.5220600913248
 10
210.4463135048105
 20
164.9737186025682
 10
209.9614592672672
 20
164.4587212963427
 10
209.4483269845262
 20
163.9786322025415
 10
208.9084750224656
 20
163.5349093359629
 10
208.3435428937507
 20
163.1289002683695
 10
207.7552462786891
 20
162.7618380359553
 10
207.1453718147655
 20
162.4348373946561
 10
206.5157716706822
 20
162.1488914346721
 10
205.868357921384
 20
161.9048685644854
 10
205.2050967411491
 20
161.703509873533
 10
204.5280024323829
 20
161.5454268815413
 10
203.8391313082472
 20
161.4310996813609
 10
203.140575447705
 20
161.3608754809416
 10
202.4344563419459
 20
161.3349675488719
 10
201.7229184514861
 20
161.3534545666901
 10
201.0081226935133
 20
161.4162803899304
 10
200.2922398792512
 20
161.5232542186328
 10
199.5774441212782
 20
161.6740511767951
 10
198.8659062308184
 20
161.8682132990117
 10
198.1597871250593
 20
162.1051509212992
 10
197.4612312645172
 20
162.3841444718856
 10
196.7723601403815
 20
162.7043466565277
 10
196.0952658316153
 20
163.0647850317141
 10
195.4320046513805
 20
163.4643649579465
 10
194.7845909020822
 20
163.9018729241214
 10
194.1549907579989
 20
164.3759802329249
 10
193.5451162940753
 20
164.8852470360426
 10
192.9568196790137
 20
165.4281267069314
 10
192.3918875502988
 20
166.0029705378732
 10
191.852035588238
 20
166.6080327470469
 10
191.3389033054972
 20
167.2414757804093
 10
190.8540490679539
 20
167.9013758922875
 10
190.3989453619922
 20
168.58572898773
 10
189.9749743226091
 20
169.2924567088789
 10
189.5834235359171
 20
170.0194127468723
 10
189.225482128786
 20
170.7643893601157
 10
188.9022371575051
 20
171.5251240791194
 10
188.6146703064284
 20
172.2993065775447
 10
188.363654906631
 20
173.0845856885887
 10
188.1499532836323
 20
173.8785765454006
 10
187.9742144422374
 20
174.6788678238438
 10
187.8369720955319
 20
175.4830290656091
 10
187.738643044012
 20
176.2886180594347
 10
187.6795259097753
 20
177.0931882580236
 10
187.6598002296156
 20
177.8942962081265
  0
LINE
  5
8E
330
1F
100
AcDbEntity
  8
0
  6
Continuous
 62
     7
370
    25
100
AcDbLine
 10
270.4761339282825
 20
110.569777113791
 30
0.0
 11
233.2761339283147
 21
93.8934733314797
 31
0.0
  0
LWPOLYLINE
  5
8F
330
1F
100
AcDbEntity
  8
0
  6
Continuous
 62
     7
370
    25
100
AcDbPolyline
 90
        7
 70
   128
 43
0.0
 10
168.4340362656289
 20
103.493121505635
 10
168.3862325210937
 20
103.501987527736
 10
168.3460302635321
 20
103.5130969505242
 10
168.3149744431563
 20
103.5260228451125
 10
168.2942585177272
 20
103.5402684766203
 10
168.2846785886413
 20
103.555286393418
 10
168.2840362656128
 20
103.5603646660548
  0
LINE
  5
90
330
1F
100
AcDbEntity
  8
0
  6
Continuous
 62
     7
370
    25
100
AcDbLine
 10
194.8613040736543
 20
114.7707396629719
 30
0.0
 11
199.4036515078718
 21
116.8070183107645
 31
0.0
  0
ARC
  5
91
330
1F
100
AcDbEntity
  8
0
  6
Continuous
 62
     7
370
    25
100
AcDbCircle
 10
270.465550034361
 20
110.6209509016873
 30
0.0
 40
0.0522568213555876
100
AcDbArc
 50
281.6853038376707
 51
346.3287505537492
  0
LINE
  5
92
330
1F
100
AcDbEntity
  8
0
  6
Continuous
 62
     7
370
    25
100
AcDbLine
 10
199.5134591290071
 20
116.8354386144117
 30
0.0
 11
200.7598692905208
 21
117.0216887442575
 31
0.0
  0
ARC
  5
93
330
1F
100
AcDbEntity
  8
0
  6
Continuous
 62
     7
370
    25
100
AcDbCircle
 10
199.5678702000433
 20
116.3988681932315
 30
0.0
 40
0.439948062049114
100
AcDbArc
 50
97.10431003747573
 51
111.9173273605975
  0
ARC
  5
94
330
1F
100
AcDbEntity
  8
0
  6
Continuous
 62
     7
370
    25
100
AcDbCircle
 10
200.7054582194842
 20
117.4582591654391
 30
0.0
 40
0.4399480620505769
100
AcDbArc
 50
277.1043100375043
 51
291.9173273605847
  0
LINE
  5
95
330
1F
100
AcDbEntity
  8
0
  6
Continuous
 62
     7
370
    25
100
AcDbLine
 10
200.8696769116562
 20
117.0501090479046
 30
0.0
 11
203.2892921539269
 21
118.1347928870566
 31
0.0
  0
LINE
  5
96
330
1F
100
AcDbEntity
  8
0
  6
Continuous
 62
     7
370
    25
100
AcDbLine
 10
203.3294845327915
 20
440.1468260469842
 30
0.0
 11
203.3294845327915
 21
432.5586943644174
 31
0.0
  0
LINE
  5
97
330
1F
100
AcDbEntity
  8
0
  6
Continuous
 62
     7
370
    25
100
AcDbLine
 10
203.3294845327915
 20
228.3671780225985
 30
0.0
 11
203.3294845327915
 21
161.6514737129757
 31
0.0
  0
LINE
  5
98
330
1F
100
AcDbEntity
  8
0
  6
Continuous
 62
     7
370
    25
100
AcDbLine
 10
203.3294845327915
 20
119.3669706818512
 30
0.0
 11
203.3294845327915
 21
118.1736157438219
 31
0.0
  0
ARC
  5
99
330
1F
100
AcDbEntity
  8
0
  6
Continuous
 62
     7
370
    25
100
AcDbCircle
 10
203.276465776837
 20
118.1882882643578
 30
0.0
 40
0.0550115564390679
100
AcDbArc
 50
283.4830601045256
 51
344.5309942866293
  0
ARC
  5
9A
330
1F
100
AcDbEntity
  8
0
  6
Continuous
 62
     7
370
    25
100
AcDbCircle
 10
203.3825032887457
 20
118.5314434829778
 30
0.0
 40
0.0550115564386396
100
AcDbArc
 50
103.4830601042664
 51
164.53099428669
  0
LINE
  5
9B
330
1F
100
AcDbEntity
  8
0
  6
Continuous
 62
     7
370
    25
100
AcDbLine
 10
203.3696769116562
 20
118.5849388602787
 30
0.0
 11
204.0051645200451
 21
118.8698201615529
 31
0.0
  0
ARC
  5
9C
330
1F
100
AcDbEntity
  8
0
  6
Continuous
 62
     7
370
    25
100
AcDbCircle
 10
202.1038519694928
 20
437.375611339299
 30
0.0
 40
5.095045571698273
100
AcDbArc
 50
176.1921602786155
 51
280.5518964653515
  0
ARC
  5
9D
330
1F
100
AcDbEntity
  8
0
  6
Continuous
 62
     7
370
    25
100
AcDbCircle
 10
201.265879877321
 20
437.8820251560002
 30
0.0
 40
4.249150008837661
100
AcDbArc
 50
122.8097127487244
 51
182.2665822709789
  0
LINE
  5
9E
330
1F
100
AcDbEntity
  8
0
  6
Continuous
 62
     7
370
    25
100
AcDbLine
 10
187.6598002296156
 20
216.5313292596892
 30
0.0
 11
188.3598002296156
 21
216.8451306749481
 31
0.0
  0
ARC
  5
9F
330
1F
100
AcDbEntity
  8
0
  6
Continuous
 62
     7
370
    25
100
AcDbCircle
 10
200.8424212772155
 20
217.451963294661
 30
0.0
 40
12.49736268363582
100
AcDbArc
 50
118.563248932235
 51
182.7831972417143
  0
LINE
  5
A0
330
1F
100
AcDbEntity
  8
0
  6
Continuous
 62
     7
370
    25
100
AcDbLine
 10
187.6598002296156
 20
177.8942962081265
 30
0.0
 11
188.3598002296156
 21
178.2080976233853
 31
0.0
  0
LWPOLYLINE
  5
A1
330
1F
100
AcDbEntity
  8
0
  6
Continuous
 62
     7
370
    25
100
AcDbPolyline
 90
       38
 70
   128
 43
0.0
 10
188.3598002296156
 20
178.2080976233853
 10
188.3795259097752
 20
177.4069896732825
 10
188.4386430440119
 20
176.6024194746934
 10
188.5369720955318
 20
175.7968304808679
 10
188.6742144422374
 20
174.9926692391027
 10
188.8499532836322
 20
174.1923779606594
 10
189.063654906631
 20
173.3983871038475
 10
189.3146703064284
 20
172.6131079928035
 10
189.6022371575051
 20
171.8389254943782
 10
189.925482128786
 20
171.0781907753745
 10
190.2834235359171
 20
170.333214162131
 10
190.6749743226091
 20
169.6062581241376
 10
191.0989453619922
 20
168.8995304029888
 10
191.5540490679539
 20
168.2151773075463
 10
192.0389033054972
 20
167.5552771956681
 10
192.552035588238
 20
166.9218341623059
 10
193.0918875502988
 20
166.3167719531321
 10
193.6568196790137
 20
165.7419281221903
 10
194.2451162940753
 20
165.1990484513015
 10
194.854990757999
 20
164.6897816481838
 10
195.4845909020822
 20
164.2156743393803
 10
196.1320046513804
 20
163.7781663732052
 10
196.7952658316153
 20
163.3785864469729
 10
197.4723601403815
 20
163.0181480717864
 10
198.1612312645172
 20
162.6979458871443
 10
198.8597871250593
 20
162.4189523365581
 10
199.5659062308185
 20
162.1820147142706
 10
200.2774441212782
 20
161.987852592054
 10
200.9922398792511
 20
161.8370556338915
 10
201.7081226935132
 20
161.7300818051892
 10
202.4229184514862
 20
161.6672559819489
 10
203.134456341946
 20
161.6487689641306
 10
203.8405754477051
 20
161.6746768962004
 10
204.5391313082472
 20
161.7449010966198
 10
205.2280024323829
 20
161.8592282968002
 10
205.9050967411492
 20
162.0173112887919
 10
206.568357921384
 20
162.2186699797444
 10
207.1332876793097
 20
162.4288711862155
  0
LINE
  5
A2
330
1F
100
AcDbEntity
  8
0
  6
Continuous
 62
     7
370
    25
100
AcDbLine
 10
188.3598002296156
 20
216.8451306749481
 30
0.0
 11
188.3598002296156
 21
178.2080976233853
 31
0.0
  0
LWPOLYLINE
  5
A3
330
1F
100
AcDbEntity
  8
0
  6
Continuous
 62
     7
370
    25
100
AcDbPolyline
 90
       27
 70
   128
 43
0.0
 10
194.8549907579989
 20
114.4523474954614
 10
194.8745221780441
 20
113.8880394515883
 10
194.9329989739215
 20
113.3212880919735
 10
195.0300694593001
 20
112.7555019259802
 10
195.165149840859
 20
112.1940836581837
 10
195.3374277292895
 20
111.6404097241056
 10
195.5458670250994
 20
111.0978099839332
 10
195.7892141498378
 20
110.5695476963482
 10
196.0660055852636
 20
110.0587998929062
 10
196.3745766751151
 20
109.5686382709938
 10
196.7130716365505
 20
109.1020107202797
 10
197.0794547210428
 20
108.6617235937593
 10
197.4715224576115
 20
108.2504248300177
 10
197.8869169047566
 20
107.8705880282155
 10
198.3231398313958
 20
107.5244975715718
 10
198.7775677415204
 20
107.2142348888151
 10
199.2474676522087
 20
106.9416659362269
 10
199.7300135301077
 20
106.7084299755596
 10
200.2223032875289
 20
106.5159297153239
 10
200.7213762359463
 20
106.3653228747356
 10
201.2242308919251
 20
106.257515221055
 10
201.727843028396
 20
106.1931551221965
 10
202.229183862713
 20
106.1726296473672
 10
202.7252382721087
 20
106.1960622391884
 10
203.2130229269969
 20
106.2633119712953
 10
203.6896042330683
 20
106.3739743958861
 10
204.0624293971647
 20
106.4938874494409
  0
ARC
  5
A4
330
1F
100
AcDbEntity
  8
0
  6
Continuous
 62
     7
370
    25
100
AcDbCircle
 10
201.1343412611936
 20
114.7431220300122
 30
0.0
 40
6.286079268662951
100
AcDbArc
 50
120.5632977964434
 51
182.6512711542032
  0
LINE
  5
A5
330
1F
100
AcDbEntity
  8
0
  6
Continuous
 62
     7
370
    25
100
AcDbLine
 10
152.3054089636386
 20
870.8349449493661
 30
0.0
 11
151.4904086230796
 21
870.5890106124372
 31
0.0
  0
LINE
  5
A6
330
1F
100
AcDbEntity
  8
0
  6
Continuous
 62
     7
370
    25
100
AcDbLine
 10
169.043472348133
 20
277.0118072511515
 30
0.0
 11
169.0434723481337
 21
868.3337887690103
 31
0.0
  0
LINE
  5
A7
330
1F
100
AcDbEntity
  8
0
  6
Continuous
 62
     7
370
    25
100
AcDbLine
 10
169.043472348133
 20
277.0118072511515
 30
0.0
 11
163.7444342424563
 21
275.4127705906422
 31
0.0
  0
LINE
  5
A8
330
1F
100
AcDbEntity
  8
0
  6
Continuous
 62
     7
370
    25
100
AcDbLine
 10
154.1399276759173
 20
272.5145166434693
 30
0.0
 11
163.7444342424563
 21
275.4127705906422
 31
0.0
  0
LINE
  5
A9
330
1F
100
AcDbEntity
  8
0
  6
Continuous
 62
     7
370
    25
100
AcDbLine
 10
154.1399276759173
 20
272.5145166434693
 30
0.0
 11
151.490408623079
 21
271.7149983132147
 31
0.0
  0
LINE
  5
AA
330
1F
100
AcDbEntity
  8
0
  6
Continuous
 62
     7
370
    25
100
AcDbLine
 10
151.490408623079
 20
271.7149983132147
 30
0.0
 11
151.4904086230788
 21
233.077965261652
 31
0.0
  0
LINE
  5
AB
330
1F
100
AcDbEntity
  8
0
  6
Continuous
 62
     7
370
    25
100
AcDbLine
 10
151.4904086230788
 20
233.077965261652
 30
0.0
 11
147.8473199254262
 21
231.9786275575519
 31
0.0
  0
LINE
  5
AC
330
1F
100
AcDbEntity
  8
0
  6
Continuous
 62
     7
370
    25
100
AcDbLine
 10
147.8473199254262
 20
231.9786275575519
 30
0.0
 11
147.847319925427
 21
908.1267059598998
 31
0.0
  0
LINE
  5
AD
330
1F
100
AcDbEntity
  8
0
  6
Continuous
 62
     7
370
    25
100
AcDbLine
 10
148.4086629678616
 20
908.2960967221617
 30
0.0
 11
147.847319925427
 21
908.1267059598998
 31
0.0
  0
LINE
  5
AE
330
1F
100
AcDbEntity
  8
0
  6
Continuous
 62
     7
370
    25
100
AcDbLine
 10
151.4904086230796
 20
870.5890106124372
 30
0.0
 11
151.4904086230797
 21
907.8355937945067
 31
0.0
  0
LINE
  5
AF
330
1F
100
AcDbEntity
  8
0
  6
Continuous
 62
     7
370
    25
100
AcDbLine
 10
147.847319925427
 20
908.1267059598998
 30
0.0
 11
145.2492437140738
 21
908.5149345275535
 31
0.0
  0
LWPOLYLINE
  5
B0
330
1F
100
AcDbEntity
  8
0
  6
Continuous
 62
     7
370
    25
100
AcDbPolyline
 90
        9
 70
   128
 43
0.0
 10
144.8832183102893
 20
908.8684879181468
 10
144.8023135845786
 20
908.8222730510637
 10
144.7577988527
 20
908.7728610600269
 10
144.7513847908351
 20
908.7221508201416
 10
144.7833178877846
 20
908.6720910974879
 10
144.852370972541
 20
908.6246056591334
 10
144.9558903737824
 20
908.5815193438444
 10
145.0898978989737
 20
908.5444879345538
 10
145.2492437140738
 20
908.5149345275535
  0
LINE
  5
B1
330
1F
100
AcDbEntity
  8
0
  6
Continuous
 62
     7
370
    25
100
AcDbLine
 10
144.8832183102893
 20
908.8684879181468
 30
0.0
 11
145.0609635235786
 21
908.9481689174119
 31
0.0
  0
LINE
  5
B2
330
1F
100
AcDbEntity
  8
0
  6
Continuous
 62
     7
370
    25
100
AcDbLine
 10
147.8473199254262
 20
231.9786275575519
 30
0.0
 11
145.2492437140729
 21
232.3668561252056
 31
0.0
  0
LINE
  5
B3
330
1F
100
AcDbEntity
  8
0
  6
Continuous
 62
     7
370
    25
100
AcDbLine
 10
145.2492437140738
 20
908.5149345275535
 30
0.0
 11
145.2492437140729
 21
232.3668561252056
 31
0.0
  0
LWPOLYLINE
  5
B4
330
1F
100
AcDbEntity
  8
0
  6
Continuous
 62
     7
370
    25
100
AcDbPolyline
 90
        7
 70
   128
 43
0.0
 10
145.2492437140729
 20
232.3668561252056
 10
145.0898978989728
 20
232.396409532206
 10
144.9558903737816
 20
232.4334409414964
 10
144.8523709725401
 20
232.4765272567856
 10
144.7833178877838
 20
232.52401269514
 10
144.7513847908343
 20
232.5740724177935
 10
144.7492437140729
 20
232.5909999932483
  0
LINE
  5
B5
330
1F
100
AcDbEntity
  8
0
  6
Continuous
 62
     7
370
    25
100
AcDbLine
 10
163.7444342424563
 20
275.4127705906422
 30
0.0
 11
156.4944342424563
 21
272.1626845040332
 31
0.0
  0
LINE
  5
B6
330
1F
100
AcDbEntity
  8
0
  6
Continuous
 62
     7
370
    25
100
AcDbLine
 10
168.2840362656128
 20
236.8789338001847
 30
0.0
 11
156.4944342424562
 21
231.5937997998922
 31
0.0
  0
LINE
  5
B7
330
1F
100
AcDbEntity
  8
0
  6
Continuous
 62
     7
370
    25
100
AcDbLine
 10
156.4944342424563
 20
272.1626845040332
 30
0.0
 11
156.4944342424562
 21
231.5937997998922
 31
0.0
  0
LINE
  5
B8
330
1F
100
AcDbEntity
  8
0
  6
Continuous
 62
     7
370
    25
100
AcDbLine
 10
157.4944342424563
 20
269.7131947612499
 30
0.0
 11
168.2840362656128
 21
274.5500410254584
 31
0.0
  0
LINE
  5
B9
330
1F
100
AcDbEntity
  8
0
  6
Continuous
 62
     7
370
    25
100
AcDbLine
 10
157.4944342424563
 20
269.7131947612499
 30
0.0
 11
157.4944342424562
 21
234.9398650148433
 31
0.0
  0
LINE
  5
BA
330
1F
100
AcDbEntity
  8
0
  6
Continuous
 62
     7
370
    25
100
AcDbLine
 10
157.4944342424562
 20
234.9398650148433
 30
0.0
 11
168.2840362656128
 21
239.7767112790519
 31
0.0
  0
LINE
  5
BB
330
1F
100
AcDbEntity
  8
0
  6
Continuous
 62
     7
370
    25
100
AcDbLine
 10
169.4732667501426
 20
277.2044788106101
 30
0.0
 11
169.043472348133
 21
277.0118072511515
 31
0.0
  0
LINE
  5
BC
330
1F
100
AcDbEntity
  8
0
  6
Continuous
 62
     7
370
    25
100
AcDbLine
 10
151.4965766421914
 20
271.716859573407
 30
0.0
 11
151.4965766421913
 21
234.2724775421014
 31
0.0
  0
LINE
  5
BD
330
1F
100
AcDbEntity
  8
0
  6
Continuous
 62
     7
370
    25
100
AcDbLine
 10
151.4904086230788
 20
234.2706162819091
 30
0.0
 11
151.4965766421913
 21
234.2724775421014
 31
0.0
  0
LINE
  5
BE
330
1F
100
AcDbEntity
  8
0
  6
Continuous
 62
     7
370
    25
100
AcDbLine
 10
156.4944342424563
 20
272.1626845040332
 30
0.0
 11
154.1399276759173
 21
272.5145166434693
 31
0.0
  0
LINE
  5
BF
330
1F
100
AcDbEntity
  8
0
  6
Continuous
 62
     7
370
    25
100
AcDbLine
 10
156.4944342424562
 20
231.5937997998922
 30
0.0
 11
153.8963580311029
 21
231.9820283675459
 31
0.0
  0
LINE
  5
C0
330
1F
100
AcDbEntity
  8
0
  6
Continuous
 62
     7
370
    25
100
AcDbLine
 10
153.8963580311029
 20
231.9820283675459
 30
0.0
 11
153.8963580311029
 21
233.9138800201241
 31
0.0
  0
LINE
  5
C1
330
1F
100
AcDbEntity
  8
0
  6
Continuous
 62
     7
370
    25
100
AcDbLine
 10
153.8963580311029
 20
233.9138800201241
 30
0.0
 11
151.4965766421913
 21
234.2724775421014
 31
0.0
  0
LINE
  5
C2
330
1F
100
AcDbEntity
  8
0
  6
Continuous
 62
     7
370
    25
100
AcDbLine
 10
162.607766900975
 20
238.5092316898783
 30
0.0
 11
162.6077669009751
 21
272.0054390825816
 31
0.0
  0
LINE
  5
C3
330
1F
100
AcDbEntity
  8
0
  6
Continuous
 62
     7
370
    25
100
AcDbLine
 10
157.4944342424562
 20
236.9489666707848
 30
0.0
 11
162.607766900975
 21
238.5092316898783
 31
0.0
  0
LINE
  5
C4
330
1F
100
AcDbEntity
  8
0
  6
Continuous
 62
     7
370
    25
100
AcDbLine
 10
162.607766900975
 20
238.5092316898783
 30
0.0
 11
166.6077669009751
 21
240.3023826342144
 31
0.0
  0
LINE
  5
C5
330
1F
100
AcDbEntity
  8
0
  6
Continuous
 62
     7
370
    25
100
AcDbLine
 10
166.6077669009751
 20
240.3023826342144
 30
0.0
 11
168.2840362656128
 21
240.0518989680342
 31
0.0
  0
LINE
  5
C6
330
1F
100
AcDbEntity
  8
0
  6
Continuous
 62
     7
370
    25
100
AcDbLine
 10
166.6077669009751
 20
240.3023826342144
 30
0.0
 11
166.6077669009751
 21
273.7985900269178
 31
0.0
  0
LWPOLYLINE
  5
C7
330
1F
100
AcDbEntity
  8
0
  6
Continuous
 62
     7
370
    25
100
AcDbPolyline
 90
        8
 70
   128
 43
0.0
 10
283.5575554584561
 20
923.4117882723878
 10
283.6384601841667
 20
923.4580031394709
 10
283.6829749160453
 20
923.5074151305079
 10
283.6893889779103
 20
923.5581253703932
 10
283.6574558809606
 20
923.6081850930467
 10
283.5884027962042
 20
923.6556705314011
 10
283.4848833949629
 20
923.6987568466903
 10
283.3889781007728
 20
923.7266766715733
  0
LINE
  5
C8
330
1F
100
AcDbEntity
  8
0
  6
Continuous
 62
     7
370
    25
100
AcDbLine
 10
282.0575554584561
 20
922.7393566682618
 30
0.0
 11
283.5575554584561
 21
923.4117882723878
 31
0.0
  0
LINE
  5
C9
330
1F
100
AcDbEntity
  8
0
  6
Continuous
 62
     7
370
    25
100
AcDbLine
 10
282.0575554584561
 20
922.7393566682618
 30
0.0
 11
281.1042001556474
 21
922.673241140409
 31
0.0
  0
LINE
  5
CA
330
1F
100
AcDbEntity
  8
0
  6
Continuous
 62
     7
370
    25
100
AcDbLine
 10
227.3723898434409
 20
898.5859295398533
 30
0.0
 11
226.0575554584559
 21
897.635243447556
 31
0.0
  0
LINE
  5
CB
330
1F
100
AcDbEntity
  8
0
  6
Continuous
 62
     7
370
    25
100
AcDbLine
 10
224.5575554584559
 20
896.9628118434301
 30
0.0
 11
226.0575554584559
 21
897.635243447556
 31
0.0
  0
ARC
  5
CC
330
1F
100
AcDbEntity
  8
0
  6
Continuous
 62
     7
370
    25
100
AcDbCircle
 10
223.6776484387827
 20
899.7545695789346
 30
0.0
 40
2.927139835576455
100
AcDbArc
 50
260.4404372344354
 51
287.4938243672456
  0
LINE
  5
CD
330
1F
100
AcDbEntity
  8
0
  6
Continuous
 62
     7
370
    25
100
AcDbLine
 10
220.5934538433182
 20
897.2563060655933
 30
0.0
 11
223.1915300546714
 21
896.8680774979395
 31
0.0
  0
LINE
  5
CE
330
1F
100
AcDbEntity
  8
0
  6
Continuous
 62
     7
370
    25
100
AcDbLine
 10
220.8795748594401
 20
897.4668230475546
 30
0.0
 11
220.5934538433182
 21
897.2563060655933
 31
0.0
  0
LINE
  5
CF
330
1F
100
AcDbEntity
  8
0
  6
Continuous
 62
     7
370
    25
100
AcDbLine
 10
224.5575554584559
 20
896.9628118434301
 30
0.0
 11
224.5575554584566
 21
220.814733441083
 31
0.0
  0
ARC
  5
D0
330
1F
100
AcDbEntity
  8
0
  6
Continuous
 62
     7
370
    25
100
AcDbCircle
 10
223.677648438784
 20
223.6064911765837
 30
0.0
 40
2.927139835572807
100
AcDbArc
 50
260.4404372344121
 51
287.4938243672571
  0
LINE
  5
D1
330
1F
100
AcDbEntity
  8
0
  6
Continuous
 62
     7
370
    25
100
AcDbLine
 10
223.1915300546722
 20
220.7199990955924
 30
0.0
 11
223.1915300546714
 21
896.8680774979395
 31
0.0
  0
LINE
  5
D2
330
1F
100
AcDbEntity
  8
0
  6
Continuous
 62
     7
370
    25
100
AcDbLine
 10
220.5934538433182
 20
897.2563060655933
 30
0.0
 11
220.5934538433189
 21
221.1082276632461
 31
0.0
  0
LINE
  5
D3
330
1F
100
AcDbEntity
  8
0
  6
Continuous
 62
     7
370
    25
100
AcDbLine
 10
220.5934538433189
 20
221.1082276632461
 30
0.0
 11
223.1915300546722
 21
220.7199990955924
 31
0.0
  0
LINE
  5
D4
330
1F
100
AcDbEntity
  8
0
  6
Continuous
 62
     7
370
    25
100
AcDbLine
 10
226.0575554584566
 20
221.4871650452091
 30
0.0
 11
226.0575554584559
 21
897.635243447556
 31
0.0
  0
LINE
  5
D5
330
1F
100
AcDbEntity
  8
0
  6
Continuous
 62
     7
370
    25
100
AcDbLine
 10
224.5575554584566
 20
220.814733441083
 30
0.0
 11
226.0575554584566
 21
221.4871650452091
 31
0.0
  0
LINE
  5
D6
330
1F
100
AcDbEntity
  8
0
  6
Continuous
 62
     7
370
    25
100
AcDbLine
 10
233.5934538433189
 20
226.9359682323383
 30
0.0
 11
233.5934538433182
 21
901.3747562363923
 31
0.0
  0
LINE
  5
D7
330
1F
100
AcDbEntity
  8
0
  6
Continuous
 62
     7
370
    25
100
AcDbLine
 10
233.5934538433189
 20
226.9359682323383
 30
0.0
 11
226.0575554584566
 21
221.4871650452091
 31
0.0
  0
LINE
  5
D8
330
1F
100
AcDbEntity
  8
0
  6
Continuous
 62
     7
370
    25
100
AcDbLine
 10
276.593453843319
 20
246.2123408839515
 30
0.0
 11
276.5934538433182
 21
920.6511288880055
 31
0.0
  0
LINE
  5
D9
330
1F
100
AcDbEntity
  8
0
  6
Continuous
 62
     7
370
    25
100
AcDbLine
 10
276.593453843319
 20
246.2123408839515
 30
0.0
 11
233.5934538433189
 21
226.9359682323383
 31
0.0
  0
LWPOLYLINE
  5
DA
330
1F
100
AcDbEntity
  8
0
  6
Continuous
 62
     7
370
    25
100
AcDbPolyline
 90
       64
 70
   128
 43
0.0
 10
258.8434538433189
 20
248.8804176576396
 10
258.832273087891
 20
249.3081936573282
 10
258.7988419409781
 20
249.7216938358684
 10
258.7434926563377
 20
250.1168086427128
 10
258.6667753200273
 20
250.4896112493984
 10
258.5694523834019
 20
250.836396576131
 10
258.4524910855299
 20
251.1537181145337
 10
258.3170538403365
 20
251.4384221805948
 10
258.1644866840125
 20
251.6876792573975
 10
257.996305897501
 20
251.8990121161286
 10
257.8141829370168
 20
252.0703204358928
 10
257.6199278223635
 20
252.1999016776447
 10
257.4154711481432
 20
252.286468004787
 10
257.2028448966407
 20
252.3291590822689
 10
256.9841622430694
 20
252.3275506269826
 10
256.7615965538883
 20
252.2816586244795
 10
256.5373597869082
 20
252.1919391700982
 10
256.313680507862
 20
252.0592839360845
 10
256.0927817419171
 20
251.885011309752
 10
255.8768588802525
 20
251.6708532907565
 10
255.6680578612749
 20
251.4189382777055
 10
255.4684538433189
 20
251.1317699151762
 10
255.2800305807907
 20
250.8122022113715
 10
255.1046607087259
 20
250.4634111737033
 10
254.9440871317018
 20
250.0888632442054
 10
254.7999057020673
 20
249.6922808484739
 10
254.6735493596465
 20
249.27760540053
 10
254.5662738905384
 20
248.848958131276
 10
254.4791454465505
 20
248.410599129852
 10
254.4130299493034
 20
247.9668850049551
 10
254.3685844843123
 20
247.5222255869058
 10
254.3462507705762
 20
247.0810401007723
 10
254.3462507705762
 20
246.6477132461272
 10
254.3685844843123
 20
246.2265516199317
 10
254.4130299493035
 20
245.8217409156425
 10
254.4791454465506
 20
245.4373043239079
 10
254.5662738905384
 20
245.0770625482914
 10
254.6735493596465
 20
244.7445958334051
 10
254.7999057020673
 20
244.4432083828283
 10
254.9440871317018
 20
244.1758955204494
 10
255.1046607087259
 20
243.9453139215897
 10
255.2800305807907
 20
243.7537552097721
 10
255.4684538433189
 20
243.6031231815359
 10
255.668057861275
 20
243.4949148856522
 10
255.8768588802525
 20
243.4302057447801
 10
256.0927817419171
 20
243.4096388674334
 10
256.313680507862
 20
243.4334186564794
 10
256.5373597869082
 20
243.5013087776907
 10
256.7615965538883
 20
243.6126345085422
 10
256.9841622430694
 20
243.766289443905
 10
257.2028448966407
 20
243.9607464919993
 10
257.4154711481434
 20
244.1940730513174
 10
257.6199278223635
 20
244.4639502176867
 10
257.8141829370168
 20
244.76769583058
 10
257.996305897501
 20
245.1022911296328
 10
258.1644866840126
 20
245.4644107564401
 10
258.3170538403365
 20
245.8504558034612
 10
258.4524910855299
 20
246.2565895815808
 10
258.5694523834019
 20
246.6787757508485
 10
258.6667753200274
 20
247.1128184354389
 10
258.7434926563377
 20
247.5544039241503
 10
258.7988419409781
 20
247.9991435420056
 10
258.832273087891
 20
248.4426172668744
 10
258.8434538433189
 20
248.8804176576396
  0
LWPOLYLINE
  5
DB
330
1F
100
AcDbEntity
  8
0
  6
Continuous
 62
     7
370
    25
100
AcDbPolyline
 90
       64
 70
   128
 43
0.0
 10
258.8434538433182
 20
903.7781278816275
 10
258.8322730878904
 20
904.2059038813162
 10
258.7988419409774
 20
904.6194040598563
 10
258.743492656337
 20
905.0145188667008
 10
258.6667753200266
 20
905.3873214733864
 10
258.5694523834013
 20
905.7341068001189
 10
258.4524910855292
 20
906.0514283385215
 10
258.317053840336
 20
906.3361324045828
 10
258.1644866840119
 20
906.5853894813855
 10
257.9963058975003
 20
906.7967223401164
 10
257.8141829370163
 20
906.9680306598806
 10
257.6199278223629
 20
907.0976119016326
 10
257.4154711481426
 20
907.1841782287751
 10
257.20284489664
 20
907.2268693062568
 10
256.9841622430689
 20
907.2252608509708
 10
256.7615965538877
 20
907.1793688484676
 10
256.5373597869075
 20
907.0896493940862
 10
256.3136805078614
 20
906.9569941600724
 10
256.0927817419166
 20
906.7827215337401
 10
255.876858880252
 20
906.5685635147446
 10
255.6680578612743
 20
906.3166485016935
 10
255.4684538433183
 20
906.0294801391641
 10
255.28003058079
 20
905.7099124353593
 10
255.1046607087252
 20
905.3611213976911
 10
254.9440871317011
 20
904.9865734681933
 10
254.7999057020666
 20
904.5899910724619
 10
254.6735493596458
 20
904.1753156245178
 10
254.5662738905378
 20
903.7466683552642
 10
254.4791454465499
 20
903.30830935384
 10
254.4130299493028
 20
902.8645952289431
 10
254.3685844843117
 20
902.4199358108937
 10
254.3462507705756
 20
901.9787503247604
 10
254.3462507705756
 20
901.5454234701152
 10
254.3685844843117
 20
901.1242618439197
 10
254.4130299493028
 20
900.7194511396307
 10
254.4791454465499
 20
900.3350145478956
 10
254.5662738905378
 20
899.9747727722794
 10
254.6735493596458
 20
899.6423060573931
 10
254.7999057020667
 20
899.3409186068164
 10
254.9440871317011
 20
899.0736057444373
 10
255.1046607087254
 20
898.8430241455777
 10
255.28003058079
 20
898.6514654337601
 10
255.4684538433183
 20
898.5008334055238
 10
255.6680578612745
 20
898.3926251096401
 10
255.876858880252
 20
898.327915968768
 10
256.0927817419166
 20
898.3073490914215
 10
256.3136805078614
 20
898.3311288804672
 10
256.5373597869075
 20
898.3990190016788
 10
256.7615965538877
 20
898.5103447325301
 10
256.9841622430689
 20
898.6639996678929
 10
257.20284489664
 20
898.8584567159872
 10
257.4154711481427
 20
899.0917832753054
 10
257.6199278223629
 20
899.3616604416746
 10
257.8141829370163
 20
899.665406054568
 10
257.9963058975003
 20
900.0000013536211
 10
258.1644866840119
 20
900.3621209804281
 10
258.317053840336
 20
900.7481660274492
 10
258.4524910855292
 20
901.1542998055687
 10
258.5694523834013
 20
901.5764859748366
 10
258.6667753200267
 20
902.0105286594268
 10
258.7434926563371
 20
902.4521141481383
 10
258.7988419409774
 20
902.8968537659936
 10
258.8322730878904
 20
903.3403274908623
 10
258.8434538433182
 20
903.7781278816275
  0
ARC
  5
DC
330
1F
100
AcDbEntity
  8
0
  6
Continuous
 62
     7
370
    25
100
AcDbCircle
 10
252.4054867843745
 20
904.3640311668763
 30
0.0
 40
4.717269534922307
100
AcDbArc
 50
356.0240568293896
 51
33.56689061225376
  0
ARC
  5
DD
330
1F
100
AcDbEntity
  8
0
  6
Continuous
 62
     7
370
    25
100
AcDbCircle
 10
250.38683338217
 20
903.6215015852666
 30
0.0
 40
6.737390582234704
100
AcDbArc
 50
314.6147580176371
 51
3.53525221917549
  0
LWPOLYLINE
  5
DE
330
1F
100
AcDbEntity
  8
0
  6
Continuous
 62
     7
370
    25
100
AcDbPolyline
 90
       16
 70
   128
 43
0.0
 10
256.1114030357493
 20
903.5886591906461
 10
256.1002498959429
 20
903.2617960935946
 10
256.0669895045673
 20
902.9307662446653
 10
256.0122153940949
 20
902.6014768793547
 10
255.9369050098246
 20
902.2798041741875
 10
255.8424022673476
 20
901.9714883862083
 10
255.7303935703426
 20
901.6820314179575
 10
255.6028777166611
 20
901.4165986358911
 10
255.4621302297327
 20
901.1799266942929
 10
255.3106627517962
 20
900.9762390095683
 10
255.1511782235837
 20
900.8091703932761
 10
254.9865226502795
 20
900.6817021888318
 10
254.8196343144897
 20
900.5961090693639
 10
254.6534913425205
 20
900.5539184461171
 10
254.4910585596423
 20
900.5558832117625
 10
254.4362729842398
 20
900.5668567409754
  0
LWPOLYLINE
  5
DF
330
1F
100
AcDbEntity
  8
0
  6
Continuous
 62
     7
370
    25
100
AcDbPolyline
 90
       11
 70
   128
 43
0.0
 10
255.1743998916092
 20
905.5064982789125
 10
255.3106627517963
 20
905.4831552735546
 10
255.4621302297327
 20
905.4152696143789
 10
255.6028777166611
 20
905.3047884173301
 10
255.7303935703428
 20
905.1536832219871
 10
255.8424022673476
 20
904.9646505041406
 10
255.9369050098246
 20
904.7410635571188
 10
256.0122153940949
 20
904.4869122952881
 10
256.0669895045673
 20
904.2067320539367
 10
256.1002498959429
 20
903.9055226561094
 10
256.1114030357493
 20
903.5886591906461
  0
LINE
  5
E0
330
1F
100
AcDbEntity
  8
0
  6
Continuous
 62
     7
370
    25
100
AcDbLine
 10
282.0575554584568
 20
246.5912782659146
 30
0.0
 11
282.0575554584561
 21
922.7393566682618
 31
0.0
  0
LINE
  5
E1
330
1F
100
AcDbEntity
  8
0
  6
Continuous
 62
     7
370
    25
100
AcDbLine
 10
282.0575554584568
 20
246.5912782659146
 30
0.0
 11
276.593453843319
 21
246.2123408839515
 31
0.0
  0
LINE
  5
E2
330
1F
100
AcDbEntity
  8
0
  6
Continuous
 62
     7
370
    25
100
AcDbLine
 10
283.5575554584566
 20
247.2637098700406
 30
0.0
 11
283.5575554584561
 21
923.4117882723878
 31
0.0
  0
LINE
  5
E3
330
1F
100
AcDbEntity
  8
0
  6
Continuous
 62
     7
370
    25
100
AcDbLine
 10
282.0575554584568
 20
246.5912782659146
 30
0.0
 11
283.5575554584566
 21
247.2637098700406
 31
0.0
  0
ARC
  5
E4
330
1F
100
AcDbEntity
  8
0
  6
Continuous
 62
     7
370
    25
100
AcDbCircle
 10
283.5222758120587
 20
247.4342891630061
 30
0.0
 40
0.1741894044957757
100
AcDbArc
 50
281.6853038368184
 51
346.3287505547465
  0
LINE
  5
E5
330
1F
100
AcDbEntity
  8
0
  6
Continuous
 62
     7
370
    25
100
AcDbLine
 10
273.0444157376423
 20
243.4659561090111
 30
0.0
 11
273.0444157376423
 21
244.6213506262818
 31
0.0
  0
LINE
  5
E6
330
1F
100
AcDbEntity
  8
0
  6
Continuous
 62
     7
370
    25
100
AcDbLine
 10
229.3883268243966
 20
223.8954668438095
 30
0.0
 11
273.0444157376423
 21
243.4659561090111
 31
0.0
  0
ARC
  5
E7
330
1F
100
AcDbEntity
  8
0
  6
Continuous
 62
     7
370
    25
100
AcDbCircle
 10
252.4054867844021
 20
249.4663209428915
 30
0.0
 40
4.71726953489569
100
AcDbArc
 50
356.0240568293284
 51
33.56689061269818
  0
ARC
  5
E8
330
1F
100
AcDbEntity
  8
0
  6
Continuous
 62
     7
370
    25
100
AcDbCircle
 10
250.3868333821999
 20
248.7237913612734
 30
0.0
 40
6.737390582205843
100
AcDbArc
 50
314.6147580172834
 51
3.535252219234235
  0
LWPOLYLINE
  5
E9
330
1F
100
AcDbEntity
  8
0
  6
Continuous
 62
     7
370
    25
100
AcDbPolyline
 90
       16
 70
   128
 43
0.0
 10
256.11140303575
 20
248.690948966658
 10
256.1002498959435
 20
248.3640858696065
 10
256.066989504568
 20
248.0330560206774
 10
256.0122153940956
 20
247.7037666553666
 10
255.9369050098251
 20
247.3820939501995
 10
255.8424022673484
 20
247.0737781622203
 10
255.7303935703432
 20
246.7843211939694
 10
255.6028777166617
 20
246.5188884119032
 10
255.4621302297333
 20
246.2822164703049
 10
255.3106627517969
 20
246.0785287855803
 10
255.1511782235844
 20
245.911460169288
 10
254.9865226502801
 20
245.7839919648438
 10
254.8196343144904
 20
245.6983988453762
 10
254.6534913425211
 20
245.6562082221291
 10
254.4910585596429
 20
245.6581729877745
 10
254.4362729872882
 20
245.6691465162242
  0
LWPOLYLINE
  5
EA
330
1F
100
AcDbEntity
  8
0
  6
Continuous
 62
     7
370
    25
100
AcDbPolyline
 90
       11
 70
   128
 43
0.0
 10
255.1743998947016
 20
250.6087880547659
 10
255.3106627517969
 20
250.5854450495668
 10
255.4621302297333
 20
250.517559390391
 10
255.6028777166617
 20
250.4070781933421
 10
255.7303935703433
 20
250.2559729979991
 10
255.8424022673484
 20
250.0669402801526
 10
255.9369050098251
 20
249.8433533331308
 10
256.0122153940956
 20
249.5892020713001
 10
256.066989504568
 20
249.3090218299487
 10
256.1002498959435
 20
249.0078124321214
 10
256.11140303575
 20
248.690948966658
  0
ARC
  5
EB
330
1F
100
AcDbEntity
  8
0
  6
Continuous
 62
     7
370
    25
100
AcDbCircle
 10
223.8268038413165
 20
902.4936104001307
 30
0.0
 40
2.875587981133918
100
AcDbArc
 50
258.9183387720918
 51
274.0823817966887
  0
ARC
  5
EC
330
1F
100
AcDbEntity
  8
0
  6
Continuous
 62
     7
370
    25
100
AcDbCircle
 10
224.6648735536194
 20
899.8324146593922
 30
0.0
 40
1.400042326019839
100
AcDbArc
 50
129.5492970333953
 51
186.5941428440237
  0
ARC
  5
ED
330
1F
100
AcDbEntity
  8
0
  6
Continuous
 62
     7
370
    25
100
AcDbCircle
 10
223.5381703338922
 20
899.8351196498287
 30
0.0
 40
1.102230183107113
100
AcDbArc
 50
356.4174183992411
 51
77.67716934775996
  0
ARC
  5
EE
330
1F
100
AcDbEntity
  8
0
  6
Continuous
 62
     7
370
    25
100
AcDbCircle
 10
223.9846433957827
 20
901.2036652649616
 30
0.0
 40
1.579042608514345
100
AcDbArc
 50
271.701139714285
 51
294.4515531125767
  0
LINE
  5
EF
330
1F
100
AcDbEntity
  8
0
  6
Continuous
 62
     7
370
    25
100
AcDbLine
 10
224.6382465069816
 20
899.7662444732188
 30
0.0
 11
224.5998813498341
 21
897.8714507167566
 31
0.0
  0
ARC
  5
F0
330
1F
100
AcDbEntity
  8
0
  6
Continuous
 62
     7
370
    25
100
AcDbCircle
 10
223.7628666397093
 20
900.0582834590808
 30
0.0
 40
2.341544590193934
100
AcDbArc
 50
256.989812029726
 51
290.94444957188
  0
LINE
  5
F1
330
1F
100
AcDbEntity
  8
0
  6
Continuous
 62
     7
370
    25
100
AcDbLine
 10
223.2357280363909
 20
897.7768462013947
 30
0.0
 11
223.2740931935363
 21
899.671639957856
 31
0.0
  0
LINE
  5
F2
330
1F
100
AcDbEntity
  8
0
  6
Continuous
 62
     7
370
    25
100
AcDbLine
 10
145.061865016643
 20
911.3588341923584
 30
0.0
 11
223.2740931935363
 21
899.671639957856
 31
0.0
  0
ARC
  5
F3
330
1F
100
AcDbEntity
  8
0
  6
Continuous
 62
     7
370
    25
100
AcDbCircle
 10
146.4526453767319
 20
911.5196088938923
 30
0.0
 40
1.400042326025402
100
AcDbArc
 50
129.5492970335179
 51
186.5941428439038
  0
LINE
  5
F4
330
1F
100
AcDbEntity
  8
0
  6
Continuous
 62
     7
370
    25
100
AcDbLine
 10
145.5611797840207
 20
912.5991493570872
 30
0.0
 11
223.7734079609142
 21
900.9119551225846
 31
0.0
  0
ARC
  5
F5
330
1F
100
AcDbEntity
  8
0
  6
Continuous
 62
     7
370
    25
100
AcDbCircle
 10
223.7288014049789
 20
897.8910290056634
 30
0.0
 40
0.8712999367185619
100
AcDbArc
 50
313.7371353610175
 51
358.7124436763217
  0
LINE
  5
F6
330
1F
100
AcDbEntity
  8
0
  6
Continuous
 62
     7
370
    25
100
AcDbLine
 10
145.2050457323494
 20
909.4369121731185
 30
0.0
 11
223.2357280363909
 21
897.7768462013947
 31
0.0
  0
LINE
  5
F7
330
1F
100
AcDbEntity
  8
0
  6
Continuous
 62
     7
370
    25
100
AcDbLine
 10
145.061865016643
 20
911.3588341923584
 30
0.0
 11
145.2050457323494
 21
909.4369121731185
 31
0.0
  0
LINE
  5
F8
330
1F
100
AcDbEntity
  8
0
  6
Continuous
 62
     7
370
    25
100
AcDbLine
 10
224.6382465069816
 20
899.7662444732188
 30
0.0
 11
283.794097498833
 21
926.2850869904795
 31
0.0
  0
LINE
  5
F9
330
1F
100
AcDbEntity
  8
0
  6
Continuous
 62
     7
370
    25
100
AcDbLine
 10
223.7734079609142
 20
900.9119551225846
 30
0.0
 11
282.9292589527643
 21
927.4307976398451
 31
0.0
  0
ARC
  5
FA
330
1F
100
AcDbEntity
  8
0
  6
Continuous
 62
     7
370
    25
100
AcDbCircle
 10
282.6940213257465
 20
926.3539621670915
 30
0.0
 40
1.10223018310425
100
AcDbArc
 50
356.4174183991251
 51
77.67716934795087
  0
LINE
  5
FB
330
1F
100
AcDbEntity
  8
0
  6
Continuous
 62
     7
370
    25
100
AcDbLine
 10
283.6509167831233
 20
924.3433057045637
 30
0.0
 11
283.794097498833
 21
926.2850869904795
 31
0.0
  0
LINE
  5
FC
330
1F
100
AcDbEntity
  8
0
  6
Continuous
 62
     7
370
    25
100
AcDbLine
 10
224.5998813498341
 20
897.8714507167566
 30
0.0
 11
283.6509167831233
 21
924.3433057045637
 31
0.0
  0
LINE
  5
FD
330
1F
100
AcDbEntity
  8
0
  6
Continuous
 62
     7
370
    25
100
AcDbLine
 10
204.7170307758707
 20
939.1179918743475
 30
0.0
 11
145.5611797840207
 21
912.5991493570872
 31
0.0
  0
LINE
  5
FE
330
1F
100
AcDbEntity
  8
0
  6
Continuous
 62
     7
370
    25
100
AcDbLine
 10
282.9292589527643
 20
927.4307976398451
 30
0.0
 11
204.7170307758707
 21
939.1179918743475
 31
0.0
  0
ARC
  5
FF
330
1F
100
AcDbEntity
  8
0
  6
Continuous
 62
     7
370
    25
100
AcDbCircle
 10
146.2770267856914
 20
909.412360434828
 30
0.0
 40
1.072262172501391
100
AcDbArc
 50
178.6879757889161
 51
211.2341429850292
  0
ARC
  5
100
330
1F
100
AcDbEntity
  8
0
  6
Continuous
 62
     7
370
    25
100
AcDbCircle
 10
145.6173177310342
 20
909.022135796546
 30
0.0
 40
0.3059444803511159
100
AcDbArc
 50
212.8111280237821
 51
258.5477592977031
  0
LINE
  5
101
330
1F
100
AcDbEntity
  8
0
  6
Continuous
 62
     7
370
    25
100
AcDbLine
 10
151.6287602313462
 20
870.9360560588074
 30
0.0
 11
220.5934538433182
 21
860.6307139357929
 31
0.0
  0
ARC
  5
102
330
1F
100
AcDbEntity
  8
0
  6
Continuous
 62
     7
370
    25
100
AcDbCircle
 10
145.0627686327245
 20
912.2203230545709
 30
0.0
 40
0.8614893361142207
100
AcDbArc
 50
237.3425660052512
 51
269.9399024513771
  0
ELLIPSE
  5
103
330
1F
100
AcDbEntity
  8
0
  6
Continuous
 62
     7
370
    25
100
AcDbEllipse
 10
152.0290322184217
 20
871.1153669300408
 30
0.0
 11
0.8002273833570683
 21
3.379650067358854E-5
 31
0.0
210
0.0
220
0.0
230
1.0
 40
0.2587507794790444
 41
3.974001467213538
 42
4.188550846969891
  0
LINE
  5
104
330
1F
100
AcDbEntity
  8
0
  6
Continuous
 62
     8
370
    25
100
AcDbLine
 10
232.8663263071354
 20
225.4546113580276
 30
0.0
 11
232.8663263071354
 21
93.8650530278295
 31
0.0
  0
LINE
  5
105
330
1F
100
AcDbEntity
  8
0
  6
Continuous
 62
     8
370
    25
100
AcDbLine
 10
233.2761339283147
 20
225.638323088756
 30
0.0
 11
233.2761339283147
 21
93.8934733314797
 31
0.0
  0
LINE
  5
106
330
1F
100
AcDbEntity
  8
0
  6
Continuous
 62
     8
370
    25
100
AcDbLine
 10
168.4340362656289
 20
276.8279039429046
 30
0.0
 11
168.4340362656289
 21
103.493121505635
 31
0.0
  0
LINE
  5
107
330
1F
100
AcDbEntity
  8
0
  6
Continuous
 62
     8
370
    25
100
AcDbLine
 10
270.4761339282825
 20
242.3146268710674
 30
0.0
 11
270.4761339282825
 21
110.569777113791
 31
0.0
  0
LINE
  5
108
330
1F
100
AcDbEntity
  8
0
  6
Continuous
 62
     8
370
    25
100
AcDbLine
 10
199.4036515078718
 20
441.5645775645991
 30
0.0
 11
199.4036515078718
 21
433.0436609272886
 31
0.0
  0
LINE
  5
109
330
1F
100
AcDbEntity
  8
0
  6
Continuous
 62
     8
370
    25
100
AcDbLine
 10
199.4036515078718
 20
229.1984812948238
 30
0.0
 11
199.4036515078718
 21
162.2325203007775
 31
0.0
  0
LINE
  5
10A
330
1F
100
AcDbEntity
  8
0
  6
Continuous
 62
     8
370
    25
100
AcDbLine
 10
199.4036515078718
 20
120.4640222380002
 30
0.0
 11
199.4036515078718
 21
116.8070183107645
 31
0.0
  0
LINE
  5
10B
330
1F
100
AcDbEntity
  8
0
  6
Continuous
 62
     8
370
    25
100
AcDbLine
 10
199.5134591290071
 20
441.583230299162
 30
0.0
 11
199.5134591290071
 21
432.9677662377666
 31
0.0
  0
LINE
  5
10C
330
1F
100
AcDbEntity
  8
0
  6
Continuous
 62
     8
370
    25
100
AcDbLine
 10
199.5134591290071
 20
229.19335525342
 30
0.0
 11
199.5134591290071
 21
162.1980850964562
 31
0.0
  0
LINE
  5
10D
330
1F
100
AcDbEntity
  8
0
  6
Continuous
 62
     8
370
    25
100
AcDbLine
 10
199.5134591290071
 20
120.4704721253883
 30
0.0
 11
199.5134591290071
 21
116.8354386144117
 31
0.0
  0
LINE
  5
10E
330
1F
100
AcDbEntity
  8
0
  6
Continuous
 62
     8
370
    25
100
AcDbLine
 10
200.7598692905208
 20
441.5648152221788
 30
0.0
 11
200.7598692905208
 21
432.3705983728731
 31
0.0
  0
LINE
  5
10F
330
1F
100
AcDbEntity
  8
0
  6
Continuous
 62
     8
370
    25
100
AcDbLine
 10
200.7598692905208
 20
229.0621666999213
 30
0.0
 11
200.7598692905208
 21
161.8812447526716
 31
0.0
  0
LINE
  5
110
330
1F
100
AcDbEntity
  8
0
  6
Continuous
 62
     8
370
    25
100
AcDbLine
 10
200.7598692905208
 20
120.3949946670009
 30
0.0
 11
200.7598692905208
 21
117.0216887442575
 31
0.0
  0
LINE
  5
111
330
1F
100
AcDbEntity
  8
0
  6
Continuous
 62
     8
370
    25
100
AcDbLine
 10
200.8696769116562
 20
441.5437476503268
 30
0.0
 11
200.8696769116562
 21
432.338927900034
 31
0.0
  0
LINE
  5
112
330
1F
100
AcDbEntity
  8
0
  6
Continuous
 62
     8
370
    25
100
AcDbLine
 10
200.8696769116562
 20
229.0442063050097
 30
0.0
 11
200.8696769116562
 21
161.8597840676727
 31
0.0
  0
LINE
  5
113
330
1F
100
AcDbEntity
  8
0
  6
Continuous
 62
     8
370
    25
100
AcDbLine
 10
200.8696769116562
 20
120.3754815160029
 30
0.0
 11
200.8696769116562
 21
117.0501090479046
 31
0.0
  0
LINE
  5
114
330
1F
100
AcDbEntity
  8
0
  6
Continuous
 62
     8
370
    25
100
AcDbLine
 10
203.2892921539269
 20
440.1877158889538
 30
0.0
 11
203.2892921539269
 21
432.5298163561338
 31
0.0
  0
LINE
  5
115
330
1F
100
AcDbEntity
  8
0
  6
Continuous
 62
     8
370
    25
100
AcDbLine
 10
203.2892921539269
 20
228.3825591986674
 30
0.0
 11
203.2892921539269
 21
161.650640320318
 31
0.0
  0
LINE
  5
116
330
1F
100
AcDbEntity
  8
0
  6
Continuous
 62
     8
370
    25
100
AcDbLine
 10
203.2892921539269
 20
119.3930933924781
 30
0.0
 11
203.2892921539269
 21
118.1347928870566
 31
0.0
  0
LINE
  5
117
330
1F
100
AcDbEntity
  8
0
  6
Continuous
 62
     8
370
    25
100
AcDbLine
 10
212.0050598189042
 20
219.9313819827622
 30
0.0
 11
212.0050598189042
 21
167.2184559479468
 31
0.0
  0
LINE
  5
118
330
1F
100
AcDbEntity
  8
0
  6
Continuous
 62
     8
370
    25
100
AcDbLine
 10
203.3696769116562
 20
440.1050778066527
 30
0.0
 11
203.3696769116562
 21
432.588430771063
 31
0.0
  0
LINE
  5
119
330
1F
100
AcDbEntity
  8
0
  6
Continuous
 62
     8
370
    25
100
AcDbLine
 10
203.3696769116562
 20
228.3516487996661
 30
0.0
 11
203.3696769116562
 21
161.6524507808401
 31
0.0
  0
LINE
  5
11A
330
1F
100
AcDbEntity
  8
0
  6
Continuous
 62
     8
370
    25
100
AcDbLine
 10
203.3696769116562
 20
119.3404810033594
 30
0.0
 11
203.3696769116562
 21
118.5849388602787
 31
0.0
  0
LINE
  5
11B
330
1F
100
AcDbEntity
  8
0
  6
Continuous
 62
     8
370
    25
100
AcDbLine
 10
206.0366642097635
 20
226.9698893563429
 30
0.0
 11
206.0366642097635
 21
162.0535020341114
 31
0.0
  0
LINE
  5
11C
330
1F
100
AcDbEntity
  8
0
  6
Continuous
 62
     8
370
    25
100
AcDbLine
 10
211.8952521977688
 20
220.163801593001
 30
0.0
 11
211.8952521977688
 21
167.0188532776305
 31
0.0
  0
LINE
  5
11D
330
1F
100
AcDbEntity
  8
0
  6
Continuous
 62
     8
370
    25
100
AcDbLine
 10
211.1756369554982
 20
221.509087464312
 30
0.0
 11
211.1756369554982
 21
165.8886305315254
 31
0.0
  0
LINE
  5
11E
330
1F
100
AcDbEntity
  8
0
  6
Continuous
 62
     8
370
    25
100
AcDbLine
 10
211.0658293343628
 20
221.692293082899
 30
0.0
 11
211.0658293343628
 21
165.7382418528607
 31
0.0
  0
LINE
  5
11F
330
1F
100
AcDbEntity
  8
0
  6
Continuous
 62
     8
370
    25
100
AcDbLine
 10
206.4464718309004
 20
226.6906482143885
 30
0.0
 11
206.4464718309004
 21
162.1780785088803
 31
0.0
  0
ARC
  5
120
330
1F
100
AcDbEntity
  8
0
  6
Continuous
 62
     8
370
    25
100
AcDbCircle
 10
223.8535929713547
 20
897.7853118198999
 30
0.0
 40
0.7088482080728953
100
AcDbArc
 50
294.1443686908099
 51
312.3567073026084
  0
LWPOLYLINE
  5
121
330
1F
100
AcDbEntity
  8
0
  6
Continuous
 62
     8
370
    25
100
AcDbPolyline
 90
        8
 70
   128
 43
0.0
 10
223.5872158960818
 20
897.0622222940318
 10
223.5497640850145
 20
897.0710162276349
 10
223.465473642314
 20
897.116871613334
 10
223.3908655159225
 20
897.1962872439639
 10
223.3286194614736
 20
897.3064106891817
 10
223.2809712168569
 20
897.4432865632015
 10
223.2496321995559
 20
897.6019985933295
 10
223.2357280363909
 20
897.7768462013947
  0
ARC
  5
122
330
1F
100
AcDbEntity
  8
0
  6
Continuous
 62
     8
370
    25
100
AcDbCircle
 10
282.8347060875718
 20
924.3429001924179
 30
0.0
 40
0.8162107962856701
100
AcDbArc
 50
296.2058859462914
 51
0.0284658516606137
  0
LINE
  5
123
330
1F
100
AcDbEntity
  8
0
  6
Continuous
 62
     8
370
    25
100
AcDbLine
 10
151.4904086230796
 20
876.5311016291154
 30
0.0
 11
151.6287602313462
 21
870.9360560588074
 31
0.0
  0
ARC
  5
124
330
1F
100
AcDbEntity
  8
0
  6
Continuous
 62
     8
370
    25
100
AcDbCircle
 10
144.6611672536232
 20
911.5696093419441
 30
0.0
 40
0.0978063293127962
100
AcDbArc
 50
186.2296757887079
 51
229.6915089769798
  0
ARC
  5
125
330
1F
100
AcDbEntity
  8
0
  6
Continuous
 62
     8
370
    25
100
AcDbCircle
 10
145.4469694776779
 20
911.8805128361072
 30
0.0
 40
0.7276554427481473
100
AcDbArc
 50
80.96971112152572
 51
113.4935519331491
  0
LWPOLYLINE
  5
126
330
1F
100
AcDbEntity
  8
0
  6
Continuous
 62
     8
370
    25
100
AcDbPolyline
 90
        7
 70
   128
 43
0.0
 10
144.7071240307898
 20
909.6370086786911
 10
144.7091155446863
 20
909.624437759796
 10
144.7410767813302
 20
909.5731029086311
 10
144.8099278959518
 20
909.527060506099
 10
144.9130321687888
 20
909.4880737903601
 10
145.0464411223871
 20
909.4576357952513
 10
145.2050457323494
 20
909.4369121731185
  0
ARC
  5
127
330
1F
100
AcDbEntity
  8
0
  6
Continuous
 62
     8
370
    25
100
AcDbCircle
 10
204.60281615567
 20
938.3996776332111
 30
0.0
 40
0.7273378365566732
100
AcDbArc
 50
80.96539077889719
 51
113.915122513105
  0
LWPOLYLINE
  5
128
330
1F
100
AcDbEntity
  8
0
  6
Continuous
 62
     8
370
    25
100
AcDbPolyline
 90
        7
 70
   128
 43
0.0
 10
283.794097498833
 20
926.2850869904795
 10
283.838572301494
 20
926.302953220384
 10
283.8743204089258
 20
926.3223733857025
 10
283.9009987459509
 20
926.3431611107866
 10
283.9183512801278
 20
926.365116895496
 10
283.9262114788996
 20
926.388030029802
 10
283.926547480428
 20
926.3912814215108
  0
LWPOLYLINE
  5
129
330
1F
100
AcDbEntity
  8
0
  6
Continuous
 62
     8
370
    25
100
AcDbPolyline
 90
        3
 70
   128
 43
0.0
 10
282.9292589527643
 20
927.4307976398451
 10
283.0300116139271
 20
927.4561501910106
 10
283.0778223822905
 20
927.4537736729941
  0
ARC
  5
12A
330
1F
100
AcDbEntity
  8
0
  6
Continuous
 62
     8
370
    25
100
AcDbCircle
 10
283.6351923077554
 20
924.4986096229974
 30
0.0
 40
0.1560979378674003
100
AcDbArc
 50
275.7814780096944
 51
341.6672104286853
  0
LWPOLYLINE
  5
12B
330
1F
100
AcDbEntity
  8
0
  6
Continuous
 62
     8
370
    25
100
AcDbPolyline
 90
        3
 70
   128
 43
0.0
 10
204.8648191399785
 20
939.1410850566898
 10
204.8177834370335
 20
939.1433444255143
 10
204.7170307758707
 20
939.1179918743475
  0
MTEXT
  5
167
330
1F
100
AcDbEntity
  8
0
100
AcDbMText
 10
359.3235180817292
 20
342.7148545190183
 30
0.0
 40
15.0
 41
578.5745080716631
 46
41.55995998499438
 71
     1
 72
     5
  1
{\fＭＳ Ｐゴシック|b0|i0|c0|p0;HBC-D72P/B/E/N/H\PHBC-D97K}
 73
     1
 44
1.0
  0
ENDSEC
  0
SECTION
  2
OBJECTS
  0
DICTIONARY
  5
C
330
0
100
AcDbDictionary
281
     1
  3
ACAD_DETAILVIEWSTYLE
350
154
  3
ACAD_GROUP
350
D
  3
ACAD_LAYOUT
350
1A
  3
ACAD_MATERIAL
350
146
  3
ACAD_MLEADERSTYLE
350
14C
  3
ACAD_MLINESTYLE
350
17
  3
ACAD_PLOTSETTINGS
350
19
  3
ACAD_PLOTSTYLENAME
350
E
  3
ACAD_SCALELIST
350
47
  3
ACAD_SECTIONVIEWSTYLE
350
155
  3
ACAD_TABLESTYLE
350
14A
  3
ACAD_VISUALSTYLE
350
12D
  3
ACDB_RECOMPOSE_DATA
350
16B
  3
AcDbVariableDictionary
350
14F
  3
APPDATA
350
14E
  0
SUN
  5
156
330
29
100
AcDbSun
 90
        1
290
     0
 63
     7
421
 16777215
 40
1.0
291
     1
 91
  2455826
 92
 54000000
292
     0
 70
     2
 71
   256
280
     1
  0
DICTIONARY
  5
162
330
2
100
AcDbDictionary
280
     1
281
     1
  3
ACAD_LAYERSTATES
360
163
  0
DICTIONARY
  5
154
102
{ACAD_REACTORS
330
C
102
}
330
C
100
AcDbDictionary
281
     1
  0
DICTIONARY
  5
D
102
{ACAD_REACTORS
330
C
102
}
330
C
100
AcDbDictionary
281
     1
  0
DICTIONARY
  5
1A
102
{ACAD_REACTORS
330
C
102
}
330
C
100
AcDbDictionary
281
     1
  3
Layout1
350
1E
  3
Layout2
350
26
  3
Model
350
22
  0
DICTIONARY
  5
146
102
{ACAD_REACTORS
330
C
102
}
330
C
100
AcDbDictionary
281
     1
  3
ByBlock
350
148
  3
ByLayer
350
147
  3
Global
350
149
  0
DICTIONARY
  5
14C
102
{ACAD_REACTORS
330
C
102
}
330
C
100
AcDbDictionary
281
     1
  3
Standard
350
14D
  0
DICTIONARY
  5
17
102
{ACAD_REACTORS
330
C
102
}
330
C
100
AcDbDictionary
281
     1
  3
Standard
350
18
  0
DICTIONARY
  5
19
102
{ACAD_REACTORS
330
C
102
}
330
C
100
AcDbDictionary
281
     1
  0
ACDBDICTIONARYWDFLT
  5
E
102
{ACAD_REACTORS
330
C
102
}
330
C
100
AcDbDictionary
281
     1
  3
Normal
350
F
100
AcDbDictionaryWithDefault
340
F
  0
DICTIONARY
  5
47
102
{ACAD_REACTORS
330
C
102
}
330
C
100
AcDbDictionary
281
     1
  3
A0
350
48
  3
A1
350
49
  3
A2
350
4A
  3
A3
350
4B
  3
A4
350
4C
  3
A5
350
4D
  3
A6
350
4E
  3
A7
350
4F
  3
A8
350
50
  3
A9
350
51
  3
B0
350
52
  3
B1
350
53
  3
B2
350
54
  3
B3
350
55
  3
B4
350
56
  3
B5
350
57
  3
B6
350
58
  3
B7
350
59
  3
B8
350
5A
  3
B9
350
5B
  3
C0
350
5C
  3
C1
350
5D
  3
C2
350
5E
  3
C3
350
5F
  3
C4
350
60
  3
C5
350
61
  3
C6
350
62
  3
C7
350
63
  3
C8
350
64
  3
C9
350
65
  3
D0
350
66
  3
D1
350
67
  3
D2
350
68
  0
DICTIONARY
  5
155
102
{ACAD_REACTORS
330
C
102
}
330
C
100
AcDbDictionary
281
     1
  0
DICTIONARY
  5
14A
102
{ACAD_REACTORS
330
C
102
}
330
C
100
AcDbDictionary
281
     1
  3
Standard
350
14B
  0
DICTIONARY
  5
12D
102
{ACAD_REACTORS
330
C
102
}
330
C
100
AcDbDictionary
281
     1
  3
2dWireframe
350
132
  3
Basic
350
135
  3
Brighten
350
139
  3
ColorChange
350
13D
  3
Conceptual
350
137
  3
Dim
350
138
  3
EdgeColorOff
350
140
  3
Facepattern
350
13C
  3
Flat
350
12E
  3
FlatWithEdges
350
12F
  3
Gouraud
350
130
  3
GouraudWithEdges
350
131
  3
Hidden
350
134
  3
JitterOff
350
13E
  3
Linepattern
350
13B
  3
OverhangOff
350
13F
  3
Realistic
350
136
  3
Shaded
350
145
  3
Shaded with edges
350
144
  3
Shades of Gray
350
141
  3
Sketchy
350
142
  3
Thicken
350
13A
  3
Wireframe
350
133
  3
X-Ray
350
143
  0
XRECORD
  5
16B
102
{ACAD_REACTORS
330
C
102
}
330
C
100
AcDbXrecord
280
     1
 90
        1
330
14B
  0
DICTIONARY
  5
14F
102
{ACAD_REACTORS
330
C
102
}
330
C
100
AcDbDictionary
281
     1
  3
CANNOSCALE
350
150
  3
CMLEADERSTYLE
350
152
  3
CTABLESTYLE
350
151
  3
MSLTSCALE
350
153
  0
DICTIONARY
  5
14E
102
{ACAD_REACTORS
330
C
102
}
330
C
100
AcDbDictionary
281
     1
  0
DICTIONARY
  5
163
102
{ACAD_REACTORS
330
162
102
}
330
162
100
AcDbDictionary
281
     1
  0
LAYOUT
  5
1E
102
{ACAD_REACTORS
330
1A
102
}
330
1A
100
AcDbPlotSettings
  1

  2
none_device
  4

  6

 40
0.0
 41
0.0
 42
0.0
 43
0.0
 44
0.0
 45
0.0
 46
0.0
 47
0.0
 48
0.0
 49
0.0
140
0.0
141
0.0
142
1.0
143
1.0
 70
   688
 72
     1
 73
     0
 74
     5
  7

 75
    16
 76
     0
 77
     2
 78
   300
147
1.0
148
0.0
149
0.0
100
AcDbLayout
  1
Layout1
 70
     1
 71
     1
 10
0.0
 20
0.0
 11
420.0
 21
297.0
 12
0.0
 22
0.0
 32
0.0
 14
1.000000000000000E+20
 24
1.000000000000000E+20
 34
1.000000000000000E+20
 15
-1.000000000000000E+20
 25
-1.000000000000000E+20
 35
-1.000000000000000E+20
146
0.0
 13
0.0
 23
0.0
 33
0.0
 16
1.0
 26
0.0
 36
0.0
 17
0.0
 27
1.0
 37
0.0
 76
     0
330
1B
  0
LAYOUT
  5
26
102
{ACAD_REACTORS
330
1A
102
}
330
1A
100
AcDbPlotSettings
  1

  2
none_device
  4

  6

 40
0.0
 41
0.0
 42
0.0
 43
0.0
 44
0.0
 45
0.0
 46
0.0
 47
0.0
 48
0.0
 49
0.0
140
0.0
141
0.0
142
1.0
143
1.0
 70
   688
 72
     1
 73
     0
 74
     5
  7

 75
    16
 76
     0
 77
     2
 78
   300
147
1.0
148
0.0
149
0.0
100
AcDbLayout
  1
Layout2
 70
     1
 71
     2
 10
0.0
 20
0.0
 11
0.0
 21
0.0
 12
0.0
 22
0.0
 32
0.0
 14
0.0
 24
0.0
 34
0.0
 15
0.0
 25
0.0
 35
0.0
146
0.0
 13
0.0
 23
0.0
 33
0.0
 16
1.0
 26
0.0
 36
0.0
 17
0.0
 27
1.0
 37
0.0
 76
     0
330
23
  0
LAYOUT
  5
22
102
{ACAD_REACTORS
330
1A
102
}
330
1A
100
AcDbPlotSettings
  1

  2
none_device
  4
Letter_(8.50_x_11.00_Inches)
  6

 40
6.35
 41
6.35
 42
6.35000508
 43
6.35000508
 44
215.9
 45
279.4
 46
0.0
 47
0.0
 48
0.0
 49
0.0
140
0.0
141
0.0
142
1.0
143
1.0
 70
  1712
 72
     1
 73
     0
 74
     0
  7

 75
     0
 76
     0
 77
     2
 78
   300
147
1.0
148
0.0
149
0.0
100
AcDbLayout
  1
Model
 70
     1
 71
     0
 10
0.0
 20
0.0
 11
210.0
 21
297.0
 12
0.0
 22
0.0
 32
0.0
 14
144.5611532613706
 24
93.85285870145381
 34
0.0
 15
556.7975708515178
 25
939.1537006284041
 35
0.0
146
0.0
 13
0.0
 23
0.0
 33
0.0
 16
1.0
 26
0.0
 36
0.0
 17
0.0
 27
1.0
 37
0.0
 76
     0
330
1F
331
29
  0
MATERIAL
  5
148
102
{ACAD_REACTORS
330
146
102
}
330
146
100
AcDbMaterial
  1
ByBlock
 72
     1
 94
      127
  0
MATERIAL
  5
147
102
{ACAD_REACTORS
330
146
102
}
330
146
100
AcDbMaterial
  1
ByLayer
 72
     1
 94
      127
  0
MATERIAL
  5
149
102
{ACAD_REACTORS
330
146
102
}
330
146
100
AcDbMaterial
  1
Global
 72
     1
 94
      127
  0
MLEADERSTYLE
  5
14D
102
{ACAD_REACTORS
330
14C
102
}
330
14C
100
AcDbMLeaderStyle
179
     2
170
     2
171
     1
172
     0
 90
        2
 40
0.0
 41
0.0
173
     1
 91
-1056964608
340
14
 92
       -2
290
     1
 42
2.0
291
     1
 43
8.0
  3
Standard
341
0
 44
4.0
300

342
11
174
     1
178
     1
175
     1
176
     0
 93
-1056964608
 45
4.0
292
     0
297
     0
 46
4.0
343
0
 94
-1056964608
 47
1.0
 49
1.0
140
1.0
293
     1
141
0.0
294
     1
177
     0
142
1.0
295
     0
296
     0
143
3.75
271
     0
272
     9
273
     9
298
     0
  0
MLINESTYLE
  5
18
102
{ACAD_REACTORS
330
17
102
}
330
17
100
AcDbMlineStyle
  2
Standard
 70
     0
  3

 62
   256
 51
90.0
 52
90.0
 71
     2
 49
0.5
 62
   256
  6
BYLAYER
 49
-0.5
 62
   256
  6
BYLAYER
  0
ACDBPLACEHOLDER
  5
F
102
{ACAD_REACTORS
330
E
102
}
330
E
  0
SCALE
  5
48
102
{ACAD_REACTORS
330
47
102
}
330
47
100
AcDbScale
 70
     0
300
1:1
140
1.0
141
1.0
290
     1
  0
SCALE
  5
49
102
{ACAD_REACTORS
330
47
102
}
330
47
100
AcDbScale
 70
     0
300
1:2
140
1.0
141
2.0
290
     0
  0
SCALE
  5
4A
102
{ACAD_REACTORS
330
47
102
}
330
47
100
AcDbScale
 70
     0
300
1:4
140
1.0
141
4.0
290
     0
  0
SCALE
  5
4B
102
{ACAD_REACTORS
330
47
102
}
330
47
100
AcDbScale
 70
     0
300
1:5
140
1.0
141
5.0
290
     0
  0
SCALE
  5
4C
102
{ACAD_REACTORS
330
47
102
}
330
47
100
AcDbScale
 70
     0
300
1:8
140
1.0
141
8.0
290
     0
  0
SCALE
  5
4D
102
{ACAD_REACTORS
330
47
102
}
330
47
100
AcDbScale
 70
     0
300
1:10
140
1.0
141
10.0
290
     0
  0
SCALE
  5
4E
102
{ACAD_REACTORS
330
47
102
}
330
47
100
AcDbScale
 70
     0
300
1:16
140
1.0
141
16.0
290
     0
  0
SCALE
  5
4F
102
{ACAD_REACTORS
330
47
102
}
330
47
100
AcDbScale
 70
     0
300
1:20
140
1.0
141
20.0
290
     0
  0
SCALE
  5
50
102
{ACAD_REACTORS
330
47
102
}
330
47
100
AcDbScale
 70
     0
300
1:30
140
1.0
141
30.0
290
     0
  0
SCALE
  5
51
102
{ACAD_REACTORS
330
47
102
}
330
47
100
AcDbScale
 70
     0
300
1:40
140
1.0
141
40.0
290
     0
  0
SCALE
  5
52
102
{ACAD_REACTORS
330
47
102
}
330
47
100
AcDbScale
 70
     0
300
1:50
140
1.0
141
50.0
290
     0
  0
SCALE
  5
53
102
{ACAD_REACTORS
330
47
102
}
330
47
100
AcDbScale
 70
     0
300
1:100
140
1.0
141
100.0
290
     0
  0
SCALE
  5
54
102
{ACAD_REACTORS
330
47
102
}
330
47
100
AcDbScale
 70
     0
300
2:1
140
2.0
141
1.0
290
     0
  0
SCALE
  5
55
102
{ACAD_REACTORS
330
47
102
}
330
47
100
AcDbScale
 70
     0
300
4:1
140
4.0
141
1.0
290
     0
  0
SCALE
  5
56
102
{ACAD_REACTORS
330
47
102
}
330
47
100
AcDbScale
 70
     0
300
8:1
140
8.0
141
1.0
290
     0
  0
SCALE
  5
57
102
{ACAD_REACTORS
330
47
102
}
330
47
100
AcDbScale
 70
     0
300
10:1
140
10.0
141
1.0
290
     0
  0
SCALE
  5
58
102
{ACAD_REACTORS
330
47
102
}
330
47
100
AcDbScale
 70
     0
300
100:1
140
100.0
141
1.0
290
     0
  0
SCALE
  5
59
102
{ACAD_REACTORS
330
47
102
}
330
47
100
AcDbScale
 70
     0
300
1/128" = 1'-0"
140
0.0078125
141
12.0
290
     0
  0
SCALE
  5
5A
102
{ACAD_REACTORS
330
47
102
}
330
47
100
AcDbScale
 70
     0
300
1/64" = 1'-0"
140
0.015625
141
12.0
290
     0
  0
SCALE
  5
5B
102
{ACAD_REACTORS
330
47
102
}
330
47
100
AcDbScale
 70
     0
300
1/32" = 1'-0"
140
0.03125
141
12.0
290
     0
  0
SCALE
  5
5C
102
{ACAD_REACTORS
330
47
102
}
330
47
100
AcDbScale
 70
     0
300
1/16" = 1'-0"
140
0.0625
141
12.0
290
     0
  0
SCALE
  5
5D
102
{ACAD_REACTORS
330
47
102
}
330
47
100
AcDbScale
 70
     0
300
3/32" = 1'-0"
140
0.09375
141
12.0
290
     0
  0
SCALE
  5
5E
102
{ACAD_REACTORS
330
47
102
}
330
47
100
AcDbScale
 70
     0
300
1/8" = 1'-0"
140
0.125
141
12.0
290
     0
  0
SCALE
  5
5F
102
{ACAD_REACTORS
330
47
102
}
330
47
100
AcDbScale
 70
     0
300
3/16" = 1'-0"
140
0.1875
141
12.0
290
     0
  0
SCALE
  5
60
102
{ACAD_REACTORS
330
47
102
}
330
47
100
AcDbScale
 70
     0
300
1/4" = 1'-0"
140
0.25
141
12.0
290
     0
  0
SCALE
  5
61
102
{ACAD_REACTORS
330
47
102
}
330
47
100
AcDbScale
 70
     0
300
3/8" = 1'-0"
140
0.375
141
12.0
290
     0
  0
SCALE
  5
62
102
{ACAD_REACTORS
330
47
102
}
330
47
100
AcDbScale
 70
     0
300
1/2" = 1'-0"
140
0.5
141
12.0
290
     0
  0
SCALE
  5
63
102
{ACAD_REACTORS
330
47
102
}
330
47
100
AcDbScale
 70
     0
300
3/4" = 1'-0"
140
0.75
141
12.0
290
     0
  0
SCALE
  5
64
102
{ACAD_REACTORS
330
47
102
}
330
47
100
AcDbScale
 70
     0
300
1" = 1'-0"
140
1.0
141
12.0
290
     0
  0
SCALE
  5
65
102
{ACAD_REACTORS
330
47
102
}
330
47
100
AcDbScale
 70
     0
300
1-1/2" = 1'-0"
140
1.5
141
12.0
290
     0
  0
SCALE
  5
66
102
{ACAD_REACTORS
330
47
102
}
330
47
100
AcDbScale
 70
     0
300
3" = 1'-0"
140
3.0
141
12.0
290
     0
  0
SCALE
  5
67
102
{ACAD_REACTORS
330
47
102
}
330
47
100
AcDbScale
 70
     0
300
6" = 1'-0"
140
6.0
141
12.0
290
     0
  0
SCALE
  5
68
102
{ACAD_REACTORS
330
47
102
}
330
47
100
AcDbScale
 70
     0
300
1'-0" = 1'-0"
140
12.0
141
12.0
290
     0
  0
TABLESTYLE
  5
14B
102
{ACAD_REACTORS
330
14A
102
}
102
{ACAD_XDICTIONARY
360
169
102
}
330
14A
100
AcDbTableStyle
  3
Standard
 70
     0
 71
     0
 40
1.5
 41
1.5
280
     0
281
     0
  7
Standard
140
4.5
170
     2
 62
     0
 63
   257
283
     0
 90
        4
 91
        0
  1

274
    -2
284
     1
 64
     0
275
    -2
285
     1
 65
     0
276
    -2
286
     1
 66
     0
277
    -2
287
     1
 67
     0
278
    -2
288
     1
 68
     0
279
    -2
289
     1
 69
     0
  7
Standard
140
6.0
170
     5
 62
     0
 63
   257
283
     0
 90
        4
 91
        0
  1

274
    -2
284
     1
 64
     0
275
    -2
285
     1
 65
     0
276
    -2
286
     1
 66
     0
277
    -2
287
     1
 67
     0
278
    -2
288
     1
 68
     0
279
    -2
289
     1
 69
     0
  7
Standard
140
4.5
170
     5
 62
     0
 63
   257
283
     0
 90
        4
 91
        0
  1

274
    -2
284
     1
 64
     0
275
    -2
285
     1
 65
     0
276
    -2
286
     1
 66
     0
277
    -2
287
     1
 67
     0
278
    -2
288
     1
 68
     0
279
    -2
289
     1
 69
     0
  0
VISUALSTYLE
  5
132
102
{ACAD_REACTORS
330
12D
102
}
330
12D
100
AcDbVisualStyle
  2
2dWireframe
 70
     4
177
     3
291
     0
 70
    58
 90
        0
176
     1
 90
        2
176
     1
 90
        0
176
     1
 90
        0
176
     1
 40
0.6
176
     1
 40
30.0
176
     1
 62
     7
420
 16777215
176
     1
 90
        1
176
     1
 90
        4
176
     1
 62
     7
176
     1
 62
   257
176
     1
 90
        1
176
     1
 90
        1
176
     1
 40
1.0
176
     1
 90
        0
176
     1
 62
   257
176
     1
 40
1.0
176
     1
 90
        1
176
     1
 90
        6
176
     1
 90
        2
176
     1
 62
     7
176
     1
 90
        5
176
     1
 90
        0
176
     1
 90
        0
176
     1
290
     0
176
     1
 90
        1
176
     1
 40
0.0
176
     1
 90
        0
176
     1
290
     1
176
     1
290
     1
176
     1
290
     0
176
     1
290
     0
176
     1
290
     0
176
     1
290
     0
176
     1
290
     0
176
     1
290
     0
176
     1
290
     0
176
     1
 90
       50
176
     1
 40
0.0
176
     1
 40
1.0
176
     1
 90
        0
176
     1
 62
    18
420
        0
176
     1
 90
       50
176
     1
 90
        3
176
     1
 62
     5
420
      255
176
     1
290
     0
176
     1
 90
       50
176
     1
 90
       50
176
     1
 90
       50
176
     1
290
     0
176
     1
 90
       50
176
     1
 62
   256
176
     0
 40
1.0
176
     0
 90
        2
176
     1
  1
strokes_ogs.tif
176
     1
290
     0
176
     1
 40
1.0
176
     1
 40
1.0
176
     1
  0
VISUALSTYLE
  5
135
102
{ACAD_REACTORS
330
12D
102
}
330
12D
100
AcDbVisualStyle
  2
Basic
 70
     7
177
     3
291
     1
 70
    58
 90
        1
176
     1
 90
        0
176
     1
 90
        1
176
     1
 90
        0
176
     1
 40
0.6
176
     1
 40
30.0
176
     1
 62
     7
420
 16777215
176
     1
 90
        0
176
     1
 90
        4
176
     1
 62
     7
176
     1
 62
   257
176
     1
 90
        1
176
     1
 90
        1
176
     1
 40
1.0
176
     1
 90
        8
176
     1
 62
     7
176
     1
 40
1.0
176
     1
 90
        1
176
     1
 90
        6
176
     1
 90
        2
176
     1
 62
     7
176
     1
 90
        5
176
     1
 90
        0
176
     1
 90
        0
176
     1
290
     0
176
     1
 90
        1
176
     1
 40
0.0
176
     1
 90
        0
176
     1
290
     0
176
     1
290
     1
176
     1
290
     1
176
     1
290
     0
176
     1
290
     0
176
     1
290
     0
176
     1
290
     0
176
     1
290
     0
176
     1
290
     0
176
     1
 90
       50
176
     1
 40
0.0
176
     1
 40
1.0
176
     1
 90
        0
176
     1
 62
    18
420
        0
176
     1
 90
       50
176
     1
 90
        3
176
     1
 62
     5
420
      255
176
     1
290
     0
176
     1
 90
       50
176
     1
 90
       50
176
     1
 90
       50
176
     1
290
     0
176
     1
 90
       50
176
     1
 62
   256
176
     0
 40
1.0
176
     0
 90
        2
176
     1
  1
strokes_ogs.tif
176
     1
290
     0
176
     1
 40
1.0
176
     1
 40
1.0
176
     1
  0
VISUALSTYLE
  5
139
102
{ACAD_REACTORS
330
12D
102
}
330
12D
100
AcDbVisualStyle
  2
Brighten
 70
    12
177
     3
291
     1
 70
    58
 90
        2
176
     1
 90
        2
176
     1
 90
        0
176
     1
 90
        0
176
     1
 40
0.6
176
     1
 40
30.0
176
     1
 62
     7
420
 16777215
176
     1
 90
        1
176
     1
 90
        4
176
     1
 62
     7
176
     1
 62
   257
176
     1
 90
        1
176
     1
 90
        1
176
     1
 40
1.0
176
     1
 90
        8
176
     1
 62
     7
176
     1
 40
1.0
176
     1
 90
        1
176
     1
 90
        6
176
     1
 90
        2
176
     1
 62
     7
176
     1
 90
        5
176
     1
 90
        0
176
     1
 90
        0
176
     1
290
     0
176
     1
 90
        1
176
     1
 40
50.0
176
     1
 90
        0
176
     1
290
     0
176
     1
290
     1
176
     1
290
     1
176
     1
290
     0
176
     1
290
     0
176
     1
290
     0
176
     1
290
     0
176
     1
290
     0
176
     1
290
     0
176
     1
 90
       50
176
     1
 40
0.0
176
     1
 40
1.0
176
     1
 90
        0
176
     1
 62
    18
420
        0
176
     1
 90
       50
176
     1
 90
        3
176
     1
 62
     5
420
      255
176
     1
290
     0
176
     1
 90
       50
176
     1
 90
       50
176
     1
 90
       50
176
     1
290
     0
176
     1
 90
       50
176
     1
 62
   256
176
     0
 40
1.0
176
     0
 90
        2
176
     1
  1
strokes_ogs.tif
176
     1
290
     0
176
     1
 40
1.0
176
     1
 40
1.0
176
     1
  0
VISUALSTYLE
  5
13D
102
{ACAD_REACTORS
330
12D
102
}
330
12D
100
AcDbVisualStyle
  2
ColorChange
 70
    16
177
     3
291
     1
 70
    58
 90
        2
176
     1
 90
        2
176
     1
 90
        3
176
     1
 90
        0
176
     1
 40
0.6
176
     1
 40
30.0
176
     1
 62
     8
420
  8421504
176
     1
 90
        1
176
     1
 90
        4
176
     1
 62
     7
176
     1
 62
   257
176
     1
 90
        1
176
     1
 90
        1
176
     1
 40
1.0
176
     1
 90
        8
176
     1
 62
     8
420
  8421504
176
     1
 40
1.0
176
     1
 90
        1
176
     1
 90
        6
176
     1
 90
        2
176
     1
 62
     7
176
     1
 90
        5
176
     1
 90
        0
176
     1
 90
        0
176
     1
290
     0
176
     1
 90
        1
176
     1
 40
0.0
176
     1
 90
        0
176
     1
290
     0
176
     1
290
     1
176
     1
290
     1
176
     1
290
     0
176
     1
290
     0
176
     1
290
     0
176
     1
290
     0
176
     1
290
     0
176
     1
290
     0
176
     1
 90
       50
176
     1
 40
0.0
176
     1
 40
1.0
176
     1
 90
        0
176
     1
 62
    18
420
        0
176
     1
 90
       50
176
     1
 90
        3
176
     1
 62
     5
420
      255
176
     1
290
     0
176
     1
 90
       50
176
     1
 90
       50
176
     1
 90
       50
176
     1
290
     0
176
     1
 90
       50
176
     1
 62
   256
176
     0
 40
1.0
176
     0
 90
        2
176
     1
  1
strokes_ogs.tif
176
     1
290
     0
176
     1
 40
1.0
176
     1
 40
1.0
176
     1
  0
VISUALSTYLE
  5
137
102
{ACAD_REACTORS
330
12D
102
}
330
12D
100
AcDbVisualStyle
  2
Conceptual
 70
     9
177
     3
291
     0
 70
    58
 90
        3
176
     1
 90
        2
176
     1
 90
        0
176
     1
 90
        0
176
     1
 40
0.6
176
     1
 40
30.0
176
     1
 62
     7
420
 16777215
176
     1
 90
        2
176
     1
 90
        2
176
     1
 62
     7
176
     1
 62
   257
176
     1
 90
        1
176
     1
 90
        1
176
     1
 40
179.0
176
     1
 90
        8
176
     1
 62
     7
176
     1
 40
1.0
176
     1
 90
        1
176
     1
 90
        6
176
     1
 90
        2
176
     1
 62
     7
176
     1
 90
        3
176
     1
 90
        0
176
     1
 90
        0
176
     1
290
     0
176
     1
 90
        1
176
     1
 40
0.0
176
     1
 90
        0
176
     1
290
     0
176
     1
290
     1
176
     1
290
     1
176
     1
290
     0
176
     1
290
     0
176
     1
290
     0
176
     1
290
     0
176
     1
290
     0
176
     1
290
     0
176
     1
 90
       50
176
     1
 40
0.0
176
     1
 40
1.0
176
     1
 90
        0
176
     1
 62
    18
420
        0
176
     1
 90
       50
176
     1
 90
        3
176
     1
 62
     5
420
      255
176
     1
290
     0
176
     1
 90
       50
176
     1
 90
       50
176
     1
 90
       50
176
     1
290
     0
176
     1
 90
       50
176
     1
 62
   256
176
     0
 40
1.0
176
     0
 90
        2
176
     1
  1
strokes_ogs.tif
176
     1
290
     0
176
     1
 40
1.0
176
     1
 40
1.0
176
     1
  0
VISUALSTYLE
  5
138
102
{ACAD_REACTORS
330
12D
102
}
330
12D
100
AcDbVisualStyle
  2
Dim
 70
    11
177
     3
291
     1
 70
    58
 90
        2
176
     1
 90
        2
176
     1
 90
        0
176
     1
 90
        0
176
     1
 40
0.6
176
     1
 40
30.0
176
     1
 62
     7
420
 16777215
176
     1
 90
        1
176
     1
 90
        4
176
     1
 62
     7
176
     1
 62
   257
176
     1
 90
        1
176
     1
 90
        1
176
     1
 40
1.0
176
     1
 90
        8
176
     1
 62
     7
176
     1
 40
1.0
176
     1
 90
        1
176
     1
 90
        6
176
     1
 90
        2
176
     1
 62
     7
176
     1
 90
        5
176
     1
 90
        0
176
     1
 90
        0
176
     1
290
     0
176
     1
 90
        1
176
     1
 40
-50.0
176
     1
 90
        0
176
     1
290
     0
176
     1
290
     1
176
     1
290
     1
176
     1
290
     0
176
     1
290
     0
176
     1
290
     0
176
     1
290
     0
176
     1
290
     0
176
     1
290
     0
176
     1
 90
       50
176
     1
 40
0.0
176
     1
 40
1.0
176
     1
 90
        0
176
     1
 62
    18
420
        0
176
     1
 90
       50
176
     1
 90
        3
176
     1
 62
     5
420
      255
176
     1
290
     0
176
     1
 90
       50
176
     1
 90
       50
176
     1
 90
       50
176
     1
290
     0
176
     1
 90
       50
176
     1
 62
   256
176
     0
 40
1.0
176
     0
 90
        2
176
     1
  1
strokes_ogs.tif
176
     1
290
     0
176
     1
 40
1.0
176
     1
 40
1.0
176
     1
  0
VISUALSTYLE
  5
140
102
{ACAD_REACTORS
330
12D
102
}
330
12D
100
AcDbVisualStyle
  2
EdgeColorOff
 70
    22
177
     3
291
     1
 70
    58
 90
        2
176
     0
 90
        2
176
     0
 90
        0
176
     0
 90
        0
176
     0
 40
0.6
176
     0
 40
30.0
176
     0
 62
     7
420
 16777215
176
     0
 90
        1
176
     0
 90
        4
176
     0
 62
     7
176
     0
 62
   257
176
     0
 90
        1
176
     0
 90
        1
176
     0
 40
1.0
176
     0
 90
        8
176
     2
 62
     7
176
     0
 40
1.0
176
     0
 90
        1
176
     0
 90
        6
176
     0
 90
        2
176
     0
 62
     7
176
     0
 90
        5
176
     0
 90
        0
176
     0
 90
        0
176
     0
290
     0
176
     0
 90
        1
176
     0
 40
0.0
176
     0
 90
        0
176
     0
290
     0
176
     0
290
     1
176
     0
290
     1
176
     0
290
     0
176
     0
290
     0
176
     0
290
     0
176
     0
290
     0
176
     0
290
     0
176
     0
290
     0
176
     0
 90
       50
176
     0
 40
0.0
176
     0
 40
1.0
176
     0
 90
        0
176
     0
 62
    18
420
        0
176
     0
 90
       50
176
     0
 90
        3
176
     0
 62
     5
420
      255
176
     0
290
     0
176
     0
 90
       50
176
     0
 90
       50
176
     0
 90
       50
176
     0
290
     0
176
     0
 90
       50
176
     0
 62
   256
176
     0
 40
1.0
176
     0
 90
        2
176
     0
  1
strokes_ogs.tif
176
     0
290
     0
176
     0
 40
1.0
176
     0
 40
1.0
176
     0
  0
VISUALSTYLE
  5
13C
102
{ACAD_REACTORS
330
12D
102
}
330
12D
100
AcDbVisualStyle
  2
Facepattern
 70
    15
177
     3
291
     1
 70
    58
 90
        2
176
     1
 90
        2
176
     1
 90
        0
176
     1
 90
        0
176
     1
 40
0.6
176
     1
 40
30.0
176
     1
 62
     7
420
 16777215
176
     1
 90
        1
176
     1
 90
        4
176
     1
 62
     7
176
     1
 62
   257
176
     1
 90
        1
176
     1
 90
        1
176
     1
 40
1.0
176
     1
 90
        8
176
     1
 62
     7
176
     1
 40
1.0
176
     1
 90
        1
176
     1
 90
        6
176
     1
 90
        2
176
     1
 62
     7
176
     1
 90
        5
176
     1
 90
        0
176
     1
 90
        0
176
     1
290
     0
176
     1
 90
        1
176
     1
 40
0.0
176
     1
 90
        0
176
     1
290
     0
176
     1
290
     1
176
     1
290
     1
176
     1
290
     0
176
     1
290
     0
176
     1
290
     0
176
     1
290
     0
176
     1
290
     0
176
     1
290
     0
176
     1
 90
       50
176
     1
 40
0.0
176
     1
 40
1.0
176
     1
 90
        0
176
     1
 62
    18
420
        0
176
     1
 90
       50
176
     1
 90
        3
176
     1
 62
     5
420
      255
176
     1
290
     0
176
     1
 90
       50
176
     1
 90
       50
176
     1
 90
       50
176
     1
290
     0
176
     1
 90
       50
176
     1
 62
   256
176
     0
 40
1.0
176
     0
 90
        2
176
     1
  1
strokes_ogs.tif
176
     1
290
     0
176
     1
 40
1.0
176
     1
 40
1.0
176
     1
  0
VISUALSTYLE
  5
12E
102
{ACAD_REACTORS
330
12D
102
}
330
12D
100
AcDbVisualStyle
  2
Flat
 70
     0
177
     3
291
     1
 70
    58
 90
        2
176
     1
 90
        1
176
     1
 90
        1
176
     1
 90
        2
176
     1
 40
0.6
176
     1
 40
30.0
176
     1
 62
     7
420
 16777215
176
     1
 90
        0
176
     1
 90
        0
176
     1
 62
     7
176
     1
 62
   257
176
     1
 90
        1
176
     1
 90
        1
176
     1
 40
1.0
176
     1
 90
        8
176
     1
 62
     7
176
     1
 40
1.0
176
     1
 90
        1
176
     1
 90
        6
176
     1
 90
        2
176
     1
 62
     7
176
     1
 90
        5
176
     1
 90
        0
176
     1
 90
        0
176
     1
290
     0
176
     1
 90
       13
176
     1
 40
0.0
176
     1
 90
        0
176
     1
290
     0
176
     1
290
     1
176
     1
290
     1
176
     1
290
     0
176
     1
290
     0
176
     1
290
     0
176
     1
290
     0
176
     1
290
     0
176
     1
290
     0
176
     1
 90
       50
176
     1
 40
0.0
176
     1
 40
1.0
176
     1
 90
        0
176
     1
 62
    18
420
        0
176
     1
 90
       50
176
     1
 90
        3
176
     1
 62
     5
420
      255
176
     1
290
     0
176
     1
 90
       50
176
     1
 90
       50
176
     1
 90
       50
176
     1
290
     0
176
     1
 90
       50
176
     1
 62
   256
176
     0
 40
1.0
176
     0
 90
        2
176
     1
  1
strokes_ogs.tif
176
     1
290
     0
176
     1
 40
1.0
176
     1
 40
1.0
176
     1
  0
VISUALSTYLE
  5
12F
102
{ACAD_REACTORS
330
12D
102
}
330
12D
100
AcDbVisualStyle
  2
FlatWithEdges
 70
     1
177
     3
291
     1
 70
    58
 90
        2
176
     1
 90
        1
176
     1
 90
        1
176
     1
 90
        2
176
     1
 40
0.6
176
     1
 40
30.0
176
     1
 62
     7
420
 16777215
176
     1
 90
        1
176
     1
 90
        0
176
     1
 62
     7
176
     1
 62
   257
176
     1
 90
        1
176
     1
 90
        1
176
     1
 40
1.0
176
     1
 90
        0
176
     1
 62
   257
176
     1
 40
1.0
176
     1
 90
        1
176
     1
 90
        6
176
     1
 90
        2
176
     1
 62
     7
176
     1
 90
        5
176
     1
 90
        0
176
     1
 90
        0
176
     1
290
     0
176
     1
 90
       13
176
     1
 40
0.0
176
     1
 90
        0
176
     1
290
     0
176
     1
290
     1
176
     1
290
     1
176
     1
290
     0
176
     1
290
     0
176
     1
290
     0
176
     1
290
     0
176
     1
290
     0
176
     1
290
     0
176
     1
 90
       50
176
     1
 40
0.0
176
     1
 40
1.0
176
     1
 90
        0
176
     1
 62
    18
420
        0
176
     1
 90
       50
176
     1
 90
        3
176
     1
 62
     5
420
      255
176
     1
290
     0
176
     1
 90
       50
176
     1
 90
       50
176
     1
 90
       50
176
     1
290
     0
176
     1
 90
       50
176
     1
 62
   256
176
     0
 40
1.0
176
     0
 90
        2
176
     1
  1
strokes_ogs.tif
176
     1
290
     0
176
     1
 40
1.0
176
     1
 40
1.0
176
     1
  0
VISUALSTYLE
  5
130
102
{ACAD_REACTORS
330
12D
102
}
330
12D
100
AcDbVisualStyle
  2
Gouraud
 70
     2
177
     3
291
     1
 70
    58
 90
        2
176
     1
 90
        2
176
     1
 90
        1
176
     1
 90
        2
176
     1
 40
0.6
176
     1
 40
30.0
176
     1
 62
     7
420
 16777215
176
     1
 90
        0
176
     1
 90
        0
176
     1
 62
     7
176
     1
 62
   257
176
     1
 90
        1
176
     1
 90
        1
176
     1
 40
1.0
176
     1
 90
        0
176
     1
 62
     7
176
     1
 40
1.0
176
     1
 90
        1
176
     1
 90
        6
176
     1
 90
        2
176
     1
 62
     7
176
     1
 90
        5
176
     1
 90
        0
176
     1
 90
        0
176
     1
290
     0
176
     1
 90
       13
176
     1
 40
0.0
176
     1
 90
        0
176
     1
290
     0
176
     1
290
     1
176
     1
290
     1
176
     1
290
     0
176
     1
290
     0
176
     1
290
     0
176
     1
290
     0
176
     1
290
     0
176
     1
290
     0
176
     1
 90
       50
176
     1
 40
0.0
176
     1
 40
1.0
176
     1
 90
        0
176
     1
 62
    18
420
        0
176
     1
 90
       50
176
     1
 90
        3
176
     1
 62
     5
420
      255
176
     1
290
     0
176
     1
 90
       50
176
     1
 90
       50
176
     1
 90
       50
176
     1
290
     0
176
     1
 90
       50
176
     1
 62
   256
176
     0
 40
1.0
176
     0
 90
        2
176
     1
  1
strokes_ogs.tif
176
     1
290
     0
176
     1
 40
1.0
176
     1
 40
1.0
176
     1
  0
VISUALSTYLE
  5
131
102
{ACAD_REACTORS
330
12D
102
}
330
12D
100
AcDbVisualStyle
  2
GouraudWithEdges
 70
     3
177
     3
291
     1
 70
    58
 90
        2
176
     1
 90
        2
176
     1
 90
        1
176
     1
 90
        2
176
     1
 40
0.6
176
     1
 40
30.0
176
     1
 62
     7
420
 16777215
176
     1
 90
        1
176
     1
 90
        0
176
     1
 62
     7
176
     1
 62
   257
176
     1
 90
        1
176
     1
 90
        1
176
     1
 40
1.0
176
     1
 90
        0
176
     1
 62
   257
176
     1
 40
1.0
176
     1
 90
        1
176
     1
 90
        6
176
     1
 90
        2
176
     1
 62
     7
176
     1
 90
        5
176
     1
 90
        0
176
     1
 90
        0
176
     1
290
     0
176
     1
 90
       13
176
     1
 40
0.0
176
     1
 90
        0
176
     1
290
     0
176
     1
290
     1
176
     1
290
     1
176
     1
290
     0
176
     1
290
     0
176
     1
290
     0
176
     1
290
     0
176
     1
290
     0
176
     1
290
     0
176
     1
 90
       50
176
     1
 40
0.0
176
     1
 40
1.0
176
     1
 90
        0
176
     1
 62
    18
420
        0
176
     1
 90
       50
176
     1
 90
        3
176
     1
 62
     5
420
      255
176
     1
290
     0
176
     1
 90
       50
176
     1
 90
       50
176
     1
 90
       50
176
     1
290
     0
176
     1
 90
       50
176
     1
 62
   256
176
     0
 40
1.0
176
     0
 90
        2
176
     1
  1
strokes_ogs.tif
176
     1
290
     0
176
     1
 40
1.0
176
     1
 40
1.0
176
     1
  0
VISUALSTYLE
  5
134
102
{ACAD_REACTORS
330
12D
102
}
330
12D
100
AcDbVisualStyle
  2
Hidden
 70
     6
177
     3
291
     0
 70
    58
 90
        1
176
     1
 90
        2
176
     1
 90
        2
176
     1
 90
        0
176
     1
 40
0.6
176
     1
 40
30.0
176
     1
 62
     7
420
 16777215
176
     1
 90
        2
176
     1
 90
        2
176
     1
 62
     7
176
     1
 62
   257
176
     1
 90
        2
176
     1
 90
        1
176
     1
 40
40.0
176
     1
 90
        0
176
     1
 62
   257
176
     1
 40
1.0
176
     1
 90
        1
176
     1
 90
        6
176
     1
 90
        2
176
     1
 62
     7
176
     1
 90
        3
176
     1
 90
        0
176
     1
 90
        0
176
     1
290
     0
176
     1
 90
        1
176
     1
 40
0.0
176
     1
 90
        0
176
     1
290
     0
176
     1
290
     1
176
     1
290
     1
176
     1
290
     0
176
     1
290
     0
176
     1
290
     0
176
     1
290
     0
176
     1
290
     0
176
     1
290
     0
176
     1
 90
       50
176
     1
 40
0.0
176
     1
 40
1.0
176
     1
 90
        0
176
     1
 62
    18
420
        0
176
     1
 90
       50
176
     1
 90
        3
176
     1
 62
     5
420
      255
176
     1
290
     0
176
     1
 90
       50
176
     1
 90
       50
176
     1
 90
       50
176
     1
290
     0
176
     1
 90
       50
176
     1
 62
   256
176
     0
 40
1.0
176
     0
 90
        2
176
     1
  1
strokes_ogs.tif
176
     1
290
     0
176
     1
 40
1.0
176
     1
 40
1.0
176
     1
  0
VISUALSTYLE
  5
13E
102
{ACAD_REACTORS
330
12D
102
}
330
12D
100
AcDbVisualStyle
  2
JitterOff
 70
    20
177
     3
291
     1
 70
    58
 90
        2
176
     0
 90
        2
176
     0
 90
        0
176
     0
 90
        0
176
     0
 40
0.6
176
     0
 40
30.0
176
     0
 62
     7
420
 16777215
176
     0
 90
        1
176
     0
 90
        4
176
     0
 62
     7
176
     0
 62
   257
176
     0
 90
        1
176
     0
 90
        1
176
     0
 40
1.0
176
     0
 90
       10
176
     2
 62
     7
176
     0
 40
1.0
176
     0
 90
        1
176
     0
 90
        6
176
     0
 90
        2
176
     0
 62
     7
176
     0
 90
        5
176
     0
 90
        0
176
     0
 90
        0
176
     0
290
     0
176
     0
 90
        1
176
     0
 40
0.0
176
     0
 90
        0
176
     0
290
     0
176
     0
290
     1
176
     0
290
     1
176
     0
290
     0
176
     0
290
     0
176
     0
290
     0
176
     0
290
     0
176
     0
290
     0
176
     0
290
     0
176
     0
 90
       50
176
     0
 40
0.0
176
     0
 40
1.0
176
     0
 90
        0
176
     0
 62
    18
420
        0
176
     0
 90
       50
176
     0
 90
        3
176
     0
 62
     5
420
      255
176
     0
290
     0
176
     0
 90
       50
176
     0
 90
       50
176
     0
 90
       50
176
     0
290
     0
176
     0
 90
       50
176
     0
 62
   256
176
     0
 40
1.0
176
     0
 90
        2
176
     0
  1
strokes_ogs.tif
176
     0
290
     0
176
     0
 40
1.0
176
     0
 40
1.0
176
     0
  0
VISUALSTYLE
  5
13B
102
{ACAD_REACTORS
330
12D
102
}
330
12D
100
AcDbVisualStyle
  2
Linepattern
 70
    14
177
     3
291
     1
 70
    58
 90
        2
176
     1
 90
        2
176
     1
 90
        0
176
     1
 90
        0
176
     1
 40
0.6
176
     1
 40
30.0
176
     1
 62
     7
420
 16777215
176
     1
 90
        1
176
     1
 90
        4
176
     1
 62
     7
176
     1
 62
   257
176
     1
 90
        7
176
     1
 90
        7
176
     1
 40
1.0
176
     1
 90
        8
176
     1
 62
     7
176
     1
 40
1.0
176
     1
 90
        1
176
     1
 90
        6
176
     1
 90
        2
176
     1
 62
     7
176
     1
 90
        5
176
     1
 90
        0
176
     1
 90
        0
176
     1
290
     0
176
     1
 90
        1
176
     1
 40
0.0
176
     1
 90
        0
176
     1
290
     0
176
     1
290
     1
176
     1
290
     1
176
     1
290
     0
176
     1
290
     0
176
     1
290
     0
176
     1
290
     0
176
     1
290
     0
176
     1
290
     0
176
     1
 90
       50
176
     1
 40
0.0
176
     1
 40
1.0
176
     1
 90
        0
176
     1
 62
    18
420
        0
176
     1
 90
       50
176
     1
 90
        3
176
     1
 62
     5
420
      255
176
     1
290
     0
176
     1
 90
       50
176
     1
 90
       50
176
     1
 90
       50
176
     1
290
     0
176
     1
 90
       50
176
     1
 62
   256
176
     0
 40
1.0
176
     0
 90
        2
176
     1
  1
strokes_ogs.tif
176
     1
290
     0
176
     1
 40
1.0
176
     1
 40
1.0
176
     1
  0
VISUALSTYLE
  5
13F
102
{ACAD_REACTORS
330
12D
102
}
330
12D
100
AcDbVisualStyle
  2
OverhangOff
 70
    21
177
     3
291
     1
 70
    58
 90
        2
176
     0
 90
        2
176
     0
 90
        0
176
     0
 90
        0
176
     0
 40
0.6
176
     0
 40
30.0
176
     0
 62
     7
420
 16777215
176
     0
 90
        1
176
     0
 90
        4
176
     0
 62
     7
176
     0
 62
   257
176
     0
 90
        1
176
     0
 90
        1
176
     0
 40
1.0
176
     0
 90
        9
176
     2
 62
     7
176
     0
 40
1.0
176
     0
 90
        1
176
     0
 90
        6
176
     0
 90
        2
176
     0
 62
     7
176
     0
 90
        5
176
     0
 90
        0
176
     0
 90
        0
176
     0
290
     0
176
     0
 90
        1
176
     0
 40
0.0
176
     0
 90
        0
176
     0
290
     0
176
     0
290
     1
176
     0
290
     1
176
     0
290
     0
176
     0
290
     0
176
     0
290
     0
176
     0
290
     0
176
     0
290
     0
176
     0
290
     0
176
     0
 90
       50
176
     0
 40
0.0
176
     0
 40
1.0
176
     0
 90
        0
176
     0
 62
    18
420
        0
176
     0
 90
       50
176
     0
 90
        3
176
     0
 62
     5
420
      255
176
     0
290
     0
176
     0
 90
       50
176
     0
 90
       50
176
     0
 90
       50
176
     0
290
     0
176
     0
 90
       50
176
     0
 62
   256
176
     0
 40
1.0
176
     0
 90
        2
176
     0
  1
strokes_ogs.tif
176
     0
290
     0
176
     0
 40
1.0
176
     0
 40
1.0
176
     0
  0
VISUALSTYLE
  5
136
102
{ACAD_REACTORS
330
12D
102
}
330
12D
100
AcDbVisualStyle
  2
Realistic
 70
     8
177
     3
291
     0
 70
    58
 90
        2
176
     1
 90
        3
176
     1
 90
        0
176
     1
 90
        2
176
     1
 40
0.6
176
     1
 40
30.0
176
     1
 62
     7
420
 16777215
176
     1
 90
        0
176
     1
 90
        0
176
     1
 62
     7
176
     1
 62
   257
176
     1
 90
        1
176
     1
 90
        1
176
     1
 40
1.0
176
     1
 90
        8
176
     1
 62
   257
176
     1
 40
1.0
176
     1
 90
        1
176
     1
 90
        6
176
     1
 90
        2
176
     1
 62
     7
176
     1
 90
        3
176
     1
 90
        0
176
     1
 90
        0
176
     1
290
     0
176
     1
 90
       13
176
     1
 40
0.0
176
     1
 90
        0
176
     1
290
     0
176
     1
290
     1
176
     1
290
     1
176
     1
290
     0
176
     1
290
     0
176
     1
290
     0
176
     1
290
     0
176
     1
290
     0
176
     1
290
     0
176
     1
 90
       50
176
     1
 40
0.0
176
     1
 40
1.0
176
     1
 90
        0
176
     1
 62
    18
420
        0
176
     1
 90
       50
176
     1
 90
        3
176
     1
 62
     5
420
      255
176
     1
290
     0
176
     1
 90
       50
176
     1
 90
       50
176
     1
 90
       50
176
     1
290
     0
176
     1
 90
       50
176
     1
 62
   256
176
     0
 40
1.0
176
     0
 90
        2
176
     1
  1
strokes_ogs.tif
176
     1
290
     0
176
     1
 40
1.0
176
     1
 40
1.0
176
     1
  0
VISUALSTYLE
  5
145
102
{ACAD_REACTORS
330
12D
102
}
330
12D
100
AcDbVisualStyle
  2
Shaded
 70
    27
177
     3
291
     0
 70
    58
 90
        2
176
     1
 90
        2
176
     1
 90
        1
176
     1
 90
        2
176
     1
 40
0.6
176
     1
 40
30.0
176
     1
 62
     7
420
 16777215
176
     1
 90
        0
176
     1
 90
        4
176
     1
 62
     7
176
     1
 62
   257
176
     1
 90
        1
176
     1
 90
        1
176
     1
 40
1.0
176
     1
 90
        8
176
     1
 62
   257
176
     1
 40
1.0
176
     1
 90
        1
176
     1
 90
        6
176
     1
 90
        2
176
     1
 62
     8
420
  7895160
176
     1
 90
        3
176
     1
 90
        0
176
     1
 90
        0
176
     1
290
     0
176
     1
 90
        5
176
     1
 40
0.0
176
     1
 90
        0
176
     1
290
     0
176
     1
290
     1
176
     1
290
     1
176
     1
290
     0
176
     1
290
     0
176
     1
290
     0
176
     1
290
     0
176
     1
290
     0
176
     1
290
     0
176
     1
 90
       50
176
     1
 40
0.0
176
     1
 40
1.0
176
     1
 90
        0
176
     1
 62
    18
420
        0
176
     1
 90
       50
176
     1
 90
        3
176
     1
 62
     5
420
      255
176
     1
290
     0
176
     1
 90
       50
176
     1
 90
       50
176
     1
 90
       50
176
     1
290
     0
176
     1
 90
       50
176
     1
 62
   256
176
     0
 40
1.0
176
     0
 90
        2
176
     1
  1
strokes_ogs.tif
176
     1
290
     0
176
     1
 40
1.0
176
     1
 40
1.0
176
     1
  0
VISUALSTYLE
  5
144
102
{ACAD_REACTORS
330
12D
102
}
330
12D
100
AcDbVisualStyle
  2
Shaded with edges
 70
    26
177
     3
291
     0
 70
    58
 90
        2
176
     1
 90
        2
176
     1
 90
        1
176
     1
 90
        2
176
     1
 40
0.6
176
     1
 40
30.0
176
     1
 62
     7
420
 16777215
176
     1
 90
        1
176
     1
 90
       10
176
     1
 62
     7
176
     1
 62
   257
176
     1
 90
        2
176
     1
 90
        1
176
     1
 40
1.0
176
     1
 90
        8
176
     1
 62
   257
176
     1
 40
1.0
176
     1
 90
        1
176
     1
 90
        6
176
     1
 90
        2
176
     1
 62
     7
176
     1
 90
        3
176
     1
 90
        0
176
     1
 90
        0
176
     1
290
     0
176
     1
 90
        5
176
     1
 40
0.0
176
     1
 90
        0
176
     1
290
     0
176
     1
290
     1
176
     1
290
     1
176
     1
290
     0
176
     1
290
     0
176
     1
290
     0
176
     1
290
     0
176
     1
290
     0
176
     1
290
     0
176
     1
 90
       50
176
     1
 40
0.0
176
     1
 40
1.0
176
     1
 90
        0
176
     1
 62
    18
420
        0
176
     1
 90
       50
176
     1
 90
        3
176
     1
 62
     5
420
      255
176
     1
290
     0
176
     1
 90
       50
176
     1
 90
       50
176
     1
 90
       50
176
     1
290
     0
176
     1
 90
       50
176
     1
 62
   256
176
     0
 40
1.0
176
     0
 90
        2
176
     1
  1
strokes_ogs.tif
176
     1
290
     0
176
     1
 40
1.0
176
     1
 40
1.0
176
     1
  0
VISUALSTYLE
  5
141
102
{ACAD_REACTORS
330
12D
102
}
330
12D
100
AcDbVisualStyle
  2
Shades of Gray
 70
    23
177
     3
291
     0
 70
    58
 90
        2
176
     1
 90
        2
176
     1
 90
        3
176
     1
 90
        0
176
     1
 40
0.6
176
     1
 40
30.0
176
     1
 62
     7
420
 16777215
176
     1
 90
        2
176
     1
 90
        2
176
     1
 62
     7
176
     1
 62
     7
176
     1
 90
        1
176
     1
 90
        1
176
     1
 40
40.0
176
     1
 90
        8
176
     1
 62
     7
176
     1
 40
1.0
176
     1
 90
        1
176
     1
 90
        6
176
     1
 90
        2
176
     1
 62
     7
176
     1
 90
        3
176
     1
 90
        0
176
     1
 90
        0
176
     1
290
     0
176
     1
 90
        1
176
     1
 40
0.0
176
     1
 90
        0
176
     1
290
     0
176
     1
290
     1
176
     1
290
     1
176
     1
290
     0
176
     1
290
     0
176
     1
290
     0
176
     1
290
     0
176
     1
290
     0
176
     1
290
     0
176
     1
 90
       50
176
     1
 40
0.0
176
     1
 40
1.0
176
     1
 90
        0
176
     1
 62
    18
420
        0
176
     1
 90
       50
176
     1
 90
        3
176
     1
 62
     5
420
      255
176
     1
290
     0
176
     1
 90
       50
176
     1
 90
       50
176
     1
 90
       50
176
     1
290
     0
176
     1
 90
       50
176
     1
 62
   256
176
     0
 40
1.0
176
     0
 90
        2
176
     1
  1
strokes_ogs.tif
176
     1
290
     0
176
     1
 40
1.0
176
     1
 40
1.0
176
     1
  0
VISUALSTYLE
  5
142
102
{ACAD_REACTORS
330
12D
102
}
330
12D
100
AcDbVisualStyle
  2
Sketchy
 70
    24
177
     3
291
     0
 70
    58
 90
        1
176
     1
 90
        2
176
     1
 90
        2
176
     1
 90
        0
176
     1
 40
0.6
176
     1
 40
30.0
176
     1
 62
     7
420
 16777215
176
     1
 90
        2
176
     1
 90
        2
176
     1
 62
     7
176
     1
 62
     7
176
     1
 90
        1
176
     1
 90
        1
176
     1
 40
40.0
176
     1
 90
       11
176
     1
 62
     7
176
     1
 40
1.0
176
     1
 90
        1
176
     1
 90
        6
176
     1
 90
        2
176
     1
 62
     7
176
     1
 90
        6
176
     1
 90
        0
176
     1
 90
        0
176
     1
290
     0
176
     1
 90
        1
176
     1
 40
0.0
176
     1
 90
        0
176
     1
290
     0
176
     1
290
     1
176
     1
290
     1
176
     1
290
     0
176
     1
290
     0
176
     1
290
     0
176
     1
290
     0
176
     1
290
     0
176
     1
290
     0
176
     1
 90
       50
176
     1
 40
0.0
176
     1
 40
1.0
176
     1
 90
        0
176
     1
 62
    18
420
        0
176
     1
 90
       50
176
     1
 90
        3
176
     1
 62
     5
420
      255
176
     1
290
     0
176
     1
 90
       50
176
     1
 90
       50
176
     1
 90
       50
176
     1
290
     0
176
     1
 90
       50
176
     1
 62
   256
176
     0
 40
1.0
176
     0
 90
        2
176
     1
  1
strokes_ogs.tif
176
     1
290
     0
176
     1
 40
1.0
176
     1
 40
1.0
176
     1
  0
VISUALSTYLE
  5
13A
102
{ACAD_REACTORS
330
12D
102
}
330
12D
100
AcDbVisualStyle
  2
Thicken
 70
    13
177
     3
291
     1
 70
    58
 90
        2
176
     1
 90
        2
176
     1
 90
        0
176
     1
 90
        0
176
     1
 40
0.6
176
     1
 40
30.0
176
     1
 62
     7
420
 16777215
176
     1
 90
        1
176
     1
 90
        4
176
     1
 62
     7
176
     1
 62
   257
176
     1
 90
        1
176
     1
 90
        1
176
     1
 40
1.0
176
     1
 90
       12
176
     1
 62
     7
176
     1
 40
1.0
176
     1
 90
        1
176
     1
 90
        6
176
     1
 90
        2
176
     1
 62
     7
176
     1
 90
        5
176
     1
 90
        0
176
     1
 90
        0
176
     1
290
     0
176
     1
 90
        1
176
     1
 40
0.0
176
     1
 90
        0
176
     1
290
     0
176
     1
290
     1
176
     1
290
     1
176
     1
290
     0
176
     1
290
     0
176
     1
290
     0
176
     1
290
     0
176
     1
290
     0
176
     1
290
     0
176
     1
 90
       50
176
     1
 40
0.0
176
     1
 40
1.0
176
     1
 90
        0
176
     1
 62
    18
420
        0
176
     1
 90
       50
176
     1
 90
        3
176
     1
 62
     5
420
      255
176
     1
290
     0
176
     1
 90
       50
176
     1
 90
       50
176
     1
 90
       50
176
     1
290
     0
176
     1
 90
       50
176
     1
 62
   256
176
     0
 40
1.0
176
     0
 90
        2
176
     1
  1
strokes_ogs.tif
176
     1
290
     0
176
     1
 40
1.0
176
     1
 40
1.0
176
     1
  0
VISUALSTYLE
  5
133
102
{ACAD_REACTORS
330
12D
102
}
330
12D
100
AcDbVisualStyle
  2
Wireframe
 70
     5
177
     3
291
     0
 70
    58
 90
        0
176
     1
 90
        2
176
     1
 90
        0
176
     1
 90
        0
176
     1
 40
0.6
176
     1
 40
30.0
176
     1
 62
     7
420
 16777215
176
     1
 90
        1
176
     1
 90
        4
176
     1
 62
     7
176
     1
 62
   257
176
     1
 90
        1
176
     1
 90
        1
176
     1
 40
1.0
176
     1
 90
        0
176
     1
 62
   257
176
     1
 40
1.0
176
     1
 90
        1
176
     1
 90
        6
176
     1
 90
        2
176
     1
 62
     7
176
     1
 90
        3
176
     1
 90
        0
176
     1
 90
        0
176
     1
290
     0
176
     1
 90
        1
176
     1
 40
0.0
176
     1
 90
        0
176
     1
290
     0
176
     1
290
     1
176
     1
290
     1
176
     1
290
     0
176
     1
290
     0
176
     1
290
     0
176
     1
290
     0
176
     1
290
     0
176
     1
290
     0
176
     1
 90
       50
176
     1
 40
0.0
176
     1
 40
1.0
176
     1
 90
        0
176
     1
 62
    18
420
        0
176
     1
 90
       50
176
     1
 90
        3
176
     1
 62
     5
420
      255
176
     1
290
     0
176
     1
 90
       50
176
     1
 90
       50
176
     1
 90
       50
176
     1
290
     0
176
     1
 90
       50
176
     1
 62
   256
176
     0
 40
1.0
176
     0
 90
        2
176
     1
  1
strokes_ogs.tif
176
     1
290
     0
176
     1
 40
1.0
176
     1
 40
1.0
176
     1
  0
VISUALSTYLE
  5
143
102
{ACAD_REACTORS
330
12D
102
}
330
12D
100
AcDbVisualStyle
  2
X-Ray
 70
    25
177
     3
291
     0
 70
    58
 90
        2
176
     1
 90
        2
176
     1
 90
        1
176
     1
 90
        1
176
     1
 40
0.5
176
     1
 40
30.0
176
     1
 62
     7
420
 16777215
176
     1
 90
        1
176
     1
 90
        0
176
     1
 62
     7
176
     1
 62
   257
176
     1
 90
        1
176
     1
 90
        1
176
     1
 40
1.0
176
     1
 90
        8
176
     1
 62
     7
176
     1
 40
1.0
176
     1
 90
        1
176
     1
 90
        6
176
     1
 90
        2
176
     1
 62
     7
176
     1
 90
        3
176
     1
 90
        0
176
     1
 90
        0
176
     1
290
     0
176
     1
 90
       13
176
     1
 40
0.0
176
     1
 90
        0
176
     1
290
     0
176
     1
290
     1
176
     1
290
     1
176
     1
290
     0
176
     1
290
     0
176
     1
290
     0
176
     1
290
     0
176
     1
290
     0
176
     1
290
     0
176
     1
 90
       50
176
     1
 40
0.0
176
     1
 40
1.0
176
     1
 90
        0
176
     1
 62
    18
420
        0
176
     1
 90
       50
176
     1
 90
        3
176
     1
 62
     5
420
      255
176
     1
290
     0
176
     1
 90
       50
176
     1
 90
       50
176
     1
 90
       50
176
     1
290
     0
176
     1
 90
       50
176
     1
 62
   256
176
     0
 40
1.0
176
     0
 90
        2
176
     1
  1
strokes_ogs.tif
176
     1
290
     0
176
     1
 40
1.0
176
     1
 40
1.0
176
     1
  0
DICTIONARYVAR
  5
150
102
{ACAD_REACTORS
330
14F
102
}
330
14F
100
DictionaryVariables
280
     0
  1
1:1
  0
DICTIONARYVAR
  5
152
102
{ACAD_REACTORS
330
14F
102
}
330
14F
100
DictionaryVariables
280
     0
  1
Standard
  0
DICTIONARYVAR
  5
151
102
{ACAD_REACTORS
330
14F
102
}
330
14F
100
DictionaryVariables
280
     0
  1
Standard
  0
DICTIONARYVAR
  5
153
102
{ACAD_REACTORS
330
14F
102
}
330
14F
100
DictionaryVariables
280
     0
  1
0
  0
DICTIONARY
  5
169
330
14B
100
AcDbDictionary
280
     1
281
     1
  3
ACAD_ROUNDTRIP_2008_TABLESTYLE_CELLSTYLEMAP
360
16A
  0
CELLSTYLEMAP
  5
16A
102
{ACAD_REACTORS
330
169
102
}
330
169
100
AcDbCellStyleMap
 90
        3
300
CELLSTYLE
  1
TABLEFORMAT_BEGIN
 90
        5
170
     1
 91
        0
 92
    32768
 62
   257
 93
        1
300
CONTENTFORMAT
  1
CONTENTFORMAT_BEGIN
 90
        0
 91
        0
 92
        4
 93
        0
300

 40
0.0
140
1.0
 94
        5
 62
     0
340
11
144
6.0
309
CONTENTFORMAT_END
171
     1
301
MARGIN
  1
CELLMARGIN_BEGIN
 40
1.5
 40
1.5
 40
1.5
 40
1.5
 40
1.5
 40
1.5
309
CELLMARGIN_END
 94
        6
 95
        1
302
GRIDFORMAT
  1
GRIDFORMAT_BEGIN
 90
        0
 91
        1
 62
     0
 92
       -2
340
14
 93
        0
 40
0.045
309
GRIDFORMAT_END
 95
        2
302
GRIDFORMAT
  1
GRIDFORMAT_BEGIN
 90
        0
 91
        1
 62
     0
 92
       -2
340
14
 93
        0
 40
0.045
309
GRIDFORMAT_END
 95
        4
302
GRIDFORMAT
  1
GRIDFORMAT_BEGIN
 90
        0
 91
        1
 62
     0
 92
       -2
340
14
 93
        0
 40
0.045
309
GRIDFORMAT_END
 95
        8
302
GRIDFORMAT
  1
GRIDFORMAT_BEGIN
 90
        0
 91
        1
 62
     0
 92
       -2
340
14
 93
        0
 40
0.045
309
GRIDFORMAT_END
 95
       16
302
GRIDFORMAT
  1
GRIDFORMAT_BEGIN
 90
        0
 91
        1
 62
     0
 92
       -2
340
14
 93
        0
 40
0.045
309
GRIDFORMAT_END
 95
       32
302
GRIDFORMAT
  1
GRIDFORMAT_BEGIN
 90
        0
 91
        1
 62
     0
 92
       -2
340
14
 93
        0
 40
0.045
309
GRIDFORMAT_END
309
TABLEFORMAT_END
  1
CELLSTYLE_BEGIN
 90
        1
 91
        1
300
_TITLE
309
CELLSTYLE_END
300
CELLSTYLE
  1
TABLEFORMAT_BEGIN
 90
        5
170
     1
 91
        0
 92
        0
 62
   257
 93
        1
300
CONTENTFORMAT
  1
CONTENTFORMAT_BEGIN
 90
        0
 91
        0
 92
        4
 93
        0
300

 40
0.0
140
1.0
 94
        5
 62
     0
340
11
144
4.5
309
CONTENTFORMAT_END
171
     1
301
MARGIN
  1
CELLMARGIN_BEGIN
 40
1.5
 40
1.5
 40
1.5
 40
1.5
 40
1.5
 40
1.5
309
CELLMARGIN_END
 94
        6
 95
        1
302
GRIDFORMAT
  1
GRIDFORMAT_BEGIN
 90
        0
 91
        1
 62
     0
 92
       -2
340
14
 93
        0
 40
0.045
309
GRIDFORMAT_END
 95
        2
302
GRIDFORMAT
  1
GRIDFORMAT_BEGIN
 90
        0
 91
        1
 62
     0
 92
       -2
340
14
 93
        0
 40
0.045
309
GRIDFORMAT_END
 95
        4
302
GRIDFORMAT
  1
GRIDFORMAT_BEGIN
 90
        0
 91
        1
 62
     0
 92
       -2
340
14
 93
        0
 40
0.045
309
GRIDFORMAT_END
 95
        8
302
GRIDFORMAT
  1
GRIDFORMAT_BEGIN
 90
        0
 91
        1
 62
     0
 92
       -2
340
14
 93
        0
 40
0.045
309
GRIDFORMAT_END
 95
       16
302
GRIDFORMAT
  1
GRIDFORMAT_BEGIN
 90
        0
 91
        1
 62
     0
 92
       -2
340
14
 93
        0
 40
0.045
309
GRIDFORMAT_END
 95
       32
302
GRIDFORMAT
  1
GRIDFORMAT_BEGIN
 90
        0
 91
        1
 62
     0
 92
       -2
340
14
 93
        0
 40
0.045
309
GRIDFORMAT_END
309
TABLEFORMAT_END
  1
CELLSTYLE_BEGIN
 90
        2
 91
        1
300
_HEADER
309
CELLSTYLE_END
300
CELLSTYLE
  1
TABLEFORMAT_BEGIN
 90
        5
170
     1
 91
        0
 92
        0
 62
   257
 93
        1
300
CONTENTFORMAT
  1
CONTENTFORMAT_BEGIN
 90
        0
 91
        0
 92
        4
 93
        0
300

 40
0.0
140
1.0
 94
        2
 62
     0
340
11
144
4.5
309
CONTENTFORMAT_END
171
     1
301
MARGIN
  1
CELLMARGIN_BEGIN
 40
1.5
 40
1.5
 40
1.5
 40
1.5
 40
1.5
 40
1.5
309
CELLMARGIN_END
 94
        6
 95
        1
302
GRIDFORMAT
  1
GRIDFORMAT_BEGIN
 90
        0
 91
        1
 62
     0
 92
       -2
340
14
 93
        0
 40
0.045
309
GRIDFORMAT_END
 95
        2
302
GRIDFORMAT
  1
GRIDFORMAT_BEGIN
 90
        0
 91
        1
 62
     0
 92
       -2
340
14
 93
        0
 40
0.045
309
GRIDFORMAT_END
 95
        4
302
GRIDFORMAT
  1
GRIDFORMAT_BEGIN
 90
        0
 91
        1
 62
     0
 92
       -2
340
14
 93
        0
 40
0.045
309
GRIDFORMAT_END
 95
        8
302
GRIDFORMAT
  1
GRIDFORMAT_BEGIN
 90
        0
 91
        1
 62
     0
 92
       -2
340
14
 93
        0
 40
0.045
309
GRIDFORMAT_END
 95
       16
302
GRIDFORMAT
  1
GRIDFORMAT_BEGIN
 90
        0
 91
        1
 62
     0
 92
       -2
340
14
 93
        0
 40
0.045
309
GRIDFORMAT_END
 95
       32
302
GRIDFORMAT
  1
GRIDFORMAT_BEGIN
 90
        0
 91
        1
 62
     0
 92
       -2
340
14
 93
        0
 40
0.045
309
GRIDFORMAT_END
309
TABLEFORMAT_END
  1
CELLSTYLE_BEGIN
 90
        3
 91
        2
300
_DATA
309
CELLSTYLE_END
  0
ENDSEC
  0
EOF
