  0
SECTION
  2
HEADER
  9
$ACADVER
  1
AC1032
  9
$ACADMAINTVER
 90
        4
  9
$DWGCODEPAGE
  3
ANSI_932
  9
$LASTSAVEDBY
  1
9128
  9
$REQUIREDVERSIONS
160
                 0
  9
$INSBASE
 10
0.0
 20
0.0
 30
0.0
  9
$EXTMIN
 10
0.7172915065955578
 20
0.8828814262037668
 30
0.0
  9
$EXTMAX
 10
156.7231537722508
 20
243.7959889494792
 30
0.0
  9
$LIMMIN
 10
0.0
 20
0.0
  9
$LIMMAX
 10
12.0
 20
9.0
  9
$ORTHOMODE
 70
     0
  9
$REGENMODE
 70
     1
  9
$FILLMODE
 70
     1
  9
$QTEXTMODE
 70
     0
  9
$MIRRTEXT
 70
     1
  9
$LTSCALE
 40
1.0
  9
$ATTMODE
 70
     1
  9
$TEXTSIZE
 40
0.2
  9
$TRACEWID
 40
0.05
  9
$TEXTSTYLE
  7
Standard
  9
$CLAYER
  8
0
  9
$CELTYPE
  6
ByLayer
  9
$CECOLOR
 62
   256
  9
$CELTSCALE
 40
1.0
  9
$DISPSILH
 70
     0
  9
$DIMSCALE
 40
1.0
  9
$DIMASZ
 40
0.18
  9
$DIMEXO
 40
0.0625
  9
$DIMDLI
 40
0.38
  9
$DIMRND
 40
0.0
  9
$DIMDLE
 40
0.0
  9
$DIMEXE
 40
0.18
  9
$DIMTP
 40
0.0
  9
$DIMTM
 40
0.0
  9
$DIMTXT
 40
0.18
  9
$DIMCEN
 40
0.09
  9
$DIMTSZ
 40
0.0
  9
$DIMTOL
 70
     0
  9
$DIMLIM
 70
     0
  9
$DIMTIH
 70
     1
  9
$DIMTOH
 70
     1
  9
$DIMSE1
 70
     0
  9
$DIMSE2
 70
     0
  9
$DIMTAD
 70
     0
  9
$DIMZIN
 70
     0
  9
$DIMBLK
  1

  9
$DIMASO
 70
     1
  9
$DIMSHO
 70
     1
  9
$DIMPOST
  1

  9
$DIMAPOST
  1

  9
$DIMALT
 70
     0
  9
$DIMALTD
 70
     2
  9
$DIMALTF
 40
25.4
  9
$DIMLFAC
 40
1.0
  9
$DIMTOFL
 70
     0
  9
$DIMTVP
 40
0.0
  9
$DIMTIX
 70
     0
  9
$DIMSOXD
 70
     0
  9
$DIMSAH
 70
     0
  9
$DIMBLK1
  1

  9
$DIMBLK2
  1

  9
$DIMSTYLE
  2
Standard
  9
$DIMCLRD
 70
     0
  9
$DIMCLRE
 70
     0
  9
$DIMCLRT
 70
     0
  9
$DIMTFAC
 40
1.0
  9
$DIMGAP
 40
0.09
  9
$DIMJUST
 70
     0
  9
$DIMSD1
 70
     0
  9
$DIMSD2
 70
     0
  9
$DIMTOLJ
 70
     1
  9
$DIMTZIN
 70
     0
  9
$DIMALTZ
 70
     0
  9
$DIMALTTZ
 70
     0
  9
$DIMUPT
 70
     0
  9
$DIMDEC
 70
     4
  9
$DIMTDEC
 70
     4
  9
$DIMALTU
 70
     2
  9
$DIMALTTD
 70
     2
  9
$DIMTXSTY
  7
Standard
  9
$DIMAUNIT
 70
     0
  9
$DIMADEC
 70
     0
  9
$DIMALTRND
 40
0.0
  9
$DIMAZIN
 70
     0
  9
$DIMDSEP
 70
    46
  9
$DIMATFIT
 70
     3
  9
$DIMFRAC
 70
     0
  9
$DIMLDRBLK
  1

  9
$DIMLUNIT
 70
     2
  9
$DIMLWD
 70
    -2
  9
$DIMLWE
 70
    -2
  9
$DIMTMOVE
 70
     0
  9
$DIMFXL
 40
1.0
  9
$DIMFXLON
 70
     0
  9
$DIMJOGANG
 40
0.7853981633974483
  9
$DIMTFILL
 70
     0
  9
$DIMTFILLCLR
 70
     0
  9
$DIMARCSYM
 70
     0
  9
$DIMLTYPE
  6

  9
$DIMLTEX1
  6

  9
$DIMLTEX2
  6

  9
$DIMTXTDIRECTION
 70
     0
  9
$LUNITS
 70
     2
  9
$LUPREC
 70
     4
  9
$SKETCHINC
 40
0.1
  9
$FILLETRAD
 40
0.5
  9
$AUNITS
 70
     0
  9
$AUPREC
 70
     0
  9
$MENU
  1
.
  9
$ELEVATION
 40
0.0
  9
$PELEVATION
 40
0.0
  9
$THICKNESS
 40
0.0
  9
$LIMCHECK
 70
     0
  9
$CHAMFERA
 40
0.5
  9
$CHAMFERB
 40
0.5
  9
$CHAMFERC
 40
1.0
  9
$CHAMFERD
 40
0.0
  9
$SKPOLY
 70
     0
  9
$TDCREATE
 40
2457543.378255081
  9
$TDUCREATE
 40
2457543.003255081
  9
$TDUPDATE
 40
2459608.571233415
  9
$TDUUPDATE
 40
2459608.196233415
  9
$TDINDWG
 40
0.0053528588
  9
$TDUSRTIMER
 40
0.0000841204
  9
$USRTIMER
 70
     1
  9
$ANGBASE
 50
0.0
  9
$ANGDIR
 70
     0
  9
$PDMODE
 70
     0
  9
$PDSIZE
 40
0.0
  9
$PLINEWID
 40
0.0
  9
$SPLFRAME
 70
     0
  9
$SPLINETYPE
 70
     6
  9
$SPLINESEGS
 70
     8
  9
$HANDSEED
  5
634
  9
$SURFTAB1
 70
     6
  9
$SURFTAB2
 70
     6
  9
$SURFTYPE
 70
     6
  9
$SURFU
 70
     6
  9
$SURFV
 70
     6
  9
$UCSBASE
  2

  9
$UCSNAME
  2

  9
$UCSORG
 10
0.0
 20
0.0
 30
0.0
  9
$UCSXDIR
 10
1.0
 20
0.0
 30
0.0
  9
$UCSYDIR
 10
0.0
 20
1.0
 30
0.0
  9
$UCSORTHOREF
  2

  9
$UCSORTHOVIEW
 70
     0
  9
$UCSORGTOP
 10
0.0
 20
0.0
 30
0.0
  9
$UCSORGBOTTOM
 10
0.0
 20
0.0
 30
0.0
  9
$UCSORGLEFT
 10
0.0
 20
0.0
 30
0.0
  9
$UCSORGRIGHT
 10
0.0
 20
0.0
 30
0.0
  9
$UCSORGFRONT
 10
0.0
 20
0.0
 30
0.0
  9
$UCSORGBACK
 10
0.0
 20
0.0
 30
0.0
  9
$PUCSBASE
  2

  9
$PUCSNAME
  2

  9
$PUCSORG
 10
0.0
 20
0.0
 30
0.0
  9
$PUCSXDIR
 10
1.0
 20
0.0
 30
0.0
  9
$PUCSYDIR
 10
0.0
 20
1.0
 30
0.0
  9
$PUCSORTHOREF
  2

  9
$PUCSORTHOVIEW
 70
     0
  9
$PUCSORGTOP
 10
0.0
 20
0.0
 30
0.0
  9
$PUCSORGBOTTOM
 10
0.0
 20
0.0
 30
0.0
  9
$PUCSORGLEFT
 10
0.0
 20
0.0
 30
0.0
  9
$PUCSORGRIGHT
 10
0.0
 20
0.0
 30
0.0
  9
$PUCSORGFRONT
 10
0.0
 20
0.0
 30
0.0
  9
$PUCSORGBACK
 10
0.0
 20
0.0
 30
0.0
  9
$USERI1
 70
     0
  9
$USERI2
 70
     0
  9
$USERI3
 70
     0
  9
$USERI4
 70
     0
  9
$USERI5
 70
     0
  9
$USERR1
 40
0.0
  9
$USERR2
 40
0.0
  9
$USERR3
 40
0.0
  9
$USERR4
 40
0.0
  9
$USERR5
 40
0.0
  9
$WORLDVIEW
 70
     1
  9
$SHADEDGE
 70
     3
  9
$SHADEDIF
 70
    70
  9
$TILEMODE
 70
     1
  9
$MAXACTVP
 70
    64
  9
$PINSBASE
 10
0.0
 20
0.0
 30
0.0
  9
$PLIMCHECK
 70
     0
  9
$PEXTMIN
 10
1.000000000000000E+20
 20
1.000000000000000E+20
 30
1.000000000000000E+20
  9
$PEXTMAX
 10
-1.000000000000000E+20
 20
-1.000000000000000E+20
 30
-1.000000000000000E+20
  9
$PLIMMIN
 10
0.0
 20
0.0
  9
$PLIMMAX
 10
0.0
 20
0.0
  9
$UNITMODE
 70
     0
  9
$VISRETAIN
 70
     1
  9
$PLINEGEN
 70
     0
  9
$PSLTSCALE
 70
     1
  9
$TREEDEPTH
 70
  3020
  9
$CMLSTYLE
  2
Standard
  9
$CMLJUST
 70
     0
  9
$CMLSCALE
 40
1.0
  9
$PROXYGRAPHICS
 70
     1
  9
$MEASUREMENT
 70
     0
  9
$CELWEIGHT
370
    -1
  9
$ENDCAPS
280
     0
  9
$JOINSTYLE
280
     0
  9
$LWDISPLAY
290
     1
  9
$INSUNITS
 70
     1
  9
$HYPERLINKBASE
  1

  9
$STYLESHEET
  1

  9
$XEDIT
290
     1
  9
$CEPSNTYPE
380
     0
  9
$PSTYLEMODE
290
     1
  9
$FINGERPRINTGUID
  2
{E64F882E-8576-4E9E-A5C4-A710534943C3}
  9
$VERSIONGUID
  2
{FAEB1C32-E019-11D5-929B-00C0DF256EC4}
  9
$EXTNAMES
290
     1
  9
$PSVPSCALE
 40
0.0
  9
$OLESTARTUP
290
     0
  9
$SORTENTS
280
   127
  9
$INDEXCTL
280
     0
  9
$HIDETEXT
280
     1
  9
$XCLIPFRAME
280
     2
  9
$HALOGAP
280
     0
  9
$OBSCOLOR
 70
   257
  9
$OBSLTYPE
280
     0
  9
$INTERSECTIONDISPLAY
280
     0
  9
$INTERSECTIONCOLOR
 70
   257
  9
$DIMASSOC
280
     2
  9
$PROJECTNAME
  1

  9
$CAMERADISPLAY
290
     0
  9
$LENSLENGTH
 40
50.0
  9
$CAMERAHEIGHT
 40
0.0
  9
$STEPSPERSEC
 40
2.0
  9
$STEPSIZE
 40
6.0
  9
$3DDWFPREC
 40
2.0
  9
$PSOLWIDTH
 40
0.25
  9
$PSOLHEIGHT
 40
4.0
  9
$LOFTANG1
 40
1.570796326794897
  9
$LOFTANG2
 40
1.570796326794897
  9
$LOFTMAG1
 40
0.0
  9
$LOFTMAG2
 40
0.0
  9
$LOFTPARAM
 70
     7
  9
$LOFTNORMALS
280
     1
  9
$LATITUDE
 40
37.795
  9
$LONGITUDE
 40
-122.394
  9
$NORTHDIRECTION
 40
0.0
  9
$TIMEZONE
 70
 -8000
  9
$LIGHTGLYPHDISPLAY
280
     1
  9
$TILEMODELIGHTSYNCH
280
     1
  9
$SOLIDHIST
280
     0
  9
$SHOWHIST
280
     1
  9
$DWFFRAME
280
     2
  9
$DGNFRAME
280
     2
  9
$REALWORLDSCALE
290
     1
  9
$INTERFERECOLOR
 62
   256
  9
$CSHADOW
280
     0
  9
$SHADOWPLANELOCATION
 40
0.0
  0
ENDSEC
  0
SECTION
  2
CLASSES
  0
CLASS
  1
ACDBDICTIONARYWDFLT
  2
AcDbDictionaryWithDefault
  3
ObjectDBX Classes
 90
        0
 91
        3
280
     0
281
     0
  0
CLASS
  1
VISUALSTYLE
  2
AcDbVisualStyle
  3
ObjectDBX Classes
 90
     4095
 91
        3
280
     0
281
     0
  0
CLASS
  1
ACDBPLACEHOLDER
  2
AcDbPlaceHolder
  3
ObjectDBX Classes
 90
        0
 91
        1
280
     0
281
     0
  0
CLASS
  1
LAYOUT
  2
AcDbLayout
  3
ObjectDBX Classes
 90
        0
 91
        1
280
     0
281
     0
  0
CLASS
  1
SCALE
  2
AcDbScale
  3
ObjectDBX Classes
 90
     1153
 91
        3
280
     0
281
     0
  0
CLASS
  1
MATERIAL
  2
AcDbMaterial
  3
ObjectDBX Classes
 90
     1153
 91
        3
280
     0
281
     0
  0
CLASS
  1
TABLESTYLE
  2
AcDbTableStyle
  3
ObjectDBX Classes
 90
     4095
 91
        3
280
     0
281
     0
  0
CLASS
  1
MLEADERSTYLE
  2
AcDbMLeaderStyle
  3
ACDB_MLEADERSTYLE_CLASS
 90
     4095
 91
        3
280
     0
281
     0
  0
CLASS
  1
DICTIONARYVAR
  2
AcDbDictionaryVar
  3
ObjectDBX Classes
 90
        0
 91
        3
280
     0
281
     0
  0
CLASS
  1
SUN
  2
AcDbSun
  3
SCENEOE
 90
     1153
 91
        3
280
     0
281
     0
  0
CLASS
  1
CELLSTYLEMAP
  2
AcDbCellStyleMap
  3
ObjectDBX Classes
 90
     1152
 91
        3
280
     0
281
     0
  0
ENDSEC
  0
SECTION
  2
TABLES
  0
TABLE
  2
VPORT
  5
8
330
0
100
AcDbSymbolTable
 70
     1
  0
VPORT
  5
29
330
8
100
AcDbSymbolTableRecord
100
AcDbViewportTableRecord
  2
*Active
 70
     0
 10
0.0
 20
0.0
 11
1.0
 21
1.0
 12
-58.36540922961231
 22
30.10749500876378
 13
0.0
 23
0.0
 14
0.5
 24
0.5
 15
0.5
 25
0.5
 16
0.0
 26
0.0
 36
1.0
 17
148.3916313648118
 27
104.891616455982
 37
0.0
 40
334.3687299807538
 41
0.9309815950920246
 42
50.0
 43
0.0
 44
0.0
 50
0.0
 51
0.0
 71
    16
 72
   100
 73
     1
 74
     3
 75
     0
 76
     0
 77
     0
 78
     0
281
     0
 65
     1
110
0.0
120
0.0
130
0.0
111
1.0
121
0.0
131
0.0
112
0.0
122
1.0
132
0.0
 79
     0
146
0.0
348
610
 60
     3
 61
     5
292
     1
282
     1
141
0.0
142
0.0
 63
   256
361
630
  0
ENDTAB
  0
TABLE
  2
LTYPE
  5
5
330
0
100
AcDbSymbolTable
 70
     1
  0
LTYPE
  5
14
330
5
100
AcDbSymbolTableRecord
100
AcDbLinetypeTableRecord
  2
ByBlock
 70
     0
  3

 72
    65
 73
     0
 40
0.0
  0
LTYPE
  5
15
330
5
100
AcDbSymbolTableRecord
100
AcDbLinetypeTableRecord
  2
ByLayer
 70
     0
  3

 72
    65
 73
     0
 40
0.0
  0
LTYPE
  5
16
330
5
100
AcDbSymbolTableRecord
100
AcDbLinetypeTableRecord
  2
Continuous
 70
     0
  3
Solid line
 72
    65
 73
     0
 40
0.0
  0
ENDTAB
  0
TABLE
  2
LAYER
  5
2
102
{ACAD_XDICTIONARY
360
5D2
102
}
330
0
100
AcDbSymbolTable
 70
     3
  0
LAYER
  5
10
330
2
100
AcDbSymbolTableRecord
100
AcDbLayerTableRecord
  2
0
 70
     0
 62
     7
  6
Continuous
370
    -3
390
F
347
627
348
0
  0
LAYER
  5
3B
330
2
100
AcDbSymbolTableRecord
100
AcDbLayerTableRecord
  2
フォーマット
 70
     0
 62
     7
  6
Continuous
370
    -3
390
F
347
627
348
0
  0
LAYER
  5
198
330
2
100
AcDbSymbolTableRecord
100
AcDbLayerTableRecord
  2
レイヤー 1
 70
     0
 62
     7
  6
Continuous
370
    -3
390
F
347
627
348
0
  0
ENDTAB
  0
TABLE
  2
STYLE
  5
3
330
0
100
AcDbSymbolTable
 70
     1
  0
STYLE
  5
11
330
3
100
AcDbSymbolTableRecord
100
AcDbTextStyleTableRecord
  2
Standard
 70
     0
 40
0.0
 41
1.0
 50
0.0
 71
     0
 42
0.2
  3
txt
  4

  0
ENDTAB
  0
TABLE
  2
VIEW
  5
6
330
0
100
AcDbSymbolTable
 70
     0
  0
ENDTAB
  0
TABLE
  2
UCS
  5
7
330
0
100
AcDbSymbolTable
 70
     0
  0
ENDTAB
  0
TABLE
  2
APPID
  5
9
330
0
100
AcDbSymbolTable
 70
     2
  0
APPID
  5
12
330
9
100
AcDbSymbolTableRecord
100
AcDbRegAppTableRecord
  2
ACAD
 70
     0
  0
APPID
  5
5F9
330
9
100
AcDbSymbolTableRecord
100
AcDbRegAppTableRecord
  2
PLOTTRANSPARENCY
 70
     0
  0
ENDTAB
  0
TABLE
  2
DIMSTYLE
  5
A
330
0
100
AcDbSymbolTable
 70
     1
100
AcDbDimStyleTable
  0
DIMSTYLE
105
27
330
A
100
AcDbSymbolTableRecord
100
AcDbDimStyleTableRecord
  2
Standard
 70
     0
178
     0
340
11
  0
ENDTAB
  0
TABLE
  2
BLOCK_RECORD
  5
1
330
0
100
AcDbSymbolTable
 70
    91
  0
BLOCK_RECORD
  5
1F
330
1
100
AcDbSymbolTableRecord
100
AcDbBlockTableRecord
  2
*Model_Space
340
22
 70
     0
280
     1
281
     0
  0
BLOCK_RECORD
  5
1B
330
1
100
AcDbSymbolTableRecord
100
AcDbBlockTableRecord
  2
*Paper_Space
340
1E
 70
     0
280
     1
281
     0
  0
BLOCK_RECORD
  5
23
330
1
100
AcDbSymbolTableRecord
100
AcDbBlockTableRecord
  2
*Paper_Space0
340
26
 70
     0
280
     1
281
     0
  0
BLOCK_RECORD
  5
3C
330
1
100
AcDbSymbolTableRecord
100
AcDbBlockTableRecord
  2
block 2
340
0
 70
     0
280
     1
281
     0
  0
BLOCK_RECORD
  5
50
330
1
100
AcDbSymbolTableRecord
100
AcDbBlockTableRecord
  2
block 3
340
0
102
{BLKREFS
331
51
102
}
 70
     0
280
     1
281
     0
  0
BLOCK_RECORD
  5
54
330
1
100
AcDbSymbolTableRecord
100
AcDbBlockTableRecord
  2
block 4
340
0
102
{BLKREFS
331
55
102
}
 70
     0
280
     1
281
     0
  0
BLOCK_RECORD
  5
58
330
1
100
AcDbSymbolTableRecord
100
AcDbBlockTableRecord
  2
block 5
340
0
102
{BLKREFS
331
59
102
}
 70
     0
280
     1
281
     0
  0
BLOCK_RECORD
  5
5C
330
1
100
AcDbSymbolTableRecord
100
AcDbBlockTableRecord
  2
block 6
340
0
102
{BLKREFS
331
5D
102
}
 70
     0
280
     1
281
     0
  0
BLOCK_RECORD
  5
97
330
1
100
AcDbSymbolTableRecord
100
AcDbBlockTableRecord
  2
block 7
340
0
102
{BLKREFS
331
98
102
}
 70
     0
280
     1
281
     0
  0
BLOCK_RECORD
  5
9B
330
1
100
AcDbSymbolTableRecord
100
AcDbBlockTableRecord
  2
block 8
340
0
102
{BLKREFS
331
9C
102
}
 70
     0
280
     1
281
     0
  0
BLOCK_RECORD
  5
9F
330
1
100
AcDbSymbolTableRecord
100
AcDbBlockTableRecord
  2
block 9
340
0
102
{BLKREFS
331
A0
102
}
 70
     0
280
     1
281
     0
  0
BLOCK_RECORD
  5
A3
330
1
100
AcDbSymbolTableRecord
100
AcDbBlockTableRecord
  2
block 10
340
0
102
{BLKREFS
331
A4
102
}
 70
     0
280
     1
281
     0
  0
BLOCK_RECORD
  5
B1
330
1
100
AcDbSymbolTableRecord
100
AcDbBlockTableRecord
  2
block 11
340
0
102
{BLKREFS
331
B2
102
}
 70
     0
280
     1
281
     0
  0
BLOCK_RECORD
  5
B5
330
1
100
AcDbSymbolTableRecord
100
AcDbBlockTableRecord
  2
block 12
340
0
102
{BLKREFS
331
B6
102
}
 70
     0
280
     1
281
     0
  0
BLOCK_RECORD
  5
B9
330
1
100
AcDbSymbolTableRecord
100
AcDbBlockTableRecord
  2
block 13
340
0
102
{BLKREFS
331
BA
102
}
 70
     0
280
     1
281
     0
  0
BLOCK_RECORD
  5
BD
330
1
100
AcDbSymbolTableRecord
100
AcDbBlockTableRecord
  2
block 14
340
0
102
{BLKREFS
331
BE
102
}
 70
     0
280
     1
281
     0
  0
BLOCK_RECORD
  5
F8
330
1
100
AcDbSymbolTableRecord
100
AcDbBlockTableRecord
  2
block 15
340
0
102
{BLKREFS
331
F9
102
}
 70
     0
280
     1
281
     0
  0
BLOCK_RECORD
  5
FC
330
1
100
AcDbSymbolTableRecord
100
AcDbBlockTableRecord
  2
block 16
340
0
102
{BLKREFS
331
FD
102
}
 70
     0
280
     1
281
     0
  0
BLOCK_RECORD
  5
100
330
1
100
AcDbSymbolTableRecord
100
AcDbBlockTableRecord
  2
block 17
340
0
102
{BLKREFS
331
101
102
}
 70
     0
280
     1
281
     0
  0
BLOCK_RECORD
  5
104
330
1
100
AcDbSymbolTableRecord
100
AcDbBlockTableRecord
  2
block 18
340
0
102
{BLKREFS
331
105
102
}
 70
     0
280
     1
281
     0
  0
BLOCK_RECORD
  5
19D
330
1
100
AcDbSymbolTableRecord
100
AcDbBlockTableRecord
  2
block 19
340
0
102
{BLKREFS
331
19E
102
}
 70
     0
280
     1
281
     0
  0
BLOCK_RECORD
  5
1A1
330
1
100
AcDbSymbolTableRecord
100
AcDbBlockTableRecord
  2
block 20
340
0
102
{BLKREFS
331
1A2
102
}
 70
     0
280
     1
281
     0
  0
BLOCK_RECORD
  5
1A6
330
1
100
AcDbSymbolTableRecord
100
AcDbBlockTableRecord
  2
block 21
340
0
102
{BLKREFS
331
1A7
102
}
 70
     0
280
     1
281
     0
  0
BLOCK_RECORD
  5
1AE
330
1
100
AcDbSymbolTableRecord
100
AcDbBlockTableRecord
  2
block 22
340
0
102
{BLKREFS
331
1AF
102
}
 70
     0
280
     1
281
     0
  0
BLOCK_RECORD
  5
1B6
330
1
100
AcDbSymbolTableRecord
100
AcDbBlockTableRecord
  2
block 23
340
0
102
{BLKREFS
331
1B7
102
}
 70
     0
280
     1
281
     0
  0
BLOCK_RECORD
  5
1BB
330
1
100
AcDbSymbolTableRecord
100
AcDbBlockTableRecord
  2
block 24
340
0
102
{BLKREFS
331
1BC
102
}
 70
     0
280
     1
281
     0
  0
BLOCK_RECORD
  5
1C0
330
1
100
AcDbSymbolTableRecord
100
AcDbBlockTableRecord
  2
block 25
340
0
102
{BLKREFS
331
1C1
102
}
 70
     0
280
     1
281
     0
  0
BLOCK_RECORD
  5
1C8
330
1
100
AcDbSymbolTableRecord
100
AcDbBlockTableRecord
  2
block 26
340
0
102
{BLKREFS
331
1C9
102
}
 70
     0
280
     1
281
     0
  0
BLOCK_RECORD
  5
1D0
330
1
100
AcDbSymbolTableRecord
100
AcDbBlockTableRecord
  2
block 27
340
0
102
{BLKREFS
331
1D1
102
}
 70
     0
280
     1
281
     0
  0
BLOCK_RECORD
  5
1D5
330
1
100
AcDbSymbolTableRecord
100
AcDbBlockTableRecord
  2
block 28
340
0
102
{BLKREFS
331
1D6
102
}
 70
     0
280
     1
281
     0
  0
BLOCK_RECORD
  5
1DD
330
1
100
AcDbSymbolTableRecord
100
AcDbBlockTableRecord
  2
block 29
340
0
102
{BLKREFS
331
1DE
102
}
 70
     0
280
     1
281
     0
  0
BLOCK_RECORD
  5
1E5
330
1
100
AcDbSymbolTableRecord
100
AcDbBlockTableRecord
  2
block 30
340
0
102
{BLKREFS
331
1E6
102
}
 70
     0
280
     1
281
     0
  0
BLOCK_RECORD
  5
1ED
330
1
100
AcDbSymbolTableRecord
100
AcDbBlockTableRecord
  2
block 31
340
0
102
{BLKREFS
331
1EE
102
}
 70
     0
280
     1
281
     0
  0
BLOCK_RECORD
  5
1F5
330
1
100
AcDbSymbolTableRecord
100
AcDbBlockTableRecord
  2
block 32
340
0
102
{BLKREFS
331
1F6
102
}
 70
     0
280
     1
281
     0
  0
BLOCK_RECORD
  5
1FD
330
1
100
AcDbSymbolTableRecord
100
AcDbBlockTableRecord
  2
block 33
340
0
102
{BLKREFS
331
1FE
102
}
 70
     0
280
     1
281
     0
  0
BLOCK_RECORD
  5
242
330
1
100
AcDbSymbolTableRecord
100
AcDbBlockTableRecord
  2
block 34
340
0
102
{BLKREFS
331
243
102
}
 70
     0
280
     1
281
     0
  0
BLOCK_RECORD
  5
267
330
1
100
AcDbSymbolTableRecord
100
AcDbBlockTableRecord
  2
block 35
340
0
102
{BLKREFS
331
268
102
}
 70
     0
280
     1
281
     0
  0
BLOCK_RECORD
  5
26C
330
1
100
AcDbSymbolTableRecord
100
AcDbBlockTableRecord
  2
block 36
340
0
102
{BLKREFS
331
26D
102
}
 70
     0
280
     1
281
     0
  0
BLOCK_RECORD
  5
271
330
1
100
AcDbSymbolTableRecord
100
AcDbBlockTableRecord
  2
block 37
340
0
102
{BLKREFS
331
272
102
}
 70
     0
280
     1
281
     0
  0
BLOCK_RECORD
  5
281
330
1
100
AcDbSymbolTableRecord
100
AcDbBlockTableRecord
  2
block 38
340
0
102
{BLKREFS
331
282
102
}
 70
     0
280
     1
281
     0
  0
BLOCK_RECORD
  5
2A2
330
1
100
AcDbSymbolTableRecord
100
AcDbBlockTableRecord
  2
block 39
340
0
102
{BLKREFS
331
2A3
102
}
 70
     0
280
     1
281
     0
  0
BLOCK_RECORD
  5
2A7
330
1
100
AcDbSymbolTableRecord
100
AcDbBlockTableRecord
  2
block 40
340
0
102
{BLKREFS
331
2A8
102
}
 70
     0
280
     1
281
     0
  0
BLOCK_RECORD
  5
2AC
330
1
100
AcDbSymbolTableRecord
100
AcDbBlockTableRecord
  2
block 41
340
0
102
{BLKREFS
331
2AD
102
}
 70
     0
280
     1
281
     0
  0
BLOCK_RECORD
  5
2C3
330
1
100
AcDbSymbolTableRecord
100
AcDbBlockTableRecord
  2
block 42
340
0
102
{BLKREFS
331
2C4
102
}
 70
     0
280
     1
281
     0
  0
BLOCK_RECORD
  5
2C8
330
1
100
AcDbSymbolTableRecord
100
AcDbBlockTableRecord
  2
block 43
340
0
102
{BLKREFS
331
2C9
102
}
 70
     0
280
     1
281
     0
  0
BLOCK_RECORD
  5
2CD
330
1
100
AcDbSymbolTableRecord
100
AcDbBlockTableRecord
  2
block 44
340
0
102
{BLKREFS
331
2CE
102
}
 70
     0
280
     1
281
     0
  0
BLOCK_RECORD
  5
2D2
330
1
100
AcDbSymbolTableRecord
100
AcDbBlockTableRecord
  2
block 45
340
0
102
{BLKREFS
331
2D3
102
}
 70
     0
280
     1
281
     0
  0
BLOCK_RECORD
  5
2D7
330
1
100
AcDbSymbolTableRecord
100
AcDbBlockTableRecord
  2
block 46
340
0
102
{BLKREFS
331
2D8
102
}
 70
     0
280
     1
281
     0
  0
BLOCK_RECORD
  5
2DC
330
1
100
AcDbSymbolTableRecord
100
AcDbBlockTableRecord
  2
block 47
340
0
102
{BLKREFS
331
2DD
102
}
 70
     0
280
     1
281
     0
  0
BLOCK_RECORD
  5
2E1
330
1
100
AcDbSymbolTableRecord
100
AcDbBlockTableRecord
  2
block 48
340
0
102
{BLKREFS
331
2E2
102
}
 70
     0
280
     1
281
     0
  0
BLOCK_RECORD
  5
2E6
330
1
100
AcDbSymbolTableRecord
100
AcDbBlockTableRecord
  2
block 49
340
0
102
{BLKREFS
331
2E7
102
}
 70
     0
280
     1
281
     0
  0
BLOCK_RECORD
  5
2EB
330
1
100
AcDbSymbolTableRecord
100
AcDbBlockTableRecord
  2
block 50
340
0
102
{BLKREFS
331
2EC
102
}
 70
     0
280
     1
281
     0
  0
BLOCK_RECORD
  5
2F0
330
1
100
AcDbSymbolTableRecord
100
AcDbBlockTableRecord
  2
block 51
340
0
102
{BLKREFS
331
2F1
102
}
 70
     0
280
     1
281
     0
  0
BLOCK_RECORD
  5
2F5
330
1
100
AcDbSymbolTableRecord
100
AcDbBlockTableRecord
  2
block 52
340
0
102
{BLKREFS
331
2F6
102
}
 70
     0
280
     1
281
     0
  0
BLOCK_RECORD
  5
2FA
330
1
100
AcDbSymbolTableRecord
100
AcDbBlockTableRecord
  2
block 53
340
0
102
{BLKREFS
331
2FB
102
}
 70
     0
280
     1
281
     0
  0
BLOCK_RECORD
  5
2FF
330
1
100
AcDbSymbolTableRecord
100
AcDbBlockTableRecord
  2
block 54
340
0
102
{BLKREFS
331
300
102
}
 70
     0
280
     1
281
     0
  0
BLOCK_RECORD
  5
30F
330
1
100
AcDbSymbolTableRecord
100
AcDbBlockTableRecord
  2
block 55
340
0
102
{BLKREFS
331
310
102
}
 70
     0
280
     1
281
     0
  0
BLOCK_RECORD
  5
318
330
1
100
AcDbSymbolTableRecord
100
AcDbBlockTableRecord
  2
block 56
340
0
102
{BLKREFS
331
319
102
}
 70
     0
280
     1
281
     0
  0
BLOCK_RECORD
  5
320
330
1
100
AcDbSymbolTableRecord
100
AcDbBlockTableRecord
  2
block 57
340
0
102
{BLKREFS
331
321
102
}
 70
     0
280
     1
281
     0
  0
BLOCK_RECORD
  5
328
330
1
100
AcDbSymbolTableRecord
100
AcDbBlockTableRecord
  2
block 58
340
0
102
{BLKREFS
331
329
102
}
 70
     0
280
     1
281
     0
  0
BLOCK_RECORD
  5
330
330
1
100
AcDbSymbolTableRecord
100
AcDbBlockTableRecord
  2
block 59
340
0
102
{BLKREFS
331
331
102
}
 70
     0
280
     1
281
     0
  0
BLOCK_RECORD
  5
338
330
1
100
AcDbSymbolTableRecord
100
AcDbBlockTableRecord
  2
block 60
340
0
102
{BLKREFS
331
339
102
}
 70
     0
280
     1
281
     0
  0
BLOCK_RECORD
  5
340
330
1
100
AcDbSymbolTableRecord
100
AcDbBlockTableRecord
  2
block 61
340
0
102
{BLKREFS
331
341
102
}
 70
     0
280
     1
281
     0
  0
BLOCK_RECORD
  5
348
330
1
100
AcDbSymbolTableRecord
100
AcDbBlockTableRecord
  2
block 62
340
0
102
{BLKREFS
331
349
102
}
 70
     0
280
     1
281
     0
  0
BLOCK_RECORD
  5
350
330
1
100
AcDbSymbolTableRecord
100
AcDbBlockTableRecord
  2
block 63
340
0
102
{BLKREFS
331
351
102
}
 70
     0
280
     1
281
     0
  0
BLOCK_RECORD
  5
358
330
1
100
AcDbSymbolTableRecord
100
AcDbBlockTableRecord
  2
block 64
340
0
102
{BLKREFS
331
359
102
}
 70
     0
280
     1
281
     0
  0
BLOCK_RECORD
  5
381
330
1
100
AcDbSymbolTableRecord
100
AcDbBlockTableRecord
  2
block 65
340
0
102
{BLKREFS
331
382
102
}
 70
     0
280
     1
281
     0
  0
BLOCK_RECORD
  5
386
330
1
100
AcDbSymbolTableRecord
100
AcDbBlockTableRecord
  2
block 66
340
0
102
{BLKREFS
331
387
102
}
 70
     0
280
     1
281
     0
  0
BLOCK_RECORD
  5
38E
330
1
100
AcDbSymbolTableRecord
100
AcDbBlockTableRecord
  2
block 67
340
0
102
{BLKREFS
331
38F
102
}
 70
     0
280
     1
281
     0
  0
BLOCK_RECORD
  5
393
330
1
100
AcDbSymbolTableRecord
100
AcDbBlockTableRecord
  2
block 68
340
0
102
{BLKREFS
331
394
102
}
 70
     0
280
     1
281
     0
  0
BLOCK_RECORD
  5
39B
330
1
100
AcDbSymbolTableRecord
100
AcDbBlockTableRecord
  2
block 69
340
0
102
{BLKREFS
331
39C
102
}
 70
     0
280
     1
281
     0
  0
BLOCK_RECORD
  5
3E2
330
1
100
AcDbSymbolTableRecord
100
AcDbBlockTableRecord
  2
block 70
340
0
102
{BLKREFS
331
3E3
102
}
 70
     0
280
     1
281
     0
  0
BLOCK_RECORD
  5
429
330
1
100
AcDbSymbolTableRecord
100
AcDbBlockTableRecord
  2
block 71
340
0
102
{BLKREFS
331
42A
102
}
 70
     0
280
     1
281
     0
  0
BLOCK_RECORD
  5
470
330
1
100
AcDbSymbolTableRecord
100
AcDbBlockTableRecord
  2
block 72
340
0
102
{BLKREFS
331
471
102
}
 70
     0
280
     1
281
     0
  0
BLOCK_RECORD
  5
479
330
1
100
AcDbSymbolTableRecord
100
AcDbBlockTableRecord
  2
block 73
340
0
102
{BLKREFS
331
47A
102
}
 70
     0
280
     1
281
     0
  0
BLOCK_RECORD
  5
482
330
1
100
AcDbSymbolTableRecord
100
AcDbBlockTableRecord
  2
block 74
340
0
102
{BLKREFS
331
483
102
}
 70
     0
280
     1
281
     0
  0
BLOCK_RECORD
  5
487
330
1
100
AcDbSymbolTableRecord
100
AcDbBlockTableRecord
  2
block 75
340
0
102
{BLKREFS
331
488
102
}
 70
     0
280
     1
281
     0
  0
BLOCK_RECORD
  5
48F
330
1
100
AcDbSymbolTableRecord
100
AcDbBlockTableRecord
  2
block 76
340
0
102
{BLKREFS
331
490
102
}
 70
     0
280
     1
281
     0
  0
BLOCK_RECORD
  5
494
330
1
100
AcDbSymbolTableRecord
100
AcDbBlockTableRecord
  2
block 77
340
0
102
{BLKREFS
331
495
102
}
 70
     0
280
     1
281
     0
  0
BLOCK_RECORD
  5
499
330
1
100
AcDbSymbolTableRecord
100
AcDbBlockTableRecord
  2
block 78
340
0
102
{BLKREFS
331
49A
102
}
 70
     0
280
     1
281
     0
  0
BLOCK_RECORD
  5
4E0
330
1
100
AcDbSymbolTableRecord
100
AcDbBlockTableRecord
  2
block 79
340
0
102
{BLKREFS
331
4E1
102
}
 70
     0
280
     1
281
     0
  0
BLOCK_RECORD
  5
4E9
330
1
100
AcDbSymbolTableRecord
100
AcDbBlockTableRecord
  2
block 80
340
0
102
{BLKREFS
331
4EA
102
}
 70
     0
280
     1
281
     0
  0
BLOCK_RECORD
  5
4F2
330
1
100
AcDbSymbolTableRecord
100
AcDbBlockTableRecord
  2
block 81
340
0
102
{BLKREFS
331
4F3
102
}
 70
     0
280
     1
281
     0
  0
BLOCK_RECORD
  5
4F7
330
1
100
AcDbSymbolTableRecord
100
AcDbBlockTableRecord
  2
block 82
340
0
102
{BLKREFS
331
4F8
102
}
 70
     0
280
     1
281
     0
  0
BLOCK_RECORD
  5
4FC
330
1
100
AcDbSymbolTableRecord
100
AcDbBlockTableRecord
  2
block 83
340
0
102
{BLKREFS
331
4FD
102
}
 70
     0
280
     1
281
     0
  0
BLOCK_RECORD
  5
501
330
1
100
AcDbSymbolTableRecord
100
AcDbBlockTableRecord
  2
block 84
340
0
102
{BLKREFS
331
502
102
}
 70
     0
280
     1
281
     0
  0
BLOCK_RECORD
  5
506
330
1
100
AcDbSymbolTableRecord
100
AcDbBlockTableRecord
  2
block 85
340
0
102
{BLKREFS
331
507
102
}
 70
     0
280
     1
281
     0
  0
BLOCK_RECORD
  5
52C
330
1
100
AcDbSymbolTableRecord
100
AcDbBlockTableRecord
  2
block 86
340
0
102
{BLKREFS
331
52D
102
}
 70
     0
280
     1
281
     0
  0
BLOCK_RECORD
  5
556
330
1
100
AcDbSymbolTableRecord
100
AcDbBlockTableRecord
  2
block 87
340
0
102
{BLKREFS
331
557
102
}
 70
     0
280
     1
281
     0
  0
BLOCK_RECORD
  5
55B
330
1
100
AcDbSymbolTableRecord
100
AcDbBlockTableRecord
  2
block 88
340
0
102
{BLKREFS
331
55C
102
}
 70
     0
280
     1
281
     0
  0
BLOCK_RECORD
  5
560
330
1
100
AcDbSymbolTableRecord
100
AcDbBlockTableRecord
  2
block 89
340
0
102
{BLKREFS
331
561
102
}
 70
     0
280
     1
281
     0
  0
BLOCK_RECORD
  5
584
330
1
100
AcDbSymbolTableRecord
100
AcDbBlockTableRecord
  2
block 90
340
0
102
{BLKREFS
331
585
102
}
 70
     0
280
     1
281
     0
  0
BLOCK_RECORD
  5
594
330
1
100
AcDbSymbolTableRecord
100
AcDbBlockTableRecord
  2
block 91
340
0
102
{BLKREFS
331
595
102
}
 70
     0
280
     1
281
     0
  0
ENDTAB
  0
ENDSEC
  0
SECTION
  2
BLOCKS
  0
BLOCK
  5
20
330
1F
100
AcDbEntity
  8
0
100
AcDbBlockBegin
  2
*Model_Space
 70
     0
 10
0.0
 20
0.0
 30
0.0
  3
*Model_Space
  1

  0
ENDBLK
  5
21
330
1F
100
AcDbEntity
  8
0
100
AcDbBlockEnd
  0
BLOCK
  5
1C
330
1B
100
AcDbEntity
 67
     1
  8
0
100
AcDbBlockBegin
  2
*Paper_Space
 70
     0
 10
0.0
 20
0.0
 30
0.0
  3
*Paper_Space
  1

  0
ENDBLK
  5
1D
330
1B
100
AcDbEntity
 67
     1
  8
0
100
AcDbBlockEnd
  0
BLOCK
  5
24
330
23
100
AcDbEntity
  8
0
100
AcDbBlockBegin
  2
*Paper_Space0
 70
     0
 10
0.0
 20
0.0
 30
0.0
  3
*Paper_Space0
  1

  0
ENDBLK
  5
25
330
23
100
AcDbEntity
  8
0
100
AcDbBlockEnd
  0
BLOCK
  5
3E
330
3C
100
AcDbEntity
  8
0
100
AcDbBlockBegin
  2
block 2
 70
     0
 10
0.0
 20
0.0
 30
0.0
  3
block 2
  1

  0
POLYLINE
  5
40
330
3C
100
AcDbEntity
  8
フォーマット
 62
     7
370
    35
100
AcDb2dPolyline
 66
     1
 10
0.0
 20
0.0
 30
0.0
  0
VERTEX
  5
41
330
40
100
AcDbEntity
  8
フォーマット
 62
     7
370
    35
100
AcDbVertex
100
AcDb2dVertex
 10
243.3915174087702
 20
-33.60828449680626
 30
0.0
  0
VERTEX
  5
42
330
40
100
AcDbEntity
  8
フォーマット
 62
     7
370
    35
100
AcDbVertex
100
AcDb2dVertex
 10
53.39174532085345
 20
-33.60828449680626
 30
0.0
  0
VERTEX
  5
43
330
40
100
AcDbEntity
  8
フォーマット
 62
     7
370
    35
100
AcDbVertex
100
AcDb2dVertex
 10
53.39174532085345
 20
243.3915174087702
 30
0.0
  0
VERTEX
  5
44
330
40
100
AcDbEntity
  8
フォーマット
 62
     7
370
    35
100
AcDbVertex
100
AcDb2dVertex
 10
243.3915174087702
 20
243.3915174087702
 30
0.0
  0
VERTEX
  5
45
330
40
100
AcDbEntity
  8
フォーマット
 62
     7
370
    35
100
AcDbVertex
100
AcDb2dVertex
 10
243.3915174087702
 20
-33.60828449680626
 30
0.0
  0
SEQEND
  5
46
330
40
100
AcDbEntity
  8
フォーマット
370
    35
  0
POLYLINE
  5
47
330
3C
100
AcDbEntity
  8
フォーマット
 62
     7
370
    35
100
AcDb2dPolyline
 66
     1
 10
0.0
 20
0.0
 30
0.0
  0
VERTEX
  5
48
330
47
100
AcDbEntity
  8
フォーマット
 62
     7
370
    35
100
AcDbVertex
100
AcDb2dVertex
 10
53.39174532085345
 20
-33.60828449680626
 30
0.0
  0
VERTEX
  5
49
330
47
100
AcDbEntity
  8
フォーマット
 62
     7
370
    35
100
AcDbVertex
100
AcDb2dVertex
 10
53.39174532085345
 20
-8.631686738293467
 30
0.0
  0
VERTEX
  5
4A
330
47
100
AcDbEntity
  8
フォーマット
 62
     7
370
    35
100
AcDbVertex
100
AcDb2dVertex
 10
243.3084906075757
 20
-8.631686738293467
 30
0.0
  0
SEQEND
  5
4B
330
47
100
AcDbEntity
  8
フォーマット
370
    35
  0
POLYLINE
  5
4C
330
3C
100
AcDbEntity
  8
フォーマット
 62
     7
370
    35
100
AcDb2dPolyline
 66
     1
 10
0.0
 20
0.0
 30
0.0
  0
VERTEX
  5
4D
330
4C
100
AcDbEntity
  8
フォーマット
 62
     7
370
    35
100
AcDbVertex
100
AcDb2dVertex
 10
243.3915174087702
 20
-33.60828449680626
 30
0.0
  0
VERTEX
  5
4E
330
4C
100
AcDbEntity
  8
フォーマット
 62
     7
370
    35
100
AcDbVertex
100
AcDb2dVertex
 10
54.09247774255327
 20
-33.60828449680626
 30
0.0
  0
SEQEND
  5
4F
330
4C
100
AcDbEntity
  8
フォーマット
370
    35
  0
INSERT
  5
51
330
3C
100
AcDbEntity
  8
フォーマット
100
AcDbBlockReference
  2
block 3
 10
0.0
 20
0.0
 30
0.0
  0
INSERT
  5
98
330
3C
100
AcDbEntity
  8
フォーマット
100
AcDbBlockReference
  2
block 7
 10
0.0
 20
0.0
 30
0.0
  0
INSERT
  5
B2
330
3C
100
AcDbEntity
  8
フォーマット
100
AcDbBlockReference
  2
block 11
 10
0.0
 20
0.0
 30
0.0
  0
INSERT
  5
F9
330
3C
100
AcDbEntity
  8
フォーマット
100
AcDbBlockReference
  2
block 15
 10
0.0
 20
0.0
 30
0.0
  0
POLYLINE
  5
127
330
3C
100
AcDbEntity
  8
フォーマット
 62
     7
370
    35
100
AcDb2dPolyline
 66
     1
 10
0.0
 20
0.0
 30
0.0
  0
VERTEX
  5
128
330
127
100
AcDbEntity
  8
フォーマット
 62
     7
370
    35
100
AcDbVertex
100
AcDb2dVertex
 10
53.39174532085345
 20
-19.04104274697585
 30
0.0
  0
VERTEX
  5
129
330
127
100
AcDbEntity
  8
フォーマット
 62
     7
370
    35
100
AcDbVertex
100
AcDb2dVertex
 10
119.1162434598043
 20
-19.04104274697585
 30
0.0
  0
SEQEND
  5
12A
330
127
100
AcDbEntity
  8
フォーマット
370
    35
  0
POLYLINE
  5
12B
330
3C
100
AcDbEntity
  8
フォーマット
 62
     7
370
    35
100
AcDb2dPolyline
 66
     1
 10
0.0
 20
0.0
 30
0.0
  0
VERTEX
  5
12C
330
12B
100
AcDbEntity
  8
フォーマット
 62
     7
370
    35
100
AcDbVertex
100
AcDb2dVertex
 10
59.08786619616554
 20
-8.631686738293467
 30
0.0
  0
VERTEX
  5
12D
330
12B
100
AcDbEntity
  8
フォーマット
 62
     7
370
    35
100
AcDbVertex
100
AcDb2dVertex
 10
59.08786619616554
 20
-33.60828449680626
 30
0.0
  0
SEQEND
  5
12E
330
12B
100
AcDbEntity
  8
フォーマット
370
    35
  0
POLYLINE
  5
12F
330
3C
100
AcDbEntity
  8
フォーマット
 62
     7
370
    35
100
AcDb2dPolyline
 66
     1
 10
0.0
 20
0.0
 30
0.0
  0
VERTEX
  5
130
330
12F
100
AcDbEntity
  8
フォーマット
 62
     7
370
    35
100
AcDbVertex
100
AcDb2dVertex
 10
59.08786619616554
 20
-8.631686738293467
 30
0.0
  0
VERTEX
  5
131
330
12F
100
AcDbEntity
  8
フォーマット
 62
     7
370
    35
100
AcDbVertex
100
AcDb2dVertex
 10
59.08786619616554
 20
-33.60828449680626
 30
0.0
  0
SEQEND
  5
132
330
12F
100
AcDbEntity
  8
フォーマット
370
    35
  0
POLYLINE
  5
133
330
3C
100
AcDbEntity
  8
フォーマット
 62
     7
370
    35
100
AcDb2dPolyline
 66
     1
 10
0.0
 20
0.0
 30
0.0
  0
VERTEX
  5
134
330
133
100
AcDbEntity
  8
フォーマット
 62
     7
370
    35
100
AcDbVertex
100
AcDb2dVertex
 10
119.1162434598043
 20
-8.631686738293467
 30
0.0
  0
VERTEX
  5
135
330
133
100
AcDbEntity
  8
フォーマット
 62
     7
370
    35
100
AcDbVertex
100
AcDb2dVertex
 10
119.1162434598043
 20
-33.60828449680626
 30
0.0
  0
SEQEND
  5
136
330
133
100
AcDbEntity
  8
フォーマット
370
    35
  0
ENDBLK
  5
3F
330
3C
100
AcDbEntity
  8
0
100
AcDbBlockEnd
  0
BLOCK
  5
52
330
50
100
AcDbEntity
  8
0
100
AcDbBlockBegin
  2
block 3
 70
     0
 10
0.0
 20
0.0
 30
0.0
  3
block 3
  1

  0
INSERT
  5
55
330
50
100
AcDbEntity
  8
フォーマット
100
AcDbBlockReference
  2
block 4
 10
0.0
 20
0.0
 30
0.0
  0
ENDBLK
  5
53
330
50
100
AcDbEntity
  8
0
100
AcDbBlockEnd
  0
BLOCK
  5
56
330
54
100
AcDbEntity
  8
0
100
AcDbBlockBegin
  2
block 4
 70
     0
 10
0.0
 20
0.0
 30
0.0
  3
block 4
  1

  0
INSERT
  5
59
330
54
100
AcDbEntity
  8
フォーマット
100
AcDbBlockReference
  2
block 5
 10
0.0
 20
0.0
 30
0.0
  0
ENDBLK
  5
57
330
54
100
AcDbEntity
  8
0
100
AcDbBlockEnd
  0
BLOCK
  5
5A
330
58
100
AcDbEntity
  8
0
100
AcDbBlockBegin
  2
block 5
 70
     0
 10
0.0
 20
0.0
 30
0.0
  3
block 5
  1

  0
INSERT
  5
5D
330
58
100
AcDbEntity
  8
フォーマット
100
AcDbBlockReference
  2
block 6
 10
0.0
 20
0.0
 30
0.0
  0
ENDBLK
  5
5B
330
58
100
AcDbEntity
  8
0
100
AcDbBlockEnd
  0
BLOCK
  5
5E
330
5C
100
AcDbEntity
  8
0
100
AcDbBlockBegin
  2
block 6
 70
     0
 10
0.0
 20
0.0
 30
0.0
  3
block 6
  1

  0
POLYLINE
  5
60
330
5C
100
AcDbEntity
  8
フォーマット
370
     0
100
AcDb2dPolyline
 66
     1
 10
0.0
 20
0.0
 30
0.0
  0
VERTEX
  5
61
330
60
100
AcDbEntity
  8
フォーマット
370
     0
100
AcDbVertex
100
AcDb2dVertex
 10
55.79211560020128
 20
-24.07673881776554
 30
0.0
  0
VERTEX
  5
62
330
60
100
AcDbEntity
  8
フォーマット
370
     0
100
AcDbVertex
100
AcDb2dVertex
 10
55.18887938073403
 20
-24.07673881776554
 30
0.0
  0
VERTEX
  5
63
330
60
100
AcDbEntity
  8
フォーマット
370
     0
100
AcDbVertex
100
AcDb2dVertex
 10
55.18887938073403
 20
-24.30273708159793
 30
0.0
  0
VERTEX
  5
64
330
60
100
AcDbEntity
  8
フォーマット
370
     0
100
AcDbVertex
100
AcDb2dVertex
 10
54.9373874103108
 20
-24.30273708159793
 30
0.0
  0
VERTEX
  5
65
330
60
100
AcDbEntity
  8
フォーマット
370
     0
100
AcDbVertex
100
AcDb2dVertex
 10
54.9373874103108
 20
-22.97051865745182
 30
0.0
  0
VERTEX
  5
66
330
60
100
AcDbEntity
  8
フォーマット
370
     0
100
AcDbVertex
100
AcDb2dVertex
 10
56.04343531585025
 20
-22.97051865745182
 30
0.0
  0
VERTEX
  5
67
330
60
100
AcDbEntity
  8
フォーマット
370
     0
100
AcDbVertex
100
AcDb2dVertex
 10
56.04343531585025
 20
-24.26518554080871
 30
0.0
  0
VERTEX
  5
68
330
60
100
AcDbEntity
  8
フォーマット
370
     0
100
AcDbVertex
100
AcDb2dVertex
 10
55.79211560020128
 20
-24.26518554080871
 30
0.0
  0
VERTEX
  5
69
330
60
100
AcDbEntity
  8
フォーマット
370
     0
100
AcDbVertex
100
AcDb2dVertex
 10
55.79211560020128
 20
-24.07673881776554
 30
0.0
  0
SEQEND
  5
6A
330
60
100
AcDbEntity
  8
フォーマット
370
     0
  0
POLYLINE
  5
6B
330
5C
100
AcDbEntity
  8
フォーマット
370
     0
100
AcDb2dPolyline
 66
     1
 10
0.0
 20
0.0
 30
0.0
  0
VERTEX
  5
6C
330
6B
100
AcDbEntity
  8
フォーマット
370
     0
100
AcDbVertex
100
AcDb2dVertex
 10
55.18887938073403
 20
-23.20960828412816
 30
0.0
  0
VERTEX
  5
6D
330
6B
100
AcDbEntity
  8
フォーマット
370
     0
100
AcDbVertex
100
AcDb2dVertex
 10
55.18887938073403
 20
-23.83799370063772
 30
0.0
  0
VERTEX
  5
6E
330
6B
100
AcDbEntity
  8
フォーマット
370
     0
100
AcDbVertex
100
AcDb2dVertex
 10
55.79211560020128
 20
-23.83799370063772
 30
0.0
  0
VERTEX
  5
6F
330
6B
100
AcDbEntity
  8
フォーマット
370
     0
100
AcDbVertex
100
AcDb2dVertex
 10
55.79211560020128
 20
-23.20960828412816
 30
0.0
  0
VERTEX
  5
70
330
6B
100
AcDbEntity
  8
フォーマット
370
     0
100
AcDbVertex
100
AcDb2dVertex
 10
55.18887938073403
 20
-23.20960828412816
 30
0.0
  0
SEQEND
  5
71
330
6B
100
AcDbEntity
  8
フォーマット
370
     0
  0
POLYLINE
  5
72
330
5C
100
AcDbEntity
  8
フォーマット
370
     0
100
AcDb2dPolyline
 66
     1
 10
0.0
 20
0.0
 30
0.0
  0
VERTEX
  5
73
330
72
100
AcDbEntity
  8
フォーマット
370
     0
100
AcDbVertex
100
AcDb2dVertex
 10
56.73469372496564
 20
-22.65632594919703
 30
0.0
  0
VERTEX
  5
74
330
72
100
AcDbEntity
  8
フォーマット
370
     0
100
AcDbVertex
100
AcDb2dVertex
 10
55.62864581942618
 20
-22.65632594919703
 30
0.0
  0
VERTEX
  5
75
330
72
100
AcDbEntity
  8
フォーマット
370
     0
100
AcDbVertex
100
AcDb2dVertex
 10
55.62864581942618
 20
-22.74452039361943
 30
0.0
  0
VERTEX
  5
76
330
72
100
AcDbEntity
  8
フォーマット
370
     0
100
AcDbVertex
100
AcDb2dVertex
 10
55.3773261037772
 20
-22.74452039361943
 30
0.0
  0
VERTEX
  5
77
330
72
100
AcDbEntity
  8
フォーマット
370
     0
100
AcDbVertex
100
AcDb2dVertex
 10
55.3773261037772
 20
-21.57559949547416
 30
0.0
  0
VERTEX
  5
78
330
72
100
AcDbEntity
  8
フォーマット
370
     0
100
AcDbVertex
100
AcDb2dVertex
 10
56.98601344061461
 20
-21.57559949547416
 30
0.0
  0
VERTEX
  5
79
330
72
100
AcDbEntity
  8
フォーマット
370
     0
100
AcDbVertex
100
AcDb2dVertex
 10
56.98601344061461
 20
-22.7193711965771
 30
0.0
  0
VERTEX
  5
7A
330
72
100
AcDbEntity
  8
フォーマット
370
     0
100
AcDbVertex
100
AcDb2dVertex
 10
56.73469372496564
 20
-22.7193711965771
 30
0.0
  0
VERTEX
  5
7B
330
72
100
AcDbEntity
  8
フォーマット
370
     0
100
AcDbVertex
100
AcDb2dVertex
 10
56.73469372496564
 20
-22.65632594919703
 30
0.0
  0
SEQEND
  5
7C
330
72
100
AcDbEntity
  8
フォーマット
370
     0
  0
POLYLINE
  5
7D
330
5C
100
AcDbEntity
  8
フォーマット
370
     0
100
AcDb2dPolyline
 66
     1
 10
0.0
 20
0.0
 30
0.0
  0
VERTEX
  5
7E
330
7D
100
AcDbEntity
  8
フォーマット
370
     0
100
AcDbVertex
100
AcDb2dVertex
 10
55.62864581942618
 20
-22.41758083206922
 30
0.0
  0
VERTEX
  5
7F
330
7D
100
AcDbEntity
  8
フォーマット
370
     0
100
AcDbVertex
100
AcDb2dVertex
 10
56.73469372496564
 20
-22.41758083206922
 30
0.0
  0
VERTEX
  5
80
330
7D
100
AcDbEntity
  8
フォーマット
370
     0
100
AcDbVertex
100
AcDb2dVertex
 10
56.73469372496564
 20
-21.81434461260197
 30
0.0
  0
VERTEX
  5
81
330
7D
100
AcDbEntity
  8
フォーマット
370
     0
100
AcDbVertex
100
AcDb2dVertex
 10
55.62864581942618
 20
-21.81434461260197
 30
0.0
  0
VERTEX
  5
82
330
7D
100
AcDbEntity
  8
フォーマット
370
     0
100
AcDbVertex
100
AcDb2dVertex
 10
55.62864581942618
 20
-22.41758083206922
 30
0.0
  0
SEQEND
  5
83
330
7D
100
AcDbEntity
  8
フォーマット
370
     0
  0
POLYLINE
  5
84
330
5C
100
AcDbEntity
  8
フォーマット
370
     0
100
AcDb2dPolyline
 66
     1
 10
0.0
 20
0.0
 30
0.0
  0
VERTEX
  5
85
330
84
100
AcDbEntity
  8
フォーマット
370
     0
100
AcDbVertex
100
AcDb2dVertex
 10
57.22475855774243
 20
-24.07673881776554
 30
0.0
  0
VERTEX
  5
86
330
84
100
AcDbEntity
  8
フォーマット
370
     0
100
AcDbVertex
100
AcDb2dVertex
 10
56.62152233827518
 20
-24.07673881776554
 30
0.0
  0
VERTEX
  5
87
330
84
100
AcDbEntity
  8
フォーマット
370
     0
100
AcDbVertex
100
AcDb2dVertex
 10
56.62152233827518
 20
-24.30273708159793
 30
0.0
  0
VERTEX
  5
88
330
84
100
AcDbEntity
  8
フォーマット
370
     0
100
AcDbVertex
100
AcDb2dVertex
 10
56.3702026226262
 20
-24.30273708159793
 30
0.0
  0
VERTEX
  5
89
330
84
100
AcDbEntity
  8
フォーマット
370
     0
100
AcDbVertex
100
AcDb2dVertex
 10
56.3702026226262
 20
-22.97051865745182
 30
0.0
  0
VERTEX
  5
8A
330
84
100
AcDbEntity
  8
フォーマット
370
     0
100
AcDbVertex
100
AcDb2dVertex
 10
57.4760782733914
 20
-22.97051865745182
 30
0.0
  0
VERTEX
  5
8B
330
84
100
AcDbEntity
  8
フォーマット
370
     0
100
AcDbVertex
100
AcDb2dVertex
 10
57.4760782733914
 20
-24.26518554080871
 30
0.0
  0
VERTEX
  5
8C
330
84
100
AcDbEntity
  8
フォーマット
370
     0
100
AcDbVertex
100
AcDb2dVertex
 10
57.22475855774243
 20
-24.26518554080871
 30
0.0
  0
VERTEX
  5
8D
330
84
100
AcDbEntity
  8
フォーマット
370
     0
100
AcDbVertex
100
AcDb2dVertex
 10
57.22475855774243
 20
-24.07673881776554
 30
0.0
  0
SEQEND
  5
8E
330
84
100
AcDbEntity
  8
フォーマット
370
     0
  0
POLYLINE
  5
8F
330
5C
100
AcDbEntity
  8
フォーマット
370
     0
100
AcDb2dPolyline
 66
     1
 10
0.0
 20
0.0
 30
0.0
  0
VERTEX
  5
90
330
8F
100
AcDbEntity
  8
フォーマット
370
     0
100
AcDbVertex
100
AcDb2dVertex
 10
56.62152233827518
 20
-23.20960828412816
 30
0.0
  0
VERTEX
  5
91
330
8F
100
AcDbEntity
  8
フォーマット
370
     0
100
AcDbVertex
100
AcDb2dVertex
 10
56.62152233827518
 20
-23.83799370063772
 30
0.0
  0
VERTEX
  5
92
330
8F
100
AcDbEntity
  8
フォーマット
370
     0
100
AcDbVertex
100
AcDb2dVertex
 10
57.22475855774243
 20
-23.83799370063772
 30
0.0
  0
VERTEX
  5
93
330
8F
100
AcDbEntity
  8
フォーマット
370
     0
100
AcDbVertex
100
AcDb2dVertex
 10
57.22475855774243
 20
-23.20960828412816
 30
0.0
  0
VERTEX
  5
94
330
8F
100
AcDbEntity
  8
フォーマット
370
     0
100
AcDbVertex
100
AcDb2dVertex
 10
56.62152233827518
 20
-23.20960828412816
 30
0.0
  0
SEQEND
  5
95
330
8F
100
AcDbEntity
  8
フォーマット
370
     0
  0
HATCH
  5
96
330
5C
100
AcDbEntity
  8
フォーマット
 62
     7
100
AcDbHatch
 10
0.0
 20
0.0
 30
0.0
210
0.0
220
0.0
230
1.0
  2
SOLID
 70
     1
 71
     0
 91
        6
 92
        1
 93
        8
 72
     1
 10
55.79211560020128
 20
-24.07673881776554
 11
55.18887938073403
 21
-24.07673881776554
 72
     1
 10
55.18887938073403
 20
-24.07673881776554
 11
55.18887938073403
 21
-24.30273708159793
 72
     1
 10
55.18887938073403
 20
-24.30273708159793
 11
54.9373874103108
 21
-24.30273708159793
 72
     1
 10
54.9373874103108
 20
-24.30273708159793
 11
54.9373874103108
 21
-22.97051865745182
 72
     1
 10
54.9373874103108
 20
-22.97051865745182
 11
56.04343531585025
 21
-22.97051865745182
 72
     1
 10
56.04343531585025
 20
-22.97051865745182
 11
56.04343531585025
 21
-24.26518554080871
 72
     1
 10
56.04343531585025
 20
-24.26518554080871
 11
55.79211560020128
 21
-24.26518554080871
 72
     1
 10
55.79211560020128
 20
-24.26518554080871
 11
55.79211560020128
 21
-24.07673881776554
 97
        0
 92
        1
 93
        4
 72
     1
 10
55.18887938073403
 20
-23.20960828412816
 11
55.18887938073403
 21
-23.83799370063772
 72
     1
 10
55.18887938073403
 20
-23.83799370063772
 11
55.79211560020128
 21
-23.83799370063772
 72
     1
 10
55.79211560020128
 20
-23.83799370063772
 11
55.79211560020128
 21
-23.20960828412816
 72
     1
 10
55.79211560020128
 20
-23.20960828412816
 11
55.18887938073403
 21
-23.20960828412816
 97
        0
 92
        1
 93
        8
 72
     1
 10
56.73469372496564
 20
-22.65632594919703
 11
55.62864581942618
 21
-22.65632594919703
 72
     1
 10
55.62864581942618
 20
-22.65632594919703
 11
55.62864581942618
 21
-22.74452039361943
 72
     1
 10
55.62864581942618
 20
-22.74452039361943
 11
55.3773261037772
 21
-22.74452039361943
 72
     1
 10
55.3773261037772
 20
-22.74452039361943
 11
55.3773261037772
 21
-21.57559949547416
 72
     1
 10
55.3773261037772
 20
-21.57559949547416
 11
56.98601344061461
 21
-21.57559949547416
 72
     1
 10
56.98601344061461
 20
-21.57559949547416
 11
56.98601344061461
 21
-22.7193711965771
 72
     1
 10
56.98601344061461
 20
-22.7193711965771
 11
56.73469372496564
 21
-22.7193711965771
 72
     1
 10
56.73469372496564
 20
-22.7193711965771
 11
56.73469372496564
 21
-22.65632594919703
 97
        0
 92
        1
 93
        4
 72
     1
 10
55.62864581942618
 20
-22.41758083206922
 11
56.73469372496564
 21
-22.41758083206922
 72
     1
 10
56.73469372496564
 20
-22.41758083206922
 11
56.73469372496564
 21
-21.81434461260197
 72
     1
 10
56.73469372496564
 20
-21.81434461260197
 11
55.62864581942618
 21
-21.81434461260197
 72
     1
 10
55.62864581942618
 20
-21.81434461260197
 11
55.62864581942618
 21
-22.41758083206922
 97
        0
 92
        1
 93
        8
 72
     1
 10
57.22475855774243
 20
-24.07673881776554
 11
56.62152233827518
 21
-24.07673881776554
 72
     1
 10
56.62152233827518
 20
-24.07673881776554
 11
56.62152233827518
 21
-24.30273708159793
 72
     1
 10
56.62152233827518
 20
-24.30273708159793
 11
56.3702026226262
 21
-24.30273708159793
 72
     1
 10
56.3702026226262
 20
-24.30273708159793
 11
56.3702026226262
 21
-22.97051865745182
 72
     1
 10
56.3702026226262
 20
-22.97051865745182
 11
57.4760782733914
 21
-22.97051865745182
 72
     1
 10
57.4760782733914
 20
-22.97051865745182
 11
57.4760782733914
 21
-24.26518554080871
 72
     1
 10
57.4760782733914
 20
-24.26518554080871
 11
57.22475855774243
 21
-24.26518554080871
 72
     1
 10
57.22475855774243
 20
-24.26518554080871
 11
57.22475855774243
 21
-24.07673881776554
 97
        0
 92
        1
 93
        4
 72
     1
 10
56.62152233827518
 20
-23.20960828412816
 11
56.62152233827518
 21
-23.83799370063772
 72
     1
 10
56.62152233827518
 20
-23.83799370063772
 11
57.22475855774243
 21
-23.83799370063772
 72
     1
 10
57.22475855774243
 20
-23.83799370063772
 11
57.22475855774243
 21
-23.20960828412816
 72
     1
 10
57.22475855774243
 20
-23.20960828412816
 11
56.62152233827518
 21
-23.20960828412816
 97
        0
 75
     2
 76
     1
 98
        0
  0
ENDBLK
  5
5F
330
5C
100
AcDbEntity
  8
0
100
AcDbBlockEnd
  0
BLOCK
  5
99
330
97
100
AcDbEntity
  8
0
100
AcDbBlockBegin
  2
block 7
 70
     0
 10
0.0
 20
0.0
 30
0.0
  3
block 7
  1

  0
INSERT
  5
9C
330
97
100
AcDbEntity
  8
フォーマット
100
AcDbBlockReference
  2
block 8
 10
0.0
 20
0.0
 30
0.0
  0
ENDBLK
  5
9A
330
97
100
AcDbEntity
  8
0
100
AcDbBlockEnd
  0
BLOCK
  5
9D
330
9B
100
AcDbEntity
  8
0
100
AcDbBlockBegin
  2
block 8
 70
     0
 10
0.0
 20
0.0
 30
0.0
  3
block 8
  1

  0
INSERT
  5
A0
330
9B
100
AcDbEntity
  8
フォーマット
100
AcDbBlockReference
  2
block 9
 10
0.0
 20
0.0
 30
0.0
  0
ENDBLK
  5
9E
330
9B
100
AcDbEntity
  8
0
100
AcDbBlockEnd
  0
BLOCK
  5
A1
330
9F
100
AcDbEntity
  8
0
100
AcDbBlockBegin
  2
block 9
 70
     0
 10
0.0
 20
0.0
 30
0.0
  3
block 9
  1

  0
INSERT
  5
A4
330
9F
100
AcDbEntity
  8
フォーマット
100
AcDbBlockReference
  2
block 10
 10
0.0
 20
0.0
 30
0.0
  0
ENDBLK
  5
A2
330
9F
100
AcDbEntity
  8
0
100
AcDbBlockEnd
  0
BLOCK
  5
A5
330
A3
100
AcDbEntity
  8
0
100
AcDbBlockBegin
  2
block 10
 70
     0
 10
0.0
 20
0.0
 30
0.0
  3
block 10
  1

  0
SPLINE
  5
A7
330
A3
100
AcDbEntity
  8
フォーマット
370
     0
100
AcDbSpline
210
0.0
220
0.0
230
1.0
 70
    11
 71
     3
 72
    77
 73
    73
 74
     0
 42
0.000000001
 43
0.0000000001
 40
0.0
 40
0.0
 40
0.0
 40
0.0
 40
1.0
 40
1.0
 40
1.0
 40
2.0
 40
2.0
 40
2.0
 40
3.0
 40
3.0
 40
3.0
 40
4.0
 40
4.0
 40
4.0
 40
5.0
 40
5.0
 40
5.0
 40
6.0
 40
6.0
 40
6.0
 40
7.0
 40
7.0
 40
7.0
 40
8.0
 40
8.0
 40
8.0
 40
9.0
 40
9.0
 40
9.0
 40
10.0
 40
10.0
 40
10.0
 40
11.0
 40
11.0
 40
11.0
 40
12.0
 40
12.0
 40
12.0
 40
13.0
 40
13.0
 40
13.0
 40
14.0
 40
14.0
 40
14.0
 40
15.0
 40
15.0
 40
15.0
 40
16.0
 40
16.0
 40
16.0
 40
17.0
 40
17.0
 40
17.0
 40
18.0
 40
18.0
 40
18.0
 40
19.0
 40
19.0
 40
19.0
 40
20.0
 40
20.0
 40
20.0
 40
21.0
 40
21.0
 40
21.0
 40
22.0
 40
22.0
 40
22.0
 40
23.0
 40
23.0
 40
23.0
 40
24.0
 40
24.0
 40
24.0
 40
24.0
 10
57.10073512027343
 20
-30.28445637263722
 30
0.0
 10
56.81582572364327
 20
-30.695111754479
 30
0.0
 10
56.48492430228502
 20
-31.04272188894071
 30
0.0
 10
56.10785860142443
 20
-31.32763128557087
 30
0.0
 10
56.10785860142443
 20
-31.32763128557087
 30
0.0
 10
57.27660724479544
 20
-31.32763128557087
 30
0.0
 10
57.27660724479544
 20
-31.32763128557087
 30
0.0
 10
57.27660724479544
 20
-31.32763128557087
 30
0.0
 10
57.27660724479544
 20
-32.63435600312614
 30
0.0
 10
57.27660724479544
 20
-32.63435600312614
 30
0.0
 10
57.27660724479544
 20
-32.63435600312614
 30
0.0
 10
57.02528752914646
 20
-32.63435600312614
 30
0.0
 10
57.02528752914646
 20
-32.63435600312614
 30
0.0
 10
57.02528752914646
 20
-32.63435600312614
 30
0.0
 10
57.02528752914646
 20
-32.52135687120994
 30
0.0
 10
57.02528752914646
 20
-32.52135687120994
 30
0.0
 10
57.02528752914646
 20
-32.52135687120994
 30
0.0
 10
55.88168808281777
 20
-32.52135687120994
 30
0.0
 10
55.88168808281777
 20
-32.52135687120994
 30
0.0
 10
55.88168808281777
 20
-32.52135687120994
 30
0.0
 10
55.88168808281777
 20
-32.67225205346389
 30
0.0
 10
55.88168808281777
 20
-32.67225205346389
 30
0.0
 10
55.88168808281777
 20
-32.67225205346389
 30
0.0
 10
55.6303683671688
 20
-32.67225205346389
 30
0.0
 10
55.6303683671688
 20
-32.67225205346389
 30
0.0
 10
55.6303683671688
 20
-32.67225205346389
 30
0.0
 10
55.6303683671688
 20
-31.65422633757256
 30
0.0
 10
55.6303683671688
 20
-31.65422633757256
 30
0.0
 10
55.37887639674556
 20
-31.7968532906619
 30
0.0
 10
55.14839950878235
 20
-31.90571830799579
 30
0.0
 10
54.93910995805342
 20
-31.98116589912276
 30
0.0
 10
54.93910995805342
 20
-31.98116589912276
 30
0.0
 10
54.83851316988412
 20
-31.69177787836178
 30
0.0
 10
54.83851316988412
 20
-31.69177787836178
 30
0.0
 10
55.23228758384818
 20
-31.58325737057641
 30
0.0
 10
55.61348739929107
 20
-31.38206379423782
 30
0.0
 10
55.98228487098707
 20
-31.08854165889453
 30
0.0
 10
55.9068372798601
 20
-31.00517034815149
 30
0.0
 10
55.76851669612732
 20
-30.89596082126907
 30
0.0
 10
55.56749537456299
 20
-30.76194660689285
 30
0.0
 10
55.39971922443132
 20
-30.92111001831139
 30
0.0
 10
55.21557887074472
 20
-31.05546874223613
 30
0.0
 10
55.01455754918039
 20
-31.1639892500215
 30
0.0
 10
55.01455754918039
 20
-31.1639892500215
 30
0.0
 10
54.85108776840529
 20
-30.96314018323144
 30
0.0
 10
54.85108776840529
 20
-30.96314018323144
 30
0.0
 10
55.31186928955745
 20
-30.72852918068592
 30
0.0
 10
55.6345024817511
 20
-30.35576984918189
 30
0.0
 10
55.81881509021196
 20
-29.84451767917082
 30
0.0
 10
55.81881509021196
 20
-29.84451767917082
 30
0.0
 10
56.09528400290326
 20
-29.90721841700236
 30
0.0
 10
56.09528400290326
 20
-29.90721841700236
 30
0.0
 10
56.12870142911019
 20
-29.94098035275781
 30
0.0
 10
56.11612683058902
 20
-29.96199543521784
 30
0.0
 10
56.05756020733978
 20
-29.97026366438244
 30
0.0
 10
56.05756020733978
 20
-29.97026366438244
 30
0.0
 10
56.00726181325513
 20
-30.08326279629863
 30
0.0
 10
56.00726181325513
 20
-30.08326279629863
 30
0.0
 10
56.00726181325513
 20
-30.08326279629863
 30
0.0
 10
56.84941540462445
 20
-30.08326279629863
 30
0.0
 10
56.84941540462445
 20
-30.08326279629863
 30
0.0
 10
56.84941540462445
 20
-30.08326279629863
 30
0.0
 10
56.87456460166678
 20
-30.03296440221398
 30
0.0
 10
56.87456460166678
 20
-30.03296440221398
 30
0.0
 10
56.87456460166678
 20
-30.03296440221398
 30
0.0
 10
57.13845891583691
 20
-30.22141112525715
 30
0.0
 10
57.13845891583691
 20
-30.22141112525715
 30
0.0
 10
57.17187634204384
 20
-30.2551730610126
 30
0.0
 10
57.15930174352268
 20
-30.27618814347262
 30
0.0
 10
57.10073512027343
 20
-30.28445637263722
 30
0.0
 10
57.10073512027343
 20
-30.28445637263722
 30
0.0
 10
57.10073512027343
 20
-30.28445637263722
 30
0.0
 10
57.10073512027343
 20
-30.28445637263722
 30
0.0
  0
SPLINE
  5
A8
330
A3
100
AcDbEntity
  8
フォーマット
370
     0
100
AcDbSpline
210
0.0
220
0.0
230
1.0
 70
    11
 71
     3
 72
    20
 73
    16
 74
     0
 42
0.000000001
 43
0.0000000001
 40
0.0
 40
0.0
 40
0.0
 40
0.0
 40
1.0
 40
1.0
 40
1.0
 40
2.0
 40
2.0
 40
2.0
 40
3.0
 40
3.0
 40
3.0
 40
4.0
 40
4.0
 40
4.0
 40
5.0
 40
5.0
 40
5.0
 40
5.0
 10
56.19588079107256
 20
-30.91284178914679
 30
0.0
 10
56.38002114475916
 20
-30.73679740985052
 30
0.0
 10
56.55606552405543
 20
-30.54008245764276
 30
0.0
 10
56.72366941941284
 20
-30.32200791342644
 30
0.0
 10
56.72366941941284
 20
-30.32200791342644
 30
0.0
 10
55.89426268133894
 20
-30.32200791342644
 30
0.0
 10
55.89426268133894
 20
-30.32200791342644
 30
0.0
 10
55.89426268133894
 20
-30.32200791342644
 30
0.0
 10
55.70564370352151
 20
-30.58590222759658
 30
0.0
 10
55.70564370352151
 20
-30.58590222759658
 30
0.0
 10
55.88995631198237
 20
-30.68649901576588
 30
0.0
 10
56.05325383798322
 20
-30.79536403309977
 30
0.0
 10
56.19588079107256
 20
-30.91284178914679
 30
0.0
 10
56.19588079107256
 20
-30.91284178914679
 30
0.0
 10
56.19588079107256
 20
-30.91284178914679
 30
0.0
 10
56.19588079107256
 20
-30.91284178914679
 30
0.0
  0
POLYLINE
  5
A9
330
A3
100
AcDbEntity
  8
フォーマット
370
     0
100
AcDb2dPolyline
 66
     1
 10
0.0
 20
0.0
 30
0.0
  0
VERTEX
  5
AA
330
A9
100
AcDbEntity
  8
フォーマット
370
     0
100
AcDbVertex
100
AcDb2dVertex
 10
57.02528752914646
 20
-31.56637640269869
 30
0.0
  0
VERTEX
  5
AB
330
A9
100
AcDbEntity
  8
フォーマット
370
     0
100
AcDbVertex
100
AcDb2dVertex
 10
55.88168808281777
 20
-31.56637640269869
 30
0.0
  0
VERTEX
  5
AC
330
A9
100
AcDbEntity
  8
フォーマット
370
     0
100
AcDbVertex
100
AcDb2dVertex
 10
55.88168808281777
 20
-32.28261175408213
 30
0.0
  0
VERTEX
  5
AD
330
A9
100
AcDbEntity
  8
フォーマット
370
     0
100
AcDbVertex
100
AcDb2dVertex
 10
57.02528752914646
 20
-32.28261175408213
 30
0.0
  0
VERTEX
  5
AE
330
A9
100
AcDbEntity
  8
フォーマット
370
     0
100
AcDbVertex
100
AcDb2dVertex
 10
57.02528752914646
 20
-31.56637640269869
 30
0.0
  0
SEQEND
  5
AF
330
A9
100
AcDbEntity
  8
フォーマット
370
     0
  0
HATCH
  5
B0
330
A3
100
AcDbEntity
  8
フォーマット
 62
     7
100
AcDbHatch
 10
0.0
 20
0.0
 30
0.0
210
0.0
220
0.0
230
1.0
  2
SOLID
 70
     1
 71
     0
 91
        3
 92
        1
 93
        1
 72
     4
 94
        3
 73
     0
 74
     1
 95
       77
 96
       73
 40
0.0
 40
0.0
 40
0.0
 40
0.0
 40
1.0
 40
1.0
 40
1.0
 40
2.0
 40
2.0
 40
2.0
 40
3.0
 40
3.0
 40
3.0
 40
4.0
 40
4.0
 40
4.0
 40
5.0
 40
5.0
 40
5.0
 40
6.0
 40
6.0
 40
6.0
 40
7.0
 40
7.0
 40
7.0
 40
8.0
 40
8.0
 40
8.0
 40
9.0
 40
9.0
 40
9.0
 40
10.0
 40
10.0
 40
10.0
 40
11.0
 40
11.0
 40
11.0
 40
12.0
 40
12.0
 40
12.0
 40
13.0
 40
13.0
 40
13.0
 40
14.0
 40
14.0
 40
14.0
 40
15.0
 40
15.0
 40
15.0
 40
16.0
 40
16.0
 40
16.0
 40
17.0
 40
17.0
 40
17.0
 40
18.0
 40
18.0
 40
18.0
 40
19.0
 40
19.0
 40
19.0
 40
20.0
 40
20.0
 40
20.0
 40
21.0
 40
21.0
 40
21.0
 40
22.0
 40
22.0
 40
22.0
 40
23.0
 40
23.0
 40
23.0
 40
24.0
 40
24.0
 40
24.0
 40
24.0
 10
57.10073512027343
 20
-30.28445637263722
 10
56.81582572364327
 20
-30.695111754479
 10
56.48492430228502
 20
-31.04272188894071
 10
56.10785860142443
 20
-31.32763128557087
 10
56.10785860142443
 20
-31.32763128557087
 10
57.27660724479544
 20
-31.32763128557087
 10
57.27660724479544
 20
-31.32763128557087
 10
57.27660724479544
 20
-31.32763128557087
 10
57.27660724479544
 20
-32.63435600312614
 10
57.27660724479544
 20
-32.63435600312614
 10
57.27660724479544
 20
-32.63435600312614
 10
57.02528752914646
 20
-32.63435600312614
 10
57.02528752914646
 20
-32.63435600312614
 10
57.02528752914646
 20
-32.63435600312614
 10
57.02528752914646
 20
-32.52135687120994
 10
57.02528752914646
 20
-32.52135687120994
 10
57.02528752914646
 20
-32.52135687120994
 10
55.88168808281777
 20
-32.52135687120994
 10
55.88168808281777
 20
-32.52135687120994
 10
55.88168808281777
 20
-32.52135687120994
 10
55.88168808281777
 20
-32.67225205346389
 10
55.88168808281777
 20
-32.67225205346389
 10
55.88168808281777
 20
-32.67225205346389
 10
55.6303683671688
 20
-32.67225205346389
 10
55.6303683671688
 20
-32.67225205346389
 10
55.6303683671688
 20
-32.67225205346389
 10
55.6303683671688
 20
-31.65422633757256
 10
55.6303683671688
 20
-31.65422633757256
 10
55.37887639674556
 20
-31.7968532906619
 10
55.14839950878235
 20
-31.90571830799579
 10
54.93910995805342
 20
-31.98116589912276
 10
54.93910995805342
 20
-31.98116589912276
 10
54.83851316988412
 20
-31.69177787836178
 10
54.83851316988412
 20
-31.69177787836178
 10
55.23228758384818
 20
-31.58325737057641
 10
55.61348739929107
 20
-31.38206379423782
 10
55.98228487098707
 20
-31.08854165889453
 10
55.9068372798601
 20
-31.00517034815149
 10
55.76851669612732
 20
-30.89596082126907
 10
55.56749537456299
 20
-30.76194660689285
 10
55.39971922443132
 20
-30.92111001831139
 10
55.21557887074472
 20
-31.05546874223613
 10
55.01455754918039
 20
-31.1639892500215
 10
55.01455754918039
 20
-31.1639892500215
 10
54.85108776840529
 20
-30.96314018323144
 10
54.85108776840529
 20
-30.96314018323144
 10
55.31186928955745
 20
-30.72852918068592
 10
55.6345024817511
 20
-30.35576984918189
 10
55.81881509021196
 20
-29.84451767917082
 10
55.81881509021196
 20
-29.84451767917082
 10
56.09528400290326
 20
-29.90721841700236
 10
56.09528400290326
 20
-29.90721841700236
 10
56.12870142911019
 20
-29.94098035275781
 10
56.11612683058902
 20
-29.96199543521784
 10
56.05756020733978
 20
-29.97026366438244
 10
56.05756020733978
 20
-29.97026366438244
 10
56.00726181325513
 20
-30.08326279629863
 10
56.00726181325513
 20
-30.08326279629863
 10
56.00726181325513
 20
-30.08326279629863
 10
56.84941540462445
 20
-30.08326279629863
 10
56.84941540462445
 20
-30.08326279629863
 10
56.84941540462445
 20
-30.08326279629863
 10
56.87456460166678
 20
-30.03296440221398
 10
56.87456460166678
 20
-30.03296440221398
 10
56.87456460166678
 20
-30.03296440221398
 10
57.13845891583691
 20
-30.22141112525715
 10
57.13845891583691
 20
-30.22141112525715
 10
57.17187634204384
 20
-30.2551730610126
 10
57.15930174352268
 20
-30.27618814347262
 10
57.10073512027343
 20
-30.28445637263722
 10
57.10073512027343
 20
-30.28445637263722
 10
57.10073512027343
 20
-30.28445637263722
 10
57.10073512027343
 20
-30.28445637263722
 97
        0
 97
        0
 92
        1
 93
        1
 72
     4
 94
        3
 73
     0
 74
     1
 95
       20
 96
       16
 40
0.0
 40
0.0
 40
0.0
 40
0.0
 40
1.0
 40
1.0
 40
1.0
 40
2.0
 40
2.0
 40
2.0
 40
3.0
 40
3.0
 40
3.0
 40
4.0
 40
4.0
 40
4.0
 40
5.0
 40
5.0
 40
5.0
 40
5.0
 10
56.19588079107256
 20
-30.91284178914679
 10
56.38002114475916
 20
-30.73679740985052
 10
56.55606552405543
 20
-30.54008245764276
 10
56.72366941941284
 20
-30.32200791342644
 10
56.72366941941284
 20
-30.32200791342644
 10
55.89426268133894
 20
-30.32200791342644
 10
55.89426268133894
 20
-30.32200791342644
 10
55.89426268133894
 20
-30.32200791342644
 10
55.70564370352151
 20
-30.58590222759658
 10
55.70564370352151
 20
-30.58590222759658
 10
55.88995631198237
 20
-30.68649901576588
 10
56.05325383798322
 20
-30.79536403309977
 10
56.19588079107256
 20
-30.91284178914679
 10
56.19588079107256
 20
-30.91284178914679
 10
56.19588079107256
 20
-30.91284178914679
 10
56.19588079107256
 20
-30.91284178914679
 97
        0
 97
        0
 92
        1
 93
        4
 72
     1
 10
57.02528752914646
 20
-31.56637640269869
 11
55.88168808281777
 21
-31.56637640269869
 72
     1
 10
55.88168808281777
 20
-31.56637640269869
 11
55.88168808281777
 21
-32.28261175408213
 72
     1
 10
55.88168808281777
 20
-32.28261175408213
 11
57.02528752914646
 21
-32.28261175408213
 72
     1
 10
57.02528752914646
 20
-32.28261175408213
 11
57.02528752914646
 21
-31.56637640269869
 97
        0
 75
     2
 76
     1
 98
        0
  0
ENDBLK
  5
A6
330
A3
100
AcDbEntity
  8
0
100
AcDbBlockEnd
  0
BLOCK
  5
B3
330
B1
100
AcDbEntity
  8
0
100
AcDbBlockBegin
  2
block 11
 70
     0
 10
0.0
 20
0.0
 30
0.0
  3
block 11
  1

  0
INSERT
  5
B6
330
B1
100
AcDbEntity
  8
フォーマット
100
AcDbBlockReference
  2
block 12
 10
0.0
 20
0.0
 30
0.0
  0
ENDBLK
  5
B4
330
B1
100
AcDbEntity
  8
0
100
AcDbBlockEnd
  0
BLOCK
  5
B7
330
B5
100
AcDbEntity
  8
0
100
AcDbBlockBegin
  2
block 12
 70
     0
 10
0.0
 20
0.0
 30
0.0
  3
block 12
  1

  0
INSERT
  5
BA
330
B5
100
AcDbEntity
  8
フォーマット
100
AcDbBlockReference
  2
block 13
 10
0.0
 20
0.0
 30
0.0
  0
ENDBLK
  5
B8
330
B5
100
AcDbEntity
  8
0
100
AcDbBlockEnd
  0
BLOCK
  5
BB
330
B9
100
AcDbEntity
  8
0
100
AcDbBlockBegin
  2
block 13
 70
     0
 10
0.0
 20
0.0
 30
0.0
  3
block 13
  1

  0
INSERT
  5
BE
330
B9
100
AcDbEntity
  8
フォーマット
100
AcDbBlockReference
  2
block 14
 10
0.0
 20
0.0
 30
0.0
  0
ENDBLK
  5
BC
330
B9
100
AcDbEntity
  8
0
100
AcDbBlockEnd
  0
BLOCK
  5
BF
330
BD
100
AcDbEntity
  8
0
100
AcDbBlockBegin
  2
block 14
 70
     0
 10
0.0
 20
0.0
 30
0.0
  3
block 14
  1

  0
POLYLINE
  5
C1
330
BD
100
AcDbEntity
  8
フォーマット
370
     0
100
AcDb2dPolyline
 66
     1
 10
0.0
 20
0.0
 30
0.0
  0
VERTEX
  5
C2
330
C1
100
AcDbEntity
  8
フォーマット
370
     0
100
AcDbVertex
100
AcDb2dVertex
 10
55.79366589316964
 20
-12.41440158109779
 30
0.0
  0
VERTEX
  5
C3
330
C1
100
AcDbEntity
  8
フォーマット
370
     0
100
AcDbVertex
100
AcDb2dVertex
 10
55.1904296737024
 20
-12.41440158109779
 30
0.0
  0
VERTEX
  5
C4
330
C1
100
AcDbEntity
  8
フォーマット
370
     0
100
AcDbVertex
100
AcDb2dVertex
 10
55.1904296737024
 20
-12.64039984493018
 30
0.0
  0
VERTEX
  5
C5
330
C1
100
AcDbEntity
  8
フォーマット
370
     0
100
AcDbVertex
100
AcDb2dVertex
 10
54.93910995805342
 20
-12.64039984493018
 30
0.0
  0
VERTEX
  5
C6
330
C1
100
AcDbEntity
  8
フォーマット
370
     0
100
AcDbVertex
100
AcDb2dVertex
 10
54.93910995805342
 20
-11.30852593033259
 30
0.0
  0
VERTEX
  5
C7
330
C1
100
AcDbEntity
  8
フォーマット
370
     0
100
AcDbVertex
100
AcDb2dVertex
 10
56.04498560881861
 20
-11.30852593033259
 30
0.0
  0
VERTEX
  5
C8
330
C1
100
AcDbEntity
  8
フォーマット
370
     0
100
AcDbVertex
100
AcDb2dVertex
 10
56.04498560881861
 20
-12.60284830414096
 30
0.0
  0
VERTEX
  5
C9
330
C1
100
AcDbEntity
  8
フォーマット
370
     0
100
AcDbVertex
100
AcDb2dVertex
 10
55.79366589316964
 20
-12.60284830414096
 30
0.0
  0
VERTEX
  5
CA
330
C1
100
AcDbEntity
  8
フォーマット
370
     0
100
AcDbVertex
100
AcDb2dVertex
 10
55.79366589316964
 20
-12.41440158109779
 30
0.0
  0
SEQEND
  5
CB
330
C1
100
AcDbEntity
  8
フォーマット
370
     0
  0
POLYLINE
  5
CC
330
BD
100
AcDbEntity
  8
フォーマット
370
     0
100
AcDb2dPolyline
 66
     1
 10
0.0
 20
0.0
 30
0.0
  0
VERTEX
  5
CD
330
CC
100
AcDbEntity
  8
フォーマット
370
     0
100
AcDbVertex
100
AcDb2dVertex
 10
55.1904296737024
 20
-11.54727104746041
 30
0.0
  0
VERTEX
  5
CE
330
CC
100
AcDbEntity
  8
フォーマット
370
     0
100
AcDbVertex
100
AcDb2dVertex
 10
55.1904296737024
 20
-12.17565646396998
 30
0.0
  0
VERTEX
  5
CF
330
CC
100
AcDbEntity
  8
フォーマット
370
     0
100
AcDbVertex
100
AcDb2dVertex
 10
55.79366589316964
 20
-12.17565646396998
 30
0.0
  0
VERTEX
  5
D0
330
CC
100
AcDbEntity
  8
フォーマット
370
     0
100
AcDbVertex
100
AcDb2dVertex
 10
55.79366589316964
 20
-11.54727104746041
 30
0.0
  0
VERTEX
  5
D1
330
CC
100
AcDbEntity
  8
フォーマット
370
     0
100
AcDbVertex
100
AcDb2dVertex
 10
55.1904296737024
 20
-11.54727104746041
 30
0.0
  0
SEQEND
  5
D2
330
CC
100
AcDbEntity
  8
フォーマット
370
     0
  0
POLYLINE
  5
D3
330
BD
100
AcDbEntity
  8
フォーマット
370
     0
100
AcDb2dPolyline
 66
     1
 10
0.0
 20
0.0
 30
0.0
  0
VERTEX
  5
D4
330
D3
100
AcDbEntity
  8
フォーマット
370
     0
100
AcDbVertex
100
AcDb2dVertex
 10
56.736244017934
 20
-10.99433322207781
 30
0.0
  0
VERTEX
  5
D5
330
D3
100
AcDbEntity
  8
フォーマット
370
     0
100
AcDbVertex
100
AcDb2dVertex
 10
55.6303683671688
 20
-10.99433322207781
 30
0.0
  0
VERTEX
  5
D6
330
D3
100
AcDbEntity
  8
フォーマット
370
     0
100
AcDbVertex
100
AcDb2dVertex
 10
55.6303683671688
 20
-11.08218315695168
 30
0.0
  0
VERTEX
  5
D7
330
D3
100
AcDbEntity
  8
フォーマット
370
     0
100
AcDbVertex
100
AcDb2dVertex
 10
55.37887639674556
 20
-11.08218315695168
 30
0.0
  0
VERTEX
  5
D8
330
D3
100
AcDbEntity
  8
フォーマット
370
     0
100
AcDbVertex
100
AcDb2dVertex
 10
55.37887639674556
 20
-9.913262258806407
 30
0.0
  0
VERTEX
  5
D9
330
D3
100
AcDbEntity
  8
フォーマット
370
     0
100
AcDbVertex
100
AcDb2dVertex
 10
56.98756373358297
 20
-9.913262258806407
 30
0.0
  0
VERTEX
  5
DA
330
D3
100
AcDbEntity
  8
フォーマット
370
     0
100
AcDbVertex
100
AcDb2dVertex
 10
56.98756373358297
 20
-11.05703395990935
 30
0.0
  0
VERTEX
  5
DB
330
D3
100
AcDbEntity
  8
フォーマット
370
     0
100
AcDbVertex
100
AcDb2dVertex
 10
56.736244017934
 20
-11.05703395990935
 30
0.0
  0
VERTEX
  5
DC
330
D3
100
AcDbEntity
  8
フォーマット
370
     0
100
AcDbVertex
100
AcDb2dVertex
 10
56.736244017934
 20
-10.99433322207781
 30
0.0
  0
SEQEND
  5
DD
330
D3
100
AcDbEntity
  8
フォーマット
370
     0
  0
POLYLINE
  5
DE
330
BD
100
AcDbEntity
  8
フォーマット
370
     0
100
AcDb2dPolyline
 66
     1
 10
0.0
 20
0.0
 30
0.0
  0
VERTEX
  5
DF
330
DE
100
AcDbEntity
  8
フォーマット
370
     0
100
AcDbVertex
100
AcDb2dVertex
 10
55.6303683671688
 20
-10.75524359540147
 30
0.0
  0
VERTEX
  5
E0
330
DE
100
AcDbEntity
  8
フォーマット
370
     0
100
AcDbVertex
100
AcDb2dVertex
 10
56.736244017934
 20
-10.75524359540147
 30
0.0
  0
VERTEX
  5
E1
330
DE
100
AcDbEntity
  8
フォーマット
370
     0
100
AcDbVertex
100
AcDb2dVertex
 10
56.736244017934
 20
-10.15200737593422
 30
0.0
  0
VERTEX
  5
E2
330
DE
100
AcDbEntity
  8
フォーマット
370
     0
100
AcDbVertex
100
AcDb2dVertex
 10
55.6303683671688
 20
-10.15200737593422
 30
0.0
  0
VERTEX
  5
E3
330
DE
100
AcDbEntity
  8
フォーマット
370
     0
100
AcDbVertex
100
AcDb2dVertex
 10
55.6303683671688
 20
-10.75524359540147
 30
0.0
  0
SEQEND
  5
E4
330
DE
100
AcDbEntity
  8
フォーマット
370
     0
  0
POLYLINE
  5
E5
330
BD
100
AcDbEntity
  8
フォーマット
370
     0
100
AcDb2dPolyline
 66
     1
 10
0.0
 20
0.0
 30
0.0
  0
VERTEX
  5
E6
330
E5
100
AcDbEntity
  8
フォーマット
370
     0
100
AcDbVertex
100
AcDb2dVertex
 10
57.22648110548505
 20
-12.41440158109779
 30
0.0
  0
VERTEX
  5
E7
330
E5
100
AcDbEntity
  8
フォーマット
370
     0
100
AcDbVertex
100
AcDb2dVertex
 10
56.6232448860178
 20
-12.41440158109779
 30
0.0
  0
VERTEX
  5
E8
330
E5
100
AcDbEntity
  8
フォーマット
370
     0
100
AcDbVertex
100
AcDb2dVertex
 10
56.6232448860178
 20
-12.64039984493018
 30
0.0
  0
VERTEX
  5
E9
330
E5
100
AcDbEntity
  8
フォーマット
370
     0
100
AcDbVertex
100
AcDb2dVertex
 10
56.37175291559456
 20
-12.64039984493018
 30
0.0
  0
VERTEX
  5
EA
330
E5
100
AcDbEntity
  8
フォーマット
370
     0
100
AcDbVertex
100
AcDb2dVertex
 10
56.37175291559456
 20
-11.30852593033259
 30
0.0
  0
VERTEX
  5
EB
330
E5
100
AcDbEntity
  8
フォーマット
370
     0
100
AcDbVertex
100
AcDb2dVertex
 10
57.47780082113402
 20
-11.30852593033259
 30
0.0
  0
VERTEX
  5
EC
330
E5
100
AcDbEntity
  8
フォーマット
370
     0
100
AcDbVertex
100
AcDb2dVertex
 10
57.47780082113402
 20
-12.60284830414096
 30
0.0
  0
VERTEX
  5
ED
330
E5
100
AcDbEntity
  8
フォーマット
370
     0
100
AcDbVertex
100
AcDb2dVertex
 10
57.22648110548505
 20
-12.60284830414096
 30
0.0
  0
VERTEX
  5
EE
330
E5
100
AcDbEntity
  8
フォーマット
370
     0
100
AcDbVertex
100
AcDb2dVertex
 10
57.22648110548505
 20
-12.41440158109779
 30
0.0
  0
SEQEND
  5
EF
330
E5
100
AcDbEntity
  8
フォーマット
370
     0
  0
POLYLINE
  5
F0
330
BD
100
AcDbEntity
  8
フォーマット
370
     0
100
AcDb2dPolyline
 66
     1
 10
0.0
 20
0.0
 30
0.0
  0
VERTEX
  5
F1
330
F0
100
AcDbEntity
  8
フォーマット
370
     0
100
AcDbVertex
100
AcDb2dVertex
 10
56.6232448860178
 20
-11.54727104746041
 30
0.0
  0
VERTEX
  5
F2
330
F0
100
AcDbEntity
  8
フォーマット
370
     0
100
AcDbVertex
100
AcDb2dVertex
 10
56.6232448860178
 20
-12.17565646396998
 30
0.0
  0
VERTEX
  5
F3
330
F0
100
AcDbEntity
  8
フォーマット
370
     0
100
AcDbVertex
100
AcDb2dVertex
 10
57.22648110548505
 20
-12.17565646396998
 30
0.0
  0
VERTEX
  5
F4
330
F0
100
AcDbEntity
  8
フォーマット
370
     0
100
AcDbVertex
100
AcDb2dVertex
 10
57.22648110548505
 20
-11.54727104746041
 30
0.0
  0
VERTEX
  5
F5
330
F0
100
AcDbEntity
  8
フォーマット
370
     0
100
AcDbVertex
100
AcDb2dVertex
 10
56.6232448860178
 20
-11.54727104746041
 30
0.0
  0
SEQEND
  5
F6
330
F0
100
AcDbEntity
  8
フォーマット
370
     0
  0
HATCH
  5
F7
330
BD
100
AcDbEntity
  8
フォーマット
 62
     7
100
AcDbHatch
 10
0.0
 20
0.0
 30
0.0
210
0.0
220
0.0
230
1.0
  2
SOLID
 70
     1
 71
     0
 91
        6
 92
        1
 93
        8
 72
     1
 10
55.79366589316964
 20
-12.41440158109779
 11
55.1904296737024
 21
-12.41440158109779
 72
     1
 10
55.1904296737024
 20
-12.41440158109779
 11
55.1904296737024
 21
-12.64039984493018
 72
     1
 10
55.1904296737024
 20
-12.64039984493018
 11
54.93910995805342
 21
-12.64039984493018
 72
     1
 10
54.93910995805342
 20
-12.64039984493018
 11
54.93910995805342
 21
-11.30852593033259
 72
     1
 10
54.93910995805342
 20
-11.30852593033259
 11
56.04498560881861
 21
-11.30852593033259
 72
     1
 10
56.04498560881861
 20
-11.30852593033259
 11
56.04498560881861
 21
-12.60284830414096
 72
     1
 10
56.04498560881861
 20
-12.60284830414096
 11
55.79366589316964
 21
-12.60284830414096
 72
     1
 10
55.79366589316964
 20
-12.60284830414096
 11
55.79366589316964
 21
-12.41440158109779
 97
        0
 92
        1
 93
        4
 72
     1
 10
55.1904296737024
 20
-11.54727104746041
 11
55.1904296737024
 21
-12.17565646396998
 72
     1
 10
55.1904296737024
 20
-12.17565646396998
 11
55.79366589316964
 21
-12.17565646396998
 72
     1
 10
55.79366589316964
 20
-12.17565646396998
 11
55.79366589316964
 21
-11.54727104746041
 72
     1
 10
55.79366589316964
 20
-11.54727104746041
 11
55.1904296737024
 21
-11.54727104746041
 97
        0
 92
        1
 93
        8
 72
     1
 10
56.736244017934
 20
-10.99433322207781
 11
55.6303683671688
 21
-10.99433322207781
 72
     1
 10
55.6303683671688
 20
-10.99433322207781
 11
55.6303683671688
 21
-11.08218315695168
 72
     1
 10
55.6303683671688
 20
-11.08218315695168
 11
55.37887639674556
 21
-11.08218315695168
 72
     1
 10
55.37887639674556
 20
-11.08218315695168
 11
55.37887639674556
 21
-9.913262258806407
 72
     1
 10
55.37887639674556
 20
-9.913262258806407
 11
56.98756373358297
 21
-9.913262258806407
 72
     1
 10
56.98756373358297
 20
-9.913262258806407
 11
56.98756373358297
 21
-11.05703395990935
 72
     1
 10
56.98756373358297
 20
-11.05703395990935
 11
56.736244017934
 21
-11.05703395990935
 72
     1
 10
56.736244017934
 20
-11.05703395990935
 11
56.736244017934
 21
-10.99433322207781
 97
        0
 92
        1
 93
        4
 72
     1
 10
55.6303683671688
 20
-10.75524359540147
 11
56.736244017934
 21
-10.75524359540147
 72
     1
 10
56.736244017934
 20
-10.75524359540147
 11
56.736244017934
 21
-10.15200737593422
 72
     1
 10
56.736244017934
 20
-10.15200737593422
 11
55.6303683671688
 21
-10.15200737593422
 72
     1
 10
55.6303683671688
 20
-10.15200737593422
 11
55.6303683671688
 21
-10.75524359540147
 97
        0
 92
        1
 93
        8
 72
     1
 10
57.22648110548505
 20
-12.41440158109779
 11
56.6232448860178
 21
-12.41440158109779
 72
     1
 10
56.6232448860178
 20
-12.41440158109779
 11
56.6232448860178
 21
-12.64039984493018
 72
     1
 10
56.6232448860178
 20
-12.64039984493018
 11
56.37175291559456
 21
-12.64039984493018
 72
     1
 10
56.37175291559456
 20
-12.64039984493018
 11
56.37175291559456
 21
-11.30852593033259
 72
     1
 10
56.37175291559456
 20
-11.30852593033259
 11
57.47780082113402
 21
-11.30852593033259
 72
     1
 10
57.47780082113402
 20
-11.30852593033259
 11
57.47780082113402
 21
-12.60284830414096
 72
     1
 10
57.47780082113402
 20
-12.60284830414096
 11
57.22648110548505
 21
-12.60284830414096
 72
     1
 10
57.22648110548505
 20
-12.60284830414096
 11
57.22648110548505
 21
-12.41440158109779
 97
        0
 92
        1
 93
        4
 72
     1
 10
56.6232448860178
 20
-11.54727104746041
 11
56.6232448860178
 21
-12.17565646396998
 72
     1
 10
56.6232448860178
 20
-12.17565646396998
 11
57.22648110548505
 21
-12.17565646396998
 72
     1
 10
57.22648110548505
 20
-12.17565646396998
 11
57.22648110548505
 21
-11.54727104746041
 72
     1
 10
57.22648110548505
 20
-11.54727104746041
 11
56.6232448860178
 21
-11.54727104746041
 97
        0
 75
     2
 76
     1
 98
        0
  0
ENDBLK
  5
C0
330
BD
100
AcDbEntity
  8
0
100
AcDbBlockEnd
  0
BLOCK
  5
FA
330
F8
100
AcDbEntity
  8
0
100
AcDbBlockBegin
  2
block 15
 70
     0
 10
0.0
 20
0.0
 30
0.0
  3
block 15
  1

  0
INSERT
  5
FD
330
F8
100
AcDbEntity
  8
フォーマット
100
AcDbBlockReference
  2
block 16
 10
0.0
 20
0.0
 30
0.0
  0
ENDBLK
  5
FB
330
F8
100
AcDbEntity
  8
0
100
AcDbBlockEnd
  0
BLOCK
  5
FE
330
FC
100
AcDbEntity
  8
0
100
AcDbBlockBegin
  2
block 16
 70
     0
 10
0.0
 20
0.0
 30
0.0
  3
block 16
  1

  0
INSERT
  5
101
330
FC
100
AcDbEntity
  8
フォーマット
100
AcDbBlockReference
  2
block 17
 10
0.0
 20
0.0
 30
0.0
  0
ENDBLK
  5
FF
330
FC
100
AcDbEntity
  8
0
100
AcDbBlockEnd
  0
BLOCK
  5
102
330
100
100
AcDbEntity
  8
0
100
AcDbBlockBegin
  2
block 17
 70
     0
 10
0.0
 20
0.0
 30
0.0
  3
block 17
  1

  0
INSERT
  5
105
330
100
100
AcDbEntity
  8
フォーマット
100
AcDbBlockReference
  2
block 18
 10
0.0
 20
0.0
 30
0.0
  0
ENDBLK
  5
103
330
100
100
AcDbEntity
  8
0
100
AcDbBlockEnd
  0
BLOCK
  5
106
330
104
100
AcDbEntity
  8
0
100
AcDbBlockBegin
  2
block 18
 70
     0
 10
0.0
 20
0.0
 30
0.0
  3
block 18
  1

  0
SPLINE
  5
108
330
104
100
AcDbEntity
  8
フォーマット
370
     0
100
AcDbSpline
210
0.0
220
0.0
230
1.0
 70
    11
 71
     3
 72
   119
 73
   115
 74
     0
 42
0.000000001
 43
0.0000000001
 40
0.0
 40
0.0
 40
0.0
 40
0.0
 40
1.0
 40
1.0
 40
1.0
 40
2.0
 40
2.0
 40
2.0
 40
3.0
 40
3.0
 40
3.0
 40
4.0
 40
4.0
 40
4.0
 40
5.0
 40
5.0
 40
5.0
 40
6.0
 40
6.0
 40
6.0
 40
7.0
 40
7.0
 40
7.0
 40
8.0
 40
8.0
 40
8.0
 40
9.0
 40
9.0
 40
9.0
 40
10.0
 40
10.0
 40
10.0
 40
11.0
 40
11.0
 40
11.0
 40
12.0
 40
12.0
 40
12.0
 40
13.0
 40
13.0
 40
13.0
 40
14.0
 40
14.0
 40
14.0
 40
15.0
 40
15.0
 40
15.0
 40
16.0
 40
16.0
 40
16.0
 40
17.0
 40
17.0
 40
17.0
 40
18.0
 40
18.0
 40
18.0
 40
19.0
 40
19.0
 40
19.0
 40
20.0
 40
20.0
 40
20.0
 40
21.0
 40
21.0
 40
21.0
 40
22.0
 40
22.0
 40
22.0
 40
23.0
 40
23.0
 40
23.0
 40
24.0
 40
24.0
 40
24.0
 40
25.0
 40
25.0
 40
25.0
 40
26.0
 40
26.0
 40
26.0
 40
27.0
 40
27.0
 40
27.0
 40
28.0
 40
28.0
 40
28.0
 40
29.0
 40
29.0
 40
29.0
 40
30.0
 40
30.0
 40
30.0
 40
31.0
 40
31.0
 40
31.0
 40
32.0
 40
32.0
 40
32.0
 40
33.0
 40
33.0
 40
33.0
 40
34.0
 40
34.0
 40
34.0
 40
35.0
 40
35.0
 40
35.0
 40
36.0
 40
36.0
 40
36.0
 40
37.0
 40
37.0
 40
37.0
 40
38.0
 40
38.0
 40
38.0
 40
38.0
 10
56.57311874670742
 20
-15.88085665835618
 30
0.0
 10
56.82443846235639
 20
-16.09893120257249
 30
0.0
 10
57.17635496617466
 20
-16.27497558186876
 30
0.0
 10
57.62869600338797
 20
-16.40864528669645
 30
0.0
 10
57.62869600338797
 20
-16.40864528669645
 30
0.0
 10
57.5408460685141
 20
-16.69803330745744
 30
0.0
 10
57.5408460685141
 20
-16.69803330745744
 30
0.0
 10
57.37306991838243
 20
-16.64773491337279
 30
0.0
 10
57.25576441710967
 20
-16.59743651928814
 30
0.0
 10
57.18892956469583
 20
-16.54713812520349
 30
0.0
 10
57.18892956469583
 20
-16.54713812520349
 30
0.0
 10
57.18892956469583
 20
-17.71571451380024
 30
0.0
 10
57.18892956469583
 20
-17.71571451380024
 30
0.0
 10
57.18892956469583
 20
-17.71571451380024
 30
0.0
 10
56.93760984904685
 20
-17.71571451380024
 30
0.0
 10
56.93760984904685
 20
-17.71571451380024
 30
0.0
 10
56.93760984904685
 20
-17.71571451380024
 30
0.0
 10
56.93760984904685
 20
-17.59031303813714
 30
0.0
 10
56.93760984904685
 20
-17.59031303813714
 30
0.0
 10
56.93760984904685
 20
-17.59031303813714
 30
0.0
 10
55.50479463673144
 20
-17.59031303813714
 30
0.0
 10
55.50479463673144
 20
-17.59031303813714
 30
0.0
 10
55.50479463673144
 20
-17.59031303813714
 30
0.0
 10
55.50479463673144
 20
-17.75361056413799
 30
0.0
 10
55.50479463673144
 20
-17.75361056413799
 30
0.0
 10
55.50479463673144
 20
-17.75361056413799
 30
0.0
 10
55.25347492108246
 20
-17.75361056413799
 30
0.0
 10
55.25347492108246
 20
-17.75361056413799
 30
0.0
 10
55.25347492108246
 20
-17.75361056413799
 30
0.0
 10
55.25347492108246
 20
-16.58468966599272
 30
0.0
 10
55.25347492108246
 20
-16.58468966599272
 30
0.0
 10
55.16958684601664
 20
-16.63498806007737
 30
0.0
 10
55.04401311557928
 20
-16.68528645416201
 30
0.0
 10
54.87640922022187
 20
-16.73558484824666
 30
0.0
 10
54.87640922022187
 20
-16.73558484824666
 30
0.0
 10
54.73826089126335
 20
-16.49683973111885
 30
0.0
 10
54.73826089126335
 20
-16.49683973111885
 30
0.0
 10
55.16545273143434
 20
-16.37109374590723
 30
0.0
 10
55.53821206293836
 20
-16.16576605498634
 30
0.0
 10
55.85671114054971
 20
-15.88085665835618
 30
0.0
 10
55.85671114054971
 20
-15.88085665835618
 30
0.0
 10
54.82611082613722
 20
-15.88085665835618
 30
0.0
 10
54.82611082613722
 20
-15.88085665835618
 30
0.0
 10
54.82611082613722
 20
-15.88085665835618
 30
0.0
 10
54.82611082613722
 20
-15.64211154122836
 30
0.0
 10
54.82611082613722
 20
-15.64211154122836
 30
0.0
 10
54.82611082613722
 20
-15.64211154122836
 30
0.0
 10
55.50479463673144
 20
-15.64211154122836
 30
0.0
 10
55.50479463673144
 20
-15.64211154122836
 30
0.0
 10
55.42934704560447
 20
-15.53324652389447
 30
0.0
 10
55.36664630777292
 20
-15.4495307036029
 30
0.0
 10
55.31634791368828
 20
-15.39096408035365
 30
0.0
 10
55.31634791368828
 20
-15.39096408035365
 30
0.0
 10
55.52994383377376
 20
-15.30276963593125
 30
0.0
 10
55.52994383377376
 20
-15.30276963593125
 30
0.0
 10
55.60539142490074
 20
-15.36994899789362
 30
0.0
 10
55.67636039189689
 20
-15.45814344231602
 30
0.0
 10
55.74353975385926
 20
-15.56666395010139
 30
0.0
 10
55.74353975385926
 20
-15.56666395010139
 30
0.0
 10
55.56766762933725
 20
-15.64211154122836
 30
0.0
 10
55.56766762933725
 20
-15.64211154122836
 30
0.0
 10
55.56766762933725
 20
-15.64211154122836
 30
0.0
 10
56.0703070606352
 20
-15.64211154122836
 30
0.0
 10
56.0703070606352
 20
-15.64211154122836
 30
0.0
 10
56.0703070606352
 20
-15.64211154122836
 30
0.0
 10
56.0703070606352
 20
-15.22732204480428
 30
0.0
 10
56.0703070606352
 20
-15.22732204480428
 30
0.0
 10
56.0703070606352
 20
-15.22732204480428
 30
0.0
 10
55.05245359951814
 20
-15.2524712418466
 30
0.0
 10
55.05245359951814
 20
-15.2524712418466
 30
0.0
 10
55.05245359951814
 20
-15.2524712418466
 30
0.0
 10
54.97700600839116
 20
-15.05162217505654
 30
0.0
 10
54.97700600839116
 20
-15.05162217505654
 30
0.0
 10
55.93215873167669
 20
-15.03474120717881
 30
0.0
 10
56.64839408306013
 20
-14.98444281309417
 30
0.0
 10
57.12605657209001
 20
-14.9007269928026
 30
0.0
 10
57.12605657209001
 20
-14.9007269928026
 30
0.0
 10
57.25180255730164
 20
-15.11432291288809
 30
0.0
 10
57.25180255730164
 20
-15.11432291288809
 30
0.0
 10
57.26833901563084
 20
-15.15635307780813
 30
0.0
 10
57.23922795878048
 20
-15.16462130697273
 30
0.0
 10
57.1637803676535
 20
-15.13947210993041
 30
0.0
 10
57.1637803676535
 20
-15.13947210993041
 30
0.0
 10
56.32179903105844
 20
-15.20217284776196
 30
0.0
 10
56.32179903105844
 20
-15.20217284776196
 30
0.0
 10
56.32179903105844
 20
-15.20217284776196
 30
0.0
 10
56.32179903105844
 20
-15.64211154122836
 30
0.0
 10
56.32179903105844
 20
-15.64211154122836
 30
0.0
 10
56.32179903105844
 20
-15.64211154122836
 30
0.0
 10
56.56054414818625
 20
-15.64211154122836
 30
0.0
 10
56.56054414818625
 20
-15.64211154122836
 30
0.0
 10
56.56054414818625
 20
-15.64211154122836
 30
0.0
 10
56.82443846235639
 20
-15.20217284776196
 30
0.0
 10
56.82443846235639
 20
-15.20217284776196
 30
0.0
 10
56.82443846235639
 20
-15.20217284776196
 30
0.0
 10
57.05060898096305
 20
-15.32791883297358
 30
0.0
 10
57.05060898096305
 20
-15.32791883297358
 30
0.0
 10
57.09246689110883
 20
-15.36994899789362
 30
0.0
 10
57.07989229258767
 20
-15.38682996577135
 30
0.0
 10
57.01288518539956
 20
-15.37821722705822
 30
0.0
 10
57.01288518539956
 20
-15.37821722705822
 30
0.0
 10
56.81186386383523
 20
-15.64211154122836
 30
0.0
 10
56.81186386383523
 20
-15.64211154122836
 30
0.0
 10
56.81186386383523
 20
-15.64211154122836
 30
0.0
 10
57.56599526555642
 20
-15.64211154122836
 30
0.0
 10
57.56599526555642
 20
-15.64211154122836
 30
0.0
 10
57.56599526555642
 20
-15.64211154122836
 30
0.0
 10
57.56599526555642
 20
-15.88085665835618
 30
0.0
 10
57.56599526555642
 20
-15.88085665835618
 30
0.0
 10
57.56599526555642
 20
-15.88085665835618
 30
0.0
 10
56.57311874670742
 20
-15.88085665835618
 30
0.0
 10
56.57311874670742
 20
-15.88085665835618
 30
0.0
 10
56.57311874670742
 20
-15.88085665835618
 30
0.0
 10
56.57311874670742
 20
-15.88085665835618
 30
0.0
 10
56.57311874670742
 20
-15.88085665835618
 30
0.0
  0
SPLINE
  5
109
330
104
100
AcDbEntity
  8
フォーマット
370
     0
100
AcDbSpline
210
0.0
220
0.0
230
1.0
 70
    11
 71
     3
 72
    23
 73
    19
 74
     0
 42
0.000000001
 43
0.0000000001
 40
0.0
 40
0.0
 40
0.0
 40
0.0
 40
1.0
 40
1.0
 40
1.0
 40
2.0
 40
2.0
 40
2.0
 40
3.0
 40
3.0
 40
3.0
 40
4.0
 40
4.0
 40
4.0
 40
5.0
 40
5.0
 40
5.0
 40
6.0
 40
6.0
 40
6.0
 40
6.0
 10
57.03803438244189
 20
-16.48409287782342
 30
0.0
 10
56.81186386383523
 20
-16.39210882836725
 30
0.0
 10
56.57311874670742
 20
-16.22881130236641
 30
0.0
 10
56.32179903105844
 20
-15.99420029982089
 30
0.0
 10
56.32179903105844
 20
-15.99420029982089
 30
0.0
 10
56.32179903105844
 20
-16.42139213999187
 30
0.0
 10
56.32179903105844
 20
-16.42139213999187
 30
0.0
 10
56.32179903105844
 20
-16.42139213999187
 30
0.0
 10
56.0703070606352
 20
-16.42139213999187
 30
0.0
 10
56.0703070606352
 20
-16.42139213999187
 30
0.0
 10
56.0703070606352
 20
-16.42139213999187
 30
0.0
 10
56.0703070606352
 20
-15.99420029982089
 30
0.0
 10
56.0703070606352
 20
-15.99420029982089
 30
0.0
 10
55.86928573907088
 20
-16.21193033448868
 30
0.0
 10
55.65138344962882
 20
-16.37557237003805
 30
0.0
 10
55.41677244708331
 20
-16.48409287782342
 30
0.0
 10
55.41677244708331
 20
-16.48409287782342
 30
0.0
 10
57.03803438244189
 20
-16.48409287782342
 30
0.0
 10
57.03803438244189
 20
-16.48409287782342
 30
0.0
  0
POLYLINE
  5
10A
330
104
100
AcDbEntity
  8
フォーマット
370
     0
100
AcDb2dPolyline
 66
     1
 10
0.0
 20
0.0
 30
0.0
  0
VERTEX
  5
10B
330
10A
100
AcDbEntity
  8
フォーマット
370
     0
100
AcDbVertex
100
AcDb2dVertex
 10
56.0703070606352
 20
-16.93677842458525
 30
0.0
  0
VERTEX
  5
10C
330
10A
100
AcDbEntity
  8
フォーマット
370
     0
100
AcDbVertex
100
AcDb2dVertex
 10
56.0703070606352
 20
-16.68528645416201
 30
0.0
  0
VERTEX
  5
10D
330
10A
100
AcDbEntity
  8
フォーマット
370
     0
100
AcDbVertex
100
AcDb2dVertex
 10
55.50479463673144
 20
-16.68528645416201
 30
0.0
  0
VERTEX
  5
10E
330
10A
100
AcDbEntity
  8
フォーマット
370
     0
100
AcDbVertex
100
AcDb2dVertex
 10
55.50479463673144
 20
-16.93677842458525
 30
0.0
  0
VERTEX
  5
10F
330
10A
100
AcDbEntity
  8
フォーマット
370
     0
100
AcDbVertex
100
AcDb2dVertex
 10
56.0703070606352
 20
-16.93677842458525
 30
0.0
  0
SEQEND
  5
110
330
10A
100
AcDbEntity
  8
フォーマット
370
     0
  0
POLYLINE
  5
111
330
104
100
AcDbEntity
  8
フォーマット
370
     0
100
AcDb2dPolyline
 66
     1
 10
0.0
 20
0.0
 30
0.0
  0
VERTEX
  5
112
330
111
100
AcDbEntity
  8
フォーマット
370
     0
100
AcDbVertex
100
AcDb2dVertex
 10
56.0703070606352
 20
-17.13762749137532
 30
0.0
  0
VERTEX
  5
113
330
111
100
AcDbEntity
  8
フォーマット
370
     0
100
AcDbVertex
100
AcDb2dVertex
 10
55.50479463673144
 20
-17.13762749137532
 30
0.0
  0
VERTEX
  5
114
330
111
100
AcDbEntity
  8
フォーマット
370
     0
100
AcDbVertex
100
AcDb2dVertex
 10
55.50479463673144
 20
-17.38911946179855
 30
0.0
  0
VERTEX
  5
115
330
111
100
AcDbEntity
  8
フォーマット
370
     0
100
AcDbVertex
100
AcDb2dVertex
 10
56.0703070606352
 20
-17.38911946179855
 30
0.0
  0
VERTEX
  5
116
330
111
100
AcDbEntity
  8
フォーマット
370
     0
100
AcDbVertex
100
AcDb2dVertex
 10
56.0703070606352
 20
-17.13762749137532
 30
0.0
  0
SEQEND
  5
117
330
111
100
AcDbEntity
  8
フォーマット
370
     0
  0
POLYLINE
  5
118
330
104
100
AcDbEntity
  8
フォーマット
370
     0
100
AcDb2dPolyline
 66
     1
 10
0.0
 20
0.0
 30
0.0
  0
VERTEX
  5
119
330
118
100
AcDbEntity
  8
フォーマット
370
     0
100
AcDbVertex
100
AcDb2dVertex
 10
56.93760984904685
 20
-16.93677842458525
 30
0.0
  0
VERTEX
  5
11A
330
118
100
AcDbEntity
  8
フォーマット
370
     0
100
AcDbVertex
100
AcDb2dVertex
 10
56.93760984904685
 20
-16.68528645416201
 30
0.0
  0
VERTEX
  5
11B
330
118
100
AcDbEntity
  8
フォーマット
370
     0
100
AcDbVertex
100
AcDb2dVertex
 10
56.32179903105844
 20
-16.68528645416201
 30
0.0
  0
VERTEX
  5
11C
330
118
100
AcDbEntity
  8
フォーマット
370
     0
100
AcDbVertex
100
AcDb2dVertex
 10
56.32179903105844
 20
-16.93677842458525
 30
0.0
  0
VERTEX
  5
11D
330
118
100
AcDbEntity
  8
フォーマット
370
     0
100
AcDbVertex
100
AcDb2dVertex
 10
56.93760984904685
 20
-16.93677842458525
 30
0.0
  0
SEQEND
  5
11E
330
118
100
AcDbEntity
  8
フォーマット
370
     0
  0
POLYLINE
  5
11F
330
104
100
AcDbEntity
  8
フォーマット
370
     0
100
AcDb2dPolyline
 66
     1
 10
0.0
 20
0.0
 30
0.0
  0
VERTEX
  5
120
330
11F
100
AcDbEntity
  8
フォーマット
370
     0
100
AcDbVertex
100
AcDb2dVertex
 10
56.93760984904685
 20
-17.38911946179855
 30
0.0
  0
VERTEX
  5
121
330
11F
100
AcDbEntity
  8
フォーマット
370
     0
100
AcDbVertex
100
AcDb2dVertex
 10
56.93760984904685
 20
-17.13762749137532
 30
0.0
  0
VERTEX
  5
122
330
11F
100
AcDbEntity
  8
フォーマット
370
     0
100
AcDbVertex
100
AcDb2dVertex
 10
56.32179903105844
 20
-17.13762749137532
 30
0.0
  0
VERTEX
  5
123
330
11F
100
AcDbEntity
  8
フォーマット
370
     0
100
AcDbVertex
100
AcDb2dVertex
 10
56.32179903105844
 20
-17.38911946179855
 30
0.0
  0
VERTEX
  5
124
330
11F
100
AcDbEntity
  8
フォーマット
370
     0
100
AcDbVertex
100
AcDb2dVertex
 10
56.93760984904685
 20
-17.38911946179855
 30
0.0
  0
SEQEND
  5
125
330
11F
100
AcDbEntity
  8
フォーマット
370
     0
  0
HATCH
  5
126
330
104
100
AcDbEntity
  8
フォーマット
 62
     7
100
AcDbHatch
 10
0.0
 20
0.0
 30
0.0
210
0.0
220
0.0
230
1.0
  2
SOLID
 70
     1
 71
     0
 91
        6
 92
        1
 93
        1
 72
     4
 94
        3
 73
     0
 74
     1
 95
      119
 96
      115
 40
0.0
 40
0.0
 40
0.0
 40
0.0
 40
1.0
 40
1.0
 40
1.0
 40
2.0
 40
2.0
 40
2.0
 40
3.0
 40
3.0
 40
3.0
 40
4.0
 40
4.0
 40
4.0
 40
5.0
 40
5.0
 40
5.0
 40
6.0
 40
6.0
 40
6.0
 40
7.0
 40
7.0
 40
7.0
 40
8.0
 40
8.0
 40
8.0
 40
9.0
 40
9.0
 40
9.0
 40
10.0
 40
10.0
 40
10.0
 40
11.0
 40
11.0
 40
11.0
 40
12.0
 40
12.0
 40
12.0
 40
13.0
 40
13.0
 40
13.0
 40
14.0
 40
14.0
 40
14.0
 40
15.0
 40
15.0
 40
15.0
 40
16.0
 40
16.0
 40
16.0
 40
17.0
 40
17.0
 40
17.0
 40
18.0
 40
18.0
 40
18.0
 40
19.0
 40
19.0
 40
19.0
 40
20.0
 40
20.0
 40
20.0
 40
21.0
 40
21.0
 40
21.0
 40
22.0
 40
22.0
 40
22.0
 40
23.0
 40
23.0
 40
23.0
 40
24.0
 40
24.0
 40
24.0
 40
25.0
 40
25.0
 40
25.0
 40
26.0
 40
26.0
 40
26.0
 40
27.0
 40
27.0
 40
27.0
 40
28.0
 40
28.0
 40
28.0
 40
29.0
 40
29.0
 40
29.0
 40
30.0
 40
30.0
 40
30.0
 40
31.0
 40
31.0
 40
31.0
 40
32.0
 40
32.0
 40
32.0
 40
33.0
 40
33.0
 40
33.0
 40
34.0
 40
34.0
 40
34.0
 40
35.0
 40
35.0
 40
35.0
 40
36.0
 40
36.0
 40
36.0
 40
37.0
 40
37.0
 40
37.0
 40
38.0
 40
38.0
 40
38.0
 40
38.0
 10
56.57311874670742
 20
-15.88085665835618
 10
56.82443846235639
 20
-16.09893120257249
 10
57.17635496617466
 20
-16.27497558186876
 10
57.62869600338797
 20
-16.40864528669645
 10
57.62869600338797
 20
-16.40864528669645
 10
57.5408460685141
 20
-16.69803330745744
 10
57.5408460685141
 20
-16.69803330745744
 10
57.37306991838243
 20
-16.64773491337279
 10
57.25576441710967
 20
-16.59743651928814
 10
57.18892956469583
 20
-16.54713812520349
 10
57.18892956469583
 20
-16.54713812520349
 10
57.18892956469583
 20
-17.71571451380024
 10
57.18892956469583
 20
-17.71571451380024
 10
57.18892956469583
 20
-17.71571451380024
 10
56.93760984904685
 20
-17.71571451380024
 10
56.93760984904685
 20
-17.71571451380024
 10
56.93760984904685
 20
-17.71571451380024
 10
56.93760984904685
 20
-17.59031303813714
 10
56.93760984904685
 20
-17.59031303813714
 10
56.93760984904685
 20
-17.59031303813714
 10
55.50479463673144
 20
-17.59031303813714
 10
55.50479463673144
 20
-17.59031303813714
 10
55.50479463673144
 20
-17.59031303813714
 10
55.50479463673144
 20
-17.75361056413799
 10
55.50479463673144
 20
-17.75361056413799
 10
55.50479463673144
 20
-17.75361056413799
 10
55.25347492108246
 20
-17.75361056413799
 10
55.25347492108246
 20
-17.75361056413799
 10
55.25347492108246
 20
-17.75361056413799
 10
55.25347492108246
 20
-16.58468966599272
 10
55.25347492108246
 20
-16.58468966599272
 10
55.16958684601664
 20
-16.63498806007737
 10
55.04401311557928
 20
-16.68528645416201
 10
54.87640922022187
 20
-16.73558484824666
 10
54.87640922022187
 20
-16.73558484824666
 10
54.73826089126335
 20
-16.49683973111885
 10
54.73826089126335
 20
-16.49683973111885
 10
55.16545273143434
 20
-16.37109374590723
 10
55.53821206293836
 20
-16.16576605498634
 10
55.85671114054971
 20
-15.88085665835618
 10
55.85671114054971
 20
-15.88085665835618
 10
54.82611082613722
 20
-15.88085665835618
 10
54.82611082613722
 20
-15.88085665835618
 10
54.82611082613722
 20
-15.88085665835618
 10
54.82611082613722
 20
-15.64211154122836
 10
54.82611082613722
 20
-15.64211154122836
 10
54.82611082613722
 20
-15.64211154122836
 10
55.50479463673144
 20
-15.64211154122836
 10
55.50479463673144
 20
-15.64211154122836
 10
55.42934704560447
 20
-15.53324652389447
 10
55.36664630777292
 20
-15.4495307036029
 10
55.31634791368828
 20
-15.39096408035365
 10
55.31634791368828
 20
-15.39096408035365
 10
55.52994383377376
 20
-15.30276963593125
 10
55.52994383377376
 20
-15.30276963593125
 10
55.60539142490074
 20
-15.36994899789362
 10
55.67636039189689
 20
-15.45814344231602
 10
55.74353975385926
 20
-15.56666395010139
 10
55.74353975385926
 20
-15.56666395010139
 10
55.56766762933725
 20
-15.64211154122836
 10
55.56766762933725
 20
-15.64211154122836
 10
55.56766762933725
 20
-15.64211154122836
 10
56.0703070606352
 20
-15.64211154122836
 10
56.0703070606352
 20
-15.64211154122836
 10
56.0703070606352
 20
-15.64211154122836
 10
56.0703070606352
 20
-15.22732204480428
 10
56.0703070606352
 20
-15.22732204480428
 10
56.0703070606352
 20
-15.22732204480428
 10
55.05245359951814
 20
-15.2524712418466
 10
55.05245359951814
 20
-15.2524712418466
 10
55.05245359951814
 20
-15.2524712418466
 10
54.97700600839116
 20
-15.05162217505654
 10
54.97700600839116
 20
-15.05162217505654
 10
55.93215873167669
 20
-15.03474120717881
 10
56.64839408306013
 20
-14.98444281309417
 10
57.12605657209001
 20
-14.9007269928026
 10
57.12605657209001
 20
-14.9007269928026
 10
57.25180255730164
 20
-15.11432291288809
 10
57.25180255730164
 20
-15.11432291288809
 10
57.26833901563084
 20
-15.15635307780813
 10
57.23922795878048
 20
-15.16462130697273
 10
57.1637803676535
 20
-15.13947210993041
 10
57.1637803676535
 20
-15.13947210993041
 10
56.32179903105844
 20
-15.20217284776196
 10
56.32179903105844
 20
-15.20217284776196
 10
56.32179903105844
 20
-15.20217284776196
 10
56.32179903105844
 20
-15.64211154122836
 10
56.32179903105844
 20
-15.64211154122836
 10
56.32179903105844
 20
-15.64211154122836
 10
56.56054414818625
 20
-15.64211154122836
 10
56.56054414818625
 20
-15.64211154122836
 10
56.56054414818625
 20
-15.64211154122836
 10
56.82443846235639
 20
-15.20217284776196
 10
56.82443846235639
 20
-15.20217284776196
 10
56.82443846235639
 20
-15.20217284776196
 10
57.05060898096305
 20
-15.32791883297358
 10
57.05060898096305
 20
-15.32791883297358
 10
57.09246689110883
 20
-15.36994899789362
 10
57.07989229258767
 20
-15.38682996577135
 10
57.01288518539956
 20
-15.37821722705822
 10
57.01288518539956
 20
-15.37821722705822
 10
56.81186386383523
 20
-15.64211154122836
 10
56.81186386383523
 20
-15.64211154122836
 10
56.81186386383523
 20
-15.64211154122836
 10
57.56599526555642
 20
-15.64211154122836
 10
57.56599526555642
 20
-15.64211154122836
 10
57.56599526555642
 20
-15.64211154122836
 10
57.56599526555642
 20
-15.88085665835618
 10
57.56599526555642
 20
-15.88085665835618
 10
57.56599526555642
 20
-15.88085665835618
 10
56.57311874670742
 20
-15.88085665835618
 10
56.57311874670742
 20
-15.88085665835618
 10
56.57311874670742
 20
-15.88085665835618
 10
56.57311874670742
 20
-15.88085665835618
 10
56.57311874670742
 20
-15.88085665835618
 97
        0
 97
        0
 92
        1
 93
        1
 72
     4
 94
        3
 73
     0
 74
     1
 95
       23
 96
       19
 40
0.0
 40
0.0
 40
0.0
 40
0.0
 40
1.0
 40
1.0
 40
1.0
 40
2.0
 40
2.0
 40
2.0
 40
3.0
 40
3.0
 40
3.0
 40
4.0
 40
4.0
 40
4.0
 40
5.0
 40
5.0
 40
5.0
 40
6.0
 40
6.0
 40
6.0
 40
6.0
 10
57.03803438244189
 20
-16.48409287782342
 10
56.81186386383523
 20
-16.39210882836725
 10
56.57311874670742
 20
-16.22881130236641
 10
56.32179903105844
 20
-15.99420029982089
 10
56.32179903105844
 20
-15.99420029982089
 10
56.32179903105844
 20
-16.42139213999187
 10
56.32179903105844
 20
-16.42139213999187
 10
56.32179903105844
 20
-16.42139213999187
 10
56.0703070606352
 20
-16.42139213999187
 10
56.0703070606352
 20
-16.42139213999187
 10
56.0703070606352
 20
-16.42139213999187
 10
56.0703070606352
 20
-15.99420029982089
 10
56.0703070606352
 20
-15.99420029982089
 10
55.86928573907088
 20
-16.21193033448868
 10
55.65138344962882
 20
-16.37557237003805
 10
55.41677244708331
 20
-16.48409287782342
 10
55.41677244708331
 20
-16.48409287782342
 10
57.03803438244189
 20
-16.48409287782342
 10
57.03803438244189
 20
-16.48409287782342
 97
        0
 97
        0
 92
        1
 93
        4
 72
     1
 10
56.0703070606352
 20
-16.93677842458525
 11
56.0703070606352
 21
-16.68528645416201
 72
     1
 10
56.0703070606352
 20
-16.68528645416201
 11
55.50479463673144
 21
-16.68528645416201
 72
     1
 10
55.50479463673144
 20
-16.68528645416201
 11
55.50479463673144
 21
-16.93677842458525
 72
     1
 10
55.50479463673144
 20
-16.93677842458525
 11
56.0703070606352
 21
-16.93677842458525
 97
        0
 92
        1
 93
        4
 72
     1
 10
56.0703070606352
 20
-17.13762749137532
 11
55.50479463673144
 21
-17.13762749137532
 72
     1
 10
55.50479463673144
 20
-17.13762749137532
 11
55.50479463673144
 21
-17.38911946179855
 72
     1
 10
55.50479463673144
 20
-17.38911946179855
 11
56.0703070606352
 21
-17.38911946179855
 72
     1
 10
56.0703070606352
 20
-17.38911946179855
 11
56.0703070606352
 21
-17.13762749137532
 97
        0
 92
        1
 93
        4
 72
     1
 10
56.93760984904685
 20
-16.93677842458525
 11
56.93760984904685
 21
-16.68528645416201
 72
     1
 10
56.93760984904685
 20
-16.68528645416201
 11
56.32179903105844
 21
-16.68528645416201
 72
     1
 10
56.32179903105844
 20
-16.68528645416201
 11
56.32179903105844
 21
-16.93677842458525
 72
     1
 10
56.32179903105844
 20
-16.93677842458525
 11
56.93760984904685
 21
-16.93677842458525
 97
        0
 92
        1
 93
        4
 72
     1
 10
56.93760984904685
 20
-17.38911946179855
 11
56.93760984904685
 21
-17.13762749137532
 72
     1
 10
56.93760984904685
 20
-17.13762749137532
 11
56.32179903105844
 21
-17.13762749137532
 72
     1
 10
56.32179903105844
 20
-17.13762749137532
 11
56.32179903105844
 21
-17.38911946179855
 72
     1
 10
56.32179903105844
 20
-17.38911946179855
 11
56.93760984904685
 21
-17.38911946179855
 97
        0
 75
     2
 76
     1
 98
        0
  0
ENDBLK
  5
107
330
104
100
AcDbEntity
  8
0
100
AcDbBlockEnd
  0
BLOCK
  5
19F
330
19D
100
AcDbEntity
  8
0
100
AcDbBlockBegin
  2
block 19
 70
     0
 10
0.0
 20
0.0
 30
0.0
  3
block 19
  1

  0
INSERT
  5
1A2
330
19D
100
AcDbEntity
  8
レイヤー 1
100
AcDbBlockReference
  2
block 20
 10
0.0
 20
0.0
 30
0.0
  0
INSERT
  5
1A7
330
19D
100
AcDbEntity
  8
レイヤー 1
100
AcDbBlockReference
  2
block 21
 10
0.0
 20
0.0
 30
0.0
  0
INSERT
  5
1AF
330
19D
100
AcDbEntity
  8
レイヤー 1
100
AcDbBlockReference
  2
block 22
 10
0.0
 20
0.0
 30
0.0
  0
INSERT
  5
1B7
330
19D
100
AcDbEntity
  8
レイヤー 1
100
AcDbBlockReference
  2
block 23
 10
0.0
 20
0.0
 30
0.0
  0
INSERT
  5
1BC
330
19D
100
AcDbEntity
  8
レイヤー 1
100
AcDbBlockReference
  2
block 24
 10
0.0
 20
0.0
 30
0.0
  0
INSERT
  5
1C1
330
19D
100
AcDbEntity
  8
レイヤー 1
100
AcDbBlockReference
  2
block 25
 10
0.0
 20
0.0
 30
0.0
  0
INSERT
  5
1C9
330
19D
100
AcDbEntity
  8
レイヤー 1
100
AcDbBlockReference
  2
block 26
 10
0.0
 20
0.0
 30
0.0
  0
INSERT
  5
1D1
330
19D
100
AcDbEntity
  8
レイヤー 1
100
AcDbBlockReference
  2
block 27
 10
0.0
 20
0.0
 30
0.0
  0
INSERT
  5
1D6
330
19D
100
AcDbEntity
  8
レイヤー 1
100
AcDbBlockReference
  2
block 28
 10
0.0
 20
0.0
 30
0.0
  0
INSERT
  5
1DE
330
19D
100
AcDbEntity
  8
レイヤー 1
100
AcDbBlockReference
  2
block 29
 10
0.0
 20
0.0
 30
0.0
  0
INSERT
  5
1E6
330
19D
100
AcDbEntity
  8
レイヤー 1
100
AcDbBlockReference
  2
block 30
 10
0.0
 20
0.0
 30
0.0
  0
INSERT
  5
1EE
330
19D
100
AcDbEntity
  8
レイヤー 1
100
AcDbBlockReference
  2
block 31
 10
0.0
 20
0.0
 30
0.0
  0
INSERT
  5
1F6
330
19D
100
AcDbEntity
  8
レイヤー 1
100
AcDbBlockReference
  2
block 32
 10
0.0
 20
0.0
 30
0.0
  0
INSERT
  5
1FE
330
19D
100
AcDbEntity
  8
レイヤー 1
100
AcDbBlockReference
  2
block 33
 10
0.0
 20
0.0
 30
0.0
  0
INSERT
  5
243
330
19D
100
AcDbEntity
  8
レイヤー 1
100
AcDbBlockReference
  2
block 34
 10
0.0
 20
0.0
 30
0.0
  0
INSERT
  5
268
330
19D
100
AcDbEntity
  8
レイヤー 1
100
AcDbBlockReference
  2
block 35
 10
0.0
 20
0.0
 30
0.0
  0
INSERT
  5
26D
330
19D
100
AcDbEntity
  8
レイヤー 1
100
AcDbBlockReference
  2
block 36
 10
0.0
 20
0.0
 30
0.0
  0
INSERT
  5
272
330
19D
100
AcDbEntity
  8
レイヤー 1
100
AcDbBlockReference
  2
block 37
 10
0.0
 20
0.0
 30
0.0
  0
INSERT
  5
282
330
19D
100
AcDbEntity
  8
レイヤー 1
100
AcDbBlockReference
  2
block 38
 10
0.0
 20
0.0
 30
0.0
  0
INSERT
  5
2A3
330
19D
100
AcDbEntity
  8
レイヤー 1
100
AcDbBlockReference
  2
block 39
 10
0.0
 20
0.0
 30
0.0
  0
INSERT
  5
2A8
330
19D
100
AcDbEntity
  8
レイヤー 1
100
AcDbBlockReference
  2
block 40
 10
0.0
 20
0.0
 30
0.0
  0
INSERT
  5
2AD
330
19D
100
AcDbEntity
  8
レイヤー 1
100
AcDbBlockReference
  2
block 41
 10
0.0
 20
0.0
 30
0.0
  0
INSERT
  5
2C4
330
19D
100
AcDbEntity
  8
レイヤー 1
100
AcDbBlockReference
  2
block 42
 10
0.0
 20
0.0
 30
0.0
  0
INSERT
  5
2C9
330
19D
100
AcDbEntity
  8
レイヤー 1
100
AcDbBlockReference
  2
block 43
 10
0.0
 20
0.0
 30
0.0
  0
INSERT
  5
2CE
330
19D
100
AcDbEntity
  8
レイヤー 1
100
AcDbBlockReference
  2
block 44
 10
0.0
 20
0.0
 30
0.0
  0
INSERT
  5
2D3
330
19D
100
AcDbEntity
  8
レイヤー 1
100
AcDbBlockReference
  2
block 45
 10
0.0
 20
0.0
 30
0.0
  0
INSERT
  5
2D8
330
19D
100
AcDbEntity
  8
レイヤー 1
100
AcDbBlockReference
  2
block 46
 10
0.0
 20
0.0
 30
0.0
  0
INSERT
  5
2DD
330
19D
100
AcDbEntity
  8
レイヤー 1
100
AcDbBlockReference
  2
block 47
 10
0.0
 20
0.0
 30
0.0
  0
INSERT
  5
2E2
330
19D
100
AcDbEntity
  8
レイヤー 1
100
AcDbBlockReference
  2
block 48
 10
0.0
 20
0.0
 30
0.0
  0
INSERT
  5
2E7
330
19D
100
AcDbEntity
  8
レイヤー 1
100
AcDbBlockReference
  2
block 49
 10
0.0
 20
0.0
 30
0.0
  0
INSERT
  5
2EC
330
19D
100
AcDbEntity
  8
レイヤー 1
100
AcDbBlockReference
  2
block 50
 10
0.0
 20
0.0
 30
0.0
  0
INSERT
  5
2F1
330
19D
100
AcDbEntity
  8
レイヤー 1
100
AcDbBlockReference
  2
block 51
 10
0.0
 20
0.0
 30
0.0
  0
INSERT
  5
2F6
330
19D
100
AcDbEntity
  8
レイヤー 1
100
AcDbBlockReference
  2
block 52
 10
0.0
 20
0.0
 30
0.0
  0
INSERT
  5
2FB
330
19D
100
AcDbEntity
  8
レイヤー 1
100
AcDbBlockReference
  2
block 53
 10
0.0
 20
0.0
 30
0.0
  0
INSERT
  5
300
330
19D
100
AcDbEntity
  8
レイヤー 1
100
AcDbBlockReference
  2
block 54
 10
0.0
 20
0.0
 30
0.0
  0
INSERT
  5
310
330
19D
100
AcDbEntity
  8
レイヤー 1
100
AcDbBlockReference
  2
block 55
 10
0.0
 20
0.0
 30
0.0
  0
INSERT
  5
319
330
19D
100
AcDbEntity
  8
レイヤー 1
100
AcDbBlockReference
  2
block 56
 10
0.0
 20
0.0
 30
0.0
  0
INSERT
  5
321
330
19D
100
AcDbEntity
  8
レイヤー 1
100
AcDbBlockReference
  2
block 57
 10
0.0
 20
0.0
 30
0.0
  0
INSERT
  5
329
330
19D
100
AcDbEntity
  8
レイヤー 1
100
AcDbBlockReference
  2
block 58
 10
0.0
 20
0.0
 30
0.0
  0
INSERT
  5
331
330
19D
100
AcDbEntity
  8
レイヤー 1
100
AcDbBlockReference
  2
block 59
 10
0.0
 20
0.0
 30
0.0
  0
INSERT
  5
339
330
19D
100
AcDbEntity
  8
レイヤー 1
100
AcDbBlockReference
  2
block 60
 10
0.0
 20
0.0
 30
0.0
  0
INSERT
  5
341
330
19D
100
AcDbEntity
  8
レイヤー 1
100
AcDbBlockReference
  2
block 61
 10
0.0
 20
0.0
 30
0.0
  0
INSERT
  5
349
330
19D
100
AcDbEntity
  8
レイヤー 1
100
AcDbBlockReference
  2
block 62
 10
0.0
 20
0.0
 30
0.0
  0
INSERT
  5
351
330
19D
100
AcDbEntity
  8
レイヤー 1
100
AcDbBlockReference
  2
block 63
 10
0.0
 20
0.0
 30
0.0
  0
INSERT
  5
359
330
19D
100
AcDbEntity
  8
レイヤー 1
100
AcDbBlockReference
  2
block 64
 10
0.0
 20
0.0
 30
0.0
  0
INSERT
  5
382
330
19D
100
AcDbEntity
  8
レイヤー 1
100
AcDbBlockReference
  2
block 65
 10
0.0
 20
0.0
 30
0.0
  0
INSERT
  5
387
330
19D
100
AcDbEntity
  8
レイヤー 1
100
AcDbBlockReference
  2
block 66
 10
0.0
 20
0.0
 30
0.0
  0
INSERT
  5
38F
330
19D
100
AcDbEntity
  8
レイヤー 1
100
AcDbBlockReference
  2
block 67
 10
0.0
 20
0.0
 30
0.0
  0
INSERT
  5
394
330
19D
100
AcDbEntity
  8
レイヤー 1
100
AcDbBlockReference
  2
block 68
 10
0.0
 20
0.0
 30
0.0
  0
INSERT
  5
39C
330
19D
100
AcDbEntity
  8
レイヤー 1
100
AcDbBlockReference
  2
block 69
 10
0.0
 20
0.0
 30
0.0
  0
INSERT
  5
3E3
330
19D
100
AcDbEntity
  8
レイヤー 1
100
AcDbBlockReference
  2
block 70
 10
0.0
 20
0.0
 30
0.0
  0
INSERT
  5
42A
330
19D
100
AcDbEntity
  8
レイヤー 1
100
AcDbBlockReference
  2
block 71
 10
0.0
 20
0.0
 30
0.0
  0
INSERT
  5
471
330
19D
100
AcDbEntity
  8
レイヤー 1
100
AcDbBlockReference
  2
block 72
 10
0.0
 20
0.0
 30
0.0
  0
INSERT
  5
47A
330
19D
100
AcDbEntity
  8
レイヤー 1
100
AcDbBlockReference
  2
block 73
 10
0.0
 20
0.0
 30
0.0
  0
INSERT
  5
483
330
19D
100
AcDbEntity
  8
レイヤー 1
100
AcDbBlockReference
  2
block 74
 10
0.0
 20
0.0
 30
0.0
  0
INSERT
  5
488
330
19D
100
AcDbEntity
  8
レイヤー 1
100
AcDbBlockReference
  2
block 75
 10
0.0
 20
0.0
 30
0.0
  0
INSERT
  5
490
330
19D
100
AcDbEntity
  8
レイヤー 1
100
AcDbBlockReference
  2
block 76
 10
0.0
 20
0.0
 30
0.0
  0
INSERT
  5
495
330
19D
100
AcDbEntity
  8
レイヤー 1
100
AcDbBlockReference
  2
block 77
 10
0.0
 20
0.0
 30
0.0
  0
INSERT
  5
49A
330
19D
100
AcDbEntity
  8
レイヤー 1
100
AcDbBlockReference
  2
block 78
 10
0.0
 20
0.0
 30
0.0
  0
INSERT
  5
4E1
330
19D
100
AcDbEntity
  8
レイヤー 1
100
AcDbBlockReference
  2
block 79
 10
0.0
 20
0.0
 30
0.0
  0
INSERT
  5
4EA
330
19D
100
AcDbEntity
  8
レイヤー 1
100
AcDbBlockReference
  2
block 80
 10
0.0
 20
0.0
 30
0.0
  0
INSERT
  5
4F3
330
19D
100
AcDbEntity
  8
レイヤー 1
100
AcDbBlockReference
  2
block 81
 10
0.0
 20
0.0
 30
0.0
  0
INSERT
  5
4F8
330
19D
100
AcDbEntity
  8
レイヤー 1
100
AcDbBlockReference
  2
block 82
 10
0.0
 20
0.0
 30
0.0
  0
INSERT
  5
4FD
330
19D
100
AcDbEntity
  8
レイヤー 1
100
AcDbBlockReference
  2
block 83
 10
0.0
 20
0.0
 30
0.0
  0
INSERT
  5
502
330
19D
100
AcDbEntity
  8
レイヤー 1
100
AcDbBlockReference
  2
block 84
 10
0.0
 20
0.0
 30
0.0
  0
INSERT
  5
507
330
19D
100
AcDbEntity
  8
レイヤー 1
100
AcDbBlockReference
  2
block 85
 10
0.0
 20
0.0
 30
0.0
  0
INSERT
  5
52D
330
19D
100
AcDbEntity
  8
レイヤー 1
100
AcDbBlockReference
  2
block 86
 10
0.0
 20
0.0
 30
0.0
  0
INSERT
  5
557
330
19D
100
AcDbEntity
  8
レイヤー 1
100
AcDbBlockReference
  2
block 87
 10
0.0
 20
0.0
 30
0.0
  0
INSERT
  5
55C
330
19D
100
AcDbEntity
  8
レイヤー 1
100
AcDbBlockReference
  2
block 88
 10
0.0
 20
0.0
 30
0.0
  0
INSERT
  5
561
330
19D
100
AcDbEntity
  8
レイヤー 1
100
AcDbBlockReference
  2
block 89
 10
0.0
 20
0.0
 30
0.0
  0
INSERT
  5
585
330
19D
100
AcDbEntity
  8
レイヤー 1
100
AcDbBlockReference
  2
block 90
 10
0.0
 20
0.0
 30
0.0
  0
INSERT
  5
595
330
19D
100
AcDbEntity
  8
レイヤー 1
100
AcDbBlockReference
  2
block 91
 10
0.0
 20
0.0
 30
0.0
  0
ENDBLK
  5
1A0
330
19D
100
AcDbEntity
  8
0
100
AcDbBlockEnd
  0
BLOCK
  5
1A3
330
1A1
100
AcDbEntity
  8
0
100
AcDbBlockBegin
  2
block 20
 70
     0
 10
0.0
 20
0.0
 30
0.0
  3
block 20
  1

  0
SPLINE
  5
1A5
330
1A1
100
AcDbEntity
  8
レイヤー 1
 62
     7
370
     9
100
AcDbSpline
210
0.0
220
0.0
230
1.0
 70
     8
 71
     3
 72
   116
 73
   112
 74
     0
 42
0.000000001
 43
0.0000000001
 40
0.0
 40
0.0
 40
0.0
 40
0.0
 40
1.0
 40
1.0
 40
1.0
 40
2.0
 40
2.0
 40
2.0
 40
3.0
 40
3.0
 40
3.0
 40
4.0
 40
4.0
 40
4.0
 40
5.0
 40
5.0
 40
5.0
 40
6.0
 40
6.0
 40
6.0
 40
7.0
 40
7.0
 40
7.0
 40
8.0
 40
8.0
 40
8.0
 40
9.0
 40
9.0
 40
9.0
 40
10.0
 40
10.0
 40
10.0
 40
11.0
 40
11.0
 40
11.0
 40
12.0
 40
12.0
 40
12.0
 40
13.0
 40
13.0
 40
13.0
 40
14.0
 40
14.0
 40
14.0
 40
15.0
 40
15.0
 40
15.0
 40
16.0
 40
16.0
 40
16.0
 40
17.0
 40
17.0
 40
17.0
 40
18.0
 40
18.0
 40
18.0
 40
19.0
 40
19.0
 40
19.0
 40
20.0
 40
20.0
 40
20.0
 40
21.0
 40
21.0
 40
21.0
 40
22.0
 40
22.0
 40
22.0
 40
23.0
 40
23.0
 40
23.0
 40
24.0
 40
24.0
 40
24.0
 40
25.0
 40
25.0
 40
25.0
 40
26.0
 40
26.0
 40
26.0
 40
27.0
 40
27.0
 40
27.0
 40
28.0
 40
28.0
 40
28.0
 40
29.0
 40
29.0
 40
29.0
 40
30.0
 40
30.0
 40
30.0
 40
31.0
 40
31.0
 40
31.0
 40
32.0
 40
32.0
 40
32.0
 40
33.0
 40
33.0
 40
33.0
 40
34.0
 40
34.0
 40
34.0
 40
35.0
 40
35.0
 40
35.0
 40
36.0
 40
36.0
 40
36.0
 40
37.0
 40
37.0
 40
37.0
 40
37.0
 10
156.5075873089634
 20
206.9486083467004
 30
0.0
 10
156.5062092707693
 20
207.0259507403442
 30
0.0
 10
156.5051757421237
 20
207.1032931339881
 30
0.0
 10
156.494840455668
 20
207.178740725115
 30
0.0
 10
156.481749092824
 20
207.2786484941873
 30
0.0
 10
156.4538438193935
 20
207.3758001868713
 30
0.0
 10
156.419392864541
 20
207.4684732554246
 30
0.0
 10
156.3839083810429
 20
207.5611463239778
 30
0.0
 10
156.3418782161229
 20
207.6495130231744
 30
0.0
 10
156.2936468793294
 20
207.7320230600462
 30
0.0
 10
156.2433484852447
 20
207.8183227019517
 30
0.0
 10
156.185815390641
 20
207.8984211719837
 30
0.0
 10
156.1244926910036
 20
207.9728352344651
 30
0.0
 10
156.0569688194927
 20
208.054139487917
 30
0.0
 10
155.984966323851
 20
208.1285535503984
 30
0.0
 10
155.9084852040784
 20
208.1979722244262
 30
0.0
 10
155.8216687978502
 20
208.2763481467156
 30
0.0
 10
155.730373767491
 20
208.3480061328088
 30
0.0
 10
155.6335665843555
 20
208.4148409852227
 30
0.0
 10
155.5233235288275
 20
208.4916666145438
 30
0.0
 10
155.4068793014261
 20
208.5624633267657
 30
0.0
 10
155.2832003735056
 20
208.6287814148567
 30
0.0
 10
155.1481526304838
 20
208.7014729295955
 30
0.0
 10
155.0048366582974
 20
208.7695135654292
 30
0.0
 10
154.8529079473979
 20
208.8334200866805
 30
0.0
 10
154.7006347269499
 20
208.898015627029
 30
0.0
 10
154.5400932773372
 20
208.9584770527951
 30
0.0
 10
154.3705945794629
 20
209.0160101473988
 30
0.0
 10
154.205919015268
 20
209.0714761847113
 30
0.0
 10
154.0333197314569
 20
209.1243584004099
 30
0.0
 10
153.8527967280299
 20
209.1741400301717
 30
0.0
 10
153.6770968582821
 20
209.2227158765138
 30
0.0
 10
153.4938177784668
 20
209.2685356464676
 30
0.0
 10
153.3033039981325
 20
209.3115993400332
 30
0.0
 10
153.1158908037349
 20
209.3538017597275
 30
0.0
 10
152.9219319279154
 20
209.3935926125822
 30
0.0
 10
152.7221163897709
 20
209.4306273890486
 30
0.0
 10
152.524712418466
 20
209.4671454011923
 30
0.0
 10
152.3211072752878
 20
209.501079591722
 30
0.0
 10
152.1123344888817
 20
209.5324299606377
 30
0.0
 10
151.9056287597666
 20
209.5632635652307
 30
0.0
 10
151.6934108778753
 20
209.5915133482098
 30
0.0
 10
151.4770588814016
 20
209.6171793095749
 30
0.0
 10
151.262084923122
 20
209.6425007613915
 30
0.0
 10
151.0426323407116
 20
209.6654106463684
 30
0.0
 10
150.8200791723644
 20
209.6852199454086
 30
0.0
 10
150.5978705135658
 20
209.7050292444488
 30
0.0
 10
150.372905778379
 20
209.7220824671007
 30
0.0
 10
150.1448404572555
 20
209.7363796133645
 30
0.0
 10
149.918153174326
 20
209.7505045048541
 30
0.0
 10
149.6887098150084
 20
209.7622178295039
 30
0.0
 10
149.4578884174966
 20
209.7704860586685
 30
0.0
 10
149.2274115295334
 20
209.7789265426074
 30
0.0
 10
148.9955566033761
 20
209.7847832049323
 30
0.0
 10
148.7630126581218
 20
209.7877115360947
 30
0.0
 10
148.5308132224159
 20
209.790467612483
 30
0.0
 10
148.2982692771616
 20
209.790467612483
 30
0.0
 10
148.0657253319072
 20
209.7873670265462
 30
0.0
 10
147.8336981509756
 20
209.7847832049323
 30
0.0
 10
147.6018432248183
 20
209.7789265426074
 30
0.0
 10
147.3717108464036
 20
209.7704860586685
 30
0.0
 10
147.1412339584404
 20
209.7618733199554
 30
0.0
 10
146.9123073634455
 20
209.7503322500798
 30
0.0
 10
146.6857923352904
 20
209.7362073585903
 30
0.0
 10
146.4589327975867
 20
209.7219102123265
 30
0.0
 10
146.2343125719484
 20
209.7050292444488
 30
0.0
 10
146.0131374417953
 20
209.6852199454086
 30
0.0
 10
145.791790056868
 20
209.6655829011426
 30
0.0
 10
145.5733710031032
 20
209.6430175257142
 30
0.0
 10
145.3592583186949
 20
209.6175238191234
 30
0.0
 10
145.1446288699638
 20
209.5923746220811
 30
0.0
 10
144.9337890262666
 20
209.564124839102
 30
0.0
 10
144.7282890805714
 20
209.5334634892833
 30
0.0
 10
144.5219278610049
 20
209.5026298846903
 30
0.0
 10
144.3203897751178
 20
209.4692124584834
 30
0.0
 10
144.1247083515556
 20
209.4332112106625
 30
0.0
 10
143.9278211445736
 20
209.3970377080674
 30
0.0
 10
143.7366183451422
 20
209.3581081290841
 30
0.0
 10
143.5519612271328
 20
209.3165947284868
 30
0.0
 10
143.3654093066066
 20
209.274736818341
 30
0.0
 10
143.1857475770508
 20
209.2302950865813
 30
0.0
 10
143.0128037836913
 20
209.1832695332077
 30
0.0
 10
142.8377929330406
 20
209.135554960737
 30
0.0
 10
142.6698445281346
 20
209.085084311878
 30
0.0
 10
142.5094753332963
 20
209.0318575866309
 30
0.0
 10
142.3458332977469
 20
208.977425077964
 30
0.0
 10
142.1901149818136
 20
208.9202364929088
 30
0.0
 10
142.0421481307221
 20
208.8596028123685
 30
0.0
 10
141.8898749102741
 20
208.7972465840854
 30
0.0
 10
141.7456976642164
 20
208.7311007507686
 30
0.0
 10
141.609616392549
 20
208.6606485480953
 30
0.0
 10
141.4687119872023
 20
208.5870957594852
 30
0.0
 10
141.3357313014716
 20
208.50889209197
 30
0.0
 10
141.2108465901313
 20
208.422936959613
 30
0.0
 10
141.106287942154
 20
208.3511067187456
 30
0.0
 10
141.0075859565016
 20
208.273936579876
 30
0.0
 10
140.9147406331741
 20
208.1888427213903
 30
0.0
 10
140.834642163142
 20
208.1154621875545
 30
0.0
 10
140.7591945720151
 20
208.0362249913937
 30
0.0
 10
140.6890868788902
 20
207.9494085851654
 30
0.0
 10
140.6269029053815
 20
207.8715494271988
 30
0.0
 10
140.5690253012293
 20
207.7874890973587
 30
0.0
 10
140.5190714166932
 20
207.6970553408709
 30
0.0
 10
140.4725626276423
 20
207.612478246708
 30
0.0
 10
140.4325995200134
 20
207.5227335093172
 30
0.0
 10
140.3996988581293
 20
207.4279933834729
 30
0.0
 10
140.368003979665
 20
207.3370428626623
 30
0.0
 10
140.3425102730741
 20
207.2416137177209
 30
0.0
 10
140.3326917509411
 20
207.1442897702626
 30
0.0
 10
140.3263183242934
 20
207.0781439369458
 30
0.0
 10
140.326662833842
 20
207.0109645749834
 30
0.0
 10
140.3270073433905
 20
206.9439574677953
 30
0.0
  0
ENDBLK
  5
1A4
330
1A1
100
AcDbEntity
  8
0
100
AcDbBlockEnd
  0
BLOCK
  5
1A8
330
1A6
100
AcDbEntity
  8
0
100
AcDbBlockBegin
  2
block 21
 70
     0
 10
0.0
 20
0.0
 30
0.0
  3
block 21
  1

  0
POLYLINE
  5
1AA
330
1A6
100
AcDbEntity
  8
レイヤー 1
 62
     7
370
     9
100
AcDb2dPolyline
 66
     1
 10
0.0
 20
0.0
 30
0.0
  0
VERTEX
  5
1AB
330
1AA
100
AcDbEntity
  8
レイヤー 1
 62
     7
370
     9
100
AcDbVertex
100
AcDb2dVertex
 10
156.5134439712883
 20
185.435192824735
 30
0.0
  0
VERTEX
  5
1AC
330
1AA
100
AcDbEntity
  8
レイヤー 1
 62
     7
370
     9
100
AcDbVertex
100
AcDb2dVertex
 10
156.5134439712883
 20
206.943785213021
 30
0.0
  0
SEQEND
  5
1AD
330
1AA
100
AcDbEntity
  8
レイヤー 1
370
     9
  0
ENDBLK
  5
1A9
330
1A6
100
AcDbEntity
  8
0
100
AcDbBlockEnd
  0
BLOCK
  5
1B0
330
1AE
100
AcDbEntity
  8
0
100
AcDbBlockBegin
  2
block 22
 70
     0
 10
0.0
 20
0.0
 30
0.0
  3
block 22
  1

  0
POLYLINE
  5
1B2
330
1AE
100
AcDbEntity
  8
レイヤー 1
 62
     7
370
     9
100
AcDb2dPolyline
 66
     1
 10
0.0
 20
0.0
 30
0.0
  0
VERTEX
  5
1B3
330
1B2
100
AcDbEntity
  8
レイヤー 1
 62
     7
370
     9
100
AcDbVertex
100
AcDb2dVertex
 10
140.3194281333229
 20
206.943785213021
 30
0.0
  0
VERTEX
  5
1B4
330
1B2
100
AcDbEntity
  8
レイヤー 1
 62
     7
370
     9
100
AcDbVertex
100
AcDb2dVertex
 10
140.3194281333229
 20
185.435192824735
 30
0.0
  0
SEQEND
  5
1B5
330
1B2
100
AcDbEntity
  8
レイヤー 1
370
     9
  0
ENDBLK
  5
1B1
330
1AE
100
AcDbEntity
  8
0
100
AcDbBlockEnd
  0
BLOCK
  5
1B8
330
1B6
100
AcDbEntity
  8
0
100
AcDbBlockBegin
  2
block 23
 70
     0
 10
0.0
 20
0.0
 30
0.0
  3
block 23
  1

  0
SPLINE
  5
1BA
330
1B6
100
AcDbEntity
  8
レイヤー 1
 62
     7
370
     9
100
AcDbSpline
210
0.0
220
0.0
230
1.0
 70
     8
 71
     3
 72
   116
 73
   112
 74
     0
 42
0.000000001
 43
0.0000000001
 40
0.0
 40
0.0
 40
0.0
 40
0.0
 40
1.0
 40
1.0
 40
1.0
 40
2.0
 40
2.0
 40
2.0
 40
3.0
 40
3.0
 40
3.0
 40
4.0
 40
4.0
 40
4.0
 40
5.0
 40
5.0
 40
5.0
 40
6.0
 40
6.0
 40
6.0
 40
7.0
 40
7.0
 40
7.0
 40
8.0
 40
8.0
 40
8.0
 40
9.0
 40
9.0
 40
9.0
 40
10.0
 40
10.0
 40
10.0
 40
11.0
 40
11.0
 40
11.0
 40
12.0
 40
12.0
 40
12.0
 40
13.0
 40
13.0
 40
13.0
 40
14.0
 40
14.0
 40
14.0
 40
15.0
 40
15.0
 40
15.0
 40
16.0
 40
16.0
 40
16.0
 40
17.0
 40
17.0
 40
17.0
 40
18.0
 40
18.0
 40
18.0
 40
19.0
 40
19.0
 40
19.0
 40
20.0
 40
20.0
 40
20.0
 40
21.0
 40
21.0
 40
21.0
 40
22.0
 40
22.0
 40
22.0
 40
23.0
 40
23.0
 40
23.0
 40
24.0
 40
24.0
 40
24.0
 40
25.0
 40
25.0
 40
25.0
 40
26.0
 40
26.0
 40
26.0
 40
27.0
 40
27.0
 40
27.0
 40
28.0
 40
28.0
 40
28.0
 40
29.0
 40
29.0
 40
29.0
 40
30.0
 40
30.0
 40
30.0
 40
31.0
 40
31.0
 40
31.0
 40
32.0
 40
32.0
 40
32.0
 40
33.0
 40
33.0
 40
33.0
 40
34.0
 40
34.0
 40
34.0
 40
35.0
 40
35.0
 40
35.0
 40
36.0
 40
36.0
 40
36.0
 40
37.0
 40
37.0
 40
37.0
 40
37.0
 10
140.3252847956479
 20
185.4332980222181
 30
0.0
 10
140.326662833842
 20
185.3550943547029
 30
0.0
 10
140.3278686172618
 20
185.2768906871877
 30
0.0
 10
140.337859394169
 20
185.2002373126409
 30
0.0
 10
140.3507785022387
 20
185.1003295435687
 30
0.0
 10
140.3790282852177
 20
185.0030055961104
 30
0.0
 10
140.4136514948445
 20
184.9106770371057
 30
0.0
 10
140.4487914687941
 20
184.8178317137782
 30
0.0
 10
140.4906493789398
 20
184.7294650145815
 30
0.0
 10
140.5390529705076
 20
184.6471272324841
 30
0.0
 10
140.5895236193665
 20
184.5608275905786
 30
0.0
 10
140.6468844591959
 20
184.4807291205465
 30
0.0
 10
140.7085516683819
 20
184.4059705485166
 30
0.0
 10
140.7759032851185
 20
184.3248385498389
 30
0.0
 10
140.8482502903088
 20
184.2505967421318
 30
0.0
 10
140.9249036648556
 20
184.181178068104
 30
0.0
 10
141.0112033067611
 20
184.1026298910403
 30
0.0
 10
141.1028428466688
 20
184.0309719049471
 30
0.0
 10
141.1993055202557
 20
183.963964797759
 30
0.0
 10
141.3095485757837
 20
183.8874836779865
 30
0.0
 10
141.4263373127337
 20
183.8166869657646
 30
0.0
 10
141.5496717311056
 20
183.7501966228993
 30
0.0
 10
141.6848917289017
 20
183.6773328533862
 30
0.0
 10
141.8280354463138
 20
183.6096367271011
 30
0.0
 10
141.9796196476648
 20
183.5453856963012
 30
0.0
 10
142.1318928681129
 20
183.4811346655013
 30
0.0
 10
142.292778827274
 20
183.4206732397351
 30
0.0
 10
142.4621052703741
 20
183.3631401451314
 30
0.0
 10
142.626780834569
 20
183.3073295982704
 30
0.0
 10
142.79938011838
 20
183.2546196373461
 30
0.0
 10
142.9800753765814
 20
183.2050102623585
 30
0.0
 10
143.1557752463291
 20
183.1564344160165
 30
0.0
 10
143.3393988356929
 20
183.1104423912884
 30
0.0
 10
143.529740361253
 20
183.0673786977227
 30
0.0
 10
143.716809046102
 20
183.0251762780284
 30
0.0
 10
143.9107679219216
 20
182.9855576799481
 30
0.0
 10
144.1105834600661
 20
182.9483506487074
 30
0.0
 10
144.3081596861452
 20
182.9118326365637
 30
0.0
 10
144.5117648293235
 20
182.877898446034
 30
0.0
 10
144.7205376157296
 20
182.8467203318925
 30
0.0
 10
144.9275878543931
 20
182.8158867272995
 30
0.0
 10
145.1396334815102
 20
182.7874646895462
 30
0.0
 10
145.3561577327582
 20
182.7619709829553
 30
0.0
 10
145.5711316910378
 20
182.7364772763645
 30
0.0
 10
145.7904120186739
 20
182.7135673913876
 30
0.0
 10
146.0131374417953
 20
182.6937580923474
 30
0.0
 10
146.2350015910454
 20
182.6741210480815
 30
0.0
 10
146.4601385810065
 20
182.6568955706552
 30
0.0
 10
146.687514883033
 20
182.6427706791657
 30
0.0
 10
146.9148911850595
 20
182.6284735329019
 30
0.0
 10
147.1438177800543
 20
182.6169324630263
 30
0.0
 10
147.3749836871146
 20
182.6084919790875
 30
0.0
 10
147.6054605750778
 20
182.5998792403743
 30
0.0
 10
147.8373155012351
 20
182.5941948328237
 30
0.0
 10
148.0698594464895
 20
182.5912665016612
 30
0.0
 10
148.3020588821953
 20
182.5886826800473
 30
0.0
 10
148.5349473369982
 20
182.5886826800473
 30
0.0
 10
148.7671467727041
 20
182.5912665016612
 30
0.0
 10
148.9990016988614
 20
182.5943670875979
 30
0.0
 10
149.2308566250187
 20
182.6002237499229
 30
0.0
 10
149.4613335129819
 20
182.6086642338617
 30
0.0
 10
149.6918104009451
 20
182.6169324630263
 30
0.0
 10
149.9209092507142
 20
182.6284735329019
 30
0.0
 10
150.1469075145466
 20
182.6427706791657
 30
0.0
 10
150.3742838165731
 20
182.6570678254295
 30
0.0
 10
150.5989040422114
 20
182.6741210480815
 30
0.0
 10
150.8197346628159
 20
182.6937580923474
 30
0.0
 10
151.0412543025175
 20
182.7135673913876
 30
0.0
 10
151.2593288467338
 20
182.736132766816
 30
0.0
 10
151.4736137859163
 20
182.7612819638583
 30
0.0
 10
151.6885877441959
 20
182.7866034156749
 30
0.0
 10
151.8990830783447
 20
182.8148531986539
 30
0.0
 10
152.1047552788141
 20
182.8456868032469
 30
0.0
 10
152.3111164983806
 20
182.8763481530656
 30
0.0
 10
152.5126545842677
 20
182.9097655792726
 30
0.0
 10
152.7083360078299
 20
182.9455945723192
 30
0.0
 10
152.9053954695862
 20
182.9821125844628
 30
0.0
 10
153.096253759469
 20
183.0210421634461
 30
0.0
 10
153.2809108774784
 20
183.0623833092691
 30
0.0
 10
153.4676350527789
 20
183.1044134741892
 30
0.0
 10
153.6471245275604
 20
183.1488552059489
 30
0.0
 10
153.82006832092
 20
183.1958807593226
 30
0.0
 10
153.9950791715707
 20
183.2435953317933
 30
0.0
 10
154.1628553217024
 20
183.2940659806522
 30
0.0
 10
154.3237412808635
 20
183.3472927058993
 30
0.0
 10
154.4870388068643
 20
183.4017252145663
 30
0.0
 10
154.6427571227977
 20
183.4589137996214
 30
0.0
 10
154.7908962286634
 20
183.5195474801618
 30
0.0
 10
154.94351395866
 20
183.5819037084448
 30
0.0
 10
155.0871744403949
 20
183.6478772869874
 30
0.0
 10
155.2232557120622
 20
183.7186739992092
 30
0.0
 10
155.3645046269575
 20
183.7917100234965
 30
0.0
 10
155.4971408031396
 20
183.8702582005602
 30
0.0
 10
155.6225422788027
 20
183.9562133329172
 30
0.0
 10
155.7265841624572
 20
184.0278713190104
 30
0.0
 10
155.8251138933354
 20
184.10504145788
 30
0.0
 10
155.9184759809857
 20
184.1903075711399
 30
0.0
 10
155.9984021962435
 20
184.2636881049758
 30
0.0
 10
156.074194296919
 20
184.3429253011365
 30
0.0
 10
156.143785225721
 20
184.4295694525905
 30
0.0
 10
156.2057969444555
 20
184.5074286105572
 30
0.0
 10
156.2640190581562
 20
184.5914889403973
 30
0.0
 10
156.3136284331438
 20
184.6819226968851
 30
0.0
 10
156.3604817317432
 20
184.7661552814994
 30
0.0
 10
156.4004448393721
 20
184.8562445284387
 30
0.0
 10
156.4335177560305
 20
184.9509846542831
 30
0.0
 10
156.4652126344948
 20
185.0419351750937
 30
0.0
 10
156.4903618315371
 20
185.1373643200351
 30
0.0
 10
156.5000080988958
 20
185.2348605222677
 30
0.0
 10
156.5065537803178
 20
185.2999728269389
 30
0.0
 10
156.5062092707693
 20
185.3657741507072
 30
0.0
 10
156.5058647612207
 20
185.431919984024
 30
0.0
  0
ENDBLK
  5
1B9
330
1B6
100
AcDbEntity
  8
0
100
AcDbBlockEnd
  0
BLOCK
  5
1BD
330
1BB
100
AcDbEntity
  8
0
100
AcDbBlockBegin
  2
block 24
 70
     0
 10
0.0
 20
0.0
 30
0.0
  3
block 24
  1

  0
SPLINE
  5
1BF
330
1BB
100
AcDbEntity
  8
レイヤー 1
 62
     7
370
     9
100
AcDbSpline
210
0.0
220
0.0
230
1.0
 70
     8
 71
     3
 72
    11
 73
     7
 74
     0
 42
0.000000001
 43
0.0000000001
 40
0.0
 40
0.0
 40
0.0
 40
0.0
 40
1.0
 40
1.0
 40
1.0
 40
2.0
 40
2.0
 40
2.0
 40
2.0
 10
140.5276841554063
 20
184.6708983913323
 30
0.0
 10
140.5228610217269
 20
184.667453295847
 30
0.0
 10
140.5175211237248
 20
184.6640082003618
 30
0.0
 10
140.513042499594
 20
184.660218595328
 30
0.0
 10
140.4975395699103
 20
184.6481607611296
 30
0.0
 10
140.4865152643575
 20
184.6352416530599
 30
0.0
 10
140.4754909588048
 20
184.6219780354417
 30
0.0
  0
ENDBLK
  5
1BE
330
1BB
100
AcDbEntity
  8
0
100
AcDbBlockEnd
  0
BLOCK
  5
1C2
330
1C0
100
AcDbEntity
  8
0
100
AcDbBlockBegin
  2
block 25
 70
     0
 10
0.0
 20
0.0
 30
0.0
  3
block 25
  1

  0
POLYLINE
  5
1C4
330
1C0
100
AcDbEntity
  8
レイヤー 1
 62
     7
370
     9
100
AcDb2dPolyline
 66
     1
 10
0.0
 20
0.0
 30
0.0
  0
VERTEX
  5
1C5
330
1C4
100
AcDbEntity
  8
レイヤー 1
 62
     7
370
     9
100
AcDbVertex
100
AcDb2dVertex
 10
156.716015585821
 20
183.4897474042144
 30
0.0
  0
VERTEX
  5
1C6
330
1C4
100
AcDbEntity
  8
レイヤー 1
 62
     7
370
     9
100
AcDbVertex
100
AcDb2dVertex
 10
156.7070583375593
 20
183.9803290013139
 30
0.0
  0
SEQEND
  5
1C7
330
1C4
100
AcDbEntity
  8
レイヤー 1
370
     9
  0
ENDBLK
  5
1C3
330
1C0
100
AcDbEntity
  8
0
100
AcDbBlockEnd
  0
BLOCK
  5
1CA
330
1C8
100
AcDbEntity
  8
0
100
AcDbBlockBegin
  2
block 26
 70
     0
 10
0.0
 20
0.0
 30
0.0
  3
block 26
  1

  0
POLYLINE
  5
1CC
330
1C8
100
AcDbEntity
  8
レイヤー 1
 62
     7
370
     9
100
AcDb2dPolyline
 66
     1
 10
0.0
 20
0.0
 30
0.0
  0
VERTEX
  5
1CD
330
1CC
100
AcDbEntity
  8
レイヤー 1
 62
     7
370
     9
100
AcDbVertex
100
AcDb2dVertex
 10
140.1259860218262
 20
183.9803290013139
 30
0.0
  0
VERTEX
  5
1CE
330
1CC
100
AcDbEntity
  8
レイヤー 1
 62
     7
370
     9
100
AcDbVertex
100
AcDb2dVertex
 10
140.1168565187902
 20
183.4897474042144
 30
0.0
  0
SEQEND
  5
1CF
330
1CC
100
AcDbEntity
  8
レイヤー 1
370
     9
  0
ENDBLK
  5
1CB
330
1C8
100
AcDbEntity
  8
0
100
AcDbBlockEnd
  0
BLOCK
  5
1D2
330
1D0
100
AcDbEntity
  8
0
100
AcDbBlockBegin
  2
block 27
 70
     0
 10
0.0
 20
0.0
 30
0.0
  3
block 27
  1

  0
SPLINE
  5
1D4
330
1D0
100
AcDbEntity
  8
レイヤー 1
 62
     7
370
     9
100
AcDbSpline
210
0.0
220
0.0
230
1.0
 70
     8
 71
     3
 72
    38
 73
    34
 74
     0
 42
0.000000001
 43
0.0000000001
 40
0.0
 40
0.0
 40
0.0
 40
0.0
 40
1.0
 40
1.0
 40
1.0
 40
2.0
 40
2.0
 40
2.0
 40
3.0
 40
3.0
 40
3.0
 40
4.0
 40
4.0
 40
4.0
 40
5.0
 40
5.0
 40
5.0
 40
6.0
 40
6.0
 40
6.0
 40
7.0
 40
7.0
 40
7.0
 40
8.0
 40
8.0
 40
8.0
 40
9.0
 40
9.0
 40
9.0
 40
10.0
 40
10.0
 40
10.0
 40
11.0
 40
11.0
 40
11.0
 40
11.0
 10
154.1697455126728
 20
177.378664777704
 30
0.0
 10
154.1866264805506
 20
177.3741861535731
 30
0.0
 10
154.2031629388798
 20
177.3698797842166
 30
0.0
 10
154.2200439067575
 20
177.3676404721512
 30
0.0
 10
154.274820924973
 20
177.3600612620836
 30
0.0
 10
154.3320095100281
 20
177.3738416440246
 30
0.0
 10
154.385752999598
 20
177.3933064335163
 30
0.0
 10
154.4391519796194
 20
177.4124267134594
 30
0.0
 10
154.4891058641555
 20
177.4375759105017
 30
0.0
 10
154.5352701436579
 20
177.4704765723858
 30
0.0
 10
154.5835014804514
 20
177.5045830176898
 30
0.0
 10
154.6275987026625
 20
177.5473022017069
 30
0.0
 10
154.6668727911944
 20
177.5953612837262
 30
0.0
 10
154.7075249179204
 20
177.6463486969079
 30
0.0
 10
154.7423203823214
 20
177.7033650271887
 30
0.0
 10
154.7705701653004
 20
177.7646877268262
 30
0.0
 10
154.8001979864736
 20
177.8279052289805
 30
0.0
 10
154.8215575784821
 20
177.8954291004914
 30
0.0
 10
154.8349934508746
 20
177.9645032649707
 30
0.0
 10
154.8487738328156
 20
178.0347832128698
 30
0.0
 10
154.8532524569464
 20
178.106441198963
 30
0.0
 10
154.8494628519126
 20
178.1763766373136
 30
0.0
 10
154.8453287373303
 20
178.2487236425038
 30
0.0
 10
154.8312038458408
 20
178.3190035904029
 30
0.0
 10
154.8070881774441
 20
178.3837713855256
 30
0.0
 10
154.786073094984
 20
178.4406154610322
 30
0.0
 10
154.7571342929079
 20
178.492980912408
 30
0.0
 10
154.7213052998613
 20
178.5406954848787
 30
0.0
 10
154.6875433641059
 20
178.586170745284
 30
0.0
 10
154.6472357469285
 20
178.6278564006555
 30
0.0
 10
154.5993489196835
 20
178.6552449097633
 30
0.0
 10
154.57213266535
 20
178.6709200942212
 30
0.0
 10
154.5418158250798
 20
178.681944399774
 30
0.0
 10
154.5121880039067
 20
178.693140960101
 30
0.0
  0
ENDBLK
  5
1D3
330
1D0
100
AcDbEntity
  8
0
100
AcDbBlockEnd
  0
BLOCK
  5
1D7
330
1D5
100
AcDbEntity
  8
0
100
AcDbBlockBegin
  2
block 28
 70
     0
 10
0.0
 20
0.0
 30
0.0
  3
block 28
  1

  0
POLYLINE
  5
1D9
330
1D5
100
AcDbEntity
  8
レイヤー 1
 62
     7
370
     9
100
AcDb2dPolyline
 66
     1
 10
0.0
 20
0.0
 30
0.0
  0
VERTEX
  5
1DA
330
1D9
100
AcDbEntity
  8
レイヤー 1
 62
     7
370
     9
100
AcDbVertex
100
AcDb2dVertex
 10
154.0033474007353
 20
177.3936509430648
 30
0.0
  0
VERTEX
  5
1DB
330
1D9
100
AcDbEntity
  8
レイヤー 1
 62
     7
370
     9
100
AcDbVertex
100
AcDb2dVertex
 10
154.1673339458332
 20
177.3716023319592
 30
0.0
  0
SEQEND
  5
1DC
330
1D9
100
AcDbEntity
  8
レイヤー 1
370
     9
  0
ENDBLK
  5
1D8
330
1D5
100
AcDbEntity
  8
0
100
AcDbBlockEnd
  0
BLOCK
  5
1DF
330
1DD
100
AcDbEntity
  8
0
100
AcDbBlockBegin
  2
block 29
 70
     0
 10
0.0
 20
0.0
 30
0.0
  3
block 29
  1

  0
POLYLINE
  5
1E1
330
1DD
100
AcDbEntity
  8
レイヤー 1
 62
     7
370
     9
100
AcDb2dPolyline
 66
     1
 10
0.0
 20
0.0
 30
0.0
  0
VERTEX
  5
1E2
330
1E1
100
AcDbEntity
  8
レイヤー 1
 62
     7
370
     9
100
AcDbVertex
100
AcDb2dVertex
 10
154.5114989848096
 20
178.7007201701686
 30
0.0
  0
VERTEX
  5
1E3
330
1E1
100
AcDbEntity
  8
レイヤー 1
 62
     7
370
     9
100
AcDbVertex
100
AcDb2dVertex
 10
154.357503216619
 20
178.7610093411604
 30
0.0
  0
SEQEND
  5
1E4
330
1E1
100
AcDbEntity
  8
レイヤー 1
370
     9
  0
ENDBLK
  5
1E0
330
1DD
100
AcDbEntity
  8
0
100
AcDbBlockEnd
  0
BLOCK
  5
1E7
330
1E5
100
AcDbEntity
  8
0
100
AcDbBlockBegin
  2
block 30
 70
     0
 10
0.0
 20
0.0
 30
0.0
  3
block 30
  1

  0
POLYLINE
  5
1E9
330
1E5
100
AcDbEntity
  8
レイヤー 1
 62
     7
370
     9
100
AcDb2dPolyline
 66
     1
 10
0.0
 20
0.0
 30
0.0
  0
VERTEX
  5
1EA
330
1E9
100
AcDbEntity
  8
レイヤー 1
 62
     7
370
     9
100
AcDbVertex
100
AcDb2dVertex
 10
156.5134439712883
 20
27.0533013170214
 30
0.0
  0
VERTEX
  5
1EB
330
1E9
100
AcDbEntity
  8
レイヤー 1
 62
     7
370
     9
100
AcDbVertex
100
AcDb2dVertex
 10
156.5134439712883
 20
69.81348197039385
 30
0.0
  0
SEQEND
  5
1EC
330
1E9
100
AcDbEntity
  8
レイヤー 1
370
     9
  0
ENDBLK
  5
1E8
330
1E5
100
AcDbEntity
  8
0
100
AcDbBlockEnd
  0
BLOCK
  5
1EF
330
1ED
100
AcDbEntity
  8
0
100
AcDbBlockBegin
  2
block 31
 70
     0
 10
0.0
 20
0.0
 30
0.0
  3
block 31
  1

  0
POLYLINE
  5
1F1
330
1ED
100
AcDbEntity
  8
レイヤー 1
 62
     7
370
     9
100
AcDb2dPolyline
 66
     1
 10
0.0
 20
0.0
 30
0.0
  0
VERTEX
  5
1F2
330
1F1
100
AcDbEntity
  8
レイヤー 1
 62
     7
370
     9
100
AcDbVertex
100
AcDb2dVertex
 10
156.5134439712883
 20
69.81348197039385
 30
0.0
  0
VERTEX
  5
1F3
330
1F1
100
AcDbEntity
  8
レイヤー 1
 62
     7
370
     9
100
AcDbVertex
100
AcDb2dVertex
 10
156.5134439712883
 20
183.0082953101507
 30
0.0
  0
SEQEND
  5
1F4
330
1F1
100
AcDbEntity
  8
レイヤー 1
370
     9
  0
ENDBLK
  5
1F0
330
1ED
100
AcDbEntity
  8
0
100
AcDbBlockEnd
  0
BLOCK
  5
1F7
330
1F5
100
AcDbEntity
  8
0
100
AcDbBlockBegin
  2
block 32
 70
     0
 10
0.0
 20
0.0
 30
0.0
  3
block 32
  1

  0
POLYLINE
  5
1F9
330
1F5
100
AcDbEntity
  8
レイヤー 1
 62
     7
370
     9
100
AcDb2dPolyline
 66
     1
 10
0.0
 20
0.0
 30
0.0
  0
VERTEX
  5
1FA
330
1F9
100
AcDbEntity
  8
レイヤー 1
 62
     7
370
     9
100
AcDbVertex
100
AcDb2dVertex
 10
140.3194281333229
 20
183.0082953101507
 30
0.0
  0
VERTEX
  5
1FB
330
1F9
100
AcDbEntity
  8
レイヤー 1
 62
     7
370
     9
100
AcDbVertex
100
AcDb2dVertex
 10
140.3194281333229
 20
27.0533013170214
 30
0.0
  0
SEQEND
  5
1FC
330
1F9
100
AcDbEntity
  8
レイヤー 1
370
     9
  0
ENDBLK
  5
1F8
330
1F5
100
AcDbEntity
  8
0
100
AcDbBlockEnd
  0
BLOCK
  5
1FF
330
1FD
100
AcDbEntity
  8
0
100
AcDbBlockBegin
  2
block 33
 70
     0
 10
0.0
 20
0.0
 30
0.0
  3
block 33
  1

  0
POLYLINE
  5
201
330
1FD
100
AcDbEntity
  8
レイヤー 1
 62
     7
370
     9
100
AcDb2dPolyline
 66
     1
 10
0.0
 20
0.0
 30
0.0
  0
VERTEX
  5
202
330
201
100
AcDbEntity
  8
レイヤー 1
 62
     7
370
     9
100
AcDbVertex
100
AcDb2dVertex
 10
141.5725816160825
 20
207.4467691538675
 30
0.0
  0
VERTEX
  5
203
330
201
100
AcDbEntity
  8
レイヤー 1
 62
     7
370
     9
100
AcDbVertex
100
AcDb2dVertex
 10
141.7934122366871
 20
207.2702080102484
 30
0.0
  0
VERTEX
  5
204
330
201
100
AcDbEntity
  8
レイヤー 1
 62
     7
370
     9
100
AcDbVertex
100
AcDb2dVertex
 10
142.082111238351
 20
207.1001925480514
 30
0.0
  0
VERTEX
  5
205
330
201
100
AcDbEntity
  8
レイヤー 1
 62
     7
370
     9
100
AcDbVertex
100
AcDb2dVertex
 10
142.4357502899119
 20
206.9384453150189
 30
0.0
  0
VERTEX
  5
206
330
201
100
AcDbEntity
  8
レイヤー 1
 62
     7
370
     9
100
AcDbVertex
100
AcDb2dVertex
 10
142.8507120411103
 20
206.7866888588936
 30
0.0
  0
VERTEX
  5
207
330
201
100
AcDbEntity
  8
レイヤー 1
 62
     7
370
     9
100
AcDbVertex
100
AcDb2dVertex
 10
143.3225178678152
 20
206.6468179821925
 30
0.0
  0
VERTEX
  5
208
330
201
100
AcDbEntity
  8
レイヤー 1
 62
     7
370
     9
100
AcDbVertex
100
AcDb2dVertex
 10
143.8472059102187
 20
206.5200384683353
 30
0.0
  0
VERTEX
  5
209
330
201
100
AcDbEntity
  8
レイヤー 1
 62
     7
370
     9
100
AcDbVertex
100
AcDb2dVertex
 10
144.4184027416732
 20
206.4077283555161
 30
0.0
  0
VERTEX
  5
20A
330
201
100
AcDbEntity
  8
レイヤー 1
 62
     7
370
     9
100
AcDbVertex
100
AcDb2dVertex
 10
145.0302516998536
 20
206.3105766628321
 30
0.0
  0
VERTEX
  5
20B
330
201
100
AcDbEntity
  8
レイヤー 1
 62
     7
370
     9
100
AcDbVertex
100
AcDb2dVertex
 10
145.677585141532
 20
206.2303059380258
 30
0.0
  0
VERTEX
  5
20C
330
201
100
AcDbEntity
  8
レイヤー 1
 62
     7
370
     9
100
AcDbVertex
100
AcDb2dVertex
 10
146.352823856641
 20
206.1672606906457
 30
0.0
  0
VERTEX
  5
20D
330
201
100
AcDbEntity
  8
レイヤー 1
 62
     7
370
     9
100
AcDbVertex
100
AcDb2dVertex
 10
147.04907765421
 20
206.1223021945632
 30
0.0
  0
VERTEX
  5
20E
330
201
100
AcDbEntity
  8
レイヤー 1
 62
     7
370
     9
100
AcDbVertex
100
AcDb2dVertex
 10
147.7592840884942
 20
206.0957749593267
 30
0.0
  0
VERTEX
  5
20F
330
201
100
AcDbEntity
  8
レイヤー 1
 62
     7
370
     9
100
AcDbVertex
100
AcDb2dVertex
 10
148.476380713749
 20
206.0878512397107
 30
0.0
  0
VERTEX
  5
210
330
201
100
AcDbEntity
  8
レイヤー 1
 62
     7
370
     9
100
AcDbVertex
100
AcDb2dVertex
 10
149.1926160651324
 20
206.0987032904892
 30
0.0
  0
VERTEX
  5
211
330
201
100
AcDbEntity
  8
レイヤー 1
 62
     7
370
     9
100
AcDbVertex
100
AcDb2dVertex
 10
149.9012722064483
 20
206.1283311116624
 30
0.0
  0
VERTEX
  5
212
330
201
100
AcDbEntity
  8
レイヤー 1
 62
     7
370
     9
100
AcDbVertex
100
AcDb2dVertex
 10
150.5944254180806
 20
206.1765624484559
 30
0.0
  0
VERTEX
  5
213
330
201
100
AcDbEntity
  8
レイヤー 1
 62
     7
370
     9
100
AcDbVertex
100
AcDb2dVertex
 10
151.2651855090587
 20
206.2427082817727
 30
0.0
  0
VERTEX
  5
214
330
201
100
AcDbEntity
  8
レイヤー 1
 62
     7
370
     9
100
AcDbVertex
100
AcDb2dVertex
 10
151.9070067979607
 20
206.3257350829672
 30
0.0
  0
VERTEX
  5
215
330
201
100
AcDbEntity
  8
レイヤー 1
 62
     7
370
     9
100
AcDbVertex
100
AcDb2dVertex
 10
152.5129990938162
 20
206.4254705972652
 30
0.0
  0
VERTEX
  5
216
330
201
100
AcDbEntity
  8
レイヤー 1
 62
     7
370
     9
100
AcDbVertex
100
AcDb2dVertex
 10
153.0766167152031
 20
206.540192276924
 30
0.0
  0
VERTEX
  5
217
330
201
100
AcDbEntity
  8
レイヤー 1
 62
     7
370
     9
100
AcDbVertex
100
AcDb2dVertex
 10
153.5926920188935
 20
206.6692111028466
 30
0.0
  0
VERTEX
  5
218
330
201
100
AcDbEntity
  8
レイヤー 1
 62
     7
370
     9
100
AcDbVertex
100
AcDb2dVertex
 10
154.0557128521111
 20
206.8113212916132
 30
0.0
  0
VERTEX
  5
219
330
201
100
AcDbEntity
  8
レイヤー 1
 62
     7
370
     9
100
AcDbVertex
100
AcDb2dVertex
 10
154.4608560811765
 20
206.964800295481
 30
0.0
  0
VERTEX
  5
21A
330
201
100
AcDbEntity
  8
レイヤー 1
 62
     7
370
     9
100
AcDbVertex
100
AcDb2dVertex
 10
154.8036430819588
 20
207.1277533119334
 30
0.0
  0
VERTEX
  5
21B
330
201
100
AcDbEntity
  8
レイヤー 1
 62
     7
370
     9
100
AcDbVertex
100
AcDb2dVertex
 10
155.0809732685214
 20
207.2991468123245
 30
0.0
  0
VERTEX
  5
21C
330
201
100
AcDbEntity
  8
レイヤー 1
 62
     7
370
     9
100
AcDbVertex
100
AcDb2dVertex
 10
155.2900905644761
 20
207.4769137393634
 30
0.0
  0
VERTEX
  5
21D
330
201
100
AcDbEntity
  8
レイヤー 1
 62
     7
370
     9
100
AcDbVertex
100
AcDb2dVertex
 10
155.4282388934346
 20
207.6591592905331
 30
0.0
  0
VERTEX
  5
21E
330
201
100
AcDbEntity
  8
レイヤー 1
 62
     7
370
     9
100
AcDbVertex
100
AcDb2dVertex
 10
155.4950737458485
 20
207.8439886633168
 30
0.0
  0
VERTEX
  5
21F
330
201
100
AcDbEntity
  8
レイヤー 1
 62
     7
370
     9
100
AcDbVertex
100
AcDb2dVertex
 10
155.4892170835235
 20
208.0300238195203
 30
0.0
  0
VERTEX
  5
220
330
201
100
AcDbEntity
  8
レイヤー 1
 62
     7
370
     9
100
AcDbVertex
100
AcDb2dVertex
 10
155.4103243969113
 20
208.2143364279812
 30
0.0
  0
VERTEX
  5
221
330
201
100
AcDbEntity
  8
レイヤー 1
 62
     7
370
     9
100
AcDbVertex
100
AcDb2dVertex
 10
155.2601182337544
 20
208.3960652148281
 30
0.0
  0
VERTEX
  5
222
330
201
100
AcDbEntity
  8
レイヤー 1
 62
     7
370
     9
100
AcDbVertex
100
AcDb2dVertex
 10
155.0396321226984
 20
208.5729708679957
 30
0.0
  0
VERTEX
  5
223
330
201
100
AcDbEntity
  8
レイヤー 1
 62
     7
370
     9
100
AcDbVertex
100
AcDb2dVertex
 10
154.7509331210345
 20
208.7428140754185
 30
0.0
  0
VERTEX
  5
224
330
201
100
AcDbEntity
  8
レイヤー 1
 62
     7
370
     9
100
AcDbVertex
100
AcDb2dVertex
 10
154.3974663242479
 20
208.904561308451
 30
0.0
  0
VERTEX
  5
225
330
201
100
AcDbEntity
  8
レイヤー 1
 62
     7
370
     9
100
AcDbVertex
100
AcDb2dVertex
 10
153.9823323182753
 20
209.056145509802
 30
0.0
  0
VERTEX
  5
226
330
201
100
AcDbEntity
  8
レイヤー 1
 62
     7
370
     9
100
AcDbVertex
100
AcDb2dVertex
 10
153.5100097272475
 20
209.1961886412774
 30
0.0
  0
VERTEX
  5
227
330
201
100
AcDbEntity
  8
レイヤー 1
 62
     7
370
     9
100
AcDbVertex
100
AcDb2dVertex
 10
152.9856661943925
 20
209.3229681551345
 30
0.0
  0
VERTEX
  5
228
330
201
100
AcDbEntity
  8
レイヤー 1
 62
     7
370
     9
100
AcDbVertex
100
AcDb2dVertex
 10
152.4144693629381
 20
209.435450522728
 30
0.0
  0
VERTEX
  5
229
330
201
100
AcDbEntity
  8
レイヤー 1
 62
     7
370
     9
100
AcDbVertex
100
AcDb2dVertex
 10
151.8022758952092
 20
209.5324299606377
 30
0.0
  0
VERTEX
  5
22A
330
201
100
AcDbEntity
  8
レイヤー 1
 62
     7
370
     9
100
AcDbVertex
100
AcDb2dVertex
 10
151.1556314726278
 20
209.6127006854441
 30
0.0
  0
VERTEX
  5
22B
330
201
100
AcDbEntity
  8
レイヤー 1
 62
     7
370
     9
100
AcDbVertex
100
AcDb2dVertex
 10
150.4803927575188
 20
209.6757459328241
 30
0.0
  0
VERTEX
  5
22C
330
201
100
AcDbEntity
  8
レイヤー 1
 62
     7
370
     9
100
AcDbVertex
100
AcDb2dVertex
 10
149.7837944504013
 20
209.7208766836809
 30
0.0
  0
VERTEX
  5
22D
330
201
100
AcDbEntity
  8
レイヤー 1
 62
     7
370
     9
100
AcDbVertex
100
AcDb2dVertex
 10
149.0734157613428
 20
209.7474039189173
 30
0.0
  0
VERTEX
  5
22E
330
201
100
AcDbEntity
  8
レイヤー 1
 62
     7
370
     9
100
AcDbVertex
100
AcDb2dVertex
 10
148.3564913908623
 20
209.7551553837591
 30
0.0
  0
VERTEX
  5
22F
330
201
100
AcDbEntity
  8
レイヤー 1
 62
     7
370
     9
100
AcDbVertex
100
AcDb2dVertex
 10
147.6400837847046
 20
209.7441310782064
 30
0.0
  0
VERTEX
  5
230
330
201
100
AcDbEntity
  8
レイヤー 1
 62
     7
370
     9
100
AcDbVertex
100
AcDb2dVertex
 10
146.9315998981629
 20
209.7146755118075
 30
0.0
  0
VERTEX
  5
231
330
201
100
AcDbEntity
  8
レイヤー 1
 62
     7
370
     9
100
AcDbVertex
100
AcDb2dVertex
 10
146.2384466865307
 20
209.666444175014
 30
0.0
  0
VERTEX
  5
232
330
201
100
AcDbEntity
  8
レイヤー 1
 62
     7
370
     9
100
AcDbVertex
100
AcDb2dVertex
 10
145.5676865955525
 20
209.6006428512457
 30
0.0
  0
VERTEX
  5
233
330
201
100
AcDbEntity
  8
レイヤー 1
 62
     7
370
     9
100
AcDbVertex
100
AcDb2dVertex
 10
144.9256930518762
 20
209.5172715405026
 30
0.0
  0
VERTEX
  5
234
330
201
100
AcDbEntity
  8
レイヤー 1
 62
     7
370
     9
100
AcDbVertex
100
AcDb2dVertex
 10
144.3200452655693
 20
209.4177082809789
 30
0.0
  0
VERTEX
  5
235
330
201
100
AcDbEntity
  8
レイヤー 1
 62
     7
370
     9
100
AcDbVertex
100
AcDb2dVertex
 10
143.7560831346339
 20
209.3028143465458
 30
0.0
  0
VERTEX
  5
236
330
201
100
AcDbEntity
  8
レイヤー 1
 62
     7
370
     9
100
AcDbVertex
100
AcDb2dVertex
 10
143.2400078309435
 20
209.173623265849
 30
0.0
  0
VERTEX
  5
237
330
201
100
AcDbEntity
  8
レイヤー 1
 62
     7
370
     9
100
AcDbVertex
100
AcDb2dVertex
 10
142.7773315072744
 20
209.0315130770824
 30
0.0
  0
VERTEX
  5
238
330
201
100
AcDbEntity
  8
レイヤー 1
 62
     7
370
     9
100
AcDbVertex
100
AcDb2dVertex
 10
142.3723605329833
 20
208.8782063279888
 30
0.0
  0
VERTEX
  5
239
330
201
100
AcDbEntity
  8
レイヤー 1
 62
     7
370
     9
100
AcDbVertex
100
AcDb2dVertex
 10
142.0295735322009
 20
208.7150810567622
 30
0.0
  0
VERTEX
  5
23A
330
201
100
AcDbEntity
  8
レイヤー 1
 62
     7
370
     9
100
AcDbVertex
100
AcDb2dVertex
 10
141.7518988360898
 20
208.5438598111453
 30
0.0
  0
VERTEX
  5
23B
330
201
100
AcDbEntity
  8
レイヤー 1
 62
     7
370
     9
100
AcDbVertex
100
AcDb2dVertex
 10
141.5427815401351
 20
208.3660928841064
 30
0.0
  0
VERTEX
  5
23C
330
201
100
AcDbEntity
  8
レイヤー 1
 62
     7
370
     9
100
AcDbVertex
100
AcDb2dVertex
 10
141.4041164468538
 20
208.1836750781624
 30
0.0
  0
VERTEX
  5
23D
330
201
100
AcDbEntity
  8
レイヤー 1
 62
     7
370
     9
100
AcDbVertex
100
AcDb2dVertex
 10
141.3374538492143
 20
207.999017960153
 30
0.0
  0
VERTEX
  5
23E
330
201
100
AcDbEntity
  8
レイヤー 1
 62
     7
370
     9
100
AcDbVertex
100
AcDb2dVertex
 10
141.343827275862
 20
207.8131550587238
 30
0.0
  0
VERTEX
  5
23F
330
201
100
AcDbEntity
  8
レイヤー 1
 62
     7
370
     9
100
AcDbVertex
100
AcDb2dVertex
 10
141.4225477076999
 20
207.6286701954887
 30
0.0
  0
VERTEX
  5
240
330
201
100
AcDbEntity
  8
レイヤー 1
 62
     7
370
     9
100
AcDbVertex
100
AcDb2dVertex
 10
141.5725816160825
 20
207.4467691538675
 30
0.0
  0
SEQEND
  5
241
330
201
100
AcDbEntity
  8
レイヤー 1
370
     9
  0
ENDBLK
  5
200
330
1FD
100
AcDbEntity
  8
0
100
AcDbBlockEnd
  0
BLOCK
  5
244
330
242
100
AcDbEntity
  8
0
100
AcDbBlockBegin
  2
block 34
 70
     0
 10
0.0
 20
0.0
 30
0.0
  3
block 34
  1

  0
POLYLINE
  5
246
330
242
100
AcDbEntity
  8
レイヤー 1
 62
     7
370
     9
100
AcDb2dPolyline
 66
     1
 10
0.0
 20
0.0
 30
0.0
  0
VERTEX
  5
247
330
246
100
AcDbEntity
  8
レイヤー 1
 62
     7
370
     9
100
AcDbVertex
100
AcDb2dVertex
 10
140.3976318008381
 20
183.635819452789
 30
0.0
  0
VERTEX
  5
248
330
246
100
AcDbEntity
  8
レイヤー 1
 62
     7
370
     9
100
AcDbVertex
100
AcDb2dVertex
 10
140.4735961562879
 20
183.549864320432
 30
0.0
  0
VERTEX
  5
249
330
246
100
AcDbEntity
  8
レイヤー 1
 62
     7
370
     9
100
AcDbVertex
100
AcDb2dVertex
 10
140.6952880507637
 20
183.3595227948719
 30
0.0
  0
VERTEX
  5
24A
330
246
100
AcDbEntity
  8
レイヤー 1
 62
     7
370
     9
100
AcDbVertex
100
AcDb2dVertex
 10
140.9851928358475
 20
183.1755546959596
 30
0.0
  0
VERTEX
  5
24B
330
246
100
AcDbEntity
  8
レイヤー 1
 62
     7
370
     9
100
AcDbVertex
100
AcDb2dVertex
 10
141.3402099256025
 20
182.9993380618891
 30
0.0
  0
VERTEX
  5
24C
330
246
100
AcDbEntity
  8
レイヤー 1
 62
     7
370
     9
100
AcDbVertex
100
AcDb2dVertex
 10
141.7570664793177
 20
182.832595440403
 30
0.0
  0
VERTEX
  5
24D
330
246
100
AcDbEntity
  8
レイヤー 1
 62
     7
370
     9
100
AcDbVertex
100
AcDb2dVertex
 10
142.2330064206049
 20
182.6767048696954
 30
0.0
  0
VERTEX
  5
24E
330
246
100
AcDbEntity
  8
レイヤー 1
 62
     7
370
     9
100
AcDbVertex
100
AcDb2dVertex
 10
142.7628621062364
 20
182.5328721331862
 30
0.0
  0
VERTEX
  5
24F
330
246
100
AcDbEntity
  8
レイヤー 1
 62
     7
370
     9
100
AcDbVertex
100
AcDb2dVertex
 10
143.3424994216297
 20
182.4026475238438
 30
0.0
  0
VERTEX
  5
250
330
246
100
AcDbEntity
  8
レイヤー 1
 62
     7
370
     9
100
AcDbVertex
100
AcDb2dVertex
 10
143.9667507235569
 20
182.2868923155394
 30
0.0
  0
VERTEX
  5
251
330
246
100
AcDbEntity
  8
レイヤー 1
 62
     7
370
     9
100
AcDbVertex
100
AcDb2dVertex
 10
144.6301038592418
 20
182.1869845464672
 30
0.0
  0
VERTEX
  5
252
330
246
100
AcDbEntity
  8
レイヤー 1
 62
     7
370
     9
100
AcDbVertex
100
AcDb2dVertex
 10
145.3268744211336
 20
182.1034409809498
 30
0.0
  0
VERTEX
  5
253
330
246
100
AcDbEntity
  8
レイヤー 1
 62
     7
370
     9
100
AcDbVertex
100
AcDb2dVertex
 10
146.0506889825845
 20
182.0371228928588
 30
0.0
  0
VERTEX
  5
254
330
246
100
AcDbEntity
  8
レイヤー 1
 62
     7
370
     9
100
AcDbVertex
100
AcDb2dVertex
 10
146.795174116947
 20
181.9888915560653
 30
0.0
  0
VERTEX
  5
255
330
246
100
AcDbEntity
  8
レイヤー 1
 62
     7
370
     9
100
AcDbVertex
100
AcDb2dVertex
 10
147.5541286523476
 20
181.9585747157951
 30
0.0
  0
VERTEX
  5
256
330
246
100
AcDbEntity
  8
レイヤー 1
 62
     7
370
     9
100
AcDbVertex
100
AcDb2dVertex
 10
148.3203178882671
 20
181.9468613911452
 30
0.0
  0
VERTEX
  5
257
330
246
100
AcDbEntity
  8
レイヤー 1
 62
     7
370
     9
100
AcDbVertex
100
AcDb2dVertex
 10
149.0878851623808
 20
181.95392383689
 30
0.0
  0
VERTEX
  5
258
330
246
100
AcDbEntity
  8
レイヤー 1
 62
     7
370
     9
100
AcDbVertex
100
AcDb2dVertex
 10
149.849251264621
 20
181.9795897982551
 30
0.0
  0
VERTEX
  5
259
330
246
100
AcDbEntity
  8
レイヤー 1
 62
     7
370
     9
100
AcDbVertex
100
AcDb2dVertex
 10
150.5978705135658
 20
182.0233425109178
 30
0.0
  0
VERTEX
  5
25A
330
246
100
AcDbEntity
  8
レイヤー 1
 62
     7
370
     9
100
AcDbVertex
100
AcDb2dVertex
 10
151.3271972277932
 20
182.0853542296523
 30
0.0
  0
VERTEX
  5
25B
330
246
100
AcDbEntity
  8
レイヤー 1
 62
     7
370
     9
100
AcDbVertex
100
AcDb2dVertex
 10
152.0317192545268
 20
182.164591425813
 30
0.0
  0
VERTEX
  5
25C
330
246
100
AcDbEntity
  8
レイヤー 1
 62
     7
370
     9
100
AcDbVertex
100
AcDb2dVertex
 10
152.7035128741505
 20
182.260365080303
 30
0.0
  0
VERTEX
  5
25D
330
246
100
AcDbEntity
  8
レイヤー 1
 62
     7
370
     9
100
AcDbVertex
100
AcDb2dVertex
 10
153.3380994625335
 20
182.3721584287993
 30
0.0
  0
VERTEX
  5
25E
330
246
100
AcDbEntity
  8
レイヤー 1
 62
     7
370
     9
100
AcDbVertex
100
AcDb2dVertex
 10
153.9296223573509
 20
182.4989379426565
 30
0.0
  0
VERTEX
  5
25F
330
246
100
AcDbEntity
  8
レイヤー 1
 62
     7
370
     9
100
AcDbVertex
100
AcDb2dVertex
 10
154.4722248962778
 20
182.639670093229
 30
0.0
  0
VERTEX
  5
260
330
246
100
AcDbEntity
  8
レイヤー 1
 62
     7
370
     9
100
AcDbVertex
100
AcDb2dVertex
 10
154.9621174742803
 20
182.7924600779998
 30
0.0
  0
VERTEX
  5
261
330
246
100
AcDbEntity
  8
レイヤー 1
 62
     7
370
     9
100
AcDbVertex
100
AcDb2dVertex
 10
155.3944769576792
 20
182.9569633874205
 30
0.0
  0
VERTEX
  5
262
330
246
100
AcDbEntity
  8
レイヤー 1
 62
     7
370
     9
100
AcDbVertex
100
AcDb2dVertex
 10
155.7648247223435
 20
183.1307684546513
 30
0.0
  0
VERTEX
  5
263
330
246
100
AcDbEntity
  8
レイヤー 1
 62
     7
370
     9
100
AcDbVertex
100
AcDb2dVertex
 10
156.0710937109822
 20
183.3130140058211
 30
0.0
  0
VERTEX
  5
264
330
246
100
AcDbEntity
  8
レイヤー 1
 62
     7
370
     9
100
AcDbVertex
100
AcDb2dVertex
 10
156.3101833376586
 20
183.5018052384127
 30
0.0
  0
VERTEX
  5
265
330
246
100
AcDbEntity
  8
レイヤー 1
 62
     7
370
     9
100
AcDbVertex
100
AcDb2dVertex
 10
156.3773626996209
 20
183.5695013646979
 30
0.0
  0
SEQEND
  5
266
330
246
100
AcDbEntity
  8
レイヤー 1
370
     9
  0
ENDBLK
  5
245
330
242
100
AcDbEntity
  8
0
100
AcDbBlockEnd
  0
BLOCK
  5
269
330
267
100
AcDbEntity
  8
0
100
AcDbBlockBegin
  2
block 35
 70
     0
 10
0.0
 20
0.0
 30
0.0
  3
block 35
  1

  0
SPLINE
  5
26B
330
267
100
AcDbEntity
  8
レイヤー 1
 62
     7
370
     9
100
AcDbSpline
210
0.0
220
0.0
230
1.0
 70
     8
 71
     3
 72
    11
 73
     7
 74
     0
 42
0.000000001
 43
0.0000000001
 40
0.0
 40
0.0
 40
0.0
 40
0.0
 40
1.0
 40
1.0
 40
1.0
 40
2.0
 40
2.0
 40
2.0
 40
2.0
 10
156.4969075129591
 20
183.4899196589886
 30
0.0
 10
156.7663139799056
 20
183.7753458199416
 30
0.0
 10
156.7532226170617
 20
184.225103035541
 30
0.0
 10
156.4676242013345
 20
184.4943372477132
 30
0.0
 10
156.4438530424863
 20
184.5169026231416
 30
0.0
 10
156.4183593358954
 20
184.5379177056016
 30
0.0
 10
156.391832100659
 20
184.5566934759962
 30
0.0
  0
ENDBLK
  5
26A
330
267
100
AcDbEntity
  8
0
100
AcDbBlockEnd
  0
BLOCK
  5
26E
330
26C
100
AcDbEntity
  8
0
100
AcDbBlockBegin
  2
block 36
 70
     0
 10
0.0
 20
0.0
 30
0.0
  3
block 36
  1

  0
SPLINE
  5
270
330
26C
100
AcDbEntity
  8
レイヤー 1
 62
     7
370
     9
100
AcDbSpline
210
0.0
220
0.0
230
1.0
 70
     8
 71
     3
 72
    11
 73
     7
 74
     0
 42
0.000000001
 43
0.0000000001
 40
0.0
 40
0.0
 40
0.0
 40
0.0
 40
1.0
 40
1.0
 40
1.0
 40
2.0
 40
2.0
 40
2.0
 40
2.0
 10
140.4417290230493
 20
184.5573824950933
 30
0.0
 10
140.1194403404042
 20
184.3219102186765
 30
0.0
 10
140.0489881377308
 20
183.8700859457859
 30
0.0
 10
140.2842881593734
 20
183.5477972631408
 30
0.0
 10
140.3173610760318
 20
183.5023220027355
 30
0.0
 10
140.355601635918
 20
183.4609808569125
 30
0.0
 10
140.3988375842579
 20
183.4242905899946
 30
0.0
  0
ENDBLK
  5
26F
330
26C
100
AcDbEntity
  8
0
100
AcDbBlockEnd
  0
BLOCK
  5
273
330
271
100
AcDbEntity
  8
0
100
AcDbBlockBegin
  2
block 37
 70
     0
 10
0.0
 20
0.0
 30
0.0
  3
block 37
  1

  0
POLYLINE
  5
275
330
271
100
AcDbEntity
  8
レイヤー 1
 62
     7
370
     9
100
AcDb2dPolyline
 66
     1
 10
0.0
 20
0.0
 30
0.0
  0
VERTEX
  5
276
330
275
100
AcDbEntity
  8
レイヤー 1
 62
     7
370
     9
100
AcDbVertex
100
AcDb2dVertex
 10
154.2851562114287
 20
181.9608140278605
 30
0.0
  0
VERTEX
  5
277
330
275
100
AcDbEntity
  8
レイヤー 1
 62
     7
370
     9
100
AcDbVertex
100
AcDb2dVertex
 10
154.8088107251867
 20
182.1098144075976
 30
0.0
  0
VERTEX
  5
278
330
275
100
AcDbEntity
  8
レイヤー 1
 62
     7
370
     9
100
AcDbVertex
100
AcDb2dVertex
 10
155.2766546920836
 20
182.2707003667587
 30
0.0
  0
VERTEX
  5
279
330
275
100
AcDbEntity
  8
レイヤー 1
 62
     7
370
     9
100
AcDbVertex
100
AcDb2dVertex
 10
155.6838649784401
 20
182.4422661219242
 30
0.0
  0
VERTEX
  5
27A
330
275
100
AcDbEntity
  8
レイヤー 1
 62
     7
370
     9
100
AcDbVertex
100
AcDb2dVertex
 10
156.0273409983196
 20
182.6229613801255
 30
0.0
  0
VERTEX
  5
27B
330
275
100
AcDbEntity
  8
レイヤー 1
 62
     7
370
     9
100
AcDbVertex
100
AcDb2dVertex
 10
156.3039821657851
 20
182.8112358483944
 30
0.0
  0
VERTEX
  5
27C
330
275
100
AcDbEntity
  8
レイヤー 1
 62
     7
370
     9
100
AcDbVertex
100
AcDb2dVertex
 10
156.5113769139972
 20
183.0053669789883
 30
0.0
  0
VERTEX
  5
27D
330
275
100
AcDbEntity
  8
レイヤー 1
 62
     7
370
     9
100
AcDbVertex
100
AcDb2dVertex
 10
156.647113676116
 20
183.2036322241644
 30
0.0
  0
VERTEX
  5
27E
330
275
100
AcDbEntity
  8
レイヤー 1
 62
     7
370
     9
100
AcDbVertex
100
AcDb2dVertex
 10
156.7108479425931
 20
183.4044812909544
 30
0.0
  0
VERTEX
  5
27F
330
275
100
AcDbEntity
  8
レイヤー 1
 62
     7
370
     9
100
AcDbVertex
100
AcDb2dVertex
 10
156.716015585821
 20
183.4897474042144
 30
0.0
  0
SEQEND
  5
280
330
275
100
AcDbEntity
  8
レイヤー 1
370
     9
  0
ENDBLK
  5
274
330
271
100
AcDbEntity
  8
0
100
AcDbBlockEnd
  0
BLOCK
  5
283
330
281
100
AcDbEntity
  8
0
100
AcDbBlockBegin
  2
block 38
 70
     0
 10
0.0
 20
0.0
 30
0.0
  3
block 38
  1

  0
POLYLINE
  5
285
330
281
100
AcDbEntity
  8
レイヤー 1
 62
     7
370
     9
100
AcDb2dPolyline
 66
     1
 10
0.0
 20
0.0
 30
0.0
  0
VERTEX
  5
286
330
285
100
AcDbEntity
  8
レイヤー 1
 62
     7
370
     9
100
AcDbVertex
100
AcDb2dVertex
 10
140.1168565187902
 20
183.4897474042144
 30
0.0
  0
VERTEX
  5
287
330
285
100
AcDbEntity
  8
レイヤー 1
 62
     7
370
     9
100
AcDbVertex
100
AcDb2dVertex
 10
140.1175455378873
 20
183.4546074302648
 30
0.0
  0
VERTEX
  5
288
330
285
100
AcDbEntity
  8
レイヤー 1
 62
     7
370
     9
100
AcDbVertex
100
AcDb2dVertex
 10
140.1628485435183
 20
183.2535861087005
 30
0.0
  0
VERTEX
  5
289
330
285
100
AcDbEntity
  8
レイヤー 1
 62
     7
370
     9
100
AcDbVertex
100
AcDb2dVertex
 10
140.2810153186624
 20
183.0546318444273
 30
0.0
  0
VERTEX
  5
28A
330
285
100
AcDbEntity
  8
レイヤー 1
 62
     7
370
     9
100
AcDbVertex
100
AcDb2dVertex
 10
140.4704955703511
 20
182.8592949304137
 30
0.0
  0
VERTEX
  5
28B
330
285
100
AcDbEntity
  8
レイヤー 1
 62
     7
370
     9
100
AcDbVertex
100
AcDb2dVertex
 10
140.7300835151647
 20
182.6696424239506
 30
0.0
  0
VERTEX
  5
28C
330
285
100
AcDbEntity
  8
レイヤー 1
 62
     7
370
     9
100
AcDbVertex
100
AcDb2dVertex
 10
141.0570230767149
 20
182.4867078536839
 30
0.0
  0
VERTEX
  5
28D
330
285
100
AcDbEntity
  8
レイヤー 1
 62
     7
370
     9
100
AcDbVertex
100
AcDb2dVertex
 10
141.4485581786136
 20
182.3127305316788
 30
0.0
  0
VERTEX
  5
28E
330
285
100
AcDbEntity
  8
レイヤー 1
 62
     7
370
     9
100
AcDbVertex
100
AcDb2dVertex
 10
141.9015882349239
 20
182.1490884961294
 30
0.0
  0
VERTEX
  5
28F
330
285
100
AcDbEntity
  8
レイヤー 1
 62
     7
370
     9
100
AcDbVertex
100
AcDb2dVertex
 10
142.4118068762894
 20
181.9969875304556
 30
0.0
  0
VERTEX
  5
290
330
285
100
AcDbEntity
  8
レイヤー 1
 62
     7
370
     9
100
AcDbVertex
100
AcDb2dVertex
 10
142.9747354785792
 20
181.8578056728515
 30
0.0
  0
VERTEX
  5
291
330
285
100
AcDbEntity
  8
レイヤー 1
 62
     7
370
     9
100
AcDbVertex
100
AcDb2dVertex
 10
143.585550908114
 20
181.7332654710598
 30
0.0
  0
VERTEX
  5
292
330
285
100
AcDbEntity
  8
レイヤー 1
 62
     7
370
     9
100
AcDbVertex
100
AcDb2dVertex
 10
144.2383965025689
 20
181.6237114346288
 30
0.0
  0
VERTEX
  5
293
330
285
100
AcDbEntity
  8
レイヤー 1
 62
     7
370
     9
100
AcDbVertex
100
AcDb2dVertex
 10
144.9286213830387
 20
181.5306938565271
 30
0.0
  0
VERTEX
  5
294
330
285
100
AcDbEntity
  8
レイヤー 1
 62
     7
370
     9
100
AcDbVertex
100
AcDb2dVertex
 10
145.6489908490044
 20
181.454557246303
 30
0.0
  0
VERTEX
  5
295
330
285
100
AcDbEntity
  8
レイヤー 1
 62
     7
370
     9
100
AcDbVertex
100
AcDb2dVertex
 10
146.3938204929154
 20
181.3965073873766
 30
0.0
  0
VERTEX
  5
296
330
285
100
AcDbEntity
  8
レイヤー 1
 62
     7
370
     9
100
AcDbVertex
100
AcDb2dVertex
 10
147.1563923785755
 20
181.356716534522
 30
0.0
  0
VERTEX
  5
297
330
285
100
AcDbEntity
  8
レイヤー 1
 62
     7
370
     9
100
AcDbVertex
100
AcDb2dVertex
 10
147.9303330793369
 20
181.3353569425134
 30
0.0
  0
VERTEX
  5
298
330
285
100
AcDbEntity
  8
レイヤー 1
 62
     7
370
     9
100
AcDbVertex
100
AcDb2dVertex
 10
148.7082356399063
 20
181.333117630448
 30
0.0
  0
VERTEX
  5
299
330
285
100
AcDbEntity
  8
レイヤー 1
 62
     7
370
     9
100
AcDbVertex
100
AcDb2dVertex
 10
149.483726633636
 20
181.3494818340029
 30
0.0
  0
VERTEX
  5
29A
330
285
100
AcDbEntity
  8
レイヤー 1
 62
     7
370
     9
100
AcDbVertex
100
AcDb2dVertex
 10
150.2499158695556
 20
181.3847940627267
 30
0.0
  0
VERTEX
  5
29B
330
285
100
AcDbEntity
  8
レイヤー 1
 62
     7
370
     9
100
AcDbVertex
100
AcDb2dVertex
 10
150.9999131566945
 20
181.4383652975224
 30
0.0
  0
VERTEX
  5
29C
330
285
100
AcDbEntity
  8
レイヤー 1
 62
     7
370
     9
100
AcDbVertex
100
AcDb2dVertex
 10
151.7271728136307
 20
181.5100232836156
 30
0.0
  0
VERTEX
  5
29D
330
285
100
AcDbEntity
  8
レイヤー 1
 62
     7
370
     9
100
AcDbVertex
100
AcDb2dVertex
 10
152.4251491589423
 20
181.598906747135
 30
0.0
  0
VERTEX
  5
29E
330
285
100
AcDbEntity
  8
レイヤー 1
 62
     7
370
     9
100
AcDbVertex
100
AcDb2dVertex
 10
153.0879855303044
 20
181.7044989237579
 30
0.0
  0
VERTEX
  5
29F
330
285
100
AcDbEntity
  8
レイヤー 1
 62
     7
370
     9
100
AcDbVertex
100
AcDb2dVertex
 10
153.709825265392
 20
181.8254217752902
 30
0.0
  0
VERTEX
  5
2A0
330
285
100
AcDbEntity
  8
レイヤー 1
 62
     7
370
     9
100
AcDbVertex
100
AcDb2dVertex
 10
154.2851562114287
 20
181.9608140278605
 30
0.0
  0
SEQEND
  5
2A1
330
285
100
AcDbEntity
  8
レイヤー 1
370
     9
  0
ENDBLK
  5
284
330
281
100
AcDbEntity
  8
0
100
AcDbBlockEnd
  0
BLOCK
  5
2A4
330
2A2
100
AcDbEntity
  8
0
100
AcDbBlockBegin
  2
block 39
 70
     0
 10
0.0
 20
0.0
 30
0.0
  3
block 39
  1

  0
SPLINE
  5
2A6
330
2A2
100
AcDbEntity
  8
レイヤー 1
 62
     7
370
     9
100
AcDbSpline
210
0.0
220
0.0
230
1.0
 70
     8
 71
     3
 72
     8
 73
     4
 74
     0
 42
0.000000001
 43
0.0000000001
 40
0.0
 40
0.0
 40
0.0
 40
0.0
 40
1.0
 40
1.0
 40
1.0
 40
1.0
 10
144.0988701354163
 20
182.9424939863824
 30
0.0
 10
145.7757703628616
 20
182.5587103493256
 30
0.0
 10
147.4974568316152
 20
182.4081596766202
 30
0.0
 10
149.2153536953351
 20
182.4951483376227
 30
0.0
  0
ENDBLK
  5
2A5
330
2A2
100
AcDbEntity
  8
0
100
AcDbBlockEnd
  0
BLOCK
  5
2A9
330
2A7
100
AcDbEntity
  8
0
100
AcDbBlockBegin
  2
block 40
 70
     0
 10
0.0
 20
0.0
 30
0.0
  3
block 40
  1

  0
SPLINE
  5
2AB
330
2A7
100
AcDbEntity
  8
レイヤー 1
 62
     7
370
     9
100
AcDbSpline
210
0.0
220
0.0
230
1.0
 70
     8
 71
     3
 72
     8
 73
     4
 74
     0
 42
0.000000001
 43
0.0000000001
 40
0.0
 40
0.0
 40
0.0
 40
0.0
 40
1.0
 40
1.0
 40
1.0
 40
1.0
 10
149.2153536953351
 20
182.4951483376227
 30
0.0
 10
150.4108018287168
 20
182.5201252798908
 30
0.0
 10
151.6003932997735
 20
182.6729152646616
 30
0.0
 10
152.7634575355939
 20
182.95007319645
 30
0.0
  0
ENDBLK
  5
2AA
330
2A7
100
AcDbEntity
  8
0
100
AcDbBlockEnd
  0
BLOCK
  5
2AE
330
2AC
100
AcDbEntity
  8
0
100
AcDbBlockBegin
  2
block 41
 70
     0
 10
0.0
 20
0.0
 30
0.0
  3
block 41
  1

  0
POLYLINE
  5
2B0
330
2AC
100
AcDbEntity
  8
レイヤー 1
 62
     7
370
     9
100
AcDb2dPolyline
 66
     1
 10
0.0
 20
0.0
 30
0.0
  0
VERTEX
  5
2B1
330
2B0
100
AcDbEntity
  8
レイヤー 1
 62
     7
370
     9
100
AcDbVertex
100
AcDb2dVertex
 10
154.4649901957588
 20
178.4852294475662
 30
0.0
  0
VERTEX
  5
2B2
330
2B0
100
AcDbEntity
  8
レイヤー 1
 62
     7
370
     9
100
AcDbVertex
100
AcDb2dVertex
 10
154.3302869622855
 20
178.4137437162473
 30
0.0
  0
VERTEX
  5
2B3
330
2B0
100
AcDbEntity
  8
レイヤー 1
 62
     7
370
     9
100
AcDbVertex
100
AcDb2dVertex
 10
154.2159097921752
 20
178.2795572470968
 30
0.0
  0
VERTEX
  5
2B4
330
2B0
100
AcDbEntity
  8
レイヤー 1
 62
     7
370
     9
100
AcDbVertex
100
AcDb2dVertex
 10
154.1390841628541
 20
178.103857377349
 30
0.0
  0
VERTEX
  5
2B5
330
2B0
100
AcDbEntity
  8
レイヤー 1
 62
     7
370
     9
100
AcDbVertex
100
AcDb2dVertex
 10
154.1125569276177
 20
177.9124823231434
 30
0.0
  0
VERTEX
  5
2B6
330
2B0
100
AcDbEntity
  8
レイヤー 1
 62
     7
370
     9
100
AcDbVertex
100
AcDb2dVertex
 10
154.1390841628541
 20
177.7350599056531
 30
0.0
  0
VERTEX
  5
2B7
330
2B0
100
AcDbEntity
  8
レイヤー 1
 62
     7
370
     9
100
AcDbVertex
100
AcDb2dVertex
 10
154.2159097921752
 20
177.5984618696629
 30
0.0
  0
VERTEX
  5
2B8
330
2B0
100
AcDbEntity
  8
レイヤー 1
 62
     7
370
     9
100
AcDbVertex
100
AcDb2dVertex
 10
154.3302869622855
 20
177.5238755524072
 30
0.0
  0
VERTEX
  5
2B9
330
2B0
100
AcDbEntity
  8
レイヤー 1
 62
     7
370
     9
100
AcDbVertex
100
AcDb2dVertex
 10
154.4649901957588
 20
177.5221530046646
 30
0.0
  0
VERTEX
  5
2BA
330
2B0
100
AcDbEntity
  8
レイヤー 1
 62
     7
370
     9
100
AcDbVertex
100
AcDb2dVertex
 10
154.6000379387806
 20
177.5936387359835
 30
0.0
  0
VERTEX
  5
2BB
330
2B0
100
AcDbEntity
  8
レイヤー 1
 62
     7
370
     9
100
AcDbVertex
100
AcDb2dVertex
 10
154.7144151088908
 20
177.7276529503598
 30
0.0
  0
VERTEX
  5
2BC
330
2B0
100
AcDbEntity
  8
レイヤー 1
 62
     7
370
     9
100
AcDbVertex
100
AcDb2dVertex
 10
154.7908962286634
 20
177.9038695844303
 30
0.0
  0
VERTEX
  5
2BD
330
2B0
100
AcDbEntity
  8
レイヤー 1
 62
     7
370
     9
100
AcDbVertex
100
AcDb2dVertex
 10
154.8177679734484
 20
178.0949001290874
 30
0.0
  0
VERTEX
  5
2BE
330
2B0
100
AcDbEntity
  8
レイヤー 1
 62
     7
370
     9
100
AcDbVertex
100
AcDb2dVertex
 10
154.7908962286634
 20
178.2723225465778
 30
0.0
  0
VERTEX
  5
2BF
330
2B0
100
AcDbEntity
  8
レイヤー 1
 62
     7
370
     9
100
AcDbVertex
100
AcDb2dVertex
 10
154.7144151088908
 20
178.4087483277937
 30
0.0
  0
VERTEX
  5
2C0
330
2B0
100
AcDbEntity
  8
レイヤー 1
 62
     7
370
     9
100
AcDbVertex
100
AcDb2dVertex
 10
154.6000379387806
 20
178.4835068998236
 30
0.0
  0
VERTEX
  5
2C1
330
2B0
100
AcDbEntity
  8
レイヤー 1
 62
     7
370
     9
100
AcDbVertex
100
AcDb2dVertex
 10
154.4649901957588
 20
178.4852294475662
 30
0.0
  0
SEQEND
  5
2C2
330
2B0
100
AcDbEntity
  8
レイヤー 1
370
     9
  0
ENDBLK
  5
2AF
330
2AC
100
AcDbEntity
  8
0
100
AcDbBlockEnd
  0
BLOCK
  5
2C5
330
2C3
100
AcDbEntity
  8
0
100
AcDbBlockBegin
  2
block 42
 70
     0
 10
0.0
 20
0.0
 30
0.0
  3
block 42
  1

  0
SPLINE
  5
2C7
330
2C3
100
AcDbEntity
  8
レイヤー 1
 62
     7
370
     9
100
AcDbSpline
210
0.0
220
0.0
230
1.0
 70
     8
 71
     3
 72
     8
 73
     4
 74
     0
 42
0.000000001
 43
0.0000000001
 40
0.0
 40
0.0
 40
0.0
 40
0.0
 40
1.0
 40
1.0
 40
1.0
 40
1.0
 10
154.5624863979913
 20
178.0728515179818
 30
0.0
 10
154.6241536071773
 20
178.0899047406338
 30
0.0
 10
154.6851317972662
 20
178.1098862944482
 30
0.0
 10
154.744731949161
 20
178.1329684341994
 30
0.0
  0
ENDBLK
  5
2C6
330
2C3
100
AcDbEntity
  8
0
100
AcDbBlockEnd
  0
BLOCK
  5
2CA
330
2C8
100
AcDbEntity
  8
0
100
AcDbBlockBegin
  2
block 43
 70
     0
 10
0.0
 20
0.0
 30
0.0
  3
block 43
  1

  0
SPLINE
  5
2CC
330
2C8
100
AcDbEntity
  8
レイヤー 1
 62
     7
370
     9
100
AcDbSpline
210
0.0
220
0.0
230
1.0
 70
     8
 71
     3
 72
     8
 73
     4
 74
     0
 42
0.000000001
 43
0.0000000001
 40
0.0
 40
0.0
 40
0.0
 40
0.0
 40
1.0
 40
1.0
 40
1.0
 40
1.0
 10
154.5624863979913
 20
178.0728515179818
 30
0.0
 10
154.5597303216031
 20
178.1700032106658
 30
0.0
 10
154.55111758289
 20
178.2668103938014
 30
0.0
 10
154.537337200949
 20
178.3629285578398
 30
0.0
  0
ENDBLK
  5
2CB
330
2C8
100
AcDbEntity
  8
0
100
AcDbBlockEnd
  0
BLOCK
  5
2CF
330
2CD
100
AcDbEntity
  8
0
100
AcDbBlockBegin
  2
block 44
 70
     0
 10
0.0
 20
0.0
 30
0.0
  3
block 44
  1

  0
SPLINE
  5
2D1
330
2CD
100
AcDbEntity
  8
レイヤー 1
 62
     7
370
     9
100
AcDbSpline
210
0.0
220
0.0
230
1.0
 70
     8
 71
     3
 72
     8
 73
     4
 74
     0
 42
0.000000001
 43
0.0000000001
 40
0.0
 40
0.0
 40
0.0
 40
0.0
 40
1.0
 40
1.0
 40
1.0
 40
1.0
 10
154.4370849223282
 20
178.3369180869262
 30
0.0
 10
154.4708468580837
 20
178.3448418065423
 30
0.0
 10
154.5039197747421
 20
178.3536268000296
 30
0.0
 10
154.537337200949
 20
178.3629285578398
 30
0.0
  0
ENDBLK
  5
2D0
330
2CD
100
AcDbEntity
  8
0
100
AcDbBlockEnd
  0
BLOCK
  5
2D4
330
2D2
100
AcDbEntity
  8
0
100
AcDbBlockBegin
  2
block 45
 70
     0
 10
0.0
 20
0.0
 30
0.0
  3
block 45
  1

  0
SPLINE
  5
2D6
330
2D2
100
AcDbEntity
  8
レイヤー 1
 62
     7
370
     9
100
AcDbSpline
210
0.0
220
0.0
230
1.0
 70
     8
 71
     3
 72
     8
 73
     4
 74
     0
 42
0.000000001
 43
0.0000000001
 40
0.0
 40
0.0
 40
0.0
 40
0.0
 40
1.0
 40
1.0
 40
1.0
 40
1.0
 10
154.4622341193705
 20
178.0470133018424
 30
0.0
 10
154.4594780429824
 20
178.1439927397522
 30
0.0
 10
154.4512098138178
 20
178.2407999228877
 30
0.0
 10
154.4370849223282
 20
178.3369180869262
 30
0.0
  0
ENDBLK
  5
2D5
330
2D2
100
AcDbEntity
  8
0
100
AcDbBlockEnd
  0
BLOCK
  5
2D9
330
2D7
100
AcDbEntity
  8
0
100
AcDbBlockBegin
  2
block 46
 70
     0
 10
0.0
 20
0.0
 30
0.0
  3
block 46
  1

  0
SPLINE
  5
2DB
330
2D7
100
AcDbEntity
  8
レイヤー 1
 62
     7
370
     9
100
AcDbSpline
210
0.0
220
0.0
230
1.0
 70
     8
 71
     3
 72
     8
 73
     4
 74
     0
 42
0.000000001
 43
0.0000000001
 40
0.0
 40
0.0
 40
0.0
 40
0.0
 40
1.0
 40
1.0
 40
1.0
 40
1.0
 10
154.2296901741162
 20
177.9996432389202
 30
0.0
 10
154.3072048225343
 20
178.0129068565385
 30
0.0
 10
154.3854084900495
 20
178.0285820409963
 30
0.0
 10
154.4622341193705
 20
178.0470133018424
 30
0.0
  0
ENDBLK
  5
2DA
330
2D7
100
AcDbEntity
  8
0
100
AcDbBlockEnd
  0
BLOCK
  5
2DE
330
2DC
100
AcDbEntity
  8
0
100
AcDbBlockBegin
  2
block 47
 70
     0
 10
0.0
 20
0.0
 30
0.0
  3
block 47
  1

  0
SPLINE
  5
2E0
330
2DC
100
AcDbEntity
  8
レイヤー 1
 62
     7
370
     9
100
AcDbSpline
210
0.0
220
0.0
230
1.0
 70
     8
 71
     3
 72
     8
 73
     4
 74
     0
 42
0.000000001
 43
0.0000000001
 40
0.0
 40
0.0
 40
0.0
 40
0.0
 40
1.0
 40
1.0
 40
1.0
 40
1.0
 10
154.2296901741162
 20
177.8628729481558
 30
0.0
 10
154.2307237027618
 20
177.9085204633354
 30
0.0
 10
154.2307237027618
 20
177.9539957237407
 30
0.0
 10
154.2296901741162
 20
177.9996432389202
 30
0.0
  0
ENDBLK
  5
2DF
330
2DC
100
AcDbEntity
  8
0
100
AcDbBlockEnd
  0
BLOCK
  5
2E3
330
2E1
100
AcDbEntity
  8
0
100
AcDbBlockBegin
  2
block 48
 70
     0
 10
0.0
 20
0.0
 30
0.0
  3
block 48
  1

  0
SPLINE
  5
2E5
330
2E1
100
AcDbEntity
  8
レイヤー 1
 62
     7
370
     9
100
AcDbSpline
210
0.0
220
0.0
230
1.0
 70
     8
 71
     3
 72
     8
 73
     4
 74
     0
 42
0.000000001
 43
0.0000000001
 40
0.0
 40
0.0
 40
0.0
 40
0.0
 40
1.0
 40
1.0
 40
1.0
 40
1.0
 10
154.2296901741162
 20
177.8628729481558
 30
0.0
 10
154.3072048225343
 20
177.8759643109998
 30
0.0
 10
154.3854084900495
 20
177.8918117502319
 30
0.0
 10
154.4622341193705
 20
177.9098985015295
 30
0.0
  0
ENDBLK
  5
2E4
330
2E1
100
AcDbEntity
  8
0
100
AcDbBlockEnd
  0
BLOCK
  5
2E8
330
2E6
100
AcDbEntity
  8
0
100
AcDbBlockBegin
  2
block 49
 70
     0
 10
0.0
 20
0.0
 30
0.0
  3
block 49
  1

  0
SPLINE
  5
2EA
330
2E6
100
AcDbEntity
  8
レイヤー 1
 62
     7
370
     9
100
AcDbSpline
210
0.0
220
0.0
230
1.0
 70
     8
 71
     3
 72
     8
 73
     4
 74
     0
 42
0.000000001
 43
0.0000000001
 40
0.0
 40
0.0
 40
0.0
 40
0.0
 40
1.0
 40
1.0
 40
1.0
 40
1.0
 10
154.4370849223282
 20
177.6329128245154
 30
0.0
 10
154.4515543233663
 20
177.7248968739716
 30
0.0
 10
154.4594780429824
 20
177.8172254329762
 30
0.0
 10
154.4622341193705
 20
177.9098985015295
 30
0.0
  0
ENDBLK
  5
2E9
330
2E6
100
AcDbEntity
  8
0
100
AcDbBlockEnd
  0
BLOCK
  5
2ED
330
2EB
100
AcDbEntity
  8
0
100
AcDbBlockBegin
  2
block 50
 70
     0
 10
0.0
 20
0.0
 30
0.0
  3
block 50
  1

  0
SPLINE
  5
2EF
330
2EB
100
AcDbEntity
  8
レイヤー 1
 62
     7
370
     9
100
AcDbSpline
210
0.0
220
0.0
230
1.0
 70
     8
 71
     3
 72
     8
 73
     4
 74
     0
 42
0.000000001
 43
0.0000000001
 40
0.0
 40
0.0
 40
0.0
 40
0.0
 40
1.0
 40
1.0
 40
1.0
 40
1.0
 10
154.4370849223282
 20
177.6329128245154
 30
0.0
 10
154.4708468580837
 20
177.6410087989057
 30
0.0
 10
154.5039197747421
 20
177.6497937923931
 30
0.0
 10
154.537337200949
 20
177.658923295429
 30
0.0
  0
ENDBLK
  5
2EE
330
2EB
100
AcDbEntity
  8
0
100
AcDbBlockEnd
  0
BLOCK
  5
2F2
330
2F0
100
AcDbEntity
  8
0
100
AcDbBlockBegin
  2
block 51
 70
     0
 10
0.0
 20
0.0
 30
0.0
  3
block 51
  1

  0
SPLINE
  5
2F4
330
2F0
100
AcDbEntity
  8
レイヤー 1
 62
     7
370
     9
100
AcDbSpline
210
0.0
220
0.0
230
1.0
 70
     8
 71
     3
 72
     8
 73
     4
 74
     0
 42
0.000000001
 43
0.0000000001
 40
0.0
 40
0.0
 40
0.0
 40
0.0
 40
1.0
 40
1.0
 40
1.0
 40
1.0
 10
154.537337200949
 20
177.658923295429
 30
0.0
 10
154.5514620924385
 20
177.7507350901109
 30
0.0
 10
154.5597303216031
 20
177.8432359038899
 30
0.0
 10
154.5624863979913
 20
177.9360812272174
 30
0.0
  0
ENDBLK
  5
2F3
330
2F0
100
AcDbEntity
  8
0
100
AcDbBlockEnd
  0
BLOCK
  5
2F7
330
2F5
100
AcDbEntity
  8
0
100
AcDbBlockBegin
  2
block 52
 70
     0
 10
0.0
 20
0.0
 30
0.0
  3
block 52
  1

  0
SPLINE
  5
2F9
330
2F5
100
AcDbEntity
  8
レイヤー 1
 62
     7
370
     9
100
AcDbSpline
210
0.0
220
0.0
230
1.0
 70
     8
 71
     3
 72
     8
 73
     4
 74
     0
 42
0.000000001
 43
0.0000000001
 40
0.0
 40
0.0
 40
0.0
 40
0.0
 40
1.0
 40
1.0
 40
1.0
 40
1.0
 10
154.5624863979913
 20
177.9360812272174
 30
0.0
 10
154.6241536071773
 20
177.9529621950951
 30
0.0
 10
154.6851317972662
 20
177.9731160036838
 30
0.0
 10
154.744731949161
 20
177.996198143435
 30
0.0
  0
ENDBLK
  5
2F8
330
2F5
100
AcDbEntity
  8
0
100
AcDbBlockEnd
  0
BLOCK
  5
2FC
330
2FA
100
AcDbEntity
  8
0
100
AcDbBlockBegin
  2
block 53
 70
     0
 10
0.0
 20
0.0
 30
0.0
  3
block 53
  1

  0
SPLINE
  5
2FE
330
2FA
100
AcDbEntity
  8
レイヤー 1
 62
     7
370
     9
100
AcDbSpline
210
0.0
220
0.0
230
1.0
 70
     8
 71
     3
 72
     8
 73
     4
 74
     0
 42
0.000000001
 43
0.0000000001
 40
0.0
 40
0.0
 40
0.0
 40
0.0
 40
1.0
 40
1.0
 40
1.0
 40
1.0
 10
154.744731949161
 20
177.996198143435
 30
0.0
 10
154.7464544969037
 20
178.0416734038403
 30
0.0
 10
154.7464544969037
 20
178.0874931737941
 30
0.0
 10
154.744731949161
 20
178.1329684341994
 30
0.0
  0
ENDBLK
  5
2FD
330
2FA
100
AcDbEntity
  8
0
100
AcDbBlockEnd
  0
BLOCK
  5
301
330
2FF
100
AcDbEntity
  8
0
100
AcDbBlockBegin
  2
block 54
 70
     0
 10
0.0
 20
0.0
 30
0.0
  3
block 54
  1

  0
POLYLINE
  5
303
330
2FF
100
AcDbEntity
  8
レイヤー 1
 62
     7
370
     9
100
AcDb2dPolyline
 66
     1
 10
0.0
 20
0.0
 30
0.0
  0
VERTEX
  5
304
330
303
100
AcDbEntity
  8
レイヤー 1
 62
     7
370
     9
100
AcDbVertex
100
AcDb2dVertex
 10
154.1418402392423
 20
178.7716891371647
 30
0.0
  0
VERTEX
  5
305
330
303
100
AcDbEntity
  8
レイヤー 1
 62
     7
370
     9
100
AcDbVertex
100
AcDb2dVertex
 10
153.9792317323385
 20
178.692451941004
 30
0.0
  0
VERTEX
  5
306
330
303
100
AcDbEntity
  8
レイヤー 1
 62
     7
370
     9
100
AcDbVertex
100
AcDb2dVertex
 10
153.8341932124095
 20
178.5475856758492
 30
0.0
  0
VERTEX
  5
307
330
303
100
AcDbEntity
  8
レイヤー 1
 62
     7
370
     9
100
AcDbVertex
100
AcDb2dVertex
 10
153.7225721186874
 20
178.3531100357069
 30
0.0
  0
VERTEX
  5
308
330
303
100
AcDbEntity
  8
レイヤー 1
 62
     7
370
     9
100
AcDbVertex
100
AcDb2dVertex
 10
153.6564262853706
 20
178.1295233387142
 30
0.0
  0
VERTEX
  5
309
330
303
100
AcDbEntity
  8
レイヤー 1
 62
     7
370
     9
100
AcDbVertex
100
AcDb2dVertex
 10
153.6426459034296
 20
177.9014580175906
 30
0.0
  0
VERTEX
  5
30A
330
303
100
AcDbEntity
  8
レイヤー 1
 62
     7
370
     9
100
AcDbVertex
100
AcDb2dVertex
 10
153.6832980301556
 20
177.6935465050558
 30
0.0
  0
VERTEX
  5
30B
330
303
100
AcDbEntity
  8
レイヤー 1
 62
     7
370
     9
100
AcDbVertex
100
AcDb2dVertex
 10
153.7735595318691
 20
177.528354176538
 30
0.0
  0
VERTEX
  5
30C
330
303
100
AcDbEntity
  8
レイヤー 1
 62
     7
370
     9
100
AcDbVertex
100
AcDb2dVertex
 10
153.903439631663
 20
177.4236232737865
 30
0.0
  0
VERTEX
  5
30D
330
303
100
AcDbEntity
  8
レイヤー 1
 62
     7
370
     9
100
AcDbVertex
100
AcDb2dVertex
 10
154.0033474007353
 20
177.3936509430648
 30
0.0
  0
SEQEND
  5
30E
330
303
100
AcDbEntity
  8
レイヤー 1
370
     9
  0
ENDBLK
  5
302
330
2FF
100
AcDbEntity
  8
0
100
AcDbBlockEnd
  0
BLOCK
  5
311
330
30F
100
AcDbEntity
  8
0
100
AcDbBlockBegin
  2
block 55
 70
     0
 10
0.0
 20
0.0
 30
0.0
  3
block 55
  1

  0
POLYLINE
  5
313
330
30F
100
AcDbEntity
  8
レイヤー 1
 62
     7
370
     9
100
AcDb2dPolyline
 66
     1
 10
0.0
 20
0.0
 30
0.0
  0
VERTEX
  5
314
330
313
100
AcDbEntity
  8
レイヤー 1
 62
     7
370
     9
100
AcDbVertex
100
AcDb2dVertex
 10
154.357503216619
 20
178.7610093411604
 30
0.0
  0
VERTEX
  5
315
330
313
100
AcDbEntity
  8
レイヤー 1
 62
     7
370
     9
100
AcDbVertex
100
AcDb2dVertex
 10
154.3047932556946
 20
178.7766845256184
 30
0.0
  0
VERTEX
  5
316
330
313
100
AcDbEntity
  8
レイヤー 1
 62
     7
370
     9
100
AcDbVertex
100
AcDb2dVertex
 10
154.1418402392423
 20
178.7716891371647
 30
0.0
  0
SEQEND
  5
317
330
313
100
AcDbEntity
  8
レイヤー 1
370
     9
  0
ENDBLK
  5
312
330
30F
100
AcDbEntity
  8
0
100
AcDbBlockEnd
  0
BLOCK
  5
31A
330
318
100
AcDbEntity
  8
0
100
AcDbBlockBegin
  2
block 56
 70
     0
 10
0.0
 20
0.0
 30
0.0
  3
block 56
  1

  0
POLYLINE
  5
31C
330
318
100
AcDbEntity
  8
レイヤー 1
 62
     7
370
     9
100
AcDb2dPolyline
 66
     1
 10
0.0
 20
0.0
 30
0.0
  0
VERTEX
  5
31D
330
31C
100
AcDbEntity
  8
レイヤー 1
 62
     7
370
     9
100
AcDbVertex
100
AcDb2dVertex
 10
154.2493272183821
 20
177.9651922840677
 30
0.0
  0
VERTEX
  5
31E
330
31C
100
AcDbEntity
  8
レイヤー 1
 62
     7
370
     9
100
AcDbVertex
100
AcDb2dVertex
 10
154.4622341193705
 20
177.9098985015295
 30
0.0
  0
SEQEND
  5
31F
330
31C
100
AcDbEntity
  8
レイヤー 1
370
     9
  0
ENDBLK
  5
31B
330
318
100
AcDbEntity
  8
0
100
AcDbBlockEnd
  0
BLOCK
  5
322
330
320
100
AcDbEntity
  8
0
100
AcDbBlockBegin
  2
block 57
 70
     0
 10
0.0
 20
0.0
 30
0.0
  3
block 57
  1

  0
POLYLINE
  5
324
330
320
100
AcDbEntity
  8
レイヤー 1
 62
     7
370
     9
100
AcDb2dPolyline
 66
     1
 10
0.0
 20
0.0
 30
0.0
  0
VERTEX
  5
325
330
324
100
AcDbEntity
  8
レイヤー 1
 62
     7
370
     9
100
AcDbVertex
100
AcDb2dVertex
 10
154.3495794970029
 20
177.9393540679284
 30
0.0
  0
VERTEX
  5
326
330
324
100
AcDbEntity
  8
レイヤー 1
 62
     7
370
     9
100
AcDbVertex
100
AcDb2dVertex
 10
154.3495794970029
 20
177.9912027549814
 30
0.0
  0
SEQEND
  5
327
330
324
100
AcDbEntity
  8
レイヤー 1
370
     9
  0
ENDBLK
  5
323
330
320
100
AcDbEntity
  8
0
100
AcDbBlockEnd
  0
BLOCK
  5
32A
330
328
100
AcDbEntity
  8
0
100
AcDbBlockBegin
  2
block 58
 70
     0
 10
0.0
 20
0.0
 30
0.0
  3
block 58
  1

  0
POLYLINE
  5
32C
330
328
100
AcDbEntity
  8
レイヤー 1
 62
     7
370
     9
100
AcDb2dPolyline
 66
     1
 10
0.0
 20
0.0
 30
0.0
  0
VERTEX
  5
32D
330
32C
100
AcDbEntity
  8
レイヤー 1
 62
     7
370
     9
100
AcDbVertex
100
AcDb2dVertex
 10
154.5569742452149
 20
178.044773989777
 30
0.0
  0
VERTEX
  5
32E
330
32C
100
AcDbEntity
  8
レイヤー 1
 62
     7
370
     9
100
AcDbVertex
100
AcDb2dVertex
 10
154.5569742452149
 20
178.0742295561759
 30
0.0
  0
SEQEND
  5
32F
330
32C
100
AcDbEntity
  8
レイヤー 1
370
     9
  0
ENDBLK
  5
32B
330
328
100
AcDbEntity
  8
0
100
AcDbBlockEnd
  0
BLOCK
  5
332
330
330
100
AcDbEntity
  8
0
100
AcDbBlockBegin
  2
block 59
 70
     0
 10
0.0
 20
0.0
 30
0.0
  3
block 59
  1

  0
POLYLINE
  5
334
330
330
100
AcDbEntity
  8
レイヤー 1
 62
     7
370
     9
100
AcDb2dPolyline
 66
     1
 10
0.0
 20
0.0
 30
0.0
  0
VERTEX
  5
335
330
334
100
AcDbEntity
  8
レイヤー 1
 62
     7
370
     9
100
AcDbVertex
100
AcDb2dVertex
 10
154.3495794970029
 20
177.9912027549814
 30
0.0
  0
VERTEX
  5
336
330
334
100
AcDbEntity
  8
レイヤー 1
 62
     7
370
     9
100
AcDbVertex
100
AcDb2dVertex
 10
154.5569742452149
 20
178.044773989777
 30
0.0
  0
SEQEND
  5
337
330
334
100
AcDbEntity
  8
レイヤー 1
370
     9
  0
ENDBLK
  5
333
330
330
100
AcDbEntity
  8
0
100
AcDbBlockEnd
  0
BLOCK
  5
33A
330
338
100
AcDbEntity
  8
0
100
AcDbBlockBegin
  2
block 60
 70
     0
 10
0.0
 20
0.0
 30
0.0
  3
block 60
  1

  0
POLYLINE
  5
33C
330
338
100
AcDbEntity
  8
レイヤー 1
 62
     7
370
     9
100
AcDb2dPolyline
 66
     1
 10
0.0
 20
0.0
 30
0.0
  0
VERTEX
  5
33D
330
33C
100
AcDbEntity
  8
レイヤー 1
 62
     7
370
     9
100
AcDbVertex
100
AcDb2dVertex
 10
154.4598225525309
 20
178.0993787532182
 30
0.0
  0
VERTEX
  5
33E
330
33C
100
AcDbEntity
  8
レイヤー 1
 62
     7
370
     9
100
AcDbVertex
100
AcDb2dVertex
 10
154.5624863979913
 20
178.0728515179818
 30
0.0
  0
SEQEND
  5
33F
330
33C
100
AcDbEntity
  8
レイヤー 1
370
     9
  0
ENDBLK
  5
33B
330
338
100
AcDbEntity
  8
0
100
AcDbBlockEnd
  0
BLOCK
  5
342
330
340
100
AcDbEntity
  8
0
100
AcDbBlockBegin
  2
block 61
 70
     0
 10
0.0
 20
0.0
 30
0.0
  3
block 61
  1

  0
POLYLINE
  5
344
330
340
100
AcDbEntity
  8
レイヤー 1
 62
     7
370
     9
100
AcDb2dPolyline
 66
     1
 10
0.0
 20
0.0
 30
0.0
  0
VERTEX
  5
345
330
344
100
AcDbEntity
  8
レイヤー 1
 62
     7
370
     9
100
AcDbVertex
100
AcDb2dVertex
 10
154.3495794970029
 20
177.9912027549814
 30
0.0
  0
VERTEX
  5
346
330
344
100
AcDbEntity
  8
レイヤー 1
 62
     7
370
     9
100
AcDbVertex
100
AcDb2dVertex
 10
154.5624863979913
 20
177.9360812272174
 30
0.0
  0
SEQEND
  5
347
330
344
100
AcDbEntity
  8
レイヤー 1
370
     9
  0
ENDBLK
  5
343
330
340
100
AcDbEntity
  8
0
100
AcDbBlockEnd
  0
BLOCK
  5
34A
330
348
100
AcDbEntity
  8
0
100
AcDbBlockBegin
  2
block 62
 70
     0
 10
0.0
 20
0.0
 30
0.0
  3
block 62
  1

  0
POLYLINE
  5
34C
330
348
100
AcDbEntity
  8
レイヤー 1
 62
     7
370
     9
100
AcDb2dPolyline
 66
     1
 10
0.0
 20
0.0
 30
0.0
  0
VERTEX
  5
34D
330
34C
100
AcDbEntity
  8
レイヤー 1
 62
     7
370
     9
100
AcDbVertex
100
AcDb2dVertex
 10
154.5569742452149
 20
178.044773989777
 30
0.0
  0
VERTEX
  5
34E
330
34C
100
AcDbEntity
  8
レイヤー 1
 62
     7
370
     9
100
AcDbVertex
100
AcDb2dVertex
 10
154.744731949161
 20
177.996198143435
 30
0.0
  0
SEQEND
  5
34F
330
34C
100
AcDbEntity
  8
レイヤー 1
370
     9
  0
ENDBLK
  5
34B
330
348
100
AcDbEntity
  8
0
100
AcDbBlockEnd
  0
BLOCK
  5
352
330
350
100
AcDbEntity
  8
0
100
AcDbBlockBegin
  2
block 63
 70
     0
 10
0.0
 20
0.0
 30
0.0
  3
block 63
  1

  0
POLYLINE
  5
354
330
350
100
AcDbEntity
  8
レイヤー 1
 62
     7
370
     9
100
AcDb2dPolyline
 66
     1
 10
0.0
 20
0.0
 30
0.0
  0
VERTEX
  5
355
330
354
100
AcDbEntity
  8
レイヤー 1
 62
     7
370
     9
100
AcDbVertex
100
AcDb2dVertex
 10
154.4446641323958
 20
177.6832112186
 30
0.0
  0
VERTEX
  5
356
330
354
100
AcDbEntity
  8
レイヤー 1
 62
     7
370
     9
100
AcDbVertex
100
AcDb2dVertex
 10
154.537337200949
 20
177.658923295429
 30
0.0
  0
SEQEND
  5
357
330
354
100
AcDbEntity
  8
レイヤー 1
370
     9
  0
ENDBLK
  5
353
330
350
100
AcDbEntity
  8
0
100
AcDbBlockEnd
  0
BLOCK
  5
35A
330
358
100
AcDbEntity
  8
0
100
AcDbBlockBegin
  2
block 64
 70
     0
 10
0.0
 20
0.0
 30
0.0
  3
block 64
  1

  0
POLYLINE
  5
35C
330
358
100
AcDbEntity
  8
レイヤー 1
 62
     7
370
     9
100
AcDb2dPolyline
 66
     1
 10
0.0
 20
0.0
 30
0.0
  0
VERTEX
  5
35D
330
35C
100
AcDbEntity
  8
レイヤー 1
 62
     7
370
     9
100
AcDbVertex
100
AcDb2dVertex
 10
140.3204616619685
 20
27.01781683352332
 30
0.0
  0
VERTEX
  5
35E
330
35C
100
AcDbEntity
  8
レイヤー 1
 62
     7
370
     9
100
AcDbVertex
100
AcDb2dVertex
 10
140.3464721328821
 20
26.88173556185595
 30
0.0
  0
VERTEX
  5
35F
330
35C
100
AcDbEntity
  8
レイヤー 1
 62
     7
370
     9
100
AcDbVertex
100
AcDb2dVertex
 10
140.4439683351147
 20
26.68674315739081
 30
0.0
  0
VERTEX
  5
360
330
35C
100
AcDbEntity
  8
レイヤー 1
 62
     7
370
     9
100
AcDbVertex
100
AcDb2dVertex
 10
140.6119167400206
 20
26.4948513388624
 30
0.0
  0
VERTEX
  5
361
330
35C
100
AcDbEntity
  8
レイヤー 1
 62
     7
370
     9
100
AcDbVertex
100
AcDb2dVertex
 10
140.8482502903088
 20
26.30812716356186
 30
0.0
  0
VERTEX
  5
362
330
35C
100
AcDbEntity
  8
レイヤー 1
 62
     7
370
     9
100
AcDbVertex
100
AcDb2dVertex
 10
141.1505574191395
 20
26.12829317923182
 30
0.0
  0
VERTEX
  5
363
330
35C
100
AcDbEntity
  8
レイヤー 1
 62
     7
370
     9
100
AcDbVertex
100
AcDb2dVertex
 10
141.5172878335443
 20
25.95638291451785
 30
0.0
  0
VERTEX
  5
364
330
35C
100
AcDbEntity
  8
レイヤー 1
 62
     7
370
     9
100
AcDbVertex
100
AcDb2dVertex
 10
141.9446519284895
 20
25.79342989806553
 30
0.0
  0
VERTEX
  5
365
330
35C
100
AcDbEntity
  8
レイヤー 1
 62
     7
370
     9
100
AcDbVertex
100
AcDb2dVertex
 10
142.4286878441671
 20
25.64253471581159
 30
0.0
  0
VERTEX
  5
366
330
35C
100
AcDbEntity
  8
レイヤー 1
 62
     7
370
     9
100
AcDbVertex
100
AcDb2dVertex
 10
142.9654337207691
 20
25.5033528582075
 30
0.0
  0
VERTEX
  5
367
330
35C
100
AcDbEntity
  8
レイヤー 1
 62
     7
370
     9
100
AcDbVertex
100
AcDb2dVertex
 10
143.5502386793902
 20
25.3779513825444
 30
0.0
  0
VERTEX
  5
368
330
35C
100
AcDbEntity
  8
レイヤー 1
 62
     7
370
     9
100
AcDbVertex
100
AcDb2dVertex
 10
144.1777628220285
 20
25.26770832701641
 30
0.0
  0
VERTEX
  5
369
330
35C
100
AcDbEntity
  8
レイヤー 1
 62
     7
370
     9
100
AcDbVertex
100
AcDb2dVertex
 10
144.8419772315847
 20
25.17296820117204
 30
0.0
  0
VERTEX
  5
36A
330
35C
100
AcDbEntity
  8
レイヤー 1
 62
     7
370
     9
100
AcDbVertex
100
AcDb2dVertex
 10
145.5382310291536
 20
25.09407551455982
 30
0.0
  0
VERTEX
  5
36B
330
35C
100
AcDbEntity
  8
レイヤー 1
 62
     7
370
     9
100
AcDbVertex
100
AcDb2dVertex
 10
146.2594617689907
 20
25.03309732447089
 30
0.0
  0
VERTEX
  5
36C
330
35C
100
AcDbEntity
  8
レイヤー 1
 62
     7
370
     9
100
AcDbVertex
100
AcDb2dVertex
 10
146.9999850435451
 20
24.98968912135675
 30
0.0
  0
VERTEX
  5
36D
330
35C
100
AcDbEntity
  8
レイヤー 1
 62
     7
370
     9
100
AcDbVertex
100
AcDb2dVertex
 10
147.7527384070722
 20
24.96453992431442
 30
0.0
  0
VERTEX
  5
36E
330
35C
100
AcDbEntity
  8
レイヤー 1
 62
     7
370
     9
100
AcDbVertex
100
AcDb2dVertex
 10
148.5115206876985
 20
24.95764973334392
 30
0.0
  0
VERTEX
  5
36F
330
35C
100
AcDbEntity
  8
レイヤー 1
 62
     7
370
     9
100
AcDbVertex
100
AcDb2dVertex
 10
149.269097184905
 20
24.96901854844524
 30
0.0
  0
VERTEX
  5
370
330
35C
100
AcDbEntity
  8
レイヤー 1
 62
     7
370
     9
100
AcDbVertex
100
AcDb2dVertex
 10
150.0194389815924
 20
24.99899087916692
 30
0.0
  0
VERTEX
  5
371
330
35C
100
AcDbEntity
  8
レイヤー 1
 62
     7
370
     9
100
AcDbVertex
100
AcDb2dVertex
 10
150.7560003963388
 20
25.04687770641189
 30
0.0
  0
VERTEX
  5
372
330
35C
100
AcDbEntity
  8
レイヤー 1
 62
     7
370
     9
100
AcDbVertex
100
AcDb2dVertex
 10
151.4712022190766
 20
25.11233452063164
 30
0.0
  0
VERTEX
  5
373
330
35C
100
AcDbEntity
  8
レイヤー 1
 62
     7
370
     9
100
AcDbVertex
100
AcDb2dVertex
 10
152.1598768065781
 20
25.19501681227764
 30
0.0
  0
VERTEX
  5
374
330
35C
100
AcDbEntity
  8
レイヤー 1
 62
     7
370
     9
100
AcDbVertex
100
AcDb2dVertex
 10
152.8161674965182
 20
25.29389105270431
 30
0.0
  0
VERTEX
  5
375
330
35C
100
AcDbEntity
  8
レイヤー 1
 62
     7
370
     9
100
AcDbVertex
100
AcDb2dVertex
 10
153.4331840979264
 20
25.4082682228146
 30
0.0
  0
VERTEX
  5
376
330
35C
100
AcDbEntity
  8
レイヤー 1
 62
     7
370
     9
100
AcDbVertex
100
AcDb2dVertex
 10
154.006447986672
 20
25.53677028441442
 30
0.0
  0
VERTEX
  5
377
330
35C
100
AcDbEntity
  8
レイヤー 1
 62
     7
370
     9
100
AcDbVertex
100
AcDb2dVertex
 10
154.5304470099785
 20
25.67939723750376
 30
0.0
  0
VERTEX
  5
378
330
35C
100
AcDbEntity
  8
レイヤー 1
 62
     7
370
     9
100
AcDbVertex
100
AcDb2dVertex
 10
155.0007025437151
 20
25.83339300569443
 30
0.0
  0
VERTEX
  5
379
330
35C
100
AcDbEntity
  8
レイヤー 1
 62
     7
370
     9
100
AcDbVertex
100
AcDb2dVertex
 10
155.4130804732995
 20
25.9984130794379
 30
0.0
  0
VERTEX
  5
37A
330
35C
100
AcDbEntity
  8
レイヤー 1
 62
     7
370
     9
100
AcDbVertex
100
AcDb2dVertex
 10
155.763791193698
 20
26.17273491099154
 30
0.0
  0
VERTEX
  5
37B
330
35C
100
AcDbEntity
  8
レイヤー 1
 62
     7
370
     9
100
AcDbVertex
100
AcDb2dVertex
 10
156.0500786285222
 20
26.35429144306421
 30
0.0
  0
VERTEX
  5
37C
330
35C
100
AcDbEntity
  8
レイヤー 1
 62
     7
370
     9
100
AcDbVertex
100
AcDb2dVertex
 10
156.2695312109326
 20
26.54239365655885
 30
0.0
  0
VERTEX
  5
37D
330
35C
100
AcDbEntity
  8
レイヤー 1
 62
     7
370
     9
100
AcDbVertex
100
AcDb2dVertex
 10
156.4197373740895
 20
26.73531900373284
 30
0.0
  0
VERTEX
  5
37E
330
35C
100
AcDbEntity
  8
レイヤー 1
 62
     7
370
     9
100
AcDbVertex
100
AcDb2dVertex
 10
156.4996635893473
 20
26.93031140819798
 30
0.0
  0
VERTEX
  5
37F
330
35C
100
AcDbEntity
  8
レイヤー 1
 62
     7
370
     9
100
AcDbVertex
100
AcDb2dVertex
 10
156.5134439712883
 20
27.0533013170214
 30
0.0
  0
SEQEND
  5
380
330
35C
100
AcDbEntity
  8
レイヤー 1
370
     9
  0
ENDBLK
  5
35B
330
358
100
AcDbEntity
  8
0
100
AcDbBlockEnd
  0
BLOCK
  5
383
330
381
100
AcDbEntity
  8
0
100
AcDbBlockBegin
  2
block 65
 70
     0
 10
0.0
 20
0.0
 30
0.0
  3
block 65
  1

  0
SPLINE
  5
385
330
381
100
AcDbEntity
  8
レイヤー 1
 62
     7
370
     9
100
AcDbSpline
210
0.0
220
0.0
230
1.0
 70
     8
 71
     3
 72
    74
 73
    70
 74
     0
 42
0.000000001
 43
0.0000000001
 40
0.0
 40
0.0
 40
0.0
 40
0.0
 40
1.0
 40
1.0
 40
1.0
 40
2.0
 40
2.0
 40
2.0
 40
3.0
 40
3.0
 40
3.0
 40
4.0
 40
4.0
 40
4.0
 40
5.0
 40
5.0
 40
5.0
 40
6.0
 40
6.0
 40
6.0
 40
7.0
 40
7.0
 40
7.0
 40
8.0
 40
8.0
 40
8.0
 40
9.0
 40
9.0
 40
9.0
 40
10.0
 40
10.0
 40
10.0
 40
11.0
 40
11.0
 40
11.0
 40
12.0
 40
12.0
 40
12.0
 40
13.0
 40
13.0
 40
13.0
 40
14.0
 40
14.0
 40
14.0
 40
15.0
 40
15.0
 40
15.0
 40
16.0
 40
16.0
 40
16.0
 40
17.0
 40
17.0
 40
17.0
 40
18.0
 40
18.0
 40
18.0
 40
19.0
 40
19.0
 40
19.0
 40
20.0
 40
20.0
 40
20.0
 40
21.0
 40
21.0
 40
21.0
 40
22.0
 40
22.0
 40
22.0
 40
23.0
 40
23.0
 40
23.0
 40
23.0
 10
151.5769666504738
 20
48.58755966667255
 30
0.0
 10
151.5769666504738
 20
48.7811740329436
 30
0.0
 10
151.5969482042883
 20
48.97547741831169
 30
0.0
 10
151.6358777832716
 20
49.1701253132283
 30
0.0
 10
151.655170317989
 20
49.26762151546087
 30
0.0
 10
151.6796304959343
 20
49.36477320814492
 30
0.0
 10
151.7082247884618
 20
49.46020235308634
 30
0.0
 10
151.7364745714409
 20
49.55563149802776
 30
0.0
 10
151.7695474880993
 20
49.65002711432361
 30
0.0
 10
151.80675451934
 20
49.74270018287682
 30
0.0
 10
151.8429280219351
 20
49.83502874188152
 30
0.0
 10
151.8842691677581
 20
49.92666828178917
 30
0.0
 10
151.9287108995178
 20
50.01692978350271
 30
0.0
 10
151.9738416503746
 20
50.10719128521626
 30
0.0
 10
152.0231065158137
 20
50.1960747487357
 30
0.0
 10
152.0744384385439
 20
50.28220213586695
 30
0.0
 10
152.1784803221985
 20
50.45445691012944
 30
0.0
 10
152.2935465114058
 20
50.61637639793619
 30
0.0
 10
152.4192924966174
 20
50.77002765657833
 30
0.0
 10
152.4823377439975
 20
50.84616426680235
 30
0.0
 10
152.5477945582172
 20
50.92057832928375
 30
0.0
 10
152.6156629392767
 20
50.99223631537694
 30
0.0
 10
152.682842301239
 20
51.06354979192162
 30
0.0
 10
152.7520887204925
 20
51.13176268252956
 30
0.0
 10
152.8216796492946
 20
51.19653047765226
 30
0.0
 10
152.9622395450928
 20
51.3253770488006
 30
0.0
 10
153.1072780650218
 20
51.44182127620205
 30
0.0
 10
153.2571397186302
 20
51.54482963121102
 30
0.0
 10
153.3315537811116
 20
51.59616155394124
 30
0.0
 10
153.4076903913356
 20
51.64473740028326
 30
0.0
 10
153.4824489633655
 20
51.68814560339741
 30
0.0
 10
153.5572075353954
 20
51.73155380651156
 30
0.0
 10
153.6312770883283
 20
51.77117240459193
 30
0.0
 10
153.7053466412612
 20
51.80631237854148
 30
0.0
 10
153.8531412375784
 20
51.8769368359891
 30
0.0
 10
153.999213286153
 20
51.93171385420457
 30
0.0
 10
154.1421847487908
 20
51.96857637589675
 30
0.0
 10
154.2861897400743
 20
52.00543889758892
 30
0.0
 10
154.4208929735476
 20
52.02369790366075
 30
0.0
 10
154.5493950351474
 20
52.02438692275779
 30
0.0
 10
154.6131293016245
 20
52.02473143230632
 30
0.0
 10
154.675141020359
 20
52.02059731772402
 30
0.0
 10
154.7354301913509
 20
52.01129555991385
 30
0.0
 10
154.7957193623427
 20
52.00268282120072
 30
0.0
 10
154.854285985592
 20
51.98924694880824
 30
0.0
 10
154.909407513356
 20
51.97167696183347
 30
0.0
 10
155.020339587981
 20
51.93584796878687
 30
0.0
 10
155.1209363761503
 20
51.88313800786255
 30
0.0
 10
155.2118868969609
 20
51.81320256951198
 30
0.0
 10
155.2580511764633
 20
51.77806259556243
 30
0.0
 10
155.3018038891259
 20
51.73844399748206
 30
0.0
 10
155.3417669967548
 20
51.69503579436791
 30
0.0
 10
155.3827636330293
 20
51.65162759125376
 30
0.0
 10
155.4206596833671
 20
51.60477429265436
 30
0.0
 10
155.4564886764137
 20
51.55378687947267
 30
0.0
 10
155.5274576434098
 20
51.45146754356075
 30
0.0
 10
155.5887803430473
 20
51.3350233161593
 30
0.0
 10
155.6414903039716
 20
51.20238713997718
 30
0.0
 10
155.6938557553474
 20
51.06940645424654
 30
0.0
 10
155.7362304298159
 20
50.92436793431752
 30
0.0
 10
155.7699923655714
 20
50.76727158019013
 30
0.0
 10
155.7868733334491
 20
50.68872340312643
 30
0.0
 10
155.8016872440357
 20
50.60741914967453
 30
0.0
 10
155.8147786068797
 20
50.52232529118886
 30
0.0
 10
155.8275254601751
 20
50.43723143270319
 30
0.0
 10
155.8378607466308
 20
50.34834796918375
 30
0.0
 10
155.8464734853439
 20
50.25877548656725
 30
0.0
 10
155.8630099436731
 20
50.07928601178573
 30
0.0
 10
155.8712781728377
 20
49.89256183648519
 30
0.0
 10
155.8712781728377
 20
49.69894747021416
 30
0.0
  0
ENDBLK
  5
384
330
381
100
AcDbEntity
  8
0
100
AcDbBlockEnd
  0
BLOCK
  5
388
330
386
100
AcDbEntity
  8
0
100
AcDbBlockBegin
  2
block 66
 70
     0
 10
0.0
 20
0.0
 30
0.0
  3
block 66
  1

  0
POLYLINE
  5
38A
330
386
100
AcDbEntity
  8
レイヤー 1
 62
     7
370
     9
100
AcDb2dPolyline
 66
     1
 10
0.0
 20
0.0
 30
0.0
  0
VERTEX
  5
38B
330
38A
100
AcDbEntity
  8
レイヤー 1
 62
     7
370
     9
100
AcDbVertex
100
AcDb2dVertex
 10
151.5769666504738
 20
40.76650389605837
 30
0.0
  0
VERTEX
  5
38C
330
38A
100
AcDbEntity
  8
レイヤー 1
 62
     7
370
     9
100
AcDbVertex
100
AcDb2dVertex
 10
151.5769666504738
 20
48.58755966667255
 30
0.0
  0
SEQEND
  5
38D
330
38A
100
AcDbEntity
  8
レイヤー 1
370
     9
  0
ENDBLK
  5
389
330
386
100
AcDbEntity
  8
0
100
AcDbBlockEnd
  0
BLOCK
  5
390
330
38E
100
AcDbEntity
  8
0
100
AcDbBlockBegin
  2
block 67
 70
     0
 10
0.0
 20
0.0
 30
0.0
  3
block 67
  1

  0
SPLINE
  5
392
330
38E
100
AcDbEntity
  8
レイヤー 1
 62
     7
370
     9
100
AcDbSpline
210
0.0
220
0.0
230
1.0
 70
     8
 71
     3
 72
    77
 73
    73
 74
     0
 42
0.000000001
 43
0.0000000001
 40
0.0
 40
0.0
 40
0.0
 40
0.0
 40
1.0
 40
1.0
 40
1.0
 40
2.0
 40
2.0
 40
2.0
 40
3.0
 40
3.0
 40
3.0
 40
4.0
 40
4.0
 40
4.0
 40
5.0
 40
5.0
 40
5.0
 40
6.0
 40
6.0
 40
6.0
 40
7.0
 40
7.0
 40
7.0
 40
8.0
 40
8.0
 40
8.0
 40
9.0
 40
9.0
 40
9.0
 40
10.0
 40
10.0
 40
10.0
 40
11.0
 40
11.0
 40
11.0
 40
12.0
 40
12.0
 40
12.0
 40
13.0
 40
13.0
 40
13.0
 40
14.0
 40
14.0
 40
14.0
 40
15.0
 40
15.0
 40
15.0
 40
16.0
 40
16.0
 40
16.0
 40
17.0
 40
17.0
 40
17.0
 40
18.0
 40
18.0
 40
18.0
 40
19.0
 40
19.0
 40
19.0
 40
20.0
 40
20.0
 40
20.0
 40
21.0
 40
21.0
 40
21.0
 40
22.0
 40
22.0
 40
22.0
 40
23.0
 40
23.0
 40
23.0
 40
24.0
 40
24.0
 40
24.0
 40
24.0
 10
155.8712781728377
 20
41.87754719005145
 30
0.0
 10
155.8712781728377
 20
41.78142902601298
 30
0.0
 10
155.8692111155466
 20
41.68255478558631
 30
0.0
 10
155.8650770009643
 20
41.58299152606259
 30
0.0
 10
155.860942886382
 20
41.48342826653887
 30
0.0
 10
155.8547417145085
 20
41.38386500701515
 30
0.0
 10
155.8461289757954
 20
41.28430174749143
 30
0.0
 10
155.8292480079177
 20
41.08551973799251
 30
0.0
 10
155.8040988108754
 20
40.88673772849359
 30
0.0
 10
155.7696478560229
 20
40.68933375718878
 30
0.0
 10
155.7351969011704
 20
40.49089625723839
 30
0.0
 10
155.6924777171533
 20
40.29969345780702
 30
0.0
 10
155.640456775326
 20
40.11538084934616
 30
0.0
 10
155.6142740496381
 20
40.02305229034146
 30
0.0
 10
155.5860242666591
 20
39.93244627907939
 30
0.0
 10
155.5546738977433
 20
39.84321830601142
 30
0.0
 10
155.5240125479246
 20
39.7546793520405
 30
0.0
 10
155.4902506121691
 20
39.6678629458122
 30
0.0
 10
155.454766128671
 20
39.58449163506916
 30
0.0
 10
155.3834526521264
 20
39.41740450403454
 30
0.0
 10
155.3028374177715
 20
39.26306422629535
 30
0.0
 10
155.2115423874124
 20
39.12009276365748
 30
0.0
 10
155.1660671270071
 20
39.04877928711281
 30
0.0
 10
155.1178357902136
 20
38.98056639650486
 30
0.0
 10
155.0661593579349
 20
38.91579860138216
 30
0.0
 10
155.0155164543017
 20
38.85137531580799
 30
0.0
 10
154.9628064933774
 20
38.79143065436465
 30
0.0
 10
154.9080294751619
 20
38.73527559795507
 30
0.0
 10
154.7974419100854
 20
38.62365450423297
 30
0.0
 10
154.6782416062957
 20
38.52891437838861
 30
0.0
 10
154.5493950351474
 20
38.45174423951901
 30
0.0
 10
154.4846272400247
 20
38.41350367963274
 30
0.0
 10
154.4174478780623
 20
38.37939723432876
 30
0.0
 10
154.3499240065514
 20
38.35114745134972
 30
0.0
 10
154.2817111159435
 20
38.32255315882214
 30
0.0
 10
154.213153715787
 20
38.29947101907096
 30
0.0
 10
154.1421847487908
 20
38.28121201299914
 30
0.0
 10
154.0719048008918
 20
38.26295300692732
 30
0.0
 10
153.99990230525
 20
38.24951713453485
 30
0.0
 10
153.9268662809627
 20
38.24159341491877
 30
0.0
 10
153.8531412375784
 20
38.23332518575417
 30
0.0
 10
153.778727175097
 20
38.23056910936597
 30
0.0
 10
153.7036240935186
 20
38.23298067620564
 30
0.0
 10
153.5541069494587
 20
38.23814831943352
 30
0.0
 10
153.4049343149474
 20
38.26364202602437
 30
0.0
 10
153.2561061899846
 20
38.30842826733262
 30
0.0
 10
153.1820366370517
 20
38.33116589753526
 30
0.0
 10
153.1072780650218
 20
38.35872666141726
 30
0.0
 10
153.033897531186
 20
38.39111055897861
 30
0.0
 10
152.9608615068987
 20
38.42349445653996
 30
0.0
 10
152.8892035208055
 20
38.46035697823213
 30
0.0
 10
152.8189235729064
 20
38.50169812405513
 30
0.0
 10
152.6783636771082
 20
38.58403590615261
 30
0.0
 10
152.544349462732
 20
38.68394367522485
 30
0.0
 10
152.4179144584233
 20
38.80073241217482
 30
0.0
 10
152.2911349445661
 20
38.91786565867331
 30
0.0
 10
152.1760687553588
 20
39.04912379666133
 30
0.0
 10
152.0734049098983
 20
39.1934732974933
 30
0.0
 10
152.0224174967166
 20
39.2651312835865
 30
0.0
 10
151.9738416503746
 20
39.34057887471347
 30
0.0
 10
151.9290554090664
 20
39.41981607087421
 30
0.0
 10
151.8842691677581
 20
39.49836424793791
 30
0.0
 10
151.8429280219351
 20
39.58104653958391
 30
0.0
 10
151.8060655002429
 20
39.665106869424
 30
0.0
 10
151.7316514377615
 20
39.83357203865272
 30
0.0
 10
151.6748073622549
 20
40.01030543704604
 30
0.0
 10
151.6362222928201
 20
40.1946180455069
 30
0.0
 10
151.6165852485542
 20
40.2869466045116
 30
0.0
 10
151.6017713379676
 20
40.38099771125892
 30
0.0
 10
151.5917805610604
 20
40.47711587529739
 30
0.0
 10
151.5821342937017
 20
40.57323403933586
 30
0.0
 10
151.5769666504738
 20
40.67004122247138
 30
0.0
 10
151.5769666504738
 20
40.76650389605837
 30
0.0
  0
ENDBLK
  5
391
330
38E
100
AcDbEntity
  8
0
100
AcDbBlockEnd
  0
BLOCK
  5
395
330
393
100
AcDbEntity
  8
0
100
AcDbBlockBegin
  2
block 68
 70
     0
 10
0.0
 20
0.0
 30
0.0
  3
block 68
  1

  0
POLYLINE
  5
397
330
393
100
AcDbEntity
  8
レイヤー 1
 62
     7
370
     9
100
AcDb2dPolyline
 66
     1
 10
0.0
 20
0.0
 30
0.0
  0
VERTEX
  5
398
330
397
100
AcDbEntity
  8
レイヤー 1
 62
     7
370
     9
100
AcDbVertex
100
AcDb2dVertex
 10
155.8712781728377
 20
49.69894747021416
 30
0.0
  0
VERTEX
  5
399
330
397
100
AcDbEntity
  8
レイヤー 1
 62
     7
370
     9
100
AcDbVertex
100
AcDb2dVertex
 10
155.8712781728377
 20
41.87754719005145
 30
0.0
  0
SEQEND
  5
39A
330
397
100
AcDbEntity
  8
レイヤー 1
370
     9
  0
ENDBLK
  5
396
330
393
100
AcDbEntity
  8
0
100
AcDbBlockEnd
  0
BLOCK
  5
39D
330
39B
100
AcDbEntity
  8
0
100
AcDbBlockBegin
  2
block 69
 70
     0
 10
0.0
 20
0.0
 30
0.0
  3
block 69
  1

  0
POLYLINE
  5
39F
330
39B
100
AcDbEntity
  8
レイヤー 1
 62
     7
370
     9
100
AcDb2dPolyline
 66
     1
 10
0.0
 20
0.0
 30
0.0
  0
VERTEX
  5
3A0
330
39F
100
AcDbEntity
  8
レイヤー 1
 62
     7
370
     9
100
AcDbVertex
100
AcDb2dVertex
 10
154.1418402392423
 20
29.97095268347949
 30
0.0
  0
VERTEX
  5
3A1
330
39F
100
AcDbEntity
  8
レイヤー 1
 62
     7
370
     9
100
AcDbVertex
100
AcDb2dVertex
 10
154.2465711419939
 20
29.99127874684246
 30
0.0
  0
VERTEX
  5
3A2
330
39F
100
AcDbEntity
  8
レイヤー 1
 62
     7
370
     9
100
AcDbVertex
100
AcDb2dVertex
 10
154.3478569492603
 20
29.99747991871591
 30
0.0
  0
VERTEX
  5
3A3
330
39F
100
AcDbEntity
  8
レイヤー 1
 62
     7
370
     9
100
AcDbVertex
100
AcDb2dVertex
 10
154.4456976610414
 20
29.99058972774541
 30
0.0
  0
VERTEX
  5
3A4
330
39F
100
AcDbEntity
  8
レイヤー 1
 62
     7
370
     9
100
AcDbVertex
100
AcDb2dVertex
 10
154.5387152391431
 20
29.96888562618834
 30
0.0
  0
VERTEX
  5
3A5
330
39F
100
AcDbEntity
  8
レイヤー 1
 62
     7
370
     9
100
AcDbVertex
100
AcDb2dVertex
 10
154.6262206644685
 20
29.93409016178731
 30
0.0
  0
VERTEX
  5
3A6
330
39F
100
AcDbEntity
  8
レイヤー 1
 62
     7
370
     9
100
AcDbVertex
100
AcDb2dVertex
 10
154.7071804083718
 20
29.88620333454234
 30
0.0
  0
VERTEX
  5
3A7
330
39F
100
AcDbEntity
  8
レイヤー 1
 62
     7
370
     9
100
AcDbVertex
100
AcDb2dVertex
 10
154.7829725090473
 20
29.82453612535637
 30
0.0
  0
VERTEX
  5
3A8
330
39F
100
AcDbEntity
  8
レイヤー 1
 62
     7
370
     9
100
AcDbVertex
100
AcDb2dVertex
 10
154.8508408901068
 20
29.75081108197202
 30
0.0
  0
VERTEX
  5
3A9
330
39F
100
AcDbEntity
  8
レイヤー 1
 62
     7
370
     9
100
AcDbVertex
100
AcDb2dVertex
 10
154.9114745706471
 20
29.66571722348635
 30
0.0
  0
VERTEX
  5
3AA
330
39F
100
AcDbEntity
  8
レイヤー 1
 62
     7
370
     9
100
AcDbVertex
100
AcDb2dVertex
 10
154.9641845315714
 20
29.56891004035083
 30
0.0
  0
VERTEX
  5
3AB
330
39F
100
AcDbEntity
  8
レイヤー 1
 62
     7
370
     9
100
AcDbVertex
100
AcDb2dVertex
 10
155.0100043015253
 20
29.46107855166251
 30
0.0
  0
VERTEX
  5
3AC
330
39F
100
AcDbEntity
  8
レイヤー 1
 62
     7
370
     9
100
AcDbVertex
100
AcDb2dVertex
 10
155.0468668232175
 20
29.34566785290664
 30
0.0
  0
VERTEX
  5
3AD
330
39F
100
AcDbEntity
  8
レイヤー 1
 62
     7
370
     9
100
AcDbVertex
100
AcDb2dVertex
 10
155.0764946443906
 20
29.22129990588912
 30
0.0
  0
VERTEX
  5
3AE
330
39F
100
AcDbEntity
  8
レイヤー 1
 62
     7
370
     9
100
AcDbVertex
100
AcDb2dVertex
 10
155.0971652173021
 20
29.088663729707
 30
0.0
  0
VERTEX
  5
3AF
330
39F
100
AcDbEntity
  8
レイヤー 1
 62
     7
370
     9
100
AcDbVertex
100
AcDb2dVertex
 10
155.1099120705975
 20
28.95120441984553
 30
0.0
  0
VERTEX
  5
3B0
330
39F
100
AcDbEntity
  8
レイヤー 1
 62
     7
370
     9
100
AcDbVertex
100
AcDb2dVertex
 10
155.1140461851798
 20
28.80926648585324
 30
0.0
  0
VERTEX
  5
3B1
330
39F
100
AcDbEntity
  8
レイヤー 1
 62
     7
370
     9
100
AcDbVertex
100
AcDb2dVertex
 10
155.1099120705975
 20
28.66319443727865
 30
0.0
  0
VERTEX
  5
3B2
330
39F
100
AcDbEntity
  8
レイヤー 1
 62
     7
370
     9
100
AcDbVertex
100
AcDb2dVertex
 10
155.0971652173021
 20
28.51574435050996
 30
0.0
  0
VERTEX
  5
3B3
330
39F
100
AcDbEntity
  8
レイヤー 1
 62
     7
370
     9
100
AcDbVertex
100
AcDb2dVertex
 10
155.0768391539391
 20
28.36829426374126
 30
0.0
  0
VERTEX
  5
3B4
330
39F
100
AcDbEntity
  8
レイヤー 1
 62
     7
370
     9
100
AcDbVertex
100
AcDb2dVertex
 10
155.047211332766
 20
28.22222221516667
 30
0.0
  0
VERTEX
  5
3B5
330
39F
100
AcDbEntity
  8
レイヤー 1
 62
     7
370
     9
100
AcDbVertex
100
AcDb2dVertex
 10
155.0100043015253
 20
28.0778727143347
 30
0.0
  0
VERTEX
  5
3B6
330
39F
100
AcDbEntity
  8
レイヤー 1
 62
     7
370
     9
100
AcDbVertex
100
AcDb2dVertex
 10
154.96452904112
 20
27.93834634718208
 30
0.0
  0
VERTEX
  5
3B7
330
39F
100
AcDbEntity
  8
レイヤー 1
 62
     7
370
     9
100
AcDbVertex
100
AcDb2dVertex
 10
154.9118190801957
 20
27.80502115190291
 30
0.0
  0
VERTEX
  5
3B8
330
39F
100
AcDbEntity
  8
レイヤー 1
 62
     7
370
     9
100
AcDbVertex
100
AcDb2dVertex
 10
154.8508408901068
 20
27.67755261894867
 30
0.0
  0
VERTEX
  5
3B9
330
39F
100
AcDbEntity
  8
レイヤー 1
 62
     7
370
     9
100
AcDbVertex
100
AcDb2dVertex
 10
154.7829725090473
 20
27.5580078056105
 30
0.0
  0
VERTEX
  5
3BA
330
39F
100
AcDbEntity
  8
レイヤー 1
 62
     7
370
     9
100
AcDbVertex
100
AcDb2dVertex
 10
154.7082139370174
 20
27.44810925963103
 30
0.0
  0
VERTEX
  5
3BB
330
39F
100
AcDbEntity
  8
レイヤー 1
 62
     7
370
     9
100
AcDbVertex
100
AcDb2dVertex
 10
154.6269096835655
 20
27.34889050965583
 30
0.0
  0
VERTEX
  5
3BC
330
39F
100
AcDbEntity
  8
レイヤー 1
 62
     7
370
     9
100
AcDbVertex
100
AcDb2dVertex
 10
154.5387152391431
 20
27.26000704613639
 30
0.0
  0
VERTEX
  5
3BD
330
39F
100
AcDbEntity
  8
レイヤー 1
 62
     7
370
     9
100
AcDbVertex
100
AcDb2dVertex
 10
154.4460421705899
 20
27.18421494546089
 30
0.0
  0
VERTEX
  5
3BE
330
39F
100
AcDbEntity
  8
レイヤー 1
 62
     7
370
     9
100
AcDbVertex
100
AcDb2dVertex
 10
154.3492349874544
 20
27.12220322672639
 30
0.0
  0
VERTEX
  5
3BF
330
39F
100
AcDbEntity
  8
レイヤー 1
 62
     7
370
     9
100
AcDbVertex
100
AcDb2dVertex
 10
154.2465711419939
 20
27.0725938517388
 30
0.0
  0
VERTEX
  5
3C0
330
39F
100
AcDbEntity
  8
レイヤー 1
 62
     7
370
     9
100
AcDbVertex
100
AcDb2dVertex
 10
154.1421847487908
 20
27.03779838733777
 30
0.0
  0
VERTEX
  5
3C1
330
39F
100
AcDbEntity
  8
レイヤー 1
 62
     7
370
     9
100
AcDbVertex
100
AcDb2dVertex
 10
154.0364203173937
 20
27.01816134307185
 30
0.0
  0
VERTEX
  5
3C2
330
39F
100
AcDbEntity
  8
レイヤー 1
 62
     7
370
     9
100
AcDbVertex
100
AcDb2dVertex
 10
153.9289333382539
 20
27.01264919029545
 30
0.0
  0
VERTEX
  5
3C3
330
39F
100
AcDbEntity
  8
レイヤー 1
 62
     7
370
     9
100
AcDbVertex
100
AcDb2dVertex
 10
153.8221353782111
 20
27.02229545765415
 30
0.0
  0
VERTEX
  5
3C4
330
39F
100
AcDbEntity
  8
レイヤー 1
 62
     7
370
     9
100
AcDbVertex
100
AcDb2dVertex
 10
153.716370946814
 20
27.04710014514795
 30
0.0
  0
VERTEX
  5
3C5
330
39F
100
AcDbEntity
  8
レイヤー 1
 62
     7
370
     9
100
AcDbVertex
100
AcDb2dVertex
 10
153.614051610902
 20
27.08568521458275
 30
0.0
  0
VERTEX
  5
3C6
330
39F
100
AcDbEntity
  8
レイヤー 1
 62
     7
370
     9
100
AcDbVertex
100
AcDb2dVertex
 10
153.5144883513783
 20
27.13873968505559
 30
0.0
  0
VERTEX
  5
3C7
330
39F
100
AcDbEntity
  8
レイヤー 1
 62
     7
370
     9
100
AcDbVertex
100
AcDb2dVertex
 10
153.4207817541795
 20
27.20488551837239
 30
0.0
  0
VERTEX
  5
3C8
330
39F
100
AcDbEntity
  8
レイヤー 1
 62
     7
370
     9
100
AcDbVertex
100
AcDb2dVertex
 10
153.3332763288542
 20
27.28308918588756
 30
0.0
  0
VERTEX
  5
3C9
330
39F
100
AcDbEntity
  8
レイヤー 1
 62
     7
370
     9
100
AcDbVertex
100
AcDb2dVertex
 10
153.2526610944993
 20
27.37438421624668
 30
0.0
  0
VERTEX
  5
3CA
330
39F
100
AcDbEntity
  8
レイヤー 1
 62
     7
370
     9
100
AcDbVertex
100
AcDb2dVertex
 10
153.1799695797606
 20
27.47567002351303
 30
0.0
  0
VERTEX
  5
3CB
330
39F
100
AcDbEntity
  8
レイヤー 1
 62
     7
370
     9
100
AcDbVertex
100
AcDb2dVertex
 10
153.1176133514776
 20
27.5869466076866
 30
0.0
  0
VERTEX
  5
3CC
330
39F
100
AcDbEntity
  8
レイヤー 1
 62
     7
370
     9
100
AcDbVertex
100
AcDb2dVertex
 10
153.0642143714562
 20
27.70718044012182
 30
0.0
  0
VERTEX
  5
3CD
330
39F
100
AcDbEntity
  8
レイヤー 1
 62
     7
370
     9
100
AcDbVertex
100
AcDb2dVertex
 10
153.0221842065361
 20
27.83533799217311
 30
0.0
  0
VERTEX
  5
3CE
330
39F
100
AcDbEntity
  8
レイヤー 1
 62
     7
370
     9
100
AcDbVertex
100
AcDb2dVertex
 10
152.9918673662659
 20
27.96969671609785
 30
0.0
  0
VERTEX
  5
3CF
330
39F
100
AcDbEntity
  8
レイヤー 1
 62
     7
370
     9
100
AcDbVertex
100
AcDb2dVertex
 10
152.9732638506456
 20
28.1081895546049
 30
0.0
  0
VERTEX
  5
3D0
330
39F
100
AcDbEntity
  8
レイヤー 1
 62
     7
370
     9
100
AcDbVertex
100
AcDb2dVertex
 10
152.9670626787721
 20
28.25116101724277
 30
0.0
  0
VERTEX
  5
3D1
330
39F
100
AcDbEntity
  8
レイヤー 1
 62
     7
370
     9
100
AcDbVertex
100
AcDb2dVertex
 10
152.9729193410971
 20
28.39688855626883
 30
0.0
  0
VERTEX
  5
3D2
330
39F
100
AcDbEntity
  8
レイヤー 1
 62
     7
370
     9
100
AcDbVertex
100
AcDb2dVertex
 10
152.9915228567174
 20
28.54227158574638
 30
0.0
  0
VERTEX
  5
3D3
330
39F
100
AcDbEntity
  8
レイヤー 1
 62
     7
370
     9
100
AcDbVertex
100
AcDb2dVertex
 10
153.0214951874391
 20
28.6873101056754
 30
0.0
  0
VERTEX
  5
3D4
330
39F
100
AcDbEntity
  8
レイヤー 1
 62
     7
370
     9
100
AcDbVertex
100
AcDb2dVertex
 10
153.0638698619076
 20
28.83131509695884
 30
0.0
  0
VERTEX
  5
3D5
330
39F
100
AcDbEntity
  8
レイヤー 1
 62
     7
370
     9
100
AcDbVertex
100
AcDb2dVertex
 10
153.1162353132835
 20
28.97049695456293
 30
0.0
  0
VERTEX
  5
3D6
330
39F
100
AcDbEntity
  8
レイヤー 1
 62
     7
370
     9
100
AcDbVertex
100
AcDb2dVertex
 10
153.178936051115
 20
29.1052001880362
 30
0.0
  0
VERTEX
  5
3D7
330
39F
100
AcDbEntity
  8
レイヤー 1
 62
     7
370
     9
100
AcDbVertex
100
AcDb2dVertex
 10
153.2512830563053
 20
29.2347357782816
 30
0.0
  0
VERTEX
  5
3D8
330
39F
100
AcDbEntity
  8
レイヤー 1
 62
     7
370
     9
100
AcDbVertex
100
AcDb2dVertex
 10
153.3315537811116
 20
29.35738117755649
 30
0.0
  0
VERTEX
  5
3D9
330
39F
100
AcDbEntity
  8
レイヤー 1
 62
     7
370
     9
100
AcDbVertex
100
AcDb2dVertex
 10
153.4194037159854
 20
29.47038030947268
 30
0.0
  0
VERTEX
  5
3DA
330
39F
100
AcDbEntity
  8
レイヤー 1
 62
     7
370
     9
100
AcDbVertex
100
AcDb2dVertex
 10
153.5131103131842
 20
29.57614474086985
 30
0.0
  0
VERTEX
  5
3DB
330
39F
100
AcDbEntity
  8
レイヤー 1
 62
     7
370
     9
100
AcDbVertex
100
AcDb2dVertex
 10
153.6119845536109
 20
29.67157388581127
 30
0.0
  0
VERTEX
  5
3DC
330
39F
100
AcDbEntity
  8
レイヤー 1
 62
     7
370
     9
100
AcDbVertex
100
AcDb2dVertex
 10
153.7149929086199
 20
29.75528970610285
 30
0.0
  0
VERTEX
  5
3DD
330
39F
100
AcDbEntity
  8
レイヤー 1
 62
     7
370
     9
100
AcDbVertex
100
AcDb2dVertex
 10
153.82006832092
 20
29.82798122084162
 30
0.0
  0
VERTEX
  5
3DE
330
39F
100
AcDbEntity
  8
レイヤー 1
 62
     7
370
     9
100
AcDbVertex
100
AcDb2dVertex
 10
153.9275553000598
 20
29.88861490138201
 30
0.0
  0
VERTEX
  5
3DF
330
39F
100
AcDbEntity
  8
レイヤー 1
 62
     7
370
     9
100
AcDbVertex
100
AcDb2dVertex
 10
154.0353867887481
 20
29.93650172862699
 30
0.0
  0
VERTEX
  5
3E0
330
39F
100
AcDbEntity
  8
レイヤー 1
 62
     7
370
     9
100
AcDbVertex
100
AcDb2dVertex
 10
154.1418402392423
 20
29.97095268347949
 30
0.0
  0
SEQEND
  5
3E1
330
39F
100
AcDbEntity
  8
レイヤー 1
370
     9
  0
ENDBLK
  5
39E
330
39B
100
AcDbEntity
  8
0
100
AcDbBlockEnd
  0
BLOCK
  5
3E4
330
3E2
100
AcDbEntity
  8
0
100
AcDbBlockBegin
  2
block 70
 70
     0
 10
0.0
 20
0.0
 30
0.0
  3
block 70
  1

  0
POLYLINE
  5
3E6
330
3E2
100
AcDbEntity
  8
レイヤー 1
 62
     7
370
     9
100
AcDb2dPolyline
 66
     1
 10
0.0
 20
0.0
 30
0.0
  0
VERTEX
  5
3E7
330
3E6
100
AcDbEntity
  8
レイヤー 1
 62
     7
370
     9
100
AcDbVertex
100
AcDb2dVertex
 10
154.1418402392423
 20
94.98576115246884
 30
0.0
  0
VERTEX
  5
3E8
330
3E6
100
AcDbEntity
  8
レイヤー 1
 62
     7
370
     9
100
AcDbVertex
100
AcDb2dVertex
 10
154.2117756775929
 20
94.99954153440984
 30
0.0
  0
VERTEX
  5
3E9
330
3E6
100
AcDbEntity
  8
レイヤー 1
 62
     7
370
     9
100
AcDbVertex
100
AcDb2dVertex
 10
154.2799885682008
 20
95.00333113944362
 30
0.0
  0
VERTEX
  5
3EA
330
3E6
100
AcDbEntity
  8
レイヤー 1
 62
     7
370
     9
100
AcDbVertex
100
AcDb2dVertex
 10
154.3461344015176
 20
94.99850800576426
 30
0.0
  0
VERTEX
  5
3EB
330
3E6
100
AcDbEntity
  8
レイヤー 1
 62
     7
370
     9
100
AcDbVertex
100
AcDb2dVertex
 10
154.4098686679948
 20
94.9836940951777
 30
0.0
  0
VERTEX
  5
3EC
330
3E6
100
AcDbEntity
  8
レイヤー 1
 62
     7
370
     9
100
AcDbVertex
100
AcDb2dVertex
 10
154.4698133294381
 20
94.95992293632946
 30
0.0
  0
VERTEX
  5
3ED
330
3E6
100
AcDbEntity
  8
レイヤー 1
 62
     7
370
     9
100
AcDbVertex
100
AcDb2dVertex
 10
154.5256238762992
 20
94.92719452921959
 30
0.0
  0
VERTEX
  5
3EE
330
3E6
100
AcDbEntity
  8
レイヤー 1
 62
     7
370
     9
100
AcDbVertex
100
AcDb2dVertex
 10
154.5779893276749
 20
94.8858533833966
 30
0.0
  0
VERTEX
  5
3EF
330
3E6
100
AcDbEntity
  8
レイヤー 1
 62
     7
370
     9
100
AcDbVertex
100
AcDb2dVertex
 10
154.6258761549199
 20
94.83589949886047
 30
0.0
  0
VERTEX
  5
3F0
330
3E6
100
AcDbEntity
  8
レイヤー 1
 62
     7
370
     9
100
AcDbVertex
100
AcDb2dVertex
 10
154.6682508293885
 20
94.77871091380533
 30
0.0
  0
VERTEX
  5
3F1
330
3E6
100
AcDbEntity
  8
レイヤー 1
 62
     7
370
     9
100
AcDbVertex
100
AcDb2dVertex
 10
154.7061468797262
 20
94.71325409958558
 30
0.0
  0
VERTEX
  5
3F2
330
3E6
100
AcDbEntity
  8
レイヤー 1
 62
     7
370
     9
100
AcDbVertex
100
AcDb2dVertex
 10
154.7381862677391
 20
94.64125160394386
 30
0.0
  0
VERTEX
  5
3F3
330
3E6
100
AcDbEntity
  8
レイヤー 1
 62
     7
370
     9
100
AcDbVertex
100
AcDb2dVertex
 10
154.7647135029755
 20
94.56373695552574
 30
0.0
  0
VERTEX
  5
3F4
330
3E6
100
AcDbEntity
  8
レイヤー 1
 62
     7
370
     9
100
AcDbVertex
100
AcDb2dVertex
 10
154.7857285854355
 20
94.4803656447827
 30
0.0
  0
VERTEX
  5
3F5
330
3E6
100
AcDbEntity
  8
レイヤー 1
 62
     7
370
     9
100
AcDbVertex
100
AcDb2dVertex
 10
154.8008870055706
 20
94.39182669081177
 30
0.0
  0
VERTEX
  5
3F6
330
3E6
100
AcDbEntity
  8
レイヤー 1
 62
     7
370
     9
100
AcDbVertex
100
AcDb2dVertex
 10
154.8098442538323
 20
94.2998426413556
 30
0.0
  0
VERTEX
  5
3F7
330
3E6
100
AcDbEntity
  8
レイヤー 1
 62
     7
370
     9
100
AcDbVertex
100
AcDb2dVertex
 10
154.812944839769
 20
94.20544702505975
 30
0.0
  0
VERTEX
  5
3F8
330
3E6
100
AcDbEntity
  8
レイヤー 1
 62
     7
370
     9
100
AcDbVertex
100
AcDb2dVertex
 10
154.8098442538323
 20
94.1082953323757
 30
0.0
  0
VERTEX
  5
3F9
330
3E6
100
AcDbEntity
  8
レイヤー 1
 62
     7
370
     9
100
AcDbVertex
100
AcDb2dVertex
 10
154.8008870055706
 20
94.00976560149756
 30
0.0
  0
VERTEX
  5
3FA
330
3E6
100
AcDbEntity
  8
レイヤー 1
 62
     7
370
     9
100
AcDbVertex
100
AcDb2dVertex
 10
154.786073094984
 20
93.91226939926499
 30
0.0
  0
VERTEX
  5
3FB
330
3E6
100
AcDbEntity
  8
レイヤー 1
 62
     7
370
     9
100
AcDbVertex
100
AcDb2dVertex
 10
154.7647135029755
 20
93.81511770658095
 30
0.0
  0
VERTEX
  5
3FC
330
3E6
100
AcDbEntity
  8
レイヤー 1
 62
     7
370
     9
100
AcDbVertex
100
AcDb2dVertex
 10
154.7381862677391
 20
93.71968856163953
 30
0.0
  0
VERTEX
  5
3FD
330
3E6
100
AcDbEntity
  8
レイヤー 1
 62
     7
370
     9
100
AcDbVertex
100
AcDb2dVertex
 10
154.7061468797262
 20
93.6270154930863
 30
0.0
  0
VERTEX
  5
3FE
330
3E6
100
AcDbEntity
  8
レイヤー 1
 62
     7
370
     9
100
AcDbVertex
100
AcDb2dVertex
 10
154.668595338937
 20
93.53847653911538
 30
0.0
  0
VERTEX
  5
3FF
330
3E6
100
AcDbEntity
  8
レイヤー 1
 62
     7
370
     9
100
AcDbVertex
100
AcDb2dVertex
 10
154.6258761549199
 20
93.45372719017824
 30
0.0
  0
VERTEX
  5
400
330
3E6
100
AcDbEntity
  8
レイヤー 1
 62
     7
370
     9
100
AcDbVertex
100
AcDb2dVertex
 10
154.5783338372235
 20
93.3744899940175
 30
0.0
  0
VERTEX
  5
401
330
3E6
100
AcDbEntity
  8
レイヤー 1
 62
     7
370
     9
100
AcDbVertex
100
AcDb2dVertex
 10
154.5263128953962
 20
93.30248749837577
 30
0.0
  0
VERTEX
  5
402
330
3E6
100
AcDbEntity
  8
レイヤー 1
 62
     7
370
     9
100
AcDbVertex
100
AcDb2dVertex
 10
154.4701578389866
 20
93.2366861746075
 30
0.0
  0
VERTEX
  5
403
330
3E6
100
AcDbEntity
  8
レイヤー 1
 62
     7
370
     9
100
AcDbVertex
100
AcDb2dVertex
 10
154.4098686679948
 20
93.1774305322612
 30
0.0
  0
VERTEX
  5
404
330
3E6
100
AcDbEntity
  8
レイヤー 1
 62
     7
370
     9
100
AcDbVertex
100
AcDb2dVertex
 10
154.3464789110662
 20
93.1278211572736
 30
0.0
  0
VERTEX
  5
405
330
3E6
100
AcDbEntity
  8
レイヤー 1
 62
     7
370
     9
100
AcDbVertex
100
AcDb2dVertex
 10
154.2806775872979
 20
93.08579099235355
 30
0.0
  0
VERTEX
  5
406
330
3E6
100
AcDbEntity
  8
レイヤー 1
 62
     7
370
     9
100
AcDbVertex
100
AcDb2dVertex
 10
154.2121201871414
 20
93.0534070947922
 30
0.0
  0
VERTEX
  5
407
330
3E6
100
AcDbEntity
  8
レイヤー 1
 62
     7
370
     9
100
AcDbVertex
100
AcDb2dVertex
 10
154.1421847487908
 20
93.03066946458956
 30
0.0
  0
VERTEX
  5
408
330
3E6
100
AcDbEntity
  8
レイヤー 1
 62
     7
370
     9
100
AcDbVertex
100
AcDb2dVertex
 10
154.0719048008918
 20
93.01723359219709
 30
0.0
  0
VERTEX
  5
409
330
3E6
100
AcDbEntity
  8
レイヤー 1
 62
     7
370
     9
100
AcDbVertex
100
AcDb2dVertex
 10
154.0012803434441
 20
93.01344398716331
 30
0.0
  0
VERTEX
  5
40A
330
3E6
100
AcDbEntity
  8
レイヤー 1
 62
     7
370
     9
100
AcDbVertex
100
AcDb2dVertex
 10
153.9306558859965
 20
93.01964515903676
 30
0.0
  0
VERTEX
  5
40B
330
3E6
100
AcDbEntity
  8
レイヤー 1
 62
     7
370
     9
100
AcDbVertex
100
AcDb2dVertex
 10
153.8620984858401
 20
93.03514808872039
 30
0.0
  0
VERTEX
  5
40C
330
3E6
100
AcDbEntity
  8
レイヤー 1
 62
     7
370
     9
100
AcDbVertex
100
AcDb2dVertex
 10
153.7952636334262
 20
93.06098630485975
 30
0.0
  0
VERTEX
  5
40D
330
3E6
100
AcDbEntity
  8
レイヤー 1
 62
     7
370
     9
100
AcDbVertex
100
AcDb2dVertex
 10
153.730840347852
 20
93.09509275016373
 30
0.0
  0
VERTEX
  5
40E
330
3E6
100
AcDbEntity
  8
レイヤー 1
 62
     7
370
     9
100
AcDbVertex
100
AcDb2dVertex
 10
153.6705511768602
 20
93.13918997237492
 30
0.0
  0
VERTEX
  5
40F
330
3E6
100
AcDbEntity
  8
レイヤー 1
 62
     7
370
     9
100
AcDbVertex
100
AcDb2dVertex
 10
153.614051610902
 20
93.1912109142022
 30
0.0
  0
VERTEX
  5
410
330
3E6
100
AcDbEntity
  8
レイヤー 1
 62
     7
370
     9
100
AcDbVertex
100
AcDb2dVertex
 10
153.5627196881718
 20
93.25081106609703
 30
0.0
  0
VERTEX
  5
411
330
3E6
100
AcDbEntity
  8
レイヤー 1
 62
     7
370
     9
100
AcDbVertex
100
AcDb2dVertex
 10
153.5162108991209
 20
93.31833493760791
 30
0.0
  0
VERTEX
  5
412
330
3E6
100
AcDbEntity
  8
レイヤー 1
 62
     7
370
     9
100
AcDbVertex
100
AcDb2dVertex
 10
153.4765923010406
 20
93.39205998099227
 30
0.0
  0
VERTEX
  5
413
330
3E6
100
AcDbEntity
  8
レイヤー 1
 62
     7
370
     9
100
AcDbVertex
100
AcDb2dVertex
 10
153.4431748748337
 20
93.47164168670155
 30
0.0
  0
VERTEX
  5
414
330
3E6
100
AcDbEntity
  8
レイヤー 1
 62
     7
370
     9
100
AcDbVertex
100
AcDb2dVertex
 10
153.4163031300487
 20
93.55708005473574
 30
0.0
  0
VERTEX
  5
415
330
3E6
100
AcDbEntity
  8
レイヤー 1
 62
     7
370
     9
100
AcDbVertex
100
AcDb2dVertex
 10
153.3973551048798
 20
93.64596351825519
 30
0.0
  0
VERTEX
  5
416
330
3E6
100
AcDbEntity
  8
レイヤー 1
 62
     7
370
     9
100
AcDbVertex
100
AcDb2dVertex
 10
153.3852972706815
 20
93.73829207725987
 30
0.0
  0
VERTEX
  5
417
330
3E6
100
AcDbEntity
  8
レイヤー 1
 62
     7
370
     9
100
AcDbVertex
100
AcDb2dVertex
 10
153.3815076656477
 20
93.83372122220129
 30
0.0
  0
VERTEX
  5
418
330
3E6
100
AcDbEntity
  8
レイヤー 1
 62
     7
370
     9
100
AcDbVertex
100
AcDb2dVertex
 10
153.3852972706815
 20
93.93018389578829
 30
0.0
  0
VERTEX
  5
419
330
3E6
100
AcDbEntity
  8
レイヤー 1
 62
     7
370
     9
100
AcDbVertex
100
AcDb2dVertex
 10
153.3970105953313
 20
94.02733558847234
 30
0.0
  0
VERTEX
  5
41A
330
3E6
100
AcDbEntity
  8
レイヤー 1
 62
     7
370
     9
100
AcDbVertex
100
AcDb2dVertex
 10
153.4159586205002
 20
94.12414277160785
 30
0.0
  0
VERTEX
  5
41B
330
3E6
100
AcDbEntity
  8
レイヤー 1
 62
     7
370
     9
100
AcDbVertex
100
AcDb2dVertex
 10
153.4424858557366
 20
94.22060544519485
 30
0.0
  0
VERTEX
  5
41C
330
3E6
100
AcDbEntity
  8
レイヤー 1
 62
     7
370
     9
100
AcDbVertex
100
AcDb2dVertex
 10
153.475558772395
 20
94.31396753284513
 30
0.0
  0
VERTEX
  5
41D
330
3E6
100
AcDbEntity
  8
レイヤー 1
 62
     7
370
     9
100
AcDbVertex
100
AcDb2dVertex
 10
153.5155218800239
 20
94.40422903455867
 30
0.0
  0
VERTEX
  5
41E
330
3E6
100
AcDbEntity
  8
レイヤー 1
 62
     7
370
     9
100
AcDbVertex
100
AcDb2dVertex
 10
153.5613416499777
 20
94.49104544078696
 30
0.0
  0
VERTEX
  5
41F
330
3E6
100
AcDbEntity
  8
レイヤー 1
 62
     7
370
     9
100
AcDbVertex
100
AcDb2dVertex
 10
153.613362591805
 20
94.57338322288443
 30
0.0
  0
VERTEX
  5
420
330
3E6
100
AcDbEntity
  8
レイヤー 1
 62
     7
370
     9
100
AcDbVertex
100
AcDb2dVertex
 10
153.6691731386661
 20
94.64986434265698
 30
0.0
  0
VERTEX
  5
421
330
3E6
100
AcDbEntity
  8
レイヤー 1
 62
     7
370
     9
100
AcDbVertex
100
AcDb2dVertex
 10
153.730151328755
 20
94.7204888001046
 30
0.0
  0
VERTEX
  5
422
330
3E6
100
AcDbEntity
  8
レイヤー 1
 62
     7
370
     9
100
AcDbVertex
100
AcDb2dVertex
 10
153.7938855952321
 20
94.78456757613026
 30
0.0
  0
VERTEX
  5
423
330
3E6
100
AcDbEntity
  8
レイヤー 1
 62
     7
370
     9
100
AcDbVertex
100
AcDb2dVertex
 10
153.8607204476459
 20
94.84106714208835
 30
0.0
  0
VERTEX
  5
424
330
3E6
100
AcDbEntity
  8
レイヤー 1
 62
     7
370
     9
100
AcDbVertex
100
AcDb2dVertex
 10
153.9292778478024
 20
94.8899874979789
 30
0.0
  0
VERTEX
  5
425
330
3E6
100
AcDbEntity
  8
レイヤー 1
 62
     7
370
     9
100
AcDbVertex
100
AcDb2dVertex
 10
154.0002468147985
 20
94.93063962470484
 30
0.0
  0
VERTEX
  5
426
330
3E6
100
AcDbEntity
  8
レイヤー 1
 62
     7
370
     9
100
AcDbVertex
100
AcDb2dVertex
 10
154.0708712722462
 20
94.9630235222662
 30
0.0
  0
VERTEX
  5
427
330
3E6
100
AcDbEntity
  8
レイヤー 1
 62
     7
370
     9
100
AcDbVertex
100
AcDb2dVertex
 10
154.1418402392423
 20
94.98576115246884
 30
0.0
  0
SEQEND
  5
428
330
3E6
100
AcDbEntity
  8
レイヤー 1
370
     9
  0
ENDBLK
  5
3E5
330
3E2
100
AcDbEntity
  8
0
100
AcDbBlockEnd
  0
BLOCK
  5
42B
330
429
100
AcDbEntity
  8
0
100
AcDbBlockBegin
  2
block 71
 70
     0
 10
0.0
 20
0.0
 30
0.0
  3
block 71
  1

  0
POLYLINE
  5
42D
330
429
100
AcDbEntity
  8
レイヤー 1
 62
     7
370
     9
100
AcDb2dPolyline
 66
     1
 10
0.0
 20
0.0
 30
0.0
  0
VERTEX
  5
42E
330
42D
100
AcDbEntity
  8
レイヤー 1
 62
     7
370
     9
100
AcDbVertex
100
AcDb2dVertex
 10
154.1418402392423
 20
163.4224107121826
 30
0.0
  0
VERTEX
  5
42F
330
42D
100
AcDbEntity
  8
レイヤー 1
 62
     7
370
     9
100
AcDbVertex
100
AcDb2dVertex
 10
154.2117756775929
 20
163.4358465845751
 30
0.0
  0
VERTEX
  5
430
330
42D
100
AcDbEntity
  8
レイヤー 1
 62
     7
370
     9
100
AcDbVertex
100
AcDb2dVertex
 10
154.2799885682008
 20
163.4401529539316
 30
0.0
  0
VERTEX
  5
431
330
42D
100
AcDbEntity
  8
レイヤー 1
 62
     7
370
     9
100
AcDbVertex
100
AcDb2dVertex
 10
154.3461344015176
 20
163.4348130559295
 30
0.0
  0
VERTEX
  5
432
330
42D
100
AcDbEntity
  8
レイヤー 1
 62
     7
370
     9
100
AcDbVertex
100
AcDb2dVertex
 10
154.4098686679948
 20
163.4203436548914
 30
0.0
  0
VERTEX
  5
433
330
42D
100
AcDbEntity
  8
レイヤー 1
 62
     7
370
     9
100
AcDbVertex
100
AcDb2dVertex
 10
154.4698133294381
 20
163.3965724960432
 30
0.0
  0
VERTEX
  5
434
330
42D
100
AcDbEntity
  8
レイヤー 1
 62
     7
370
     9
100
AcDbVertex
100
AcDb2dVertex
 10
154.5256238762992
 20
163.3640163437076
 30
0.0
  0
VERTEX
  5
435
330
42D
100
AcDbEntity
  8
レイヤー 1
 62
     7
370
     9
100
AcDbVertex
100
AcDb2dVertex
 10
154.5779893276749
 20
163.3226751978846
 30
0.0
  0
VERTEX
  5
436
330
42D
100
AcDbEntity
  8
レイヤー 1
 62
     7
370
     9
100
AcDbVertex
100
AcDb2dVertex
 10
154.6258761549199
 20
163.2727213133485
 30
0.0
  0
VERTEX
  5
437
330
42D
100
AcDbEntity
  8
レイヤー 1
 62
     7
370
     9
100
AcDbVertex
100
AcDb2dVertex
 10
154.6682508293885
 20
163.2153604735191
 30
0.0
  0
VERTEX
  5
438
330
42D
100
AcDbEntity
  8
レイヤー 1
 62
     7
370
     9
100
AcDbVertex
100
AcDb2dVertex
 10
154.7061468797262
 20
163.1502481688479
 30
0.0
  0
VERTEX
  5
439
330
42D
100
AcDbEntity
  8
レイヤー 1
 62
     7
370
     9
100
AcDbVertex
100
AcDb2dVertex
 10
154.7381862677391
 20
163.0780734184319
 30
0.0
  0
VERTEX
  5
43A
330
42D
100
AcDbEntity
  8
レイヤー 1
 62
     7
370
     9
100
AcDbVertex
100
AcDb2dVertex
 10
154.7647135029755
 20
163.0002142604652
 30
0.0
  0
VERTEX
  5
43B
330
42D
100
AcDbEntity
  8
レイヤー 1
 62
     7
370
     9
100
AcDbVertex
100
AcDb2dVertex
 10
154.7857285854355
 20
162.9168429497222
 30
0.0
  0
VERTEX
  5
43C
330
42D
100
AcDbEntity
  8
レイヤー 1
 62
     7
370
     9
100
AcDbVertex
100
AcDb2dVertex
 10
154.8008870055706
 20
162.8283039957513
 30
0.0
  0
VERTEX
  5
43D
330
42D
100
AcDbEntity
  8
レイヤー 1
 62
     7
370
     9
100
AcDbVertex
100
AcDb2dVertex
 10
154.8098442538323
 20
162.7366644558436
 30
0.0
  0
VERTEX
  5
43E
330
42D
100
AcDbEntity
  8
レイヤー 1
 62
     7
370
     9
100
AcDbVertex
100
AcDb2dVertex
 10
154.812944839769
 20
162.6420965847735
 30
0.0
  0
VERTEX
  5
43F
330
42D
100
AcDbEntity
  8
レイヤー 1
 62
     7
370
     9
100
AcDbVertex
100
AcDb2dVertex
 10
154.8098442538323
 20
162.5449448920895
 30
0.0
  0
VERTEX
  5
440
330
42D
100
AcDbEntity
  8
レイヤー 1
 62
     7
370
     9
100
AcDbVertex
100
AcDb2dVertex
 10
154.8008870055706
 20
162.4465874159856
 30
0.0
  0
VERTEX
  5
441
330
42D
100
AcDbEntity
  8
レイヤー 1
 62
     7
370
     9
100
AcDbVertex
100
AcDb2dVertex
 10
154.786073094984
 20
162.3489189589787
 30
0.0
  0
VERTEX
  5
442
330
42D
100
AcDbEntity
  8
レイヤー 1
 62
     7
370
     9
100
AcDbVertex
100
AcDb2dVertex
 10
154.7647135029755
 20
162.2517672662947
 30
0.0
  0
VERTEX
  5
443
330
42D
100
AcDbEntity
  8
レイヤー 1
 62
     7
370
     9
100
AcDbVertex
100
AcDb2dVertex
 10
154.7381862677391
 20
162.1559936118047
 30
0.0
  0
VERTEX
  5
444
330
42D
100
AcDbEntity
  8
レイヤー 1
 62
     7
370
     9
100
AcDbVertex
100
AcDb2dVertex
 10
154.7061468797262
 20
162.0636650528001
 30
0.0
  0
VERTEX
  5
445
330
42D
100
AcDbEntity
  8
レイヤー 1
 62
     7
370
     9
100
AcDbVertex
100
AcDb2dVertex
 10
154.668595338937
 20
161.9751260988292
 30
0.0
  0
VERTEX
  5
446
330
42D
100
AcDbEntity
  8
レイヤー 1
 62
     7
370
     9
100
AcDbVertex
100
AcDb2dVertex
 10
154.6258761549199
 20
161.8905490046663
 30
0.0
  0
VERTEX
  5
447
330
42D
100
AcDbEntity
  8
レイヤー 1
 62
     7
370
     9
100
AcDbVertex
100
AcDb2dVertex
 10
154.5783338372235
 20
161.8113118085055
 30
0.0
  0
VERTEX
  5
448
330
42D
100
AcDbEntity
  8
レイヤー 1
 62
     7
370
     9
100
AcDbVertex
100
AcDb2dVertex
 10
154.5263128953962
 20
161.738792548541
 30
0.0
  0
VERTEX
  5
449
330
42D
100
AcDbEntity
  8
レイヤー 1
 62
     7
370
     9
100
AcDbVertex
100
AcDb2dVertex
 10
154.4701578389866
 20
161.6729912247727
 30
0.0
  0
VERTEX
  5
44A
330
42D
100
AcDbEntity
  8
レイヤー 1
 62
     7
370
     9
100
AcDbVertex
100
AcDb2dVertex
 10
154.4098686679948
 20
161.6144246015235
 30
0.0
  0
VERTEX
  5
44B
330
42D
100
AcDbEntity
  8
レイヤー 1
 62
     7
370
     9
100
AcDbVertex
100
AcDb2dVertex
 10
154.3464789110662
 20
161.5641262074388
 30
0.0
  0
VERTEX
  5
44C
330
42D
100
AcDbEntity
  8
レイヤー 1
 62
     7
370
     9
100
AcDbVertex
100
AcDb2dVertex
 10
154.2806775872979
 20
161.5227850616158
 30
0.0
  0
VERTEX
  5
44D
330
42D
100
AcDbEntity
  8
レイヤー 1
 62
     7
370
     9
100
AcDbVertex
100
AcDb2dVertex
 10
154.2121201871414
 20
161.490056654506
 30
0.0
  0
VERTEX
  5
44E
330
42D
100
AcDbEntity
  8
レイヤー 1
 62
     7
370
     9
100
AcDbVertex
100
AcDb2dVertex
 10
154.1421847487908
 20
161.4671467695291
 30
0.0
  0
VERTEX
  5
44F
330
42D
100
AcDbEntity
  8
レイヤー 1
 62
     7
370
     9
100
AcDbVertex
100
AcDb2dVertex
 10
154.0719048008918
 20
161.4538831519108
 30
0.0
  0
VERTEX
  5
450
330
42D
100
AcDbEntity
  8
レイヤー 1
 62
     7
370
     9
100
AcDbVertex
100
AcDb2dVertex
 10
154.0012803434441
 20
161.4500935468771
 30
0.0
  0
VERTEX
  5
451
330
42D
100
AcDbEntity
  8
レイヤー 1
 62
     7
370
     9
100
AcDbVertex
100
AcDb2dVertex
 10
153.9306558859965
 20
161.4562947187505
 30
0.0
  0
VERTEX
  5
452
330
42D
100
AcDbEntity
  8
レイヤー 1
 62
     7
370
     9
100
AcDbVertex
100
AcDb2dVertex
 10
153.8620984858401
 20
161.4721421579827
 30
0.0
  0
VERTEX
  5
453
330
42D
100
AcDbEntity
  8
レイヤー 1
 62
     7
370
     9
100
AcDbVertex
100
AcDb2dVertex
 10
153.7952636334262
 20
161.4974636097992
 30
0.0
  0
VERTEX
  5
454
330
42D
100
AcDbEntity
  8
レイヤー 1
 62
     7
370
     9
100
AcDbVertex
100
AcDb2dVertex
 10
153.730840347852
 20
161.5322590742003
 30
0.0
  0
VERTEX
  5
455
330
42D
100
AcDbEntity
  8
レイヤー 1
 62
     7
370
     9
100
AcDbVertex
100
AcDb2dVertex
 10
153.6705511768602
 20
161.5760117868629
 30
0.0
  0
VERTEX
  5
456
330
42D
100
AcDbEntity
  8
レイヤー 1
 62
     7
370
     9
100
AcDbVertex
100
AcDb2dVertex
 10
153.614051610902
 20
161.6275159643674
 30
0.0
  0
VERTEX
  5
457
330
42D
100
AcDbEntity
  8
レイヤー 1
 62
     7
370
     9
100
AcDbVertex
100
AcDb2dVertex
 10
153.5627196881718
 20
161.6876328805851
 30
0.0
  0
VERTEX
  5
458
330
42D
100
AcDbEntity
  8
レイヤー 1
 62
     7
370
     9
100
AcDbVertex
100
AcDb2dVertex
 10
153.5162108991209
 20
161.7549844973217
 30
0.0
  0
VERTEX
  5
459
330
42D
100
AcDbEntity
  8
レイヤー 1
 62
     7
370
     9
100
AcDbVertex
100
AcDb2dVertex
 10
153.4765923010406
 20
161.8285372859318
 30
0.0
  0
VERTEX
  5
45A
330
42D
100
AcDbEntity
  8
レイヤー 1
 62
     7
370
     9
100
AcDbVertex
100
AcDb2dVertex
 10
153.4431748748337
 20
161.908118991641
 30
0.0
  0
VERTEX
  5
45B
330
42D
100
AcDbEntity
  8
レイヤー 1
 62
     7
370
     9
100
AcDbVertex
100
AcDb2dVertex
 10
153.4163031300487
 20
161.9935573596752
 30
0.0
  0
VERTEX
  5
45C
330
42D
100
AcDbEntity
  8
レイヤー 1
 62
     7
370
     9
100
AcDbVertex
100
AcDb2dVertex
 10
153.3973551048798
 20
162.0826130779689
 30
0.0
  0
VERTEX
  5
45D
330
42D
100
AcDbEntity
  8
レイヤー 1
 62
     7
370
     9
100
AcDbVertex
100
AcDb2dVertex
 10
153.3852972706815
 20
162.1747693821994
 30
0.0
  0
VERTEX
  5
45E
330
42D
100
AcDbEntity
  8
レイヤー 1
 62
     7
370
     9
100
AcDbVertex
100
AcDb2dVertex
 10
153.3815076656477
 20
162.2701985271408
 30
0.0
  0
VERTEX
  5
45F
330
42D
100
AcDbEntity
  8
レイヤー 1
 62
     7
370
     9
100
AcDbVertex
100
AcDb2dVertex
 10
153.3852972706815
 20
162.3670057102763
 30
0.0
  0
VERTEX
  5
460
330
42D
100
AcDbEntity
  8
レイヤー 1
 62
     7
370
     9
100
AcDbVertex
100
AcDb2dVertex
 10
153.3970105953313
 20
162.4639851481861
 30
0.0
  0
VERTEX
  5
461
330
42D
100
AcDbEntity
  8
レイヤー 1
 62
     7
370
     9
100
AcDbVertex
100
AcDb2dVertex
 10
153.4159586205002
 20
162.5609645860959
 30
0.0
  0
VERTEX
  5
462
330
42D
100
AcDbEntity
  8
レイヤー 1
 62
     7
370
     9
100
AcDbVertex
100
AcDb2dVertex
 10
153.4424858557366
 20
162.6572550049086
 30
0.0
  0
VERTEX
  5
463
330
42D
100
AcDbEntity
  8
レイヤー 1
 62
     7
370
     9
100
AcDbVertex
100
AcDb2dVertex
 10
153.475558772395
 20
162.7504448377846
 30
0.0
  0
VERTEX
  5
464
330
42D
100
AcDbEntity
  8
レイヤー 1
 62
     7
370
     9
100
AcDbVertex
100
AcDb2dVertex
 10
153.5155218800239
 20
162.8408785942724
 30
0.0
  0
VERTEX
  5
465
330
42D
100
AcDbEntity
  8
レイヤー 1
 62
     7
370
     9
100
AcDbVertex
100
AcDb2dVertex
 10
153.5613416499777
 20
162.927867255275
 30
0.0
  0
VERTEX
  5
466
330
42D
100
AcDbEntity
  8
レイヤー 1
 62
     7
370
     9
100
AcDbVertex
100
AcDb2dVertex
 10
153.613362591805
 20
163.0102050373725
 30
0.0
  0
VERTEX
  5
467
330
42D
100
AcDbEntity
  8
レイヤー 1
 62
     7
370
     9
100
AcDbVertex
100
AcDb2dVertex
 10
153.6691731386661
 20
163.0865139023707
 30
0.0
  0
VERTEX
  5
468
330
42D
100
AcDbEntity
  8
レイヤー 1
 62
     7
370
     9
100
AcDbVertex
100
AcDb2dVertex
 10
153.730151328755
 20
163.1573106145926
 30
0.0
  0
VERTEX
  5
469
330
42D
100
AcDbEntity
  8
レイヤー 1
 62
     7
370
     9
100
AcDbVertex
100
AcDb2dVertex
 10
153.7938855952321
 20
163.2213893906183
 30
0.0
  0
VERTEX
  5
46A
330
42D
100
AcDbEntity
  8
レイヤー 1
 62
     7
370
     9
100
AcDbVertex
100
AcDb2dVertex
 10
153.8607204476459
 20
163.2780612113506
 30
0.0
  0
VERTEX
  5
46B
330
42D
100
AcDbEntity
  8
レイヤー 1
 62
     7
370
     9
100
AcDbVertex
100
AcDb2dVertex
 10
153.9292778478024
 20
163.3266370576927
 30
0.0
  0
VERTEX
  5
46C
330
42D
100
AcDbEntity
  8
レイヤー 1
 62
     7
370
     9
100
AcDbVertex
100
AcDb2dVertex
 10
154.0002468147985
 20
163.3674614391929
 30
0.0
  0
VERTEX
  5
46D
330
42D
100
AcDbEntity
  8
レイヤー 1
 62
     7
370
     9
100
AcDbVertex
100
AcDb2dVertex
 10
154.0708712722462
 20
163.3993285724314
 30
0.0
  0
VERTEX
  5
46E
330
42D
100
AcDbEntity
  8
レイヤー 1
 62
     7
370
     9
100
AcDbVertex
100
AcDb2dVertex
 10
154.1418402392423
 20
163.4224107121826
 30
0.0
  0
SEQEND
  5
46F
330
42D
100
AcDbEntity
  8
レイヤー 1
370
     9
  0
ENDBLK
  5
42C
330
429
100
AcDbEntity
  8
0
100
AcDbBlockEnd
  0
BLOCK
  5
472
330
470
100
AcDbEntity
  8
0
100
AcDbBlockBegin
  2
block 72
 70
     0
 10
0.0
 20
0.0
 30
0.0
  3
block 72
  1

  0
POLYLINE
  5
474
330
470
100
AcDbEntity
  8
レイヤー 1
 62
     7
370
     9
100
AcDb2dPolyline
 66
     1
 10
0.0
 20
0.0
 30
0.0
  0
VERTEX
  5
475
330
474
100
AcDbEntity
  8
レイヤー 1
 62
     7
370
     9
100
AcDbVertex
100
AcDb2dVertex
 10
153.8555528044181
 20
28.46096733229448
 30
0.0
  0
VERTEX
  5
476
330
474
100
AcDbEntity
  8
レイヤー 1
 62
     7
370
     9
100
AcDbVertex
100
AcDb2dVertex
 10
153.3057155649722
 20
28.59050292253988
 30
0.0
  0
VERTEX
  5
477
330
474
100
AcDbEntity
  8
レイヤー 1
 62
     7
370
     9
100
AcDbVertex
100
AcDb2dVertex
 10
153.0369981171227
 20
28.6445909216583
 30
0.0
  0
SEQEND
  5
478
330
474
100
AcDbEntity
  8
レイヤー 1
370
     9
  0
ENDBLK
  5
473
330
470
100
AcDbEntity
  8
0
100
AcDbBlockEnd
  0
BLOCK
  5
47B
330
479
100
AcDbEntity
  8
0
100
AcDbBlockBegin
  2
block 73
 70
     0
 10
0.0
 20
0.0
 30
0.0
  3
block 73
  1

  0
POLYLINE
  5
47D
330
479
100
AcDbEntity
  8
レイヤー 1
 62
     7
370
     9
100
AcDb2dPolyline
 66
     1
 10
0.0
 20
0.0
 30
0.0
  0
VERTEX
  5
47E
330
47D
100
AcDbEntity
  8
レイヤー 1
 62
     7
370
     9
100
AcDbVertex
100
AcDb2dVertex
 10
154.730262548123
 20
28.19018282715384
 30
0.0
  0
VERTEX
  5
47F
330
47D
100
AcDbEntity
  8
レイヤー 1
 62
     7
370
     9
100
AcDbVertex
100
AcDb2dVertex
 10
154.3550916497793
 20
28.31868488875366
 30
0.0
  0
VERTEX
  5
480
330
47D
100
AcDbEntity
  8
レイヤー 1
 62
     7
370
     9
100
AcDbVertex
100
AcDb2dVertex
 10
153.8555528044181
 20
28.46096733229448
 30
0.0
  0
SEQEND
  5
481
330
47D
100
AcDbEntity
  8
レイヤー 1
370
     9
  0
ENDBLK
  5
47C
330
479
100
AcDbEntity
  8
0
100
AcDbBlockEnd
  0
BLOCK
  5
484
330
482
100
AcDbEntity
  8
0
100
AcDbBlockBegin
  2
block 74
 70
     0
 10
0.0
 20
0.0
 30
0.0
  3
block 74
  1

  0
SPLINE
  5
486
330
482
100
AcDbEntity
  8
レイヤー 1
 62
     7
370
     9
100
AcDbSpline
210
0.0
220
0.0
230
1.0
 70
     8
 71
     3
 72
    26
 73
    22
 74
     0
 42
0.000000001
 43
0.0000000001
 40
0.0
 40
0.0
 40
0.0
 40
0.0
 40
1.0
 40
1.0
 40
1.0
 40
2.0
 40
2.0
 40
2.0
 40
3.0
 40
3.0
 40
3.0
 40
4.0
 40
4.0
 40
4.0
 40
5.0
 40
5.0
 40
5.0
 40
6.0
 40
6.0
 40
6.0
 40
7.0
 40
7.0
 40
7.0
 40
7.0
 10
154.702701784241
 20
52.00819497397712
 30
0.0
 10
154.7219943189584
 20
52.0023383116522
 30
0.0
 10
154.7409423441273
 20
51.99613713977875
 30
0.0
 10
154.7598903692962
 20
51.98924694880824
 30
0.0
 10
154.8463622659759
 20
51.9554850130528
 30
0.0
 10
154.9187092711662
 20
51.89726289935208
 30
0.0
 10
154.9862331426771
 20
51.83180608513233
 30
0.0
 10
155.0568576001247
 20
51.76359319452438
 30
0.0
 10
155.1223144143444
 20
51.68711207475184
 30
0.0
 10
155.1798475089481
 20
51.59891763032944
 30
0.0
 10
155.2373806035518
 20
51.51037867635852
 30
0.0
 10
155.288023507185
 20
51.41012639773775
 30
0.0
 10
155.3314317102991
 20
51.30022785175828
 30
0.0
 10
155.3769069707044
 20
51.18481715300241
 30
0.0
 10
155.4148030210421
 20
51.05907116779079
 30
0.0
 10
155.446842409055
 20
50.92333440567194
 30
0.0
 10
155.4788817970678
 20
50.78759764355311
 30
0.0
 10
155.5043755036586
 20
50.64290363317261
 30
0.0
 10
155.5219454906334
 20
50.48821884588489
 30
0.0
 10
155.5467501781272
 20
50.26532116798923
 30
0.0
 10
155.5539848786462
 20
50.02209742673059
 30
0.0
 10
155.5612195791653
 20
49.779562704569
 30
0.0
  0
ENDBLK
  5
485
330
482
100
AcDbEntity
  8
0
100
AcDbBlockEnd
  0
BLOCK
  5
489
330
487
100
AcDbEntity
  8
0
100
AcDbBlockBegin
  2
block 75
 70
     0
 10
0.0
 20
0.0
 30
0.0
  3
block 75
  1

  0
POLYLINE
  5
48B
330
487
100
AcDbEntity
  8
レイヤー 1
 62
     7
370
     9
100
AcDb2dPolyline
 66
     1
 10
0.0
 20
0.0
 30
0.0
  0
VERTEX
  5
48C
330
48B
100
AcDbEntity
  8
レイヤー 1
 62
     7
370
     9
100
AcDbVertex
100
AcDb2dVertex
 10
155.5612195791653
 20
49.779562704569
 30
0.0
  0
VERTEX
  5
48D
330
48B
100
AcDbEntity
  8
レイヤー 1
 62
     7
370
     9
100
AcDbVertex
100
AcDb2dVertex
 10
155.5612195791653
 20
41.95781791485777
 30
0.0
  0
SEQEND
  5
48E
330
48B
100
AcDbEntity
  8
レイヤー 1
370
     9
  0
ENDBLK
  5
48A
330
487
100
AcDbEntity
  8
0
100
AcDbBlockEnd
  0
BLOCK
  5
491
330
48F
100
AcDbEntity
  8
0
100
AcDbBlockBegin
  2
block 76
 70
     0
 10
0.0
 20
0.0
 30
0.0
  3
block 76
  1

  0
SPLINE
  5
493
330
48F
100
AcDbEntity
  8
レイヤー 1
 62
     7
370
     9
100
AcDbSpline
210
0.0
220
0.0
230
1.0
 70
     8
 71
     3
 72
    41
 73
    37
 74
     0
 42
0.000000001
 43
0.0000000001
 40
0.0
 40
0.0
 40
0.0
 40
0.0
 40
1.0
 40
1.0
 40
1.0
 40
2.0
 40
2.0
 40
2.0
 40
3.0
 40
3.0
 40
3.0
 40
4.0
 40
4.0
 40
4.0
 40
5.0
 40
5.0
 40
5.0
 40
6.0
 40
6.0
 40
6.0
 40
7.0
 40
7.0
 40
7.0
 40
8.0
 40
8.0
 40
8.0
 40
9.0
 40
9.0
 40
9.0
 40
10.0
 40
10.0
 40
10.0
 40
11.0
 40
11.0
 40
11.0
 40
12.0
 40
12.0
 40
12.0
 40
12.0
 10
155.5612195791653
 20
41.95781791485777
 30
0.0
 10
155.5605305600682
 20
41.87754719005145
 30
0.0
 10
155.5594970314226
 20
41.79624293659955
 30
0.0
 10
155.557085464583
 20
41.71528319269618
 30
0.0
 10
155.5526068404521
 20
41.55990938631141
 30
0.0
 10
155.5415825348993
 20
41.40212401308697
 30
0.0
 10
155.5260796052157
 20
41.24502765895958
 30
0.0
 10
155.5105766755321
 20
41.08724228573514
 30
0.0
 10
155.4905951217176
 20
40.93014593160774
 30
0.0
 10
155.4647569055783
 20
40.77546114432003
 30
0.0
 10
155.4385741798904
 20
40.61733126154706
 30
0.0
 10
155.4068793014261
 20
40.46195745516229
 30
0.0
 10
155.3689832510883
 20
40.31071776335983
 30
0.0
 10
155.3314317102991
 20
40.15947807155735
 30
0.0
 10
155.2876789976364
 20
40.01271700388571
 30
0.0
 10
155.2377251131003
 20
39.87146808899047
 30
0.0
 10
155.1846706426275
 20
39.720228397188
 30
0.0
 10
155.12334794299
 20
39.5755343868075
 30
0.0
 10
155.0551350523821
 20
39.43979762468867
 30
0.0
 10
154.9869221617741
 20
39.30440537211835
 30
0.0
 10
154.9118190801957
 20
39.17762585826115
 30
0.0
 10
154.8287922790011
 20
39.06187064995676
 30
0.0
 10
154.7436984205155
 20
38.94404838436121
 30
0.0
 10
154.6503363328652
 20
38.83828395296404
 30
0.0
 10
154.550428563793
 20
38.74457735576524
 30
0.0
 10
154.4501762851722
 20
38.6515597776635
 30
0.0
 10
154.3430338155809
 20
38.57128905285718
 30
0.0
 10
154.2290011550191
 20
38.50686576728301
 30
0.0
 10
154.1215141758794
 20
38.44588757719409
 30
0.0
 10
154.0085150439631
 20
38.39972329769174
 30
0.0
 10
153.8913817974647
 20
38.36527234283924
 30
0.0
 10
153.7749375700632
 20
38.33116589753526
 30
0.0
 10
153.654014718531
 20
38.30946179597819
 30
0.0
 10
153.5310248097075
 20
38.30773924823556
 30
0.0
 10
153.4266384165045
 20
38.30601670049294
 30
0.0
 10
153.3208739851073
 20
38.31807453469132
 30
0.0
 10
153.2147650441616
 20
38.33047687843822
 30
0.0
  0
ENDBLK
  5
492
330
48F
100
AcDbEntity
  8
0
100
AcDbBlockEnd
  0
BLOCK
  5
496
330
494
100
AcDbEntity
  8
0
100
AcDbBlockBegin
  2
block 77
 70
     0
 10
0.0
 20
0.0
 30
0.0
  3
block 77
  1

  0
SPLINE
  5
498
330
494
100
AcDbEntity
  8
レイヤー 1
 62
     7
370
     9
100
AcDbSpline
210
0.0
220
0.0
230
1.0
 70
     8
 71
     3
 72
    32
 73
    28
 74
     0
 42
0.000000001
 43
0.0000000001
 40
0.0
 40
0.0
 40
0.0
 40
0.0
 40
1.0
 40
1.0
 40
1.0
 40
2.0
 40
2.0
 40
2.0
 40
3.0
 40
3.0
 40
3.0
 40
4.0
 40
4.0
 40
4.0
 40
5.0
 40
5.0
 40
5.0
 40
6.0
 40
6.0
 40
6.0
 40
7.0
 40
7.0
 40
7.0
 40
8.0
 40
8.0
 40
8.0
 40
9.0
 40
9.0
 40
9.0
 40
9.0
 10
154.3368326437075
 20
29.98645561316311
 30
0.0
 10
154.3854084900495
 20
29.96544053070308
 30
0.0
 10
154.4350178650371
 20
29.94511446734011
 30
0.0
 10
154.4784260681512
 20
29.91376409842434
 30
0.0
 10
154.5662760030251
 20
29.85071885104427
 30
0.0
 10
154.6320773267934
 20
29.74426540055005
 30
0.0
 10
154.6844427781692
 20
29.62196451082368
 30
0.0
 10
154.737497248642
 20
29.49966362109731
 30
0.0
 10
154.7771158467224
 20
29.36117078259026
 30
0.0
 10
154.8001979864736
 20
29.2085530525937
 30
0.0
 10
154.8219020880306
 20
29.05765787033975
 30
0.0
 10
154.8277587503556
 20
28.89332681569334
 30
0.0
 10
154.8174234638998
 20
28.72589517511019
 30
0.0
 10
154.8074326869926
 20
28.5605305918182
 30
0.0
 10
154.7815944708532
 20
28.39309895123506
 30
0.0
 10
154.7405978345788
 20
28.23152397297684
 30
0.0
 10
154.6992566887558
 20
28.06891546607305
 30
0.0
 10
154.6427571227977
 20
27.91250813104271
 30
0.0
 10
154.57213266535
 20
27.77160372569599
 30
0.0
 10
154.4997856601598
 20
27.62897677260665
 30
0.0
 10
154.41331376348
 20
27.50185274920093
 30
0.0
 10
154.3144395230534
 20
27.39643282735228
 30
0.0
 10
154.2159097921752
 20
27.29066839595511
 30
0.0
 10
154.1049777175502
 20
27.20591904701796
 30
0.0
 10
153.9874999615031
 20
27.15803221977299
 30
0.0
 10
153.8755343582325
 20
27.11290146891622
 30
0.0
 10
153.757712092637
 20
27.1015326538149
 30
0.0
 10
153.6398898270414
 20
27.09016383871357
 30
0.0
  0
ENDBLK
  5
497
330
494
100
AcDbEntity
  8
0
100
AcDbBlockEnd
  0
BLOCK
  5
49B
330
499
100
AcDbEntity
  8
0
100
AcDbBlockBegin
  2
block 78
 70
     0
 10
0.0
 20
0.0
 30
0.0
  3
block 78
  1

  0
POLYLINE
  5
49D
330
499
100
AcDbEntity
  8
レイヤー 1
 62
     7
370
     9
100
AcDb2dPolyline
 66
     1
 10
0.0
 20
0.0
 30
0.0
  0
VERTEX
  5
49E
330
49D
100
AcDbEntity
  8
レイヤー 1
 62
     7
370
     9
100
AcDbVertex
100
AcDb2dVertex
 10
142.6827636362043
 20
29.97095268347949
 30
0.0
  0
VERTEX
  5
49F
330
49D
100
AcDbEntity
  8
レイヤー 1
 62
     7
370
     9
100
AcDbVertex
100
AcDb2dVertex
 10
142.5780327334527
 20
29.99127874684246
 30
0.0
  0
VERTEX
  5
4A0
330
49D
100
AcDbEntity
  8
レイヤー 1
 62
     7
370
     9
100
AcDbVertex
100
AcDb2dVertex
 10
142.4770914357349
 20
29.99747991871591
 30
0.0
  0
VERTEX
  5
4A1
330
49D
100
AcDbEntity
  8
レイヤー 1
 62
     7
370
     9
100
AcDbVertex
100
AcDb2dVertex
 10
142.3795952335023
 20
29.99058972774541
 30
0.0
  0
VERTEX
  5
4A2
330
49D
100
AcDbEntity
  8
レイヤー 1
 62
     7
370
     9
100
AcDbVertex
100
AcDb2dVertex
 10
142.2864054006263
 20
29.96888562618834
 30
0.0
  0
VERTEX
  5
4A3
330
49D
100
AcDbEntity
  8
レイヤー 1
 62
     7
370
     9
100
AcDbVertex
100
AcDb2dVertex
 10
142.1990722300752
 20
29.93409016178731
 30
0.0
  0
VERTEX
  5
4A4
330
49D
100
AcDbEntity
  8
レイヤー 1
 62
     7
370
     9
100
AcDbVertex
100
AcDb2dVertex
 10
142.1175957218491
 20
29.88620333454234
 30
0.0
  0
VERTEX
  5
4A5
330
49D
100
AcDbEntity
  8
レイヤー 1
 62
     7
370
     9
100
AcDbVertex
100
AcDb2dVertex
 10
142.0423203854964
 20
29.82453612535637
 30
0.0
  0
VERTEX
  5
4A6
330
49D
100
AcDbEntity
  8
レイヤー 1
 62
     7
370
     9
100
AcDbVertex
100
AcDb2dVertex
 10
141.9741074948884
 20
29.75081108197202
 30
0.0
  0
VERTEX
  5
4A7
330
49D
100
AcDbEntity
  8
レイヤー 1
 62
     7
370
     9
100
AcDbVertex
100
AcDb2dVertex
 10
141.9139905786708
 20
29.66571722348635
 30
0.0
  0
VERTEX
  5
4A8
330
49D
100
AcDbEntity
  8
レイヤー 1
 62
     7
370
     9
100
AcDbVertex
100
AcDb2dVertex
 10
141.8604193438752
 20
29.56891004035083
 30
0.0
  0
VERTEX
  5
4A9
330
49D
100
AcDbEntity
  8
レイヤー 1
 62
     7
370
     9
100
AcDbVertex
100
AcDb2dVertex
 10
141.8152885930184
 20
29.46107855166251
 30
0.0
  0
VERTEX
  5
4AA
330
49D
100
AcDbEntity
  8
レイヤー 1
 62
     7
370
     9
100
AcDbVertex
100
AcDb2dVertex
 10
141.7780815617777
 20
29.34566785290664
 30
0.0
  0
VERTEX
  5
4AB
330
49D
100
AcDbEntity
  8
レイヤー 1
 62
     7
370
     9
100
AcDbVertex
100
AcDb2dVertex
 10
141.7487982501531
 20
29.22129990588912
 30
0.0
  0
VERTEX
  5
4AC
330
49D
100
AcDbEntity
  8
レイヤー 1
 62
     7
370
     9
100
AcDbVertex
100
AcDb2dVertex
 10
141.7279554224673
 20
29.088663729707
 30
0.0
  0
VERTEX
  5
4AD
330
49D
100
AcDbEntity
  8
レイヤー 1
 62
     7
370
     9
100
AcDbVertex
100
AcDb2dVertex
 10
141.7152085691719
 20
28.95120441984553
 30
0.0
  0
VERTEX
  5
4AE
330
49D
100
AcDbEntity
  8
レイヤー 1
 62
     7
370
     9
100
AcDbVertex
100
AcDb2dVertex
 10
141.7109021998153
 20
28.80926648585324
 30
0.0
  0
VERTEX
  5
4AF
330
49D
100
AcDbEntity
  8
レイヤー 1
 62
     7
370
     9
100
AcDbVertex
100
AcDb2dVertex
 10
141.7152085691719
 20
28.66319443727865
 30
0.0
  0
VERTEX
  5
4B0
330
49D
100
AcDbEntity
  8
レイヤー 1
 62
     7
370
     9
100
AcDbVertex
100
AcDb2dVertex
 10
141.727783167693
 20
28.51574435050996
 30
0.0
  0
VERTEX
  5
4B1
330
49D
100
AcDbEntity
  8
レイヤー 1
 62
     7
370
     9
100
AcDbVertex
100
AcDb2dVertex
 10
141.7486259953788
 20
28.36829426374126
 30
0.0
  0
VERTEX
  5
4B2
330
49D
100
AcDbEntity
  8
レイヤー 1
 62
     7
370
     9
100
AcDbVertex
100
AcDb2dVertex
 10
141.7775647974549
 20
28.22222221516667
 30
0.0
  0
VERTEX
  5
4B3
330
49D
100
AcDbEntity
  8
レイヤー 1
 62
     7
370
     9
100
AcDbVertex
100
AcDb2dVertex
 10
141.8152885930184
 20
28.0778727143347
 30
0.0
  0
VERTEX
  5
4B4
330
49D
100
AcDbEntity
  8
レイヤー 1
 62
     7
370
     9
100
AcDbVertex
100
AcDb2dVertex
 10
141.8602470891009
 20
27.93834634718208
 30
0.0
  0
VERTEX
  5
4B5
330
49D
100
AcDbEntity
  8
レイヤー 1
 62
     7
370
     9
100
AcDbVertex
100
AcDb2dVertex
 10
141.913473814348
 20
27.80502115190291
 30
0.0
  0
VERTEX
  5
4B6
330
49D
100
AcDbEntity
  8
レイヤー 1
 62
     7
370
     9
100
AcDbVertex
100
AcDb2dVertex
 10
141.9741074948884
 20
27.67755261894867
 30
0.0
  0
VERTEX
  5
4B7
330
49D
100
AcDbEntity
  8
レイヤー 1
 62
     7
370
     9
100
AcDbVertex
100
AcDb2dVertex
 10
142.0423203854964
 20
27.5580078056105
 30
0.0
  0
VERTEX
  5
4B8
330
49D
100
AcDbEntity
  8
レイヤー 1
 62
     7
370
     9
100
AcDbVertex
100
AcDb2dVertex
 10
142.116906702752
 20
27.44810925963103
 30
0.0
  0
VERTEX
  5
4B9
330
49D
100
AcDbEntity
  8
レイヤー 1
 62
     7
370
     9
100
AcDbVertex
100
AcDb2dVertex
 10
142.1982109562039
 20
27.34889050965583
 30
0.0
  0
VERTEX
  5
4BA
330
49D
100
AcDbEntity
  8
レイヤー 1
 62
     7
370
     9
100
AcDbVertex
100
AcDb2dVertex
 10
142.2864054006263
 20
27.26000704613639
 30
0.0
  0
VERTEX
  5
4BB
330
49D
100
AcDbEntity
  8
レイヤー 1
 62
     7
370
     9
100
AcDbVertex
100
AcDb2dVertex
 10
142.378733959631
 20
27.18421494546089
 30
0.0
  0
VERTEX
  5
4BC
330
49D
100
AcDbEntity
  8
レイヤー 1
 62
     7
370
     9
100
AcDbVertex
100
AcDb2dVertex
 10
142.4760579070893
 20
27.12220322672639
 30
0.0
  0
VERTEX
  5
4BD
330
49D
100
AcDbEntity
  8
レイヤー 1
 62
     7
370
     9
100
AcDbVertex
100
AcDb2dVertex
 10
142.5780327334527
 20
27.0725938517388
 30
0.0
  0
VERTEX
  5
4BE
330
49D
100
AcDbEntity
  8
レイヤー 1
 62
     7
370
     9
100
AcDbVertex
100
AcDb2dVertex
 10
142.6824191266558
 20
27.03779838733777
 30
0.0
  0
VERTEX
  5
4BF
330
49D
100
AcDbEntity
  8
レイヤー 1
 62
     7
370
     9
100
AcDbVertex
100
AcDb2dVertex
 10
142.7883558128272
 20
27.01816134307185
 30
0.0
  0
VERTEX
  5
4C0
330
49D
100
AcDbEntity
  8
レイヤー 1
 62
     7
370
     9
100
AcDbVertex
100
AcDb2dVertex
 10
142.8956705371928
 20
27.01264919029545
 30
0.0
  0
VERTEX
  5
4C1
330
49D
100
AcDbEntity
  8
レイヤー 1
 62
     7
370
     9
100
AcDbVertex
100
AcDb2dVertex
 10
143.0031575163325
 20
27.02229545765415
 30
0.0
  0
VERTEX
  5
4C2
330
49D
100
AcDbEntity
  8
レイヤー 1
 62
     7
370
     9
100
AcDbVertex
100
AcDb2dVertex
 10
143.1082329286327
 20
27.04710014514795
 30
0.0
  0
VERTEX
  5
4C3
330
49D
100
AcDbEntity
  8
レイヤー 1
 62
     7
370
     9
100
AcDbVertex
100
AcDb2dVertex
 10
143.2110690288674
 20
27.08568521458275
 30
0.0
  0
VERTEX
  5
4C4
330
49D
100
AcDbEntity
  8
レイヤー 1
 62
     7
370
     9
100
AcDbVertex
100
AcDb2dVertex
 10
143.3108045431654
 20
27.13873968505559
 30
0.0
  0
VERTEX
  5
4C5
330
49D
100
AcDbEntity
  8
レイヤー 1
 62
     7
370
     9
100
AcDbVertex
100
AcDb2dVertex
 10
143.4045111403641
 20
27.20488551837239
 30
0.0
  0
VERTEX
  5
4C6
330
49D
100
AcDbEntity
  8
レイヤー 1
 62
     7
370
     9
100
AcDbVertex
100
AcDb2dVertex
 10
143.4918443109152
 20
27.28308918588756
 30
0.0
  0
VERTEX
  5
4C7
330
49D
100
AcDbEntity
  8
レイヤー 1
 62
     7
370
     9
100
AcDbVertex
100
AcDb2dVertex
 10
143.5726318000443
 20
27.37438421624668
 30
0.0
  0
VERTEX
  5
4C8
330
49D
100
AcDbEntity
  8
レイヤー 1
 62
     7
370
     9
100
AcDbVertex
100
AcDb2dVertex
 10
143.6453233147831
 20
27.47567002351303
 30
0.0
  0
VERTEX
  5
4C9
330
49D
100
AcDbEntity
  8
レイヤー 1
 62
     7
370
     9
100
AcDbVertex
100
AcDb2dVertex
 10
143.7076795430661
 20
27.5869466076866
 30
0.0
  0
VERTEX
  5
4CA
330
49D
100
AcDbEntity
  8
レイヤー 1
 62
     7
370
     9
100
AcDbVertex
100
AcDb2dVertex
 10
143.7605617587647
 20
27.70718044012182
 30
0.0
  0
VERTEX
  5
4CB
330
49D
100
AcDbEntity
  8
レイヤー 1
 62
     7
370
     9
100
AcDbVertex
100
AcDb2dVertex
 10
143.8029364332333
 20
27.83533799217311
 30
0.0
  0
VERTEX
  5
4CC
330
49D
100
AcDbEntity
  8
レイヤー 1
 62
     7
370
     9
100
AcDbVertex
100
AcDb2dVertex
 10
143.8334255282778
 20
27.96969671609785
 30
0.0
  0
VERTEX
  5
4CD
330
49D
100
AcDbEntity
  8
レイヤー 1
 62
     7
370
     9
100
AcDbVertex
100
AcDb2dVertex
 10
143.8518567891238
 20
28.1081895546049
 30
0.0
  0
VERTEX
  5
4CE
330
49D
100
AcDbEntity
  8
レイヤー 1
 62
     7
370
     9
100
AcDbVertex
100
AcDb2dVertex
 10
143.8580579609973
 20
28.25116101724277
 30
0.0
  0
VERTEX
  5
4CF
330
49D
100
AcDbEntity
  8
レイヤー 1
 62
     7
370
     9
100
AcDbVertex
100
AcDb2dVertex
 10
143.8520290438981
 20
28.39688855626883
 30
0.0
  0
VERTEX
  5
4D0
330
49D
100
AcDbEntity
  8
レイヤー 1
 62
     7
370
     9
100
AcDbVertex
100
AcDb2dVertex
 10
143.833597783052
 20
28.54227158574638
 30
0.0
  0
VERTEX
  5
4D1
330
49D
100
AcDbEntity
  8
レイヤー 1
 62
     7
370
     9
100
AcDbVertex
100
AcDb2dVertex
 10
143.8034531975561
 20
28.6873101056754
 30
0.0
  0
VERTEX
  5
4D2
330
49D
100
AcDbEntity
  8
レイヤー 1
 62
     7
370
     9
100
AcDbVertex
100
AcDb2dVertex
 10
143.7615952874103
 20
28.83131509695884
 30
0.0
  0
VERTEX
  5
4D3
330
49D
100
AcDbEntity
  8
レイヤー 1
 62
     7
370
     9
100
AcDbVertex
100
AcDb2dVertex
 10
143.7087130717117
 20
28.97049695456293
 30
0.0
  0
VERTEX
  5
4D4
330
49D
100
AcDbEntity
  8
レイヤー 1
 62
     7
370
     9
100
AcDbVertex
100
AcDb2dVertex
 10
143.6460123338802
 20
29.1052001880362
 30
0.0
  0
VERTEX
  5
4D5
330
49D
100
AcDbEntity
  8
レイヤー 1
 62
     7
370
     9
100
AcDbVertex
100
AcDb2dVertex
 10
143.5738375834642
 20
29.2347357782816
 30
0.0
  0
VERTEX
  5
4D6
330
49D
100
AcDbEntity
  8
レイヤー 1
 62
     7
370
     9
100
AcDbVertex
100
AcDb2dVertex
 10
143.4932223491093
 20
29.35738117755649
 30
0.0
  0
VERTEX
  5
4D7
330
49D
100
AcDbEntity
  8
レイヤー 1
 62
     7
370
     9
100
AcDbVertex
100
AcDb2dVertex
 10
143.4060614333325
 20
29.47038030947268
 30
0.0
  0
VERTEX
  5
4D8
330
49D
100
AcDbEntity
  8
レイヤー 1
 62
     7
370
     9
100
AcDbVertex
100
AcDb2dVertex
 10
143.3118380718109
 20
29.57614474086985
 30
0.0
  0
VERTEX
  5
4D9
330
49D
100
AcDbEntity
  8
レイヤー 1
 62
     7
370
     9
100
AcDbVertex
100
AcDb2dVertex
 10
143.2126193218357
 20
29.67157388581127
 30
0.0
  0
VERTEX
  5
4DA
330
49D
100
AcDbEntity
  8
レイヤー 1
 62
     7
370
     9
100
AcDbVertex
100
AcDb2dVertex
 10
143.1104722406981
 20
29.75528970610285
 30
0.0
  0
VERTEX
  5
4DB
330
49D
100
AcDbEntity
  8
レイヤー 1
 62
     7
370
     9
100
AcDbVertex
100
AcDb2dVertex
 10
143.0048800640752
 20
29.82798122084162
 30
0.0
  0
VERTEX
  5
4DC
330
49D
100
AcDbEntity
  8
レイヤー 1
 62
     7
370
     9
100
AcDbVertex
100
AcDb2dVertex
 10
142.8977375944839
 20
29.88861490138201
 30
0.0
  0
VERTEX
  5
4DD
330
49D
100
AcDbEntity
  8
レイヤー 1
 62
     7
370
     9
100
AcDbVertex
100
AcDb2dVertex
 10
142.7899061057956
 20
29.93650172862699
 30
0.0
  0
VERTEX
  5
4DE
330
49D
100
AcDbEntity
  8
レイヤー 1
 62
     7
370
     9
100
AcDbVertex
100
AcDb2dVertex
 10
142.6827636362043
 20
29.97095268347949
 30
0.0
  0
SEQEND
  5
4DF
330
49D
100
AcDbEntity
  8
レイヤー 1
370
     9
  0
ENDBLK
  5
49C
330
499
100
AcDbEntity
  8
0
100
AcDbBlockEnd
  0
BLOCK
  5
4E2
330
4E0
100
AcDbEntity
  8
0
100
AcDbBlockBegin
  2
block 79
 70
     0
 10
0.0
 20
0.0
 30
0.0
  3
block 79
  1

  0
POLYLINE
  5
4E4
330
4E0
100
AcDbEntity
  8
レイヤー 1
 62
     7
370
     9
100
AcDb2dPolyline
 66
     1
 10
0.0
 20
0.0
 30
0.0
  0
VERTEX
  5
4E5
330
4E4
100
AcDbEntity
  8
レイヤー 1
 62
     7
370
     9
100
AcDbVertex
100
AcDb2dVertex
 10
142.9692233258028
 20
28.46096733229448
 30
0.0
  0
VERTEX
  5
4E6
330
4E4
100
AcDbEntity
  8
レイヤー 1
 62
     7
370
     9
100
AcDbVertex
100
AcDb2dVertex
 10
143.5195773295715
 20
28.59050292253988
 30
0.0
  0
VERTEX
  5
4E7
330
4E4
100
AcDbEntity
  8
レイヤー 1
 62
     7
370
     9
100
AcDbVertex
100
AcDb2dVertex
 10
143.7879502678725
 20
28.6445909216583
 30
0.0
  0
SEQEND
  5
4E8
330
4E4
100
AcDbEntity
  8
レイヤー 1
370
     9
  0
ENDBLK
  5
4E3
330
4E0
100
AcDbEntity
  8
0
100
AcDbBlockEnd
  0
BLOCK
  5
4EB
330
4E9
100
AcDbEntity
  8
0
100
AcDbBlockBegin
  2
block 80
 70
     0
 10
0.0
 20
0.0
 30
0.0
  3
block 80
  1

  0
POLYLINE
  5
4ED
330
4E9
100
AcDbEntity
  8
レイヤー 1
 62
     7
370
     9
100
AcDb2dPolyline
 66
     1
 10
0.0
 20
0.0
 30
0.0
  0
VERTEX
  5
4EE
330
4ED
100
AcDbEntity
  8
レイヤー 1
 62
     7
370
     9
100
AcDbVertex
100
AcDb2dVertex
 10
142.0950303464207
 20
28.19018282715384
 30
0.0
  0
VERTEX
  5
4EF
330
4ED
100
AcDbEntity
  8
レイヤー 1
 62
     7
370
     9
100
AcDbVertex
100
AcDb2dVertex
 10
142.4695122256674
 20
28.31868488875366
 30
0.0
  0
VERTEX
  5
4F0
330
4ED
100
AcDbEntity
  8
レイヤー 1
 62
     7
370
     9
100
AcDbVertex
100
AcDb2dVertex
 10
142.9692233258028
 20
28.46096733229448
 30
0.0
  0
SEQEND
  5
4F1
330
4ED
100
AcDbEntity
  8
レイヤー 1
370
     9
  0
ENDBLK
  5
4EC
330
4E9
100
AcDbEntity
  8
0
100
AcDbBlockEnd
  0
BLOCK
  5
4F4
330
4F2
100
AcDbEntity
  8
0
100
AcDbBlockBegin
  2
block 81
 70
     0
 10
0.0
 20
0.0
 30
0.0
  3
block 81
  1

  0
SPLINE
  5
4F6
330
4F2
100
AcDbEntity
  8
レイヤー 1
 62
     7
370
     9
100
AcDbSpline
210
0.0
220
0.0
230
1.0
 70
     8
 71
     3
 72
    32
 73
    28
 74
     0
 42
0.000000001
 43
0.0000000001
 40
0.0
 40
0.0
 40
0.0
 40
0.0
 40
1.0
 40
1.0
 40
1.0
 40
2.0
 40
2.0
 40
2.0
 40
3.0
 40
3.0
 40
3.0
 40
4.0
 40
4.0
 40
4.0
 40
5.0
 40
5.0
 40
5.0
 40
6.0
 40
6.0
 40
6.0
 40
7.0
 40
7.0
 40
7.0
 40
8.0
 40
8.0
 40
8.0
 40
9.0
 40
9.0
 40
9.0
 40
9.0
 10
142.4886325056105
 20
29.98645561316311
 30
0.0
 10
142.4393676401714
 20
29.96544053070308
 30
0.0
 10
142.3901027747324
 20
29.94511446734011
 30
0.0
 10
142.3466945716182
 20
29.91376409842434
 30
0.0
 10
142.2586723819701
 20
29.85071885104427
 30
0.0
 10
142.193043312976
 20
29.74426540055005
 30
0.0
 10
142.1406778616003
 20
29.62196451082368
 30
0.0
 10
142.0872788815789
 20
29.49966362109731
 30
0.0
 10
142.0478325382728
 20
29.36117078259026
 30
0.0
 10
142.0252671628444
 20
29.2085530525937
 30
0.0
 10
142.0030462969645
 20
29.05765787033975
 30
0.0
 10
141.9975341441881
 20
28.89332681569334
 30
0.0
 10
142.0076971758696
 20
28.72589517511019
 30
0.0
 10
142.0175156980026
 20
28.5605305918182
 30
0.0
 10
142.0435261689162
 20
28.39309895123506
 30
0.0
 10
142.0843505504164
 20
28.23152397297684
 30
0.0
 10
142.1256916962394
 20
28.06891546607305
 30
0.0
 10
142.1823635169718
 20
27.91250813104271
 30
0.0
 10
142.2531602291937
 20
27.77160372569599
 30
0.0
 10
142.3249904700611
 20
27.62897677260665
 30
0.0
 10
142.4119791310637
 20
27.50185274920093
 30
0.0
 10
142.5105088619418
 20
27.39643282735228
 30
0.0
 10
142.6093831023685
 20
27.29066839595511
 30
0.0
 10
142.7203151769936
 20
27.20591904701796
 30
0.0
 10
142.8379651878148
 20
27.15803221977299
 30
0.0
 10
142.9495862815369
 20
27.11290146891622
 30
0.0
 10
143.0675808019067
 20
27.1015326538149
 30
0.0
 10
143.1850585579537
 20
27.09016383871357
 30
0.0
  0
ENDBLK
  5
4F5
330
4F2
100
AcDbEntity
  8
0
100
AcDbBlockEnd
  0
BLOCK
  5
4F9
330
4F7
100
AcDbEntity
  8
0
100
AcDbBlockBegin
  2
block 82
 70
     0
 10
0.0
 20
0.0
 30
0.0
  3
block 82
  1

  0
SPLINE
  5
4FB
330
4F7
100
AcDbEntity
  8
レイヤー 1
 62
     7
370
     9
100
AcDbSpline
210
0.0
220
0.0
230
1.0
 70
     8
 71
     3
 72
    32
 73
    28
 74
     0
 42
0.000000001
 43
0.0000000001
 40
0.0
 40
0.0
 40
0.0
 40
0.0
 40
1.0
 40
1.0
 40
1.0
 40
2.0
 40
2.0
 40
2.0
 40
3.0
 40
3.0
 40
3.0
 40
4.0
 40
4.0
 40
4.0
 40
5.0
 40
5.0
 40
5.0
 40
6.0
 40
6.0
 40
6.0
 40
7.0
 40
7.0
 40
7.0
 40
8.0
 40
8.0
 40
8.0
 40
9.0
 40
9.0
 40
9.0
 40
9.0
 10
154.240714479669
 20
94.98920624795409
 30
0.0
 10
154.2551838807071
 20
94.98231605698359
 30
0.0
 10
154.268964262648
 20
94.97611488511014
 30
0.0
 10
154.282055625492
 20
94.96784665594554
 30
0.0
 10
154.3454453824206
 20
94.92891707696222
 30
0.0
 10
154.3909206428259
 20
94.85312497628672
 30
0.0
 10
154.427094145421
 20
94.76940915599515
 30
0.0
 10
154.4639566671132
 20
94.68534882615505
 30
0.0
 10
154.4925509596408
 20
94.59370928624742
 30
0.0
 10
154.5087429084214
 20
94.49207896943254
 30
0.0
 10
154.5245903476536
 20
94.39148218126324
 30
0.0
 10
154.5283799526873
 20
94.28089461618673
 30
0.0
 10
154.5201117235227
 20
94.16927352246464
 30
0.0
 10
154.5125325134552
 20
94.05799693829105
 30
0.0
 10
154.4932399787378
 20
93.9453423159234
 30
0.0
 10
154.4629231384676
 20
93.83716631768655
 30
0.0
 10
154.4326062981974
 20
93.72830130035265
 30
0.0
 10
154.3912651523744
 20
93.62425941669811
 30
0.0
 10
154.3402777391927
 20
93.53124183859636
 30
0.0
 10
154.2889458164625
 20
93.43753524139757
 30
0.0
 10
154.227623116825
 20
93.35485294975157
 30
0.0
 10
154.1594102262171
 20
93.28560653049804
 30
0.0
 10
154.0908528260606
 20
93.21670462079305
 30
0.0
 10
154.0154052349337
 20
93.160894073932
 30
0.0
 10
153.9365125483214
 20
93.13161076230737
 30
0.0
 10
153.8714002436502
 20
93.10783960345915
 30
0.0
 10
153.8045653912364
 20
93.10163843158571
 30
0.0
 10
153.737386029274
 20
93.09543725971226
 30
0.0
  0
ENDBLK
  5
4FA
330
4F7
100
AcDbEntity
  8
0
100
AcDbBlockEnd
  0
BLOCK
  5
4FE
330
4FC
100
AcDbEntity
  8
0
100
AcDbBlockBegin
  2
block 83
 70
     0
 10
0.0
 20
0.0
 30
0.0
  3
block 83
  1

  0
SPLINE
  5
500
330
4FC
100
AcDbEntity
  8
レイヤー 1
 62
     7
370
     9
100
AcDbSpline
210
0.0
220
0.0
230
1.0
 70
     8
 71
     3
 72
    32
 73
    28
 74
     0
 42
0.000000001
 43
0.0000000001
 40
0.0
 40
0.0
 40
0.0
 40
0.0
 40
1.0
 40
1.0
 40
1.0
 40
2.0
 40
2.0
 40
2.0
 40
3.0
 40
3.0
 40
3.0
 40
4.0
 40
4.0
 40
4.0
 40
5.0
 40
5.0
 40
5.0
 40
6.0
 40
6.0
 40
6.0
 40
7.0
 40
7.0
 40
7.0
 40
8.0
 40
8.0
 40
8.0
 40
9.0
 40
9.0
 40
9.0
 40
9.0
 10
154.240714479669
 20
163.4256835528936
 30
0.0
 10
154.2551838807071
 20
163.4191378714716
 30
0.0
 10
154.268964262648
 20
163.4125921900497
 30
0.0
 10
154.282055625492
 20
163.4043239608851
 30
0.0
 10
154.3454453824206
 20
163.3657388914502
 30
0.0
 10
154.3909206428259
 20
163.2897745360005
 30
0.0
 10
154.427094145421
 20
163.2058864609346
 30
0.0
 10
154.4639566671132
 20
163.1219983858688
 30
0.0
 10
154.4925509596408
 20
163.0303588459612
 30
0.0
 10
154.5087429084214
 20
162.9289007839206
 30
0.0
 10
154.5245903476536
 20
162.8279594862027
 30
0.0
 10
154.5283799526873
 20
162.7177164306748
 30
0.0
 10
154.5201117235227
 20
162.6057508274041
 30
0.0
 10
154.5125325134552
 20
162.4946464980048
 30
0.0
 10
154.4932399787378
 20
162.3819918756371
 30
0.0
 10
154.4629231384676
 20
162.2738158774003
 30
0.0
 10
154.4326062981974
 20
162.1652953696149
 30
0.0
 10
154.3912651523744
 20
162.0610812311861
 30
0.0
 10
154.3402777391927
 20
161.9678913983101
 30
0.0
 10
154.2889458164625
 20
161.8740125463371
 30
0.0
 10
154.227623116825
 20
161.7915025094653
 30
0.0
 10
154.1594102262171
 20
161.7224283449861
 30
0.0
 10
154.0908528260606
 20
161.6533541805068
 30
0.0
 10
154.0154052349337
 20
161.59771588842
 30
0.0
 10
153.9365125483214
 20
161.5686048315697
 30
0.0
 10
153.8714002436502
 20
161.5446614179472
 30
0.0
 10
153.8045653912364
 20
161.5384602460737
 30
0.0
 10
153.737386029274
 20
161.5324313289745
 30
0.0
  0
ENDBLK
  5
4FF
330
4FC
100
AcDbEntity
  8
0
100
AcDbBlockEnd
  0
BLOCK
  5
503
330
501
100
AcDbEntity
  8
0
100
AcDbBlockBegin
  2
block 84
 70
     0
 10
0.0
 20
0.0
 30
0.0
  3
block 84
  1

  0
SPLINE
  5
505
330
501
100
AcDbEntity
  8
レイヤー 1
 62
     7
370
     9
100
AcDbSpline
210
0.0
220
0.0
230
1.0
 70
     8
 71
     3
 72
     8
 73
     4
 74
     0
 42
0.000000001
 43
0.0000000001
 40
0.0
 40
0.0
 40
0.0
 40
0.0
 40
1.0
 40
1.0
 40
1.0
 40
1.0
 10
140.3194281333229
 20
206.9439574677953
 30
0.0
 10
140.3321749866184
 20
206.7327731145494
 30
0.0
 10
140.4317382461421
 20
206.5362304171159
 30
0.0
 10
140.5950357721429
 20
206.4015271836427
 30
0.0
  0
ENDBLK
  5
504
330
501
100
AcDbEntity
  8
0
100
AcDbBlockEnd
  0
BLOCK
  5
508
330
506
100
AcDbEntity
  8
0
100
AcDbBlockBegin
  2
block 85
 70
     0
 10
0.0
 20
0.0
 30
0.0
  3
block 85
  1

  0
POLYLINE
  5
50A
330
506
100
AcDbEntity
  8
レイヤー 1
 62
     7
370
     9
100
AcDb2dPolyline
 66
     1
 10
0.0
 20
0.0
 30
0.0
  0
VERTEX
  5
50B
330
50A
100
AcDbEntity
  8
レイヤー 1
 62
     7
370
     9
100
AcDbVertex
100
AcDb2dVertex
 10
156.5134439712883
 20
206.9458522703121
 30
0.0
  0
VERTEX
  5
50C
330
50A
100
AcDbEntity
  8
レイヤー 1
 62
     7
370
     9
100
AcDbVertex
100
AcDb2dVertex
 10
156.4962184938621
 20
206.8046033554169
 30
0.0
  0
VERTEX
  5
50D
330
50A
100
AcDbEntity
  8
レイヤー 1
 62
     7
370
     9
100
AcDbVertex
100
AcDb2dVertex
 10
156.4100911067308
 20
206.6096109509518
 30
0.0
  0
VERTEX
  5
50E
330
50A
100
AcDbEntity
  8
レイヤー 1
 62
     7
370
     9
100
AcDbVertex
100
AcDb2dVertex
 10
156.2543727907975
 20
206.4173746228748
 30
0.0
  0
VERTEX
  5
50F
330
50A
100
AcDbEntity
  8
レイヤー 1
 62
     7
370
     9
100
AcDbVertex
100
AcDb2dVertex
 10
156.0290635460622
 20
206.2294446641544
 30
0.0
  0
VERTEX
  5
510
330
50A
100
AcDbEntity
  8
レイヤー 1
 62
     7
370
     9
100
AcDbVertex
100
AcDb2dVertex
 10
155.7372639584615
 20
206.0482326416303
 30
0.0
  0
VERTEX
  5
511
330
50A
100
AcDbEntity
  8
レイヤー 1
 62
     7
370
     9
100
AcDbVertex
100
AcDb2dVertex
 10
155.3806965757382
 20
205.874772083948
 30
0.0
  0
VERTEX
  5
512
330
50A
100
AcDbEntity
  8
レイヤー 1
 62
     7
370
     9
100
AcDbVertex
100
AcDb2dVertex
 10
154.9634955124744
 20
205.7107855388501
 30
0.0
  0
VERTEX
  5
513
330
50A
100
AcDbEntity
  8
レイヤー 1
 62
     7
370
     9
100
AcDbVertex
100
AcDb2dVertex
 10
154.4884168450585
 20
205.5574787897565
 30
0.0
  0
VERTEX
  5
514
330
50A
100
AcDbEntity
  8
レイヤー 1
 62
     7
370
     9
100
AcDbVertex
100
AcDb2dVertex
 10
153.9602837071697
 20
205.4164021296355
 30
0.0
  0
VERTEX
  5
515
330
50A
100
AcDbEntity
  8
レイヤー 1
 62
     7
370
     9
100
AcDbVertex
100
AcDb2dVertex
 10
153.3832302133903
 20
205.288761341907
 30
0.0
  0
VERTEX
  5
516
330
50A
100
AcDbEntity
  8
レイヤー 1
 62
     7
370
     9
100
AcDbVertex
100
AcDb2dVertex
 10
152.7627685164968
 20
205.1757622099908
 30
0.0
  0
VERTEX
  5
517
330
50A
100
AcDbEntity
  8
レイヤー 1
 62
     7
370
     9
100
AcDbVertex
100
AcDb2dVertex
 10
152.1037217501685
 20
205.078093752984
 30
0.0
  0
VERTEX
  5
518
330
50A
100
AcDbEntity
  8
レイヤー 1
 62
     7
370
     9
100
AcDbVertex
100
AcDb2dVertex
 10
151.4126355958274
 20
204.9967894995321
 30
0.0
  0
VERTEX
  5
519
330
50A
100
AcDbEntity
  8
レイヤー 1
 62
     7
370
     9
100
AcDbVertex
100
AcDb2dVertex
 10
150.6950222062499
 20
204.9328829782807
 30
0.0
  0
VERTEX
  5
51A
330
50A
100
AcDbEntity
  8
レイヤー 1
 62
     7
370
     9
100
AcDbVertex
100
AcDb2dVertex
 10
149.9574272628579
 20
204.8863741892298
 30
0.0
  0
VERTEX
  5
51B
330
50A
100
AcDbEntity
  8
レイヤー 1
 62
     7
370
     9
100
AcDbVertex
100
AcDb2dVertex
 10
149.2057074279764
 20
204.8579521514765
 30
0.0
  0
VERTEX
  5
51C
330
50A
100
AcDbEntity
  8
レイヤー 1
 62
     7
370
     9
100
AcDbVertex
100
AcDb2dVertex
 10
148.4481309307699
 20
204.8481336293435
 30
0.0
  0
VERTEX
  5
51D
330
50A
100
AcDbEntity
  8
レイヤー 1
 62
     7
370
     9
100
AcDbVertex
100
AcDb2dVertex
 10
147.6896931596922
 20
204.8567463680567
 30
0.0
  0
VERTEX
  5
51E
330
50A
100
AcDbEntity
  8
レイヤー 1
 62
     7
370
     9
100
AcDbVertex
100
AcDb2dVertex
 10
146.9374565604879
 20
204.8832736032931
 30
0.0
  0
VERTEX
  5
51F
330
50A
100
AcDbEntity
  8
レイヤー 1
 62
     7
370
     9
100
AcDbVertex
100
AcDb2dVertex
 10
146.198655833676
 20
204.9284043541498
 30
0.0
  0
VERTEX
  5
520
330
50A
100
AcDbEntity
  8
レイヤー 1
 62
     7
370
     9
100
AcDbVertex
100
AcDb2dVertex
 10
145.4793198963559
 20
204.9909328372071
 30
0.0
  0
VERTEX
  5
521
330
50A
100
AcDbEntity
  8
レイヤー 1
 62
     7
370
     9
100
AcDbVertex
100
AcDb2dVertex
 10
144.7854776656266
 20
205.0705145429164
 30
0.0
  0
VERTEX
  5
522
330
50A
100
AcDbEntity
  8
レイヤー 1
 62
     7
370
     9
100
AcDbVertex
100
AcDb2dVertex
 10
144.1238470776843
 20
205.1668049617291
 30
0.0
  0
VERTEX
  5
523
330
50A
100
AcDbEntity
  8
レイヤー 1
 62
     7
370
     9
100
AcDbVertex
100
AcDb2dVertex
 10
143.4999402853056
 20
205.2785983102255
 30
0.0
  0
VERTEX
  5
524
330
50A
100
AcDbEntity
  8
レイヤー 1
 62
     7
370
     9
100
AcDbVertex
100
AcDb2dVertex
 10
142.9189249317182
 20
205.4052055693084
 30
0.0
  0
VERTEX
  5
525
330
50A
100
AcDbEntity
  8
レイヤー 1
 62
     7
370
     9
100
AcDbVertex
100
AcDb2dVertex
 10
142.3864854244728
 20
205.5450764460096
 30
0.0
  0
VERTEX
  5
526
330
50A
100
AcDbEntity
  8
レイヤー 1
 62
     7
370
     9
100
AcDbVertex
100
AcDb2dVertex
 10
141.9069281329261
 20
205.6975219212319
 30
0.0
  0
VERTEX
  5
527
330
50A
100
AcDbEntity
  8
レイヤー 1
 62
     7
370
     9
100
AcDbVertex
100
AcDb2dVertex
 10
141.4842149168859
 20
205.8608194472327
 30
0.0
  0
VERTEX
  5
528
330
50A
100
AcDbEntity
  8
レイヤー 1
 62
     7
370
     9
100
AcDbVertex
100
AcDb2dVertex
 10
141.1229966552575
 20
206.0334187310437
 30
0.0
  0
VERTEX
  5
529
330
50A
100
AcDbEntity
  8
レイヤー 1
 62
     7
370
     9
100
AcDbVertex
100
AcDb2dVertex
 10
140.8258571696547
 20
206.2142862440193
 30
0.0
  0
VERTEX
  5
52A
330
50A
100
AcDbEntity
  8
レイヤー 1
 62
     7
370
     9
100
AcDbVertex
100
AcDb2dVertex
 10
140.5950357721429
 20
206.4015271836427
 30
0.0
  0
SEQEND
  5
52B
330
50A
100
AcDbEntity
  8
レイヤー 1
370
     9
  0
ENDBLK
  5
509
330
506
100
AcDbEntity
  8
0
100
AcDbBlockEnd
  0
BLOCK
  5
52E
330
52C
100
AcDbEntity
  8
0
100
AcDbBlockBegin
  2
block 86
 70
     0
 10
0.0
 20
0.0
 30
0.0
  3
block 86
  1

  0
POLYLINE
  5
530
330
52C
100
AcDbEntity
  8
レイヤー 1
 62
     7
370
     9
100
AcDb2dPolyline
 66
     1
 10
0.0
 20
0.0
 30
0.0
  0
VERTEX
  5
531
330
530
100
AcDbEntity
  8
レイヤー 1
 62
     7
370
     9
100
AcDbVertex
100
AcDb2dVertex
 10
140.3194281333229
 20
185.435192824735
 30
0.0
  0
VERTEX
  5
532
330
530
100
AcDbEntity
  8
レイヤー 1
 62
     7
370
     9
100
AcDbVertex
100
AcDb2dVertex
 10
140.3221842097111
 20
185.3780042396798
 30
0.0
  0
VERTEX
  5
533
330
530
100
AcDbEntity
  8
レイヤー 1
 62
     7
370
     9
100
AcDbVertex
100
AcDb2dVertex
 10
140.378511520895
 20
185.1819783065691
 30
0.0
  0
VERTEX
  5
534
330
530
100
AcDbEntity
  8
レイヤー 1
 62
     7
370
     9
100
AcDbVertex
100
AcDb2dVertex
 10
140.5056355443007
 20
184.9881916855238
 30
0.0
  0
VERTEX
  5
535
330
530
100
AcDbEntity
  8
レイヤー 1
 62
     7
370
     9
100
AcDbVertex
100
AcDb2dVertex
 10
140.7020059869599
 20
184.7983669242865
 30
0.0
  0
VERTEX
  5
536
330
530
100
AcDbEntity
  8
レイヤー 1
 62
     7
370
     9
100
AcDbVertex
100
AcDb2dVertex
 10
140.9664170654528
 20
184.6143988253742
 30
0.0
  0
VERTEX
  5
537
330
530
100
AcDbEntity
  8
レイヤー 1
 62
     7
370
     9
100
AcDbVertex
100
AcDb2dVertex
 10
141.2961127033913
 20
184.4373209174323
 30
0.0
  0
VERTEX
  5
538
330
530
100
AcDbEntity
  8
レイヤー 1
 62
     7
370
     9
100
AcDbVertex
100
AcDb2dVertex
 10
141.6883368243869
 20
184.2692002577521
 30
0.0
  0
VERTEX
  5
539
330
530
100
AcDbEntity
  8
レイヤー 1
 62
     7
370
     9
100
AcDbVertex
100
AcDb2dVertex
 10
142.1396443329547
 20
184.1112426297534
 30
0.0
  0
VERTEX
  5
53A
330
530
100
AcDbEntity
  8
レイヤー 1
 62
     7
370
     9
100
AcDbVertex
100
AcDb2dVertex
 10
142.6460733692864
 20
183.9649983264046
 30
0.0
  0
VERTEX
  5
53B
330
530
100
AcDbEntity
  8
レイヤー 1
 62
     7
370
     9
100
AcDbVertex
100
AcDb2dVertex
 10
143.2033175640256
 20
183.8316731311254
 30
0.0
  0
VERTEX
  5
53C
330
530
100
AcDbEntity
  8
レイヤー 1
 62
     7
370
     9
100
AcDbVertex
100
AcDb2dVertex
 10
143.8065537834928
 20
183.7121283177873
 30
0.0
  0
VERTEX
  5
53D
330
530
100
AcDbEntity
  8
レイヤー 1
 62
     7
370
     9
100
AcDbVertex
100
AcDb2dVertex
 10
144.450442129686
 20
183.6080864341327
 30
0.0
  0
VERTEX
  5
53E
330
530
100
AcDbEntity
  8
レイヤー 1
 62
     7
370
     9
100
AcDbVertex
100
AcDb2dVertex
 10
145.1287814307317
 20
183.5198919897103
 30
0.0
  0
VERTEX
  5
53F
330
530
100
AcDbEntity
  8
レイヤー 1
 62
     7
370
     9
100
AcDbVertex
100
AcDb2dVertex
 10
145.8362317886277
 20
183.4489230227142
 30
0.0
  0
VERTEX
  5
540
330
530
100
AcDbEntity
  8
レイヤー 1
 62
     7
370
     9
100
AcDbVertex
100
AcDb2dVertex
 10
146.5664197767265
 20
183.3948350235957
 30
0.0
  0
VERTEX
  5
541
330
530
100
AcDbEntity
  8
レイヤー 1
 62
     7
370
     9
100
AcDbVertex
100
AcDb2dVertex
 10
147.3127997136058
 20
183.3590060305492
 30
0.0
  0
VERTEX
  5
542
330
530
100
AcDbEntity
  8
レイヤー 1
 62
     7
370
     9
100
AcDbVertex
100
AcDb2dVertex
 10
148.0686536630697
 20
183.3414360435744
 30
0.0
  0
VERTEX
  5
543
330
530
100
AcDbEntity
  8
レイヤー 1
 62
     7
370
     9
100
AcDbVertex
100
AcDb2dVertex
 10
148.8277804532445
 20
183.3421250626714
 30
0.0
  0
VERTEX
  5
544
330
530
100
AcDbEntity
  8
レイヤー 1
 62
     7
370
     9
100
AcDbVertex
100
AcDb2dVertex
 10
149.5829453836112
 20
183.3612453426146
 30
0.0
  0
VERTEX
  5
545
330
530
100
AcDbEntity
  8
レイヤー 1
 62
     7
370
     9
100
AcDbVertex
100
AcDb2dVertex
 10
150.3281195370708
 20
183.3987968834038
 30
0.0
  0
VERTEX
  5
546
330
530
100
AcDbEntity
  8
レイヤー 1
 62
     7
370
     9
100
AcDbVertex
100
AcDb2dVertex
 10
151.0567572322011
 20
183.454090665942
 30
0.0
  0
VERTEX
  5
547
330
530
100
AcDbEntity
  8
レイヤー 1
 62
     7
370
     9
100
AcDbVertex
100
AcDb2dVertex
 10
151.7619682780317
 20
183.5267821806808
 30
0.0
  0
VERTEX
  5
548
330
530
100
AcDbEntity
  8
レイヤー 1
 62
     7
370
     9
100
AcDbVertex
100
AcDb2dVertex
 10
152.4378960122378
 20
183.6161824085231
 30
0.0
  0
VERTEX
  5
549
330
530
100
AcDbEntity
  8
レイヤー 1
 62
     7
370
     9
100
AcDbVertex
100
AcDb2dVertex
 10
153.0779947533972
 20
183.7216023303717
 30
0.0
  0
VERTEX
  5
54A
330
530
100
AcDbEntity
  8
レイヤー 1
 62
     7
370
     9
100
AcDbVertex
100
AcDb2dVertex
 10
153.6774413678307
 20
183.8421806723554
 30
0.0
  0
VERTEX
  5
54B
330
530
100
AcDbEntity
  8
レイヤー 1
 62
     7
370
     9
100
AcDbVertex
100
AcDb2dVertex
 10
154.2307237027618
 20
183.9765393962802
 30
0.0
  0
VERTEX
  5
54C
330
530
100
AcDbEntity
  8
レイヤー 1
 62
     7
370
     9
100
AcDbVertex
100
AcDb2dVertex
 10
154.7326741149627
 20
184.1239894830489
 30
0.0
  0
VERTEX
  5
54D
330
530
100
AcDbEntity
  8
レイヤー 1
 62
     7
370
     9
100
AcDbVertex
100
AcDb2dVertex
 10
155.1798475089481
 20
184.2828083849189
 30
0.0
  0
VERTEX
  5
54E
330
530
100
AcDbEntity
  8
レイヤー 1
 62
     7
370
     9
100
AcDbVertex
100
AcDb2dVertex
 10
155.5667317319416
 20
184.4517903184704
 30
0.0
  0
VERTEX
  5
54F
330
530
100
AcDbEntity
  8
レイヤー 1
 62
     7
370
     9
100
AcDbVertex
100
AcDb2dVertex
 10
155.8912597266522
 20
184.629384990735
 30
0.0
  0
VERTEX
  5
550
330
530
100
AcDbEntity
  8
レイヤー 1
 62
     7
370
     9
100
AcDbVertex
100
AcDb2dVertex
 10
156.1499863975945
 20
184.8142143635187
 30
0.0
  0
VERTEX
  5
551
330
530
100
AcDbEntity
  8
レイヤー 1
 62
     7
370
     9
100
AcDbVertex
100
AcDb2dVertex
 10
156.3408446874773
 20
185.0042113795302
 30
0.0
  0
VERTEX
  5
552
330
530
100
AcDbEntity
  8
レイヤー 1
 62
     7
370
     9
100
AcDbVertex
100
AcDb2dVertex
 10
156.4617675390096
 20
185.198342510124
 30
0.0
  0
VERTEX
  5
553
330
530
100
AcDbEntity
  8
レイヤー 1
 62
     7
370
     9
100
AcDbVertex
100
AcDb2dVertex
 10
156.5120659330942
 20
185.3941961884605
 30
0.0
  0
VERTEX
  5
554
330
530
100
AcDbEntity
  8
レイヤー 1
 62
     7
370
     9
100
AcDbVertex
100
AcDb2dVertex
 10
156.5134439712883
 20
185.435192824735
 30
0.0
  0
SEQEND
  5
555
330
530
100
AcDbEntity
  8
レイヤー 1
370
     9
  0
ENDBLK
  5
52F
330
52C
100
AcDbEntity
  8
0
100
AcDbBlockEnd
  0
BLOCK
  5
558
330
556
100
AcDbEntity
  8
0
100
AcDbBlockBegin
  2
block 87
 70
     0
 10
0.0
 20
0.0
 30
0.0
  3
block 87
  1

  0
SPLINE
  5
55A
330
556
100
AcDbEntity
  8
レイヤー 1
 62
     7
370
     9
100
AcDbSpline
210
0.0
220
0.0
230
1.0
 70
     8
 71
     3
 72
    11
 73
     7
 74
     0
 42
0.000000001
 43
0.0000000001
 40
0.0
 40
0.0
 40
0.0
 40
0.0
 40
1.0
 40
1.0
 40
1.0
 40
2.0
 40
2.0
 40
2.0
 40
2.0
 10
140.5254448433409
 20
184.6336913600916
 30
0.0
 10
140.2162475235397
 20
184.4045925103225
 30
0.0
 10
140.1511352188685
 20
183.9677544027928
 30
0.0
 10
140.3802340686376
 20
183.6583848282174
 30
0.0
 10
140.3855739666397
 20
183.6508056181498
 30
0.0
 10
140.3917751385132
 20
183.6432264080823
 30
0.0
 10
140.3976318008381
 20
183.635819452789
 30
0.0
  0
ENDBLK
  5
559
330
556
100
AcDbEntity
  8
0
100
AcDbBlockEnd
  0
BLOCK
  5
55D
330
55B
100
AcDbEntity
  8
0
100
AcDbBlockBegin
  2
block 88
 70
     0
 10
0.0
 20
0.0
 30
0.0
  3
block 88
  1

  0
SPLINE
  5
55F
330
55B
100
AcDbEntity
  8
レイヤー 1
 62
     7
370
     9
100
AcDbSpline
210
0.0
220
0.0
230
1.0
 70
     8
 71
     3
 72
    11
 73
     7
 74
     0
 42
0.000000001
 43
0.0000000001
 40
0.0
 40
0.0
 40
0.0
 40
0.0
 40
1.0
 40
1.0
 40
1.0
 40
2.0
 40
2.0
 40
2.0
 40
2.0
 10
156.3773626996209
 20
183.5695013646979
 30
0.0
 10
156.6550373957321
 20
183.8395968507415
 30
0.0
 10
156.66020503896
 20
184.2831528944674
 30
0.0
 10
156.3907985720134
 20
184.5603108262558
 30
0.0
 10
156.3659938845196
 20
184.5854600232981
 30
0.0
 10
156.3391221397347
 20
184.6088866725978
 30
0.0
 10
156.3108723567556
 20
184.6302462646063
 30
0.0
  0
ENDBLK
  5
55E
330
55B
100
AcDbEntity
  8
0
100
AcDbBlockEnd
  0
BLOCK
  5
562
330
560
100
AcDbEntity
  8
0
100
AcDbBlockBegin
  2
block 89
 70
     0
 10
0.0
 20
0.0
 30
0.0
  3
block 89
  1

  0
POLYLINE
  5
564
330
560
100
AcDbEntity
  8
レイヤー 1
 62
     7
370
     9
100
AcDb2dPolyline
 66
     1
 10
0.0
 20
0.0
 30
0.0
  0
VERTEX
  5
565
330
564
100
AcDbEntity
  8
レイヤー 1
 62
     7
370
     9
100
AcDbVertex
100
AcDb2dVertex
 10
156.4969075129591
 20
183.4899196589886
 30
0.0
  0
VERTEX
  5
566
330
564
100
AcDbEntity
  8
レイヤー 1
 62
     7
370
     9
100
AcDbVertex
100
AcDb2dVertex
 10
156.4076795398911
 20
183.3987968834038
 30
0.0
  0
VERTEX
  5
567
330
564
100
AcDbEntity
  8
レイヤー 1
 62
     7
370
     9
100
AcDbVertex
100
AcDb2dVertex
 10
156.1661783463751
 20
183.2077663387467
 30
0.0
  0
VERTEX
  5
568
330
564
100
AcDbEntity
  8
レイヤー 1
 62
     7
370
     9
100
AcDbVertex
100
AcDb2dVertex
 10
155.8557752431541
 20
183.0231092207373
 30
0.0
  0
VERTEX
  5
569
330
564
100
AcDbEntity
  8
レイヤー 1
 62
     7
370
     9
100
AcDbVertex
100
AcDb2dVertex
 10
155.4806043448104
 20
182.847064841441
 30
0.0
  0
VERTEX
  5
56A
330
564
100
AcDbEntity
  8
レイヤー 1
 62
     7
370
     9
100
AcDbVertex
100
AcDb2dVertex
 10
155.0430772181837
 20
182.6808389842777
 30
0.0
  0
VERTEX
  5
56B
330
564
100
AcDbEntity
  8
レイヤー 1
 62
     7
370
     9
100
AcDbVertex
100
AcDb2dVertex
 10
154.5473279778562
 20
182.5258096874415
 30
0.0
  0
VERTEX
  5
56C
330
564
100
AcDbEntity
  8
レイヤー 1
 62
     7
370
     9
100
AcDbVertex
100
AcDb2dVertex
 10
153.9978352479589
 20
182.3836994986749
 30
0.0
  0
VERTEX
  5
56D
330
564
100
AcDbEntity
  8
レイヤー 1
 62
     7
370
     9
100
AcDbVertex
100
AcDb2dVertex
 10
153.3990776526225
 20
182.2553696918494
 30
0.0
  0
VERTEX
  5
56E
330
564
100
AcDbEntity
  8
レイヤー 1
 62
     7
370
     9
100
AcDbVertex
100
AcDb2dVertex
 10
152.7565673446234
 20
182.1420260503846
 30
0.0
  0
VERTEX
  5
56F
330
564
100
AcDbEntity
  8
レイヤー 1
 62
     7
370
     9
100
AcDbVertex
100
AcDb2dVertex
 10
152.0761609862865
 20
182.0450466124749
 30
0.0
  0
VERTEX
  5
570
330
564
100
AcDbEntity
  8
レイヤー 1
 62
     7
370
     9
100
AcDbVertex
100
AcDb2dVertex
 10
151.3633707303883
 20
181.9647758876685
 30
0.0
  0
VERTEX
  5
571
330
564
100
AcDbEntity
  8
レイヤー 1
 62
     7
370
     9
100
AcDbVertex
100
AcDb2dVertex
 10
150.6250867678993
 20
181.902075149837
 30
0.0
  0
VERTEX
  5
572
330
564
100
AcDbEntity
  8
レイヤー 1
 62
     7
370
     9
100
AcDbVertex
100
AcDb2dVertex
 10
149.8668212515958
 20
181.8576334180773
 30
0.0
  0
VERTEX
  5
573
330
564
100
AcDbEntity
  8
レイヤー 1
 62
     7
370
     9
100
AcDbVertex
100
AcDb2dVertex
 10
149.0958088819969
 20
181.8317952019379
 30
0.0
  0
VERTEX
  5
574
330
564
100
AcDbEntity
  8
レイヤー 1
 62
     7
370
     9
100
AcDbVertex
100
AcDb2dVertex
 10
148.3192843596216
 20
181.8245605014189
 30
0.0
  0
VERTEX
  5
575
330
564
100
AcDbEntity
  8
レイヤー 1
 62
     7
370
     9
100
AcDbVertex
100
AcDb2dVertex
 10
147.5434488563433
 20
181.8366183356172
 30
0.0
  0
VERTEX
  5
576
330
564
100
AcDbEntity
  8
レイヤー 1
 62
     7
370
     9
100
AcDbVertex
100
AcDb2dVertex
 10
146.7751925631326
 20
181.8669351758874
 30
0.0
  0
VERTEX
  5
577
330
564
100
AcDbEntity
  8
レイヤー 1
 62
     7
370
     9
100
AcDbVertex
100
AcDb2dVertex
 10
146.0214056709599
 20
181.9160277865523
 30
0.0
  0
VERTEX
  5
578
330
564
100
AcDbEntity
  8
レイヤー 1
 62
     7
370
     9
100
AcDbVertex
100
AcDb2dVertex
 10
145.2888061160216
 20
181.9832071485146
 30
0.0
  0
VERTEX
  5
579
330
564
100
AcDbEntity
  8
レイヤー 1
 62
     7
370
     9
100
AcDbVertex
100
AcDb2dVertex
 10
144.5835950701909
 20
182.0677842426775
 30
0.0
  0
VERTEX
  5
57A
330
564
100
AcDbEntity
  8
レイヤー 1
 62
     7
370
     9
100
AcDbVertex
100
AcDb2dVertex
 10
143.9116291957929
 20
182.1688977951696
 30
0.0
  0
VERTEX
  5
57B
330
564
100
AcDbEntity
  8
レイヤー 1
 62
     7
370
     9
100
AcDbVertex
100
AcDb2dVertex
 10
143.2797986837981
 20
182.2860310416681
 30
0.0
  0
VERTEX
  5
57C
330
564
100
AcDbEntity
  8
レイヤー 1
 62
     7
370
     9
100
AcDbVertex
100
AcDb2dVertex
 10
142.6930989226601
 20
182.4179781987532
 30
0.0
  0
VERTEX
  5
57D
330
564
100
AcDbEntity
  8
レイヤー 1
 62
     7
370
     9
100
AcDbVertex
100
AcDb2dVertex
 10
142.1563530460581
 20
182.563533483005
 30
0.0
  0
VERTEX
  5
57E
330
564
100
AcDbEntity
  8
レイヤー 1
 62
     7
370
     9
100
AcDbVertex
100
AcDb2dVertex
 10
141.6750732067687
 20
182.7213188562294
 30
0.0
  0
VERTEX
  5
57F
330
564
100
AcDbEntity
  8
レイヤー 1
 62
     7
370
     9
100
AcDbVertex
100
AcDb2dVertex
 10
141.2525322455028
 20
182.8901285350067
 30
0.0
  0
VERTEX
  5
580
330
564
100
AcDbEntity
  8
レイヤー 1
 62
     7
370
     9
100
AcDbVertex
100
AcDb2dVertex
 10
140.8933810411656
 20
183.0685844811426
 30
0.0
  0
VERTEX
  5
581
330
564
100
AcDbEntity
  8
レイヤー 1
 62
     7
370
     9
100
AcDbVertex
100
AcDb2dVertex
 10
140.5998589058223
 20
183.2549641468946
 30
0.0
  0
VERTEX
  5
582
330
564
100
AcDbEntity
  8
レイヤー 1
 62
     7
370
     9
100
AcDbVertex
100
AcDb2dVertex
 10
140.3988375842579
 20
183.4242905899946
 30
0.0
  0
SEQEND
  5
583
330
564
100
AcDbEntity
  8
レイヤー 1
370
     9
  0
ENDBLK
  5
563
330
560
100
AcDbEntity
  8
0
100
AcDbBlockEnd
  0
BLOCK
  5
586
330
584
100
AcDbEntity
  8
0
100
AcDbBlockBegin
  2
block 90
 70
     0
 10
0.0
 20
0.0
 30
0.0
  3
block 90
  1

  0
POLYLINE
  5
588
330
584
100
AcDbEntity
  8
レイヤー 1
 62
     7
370
     9
100
AcDb2dPolyline
 66
     1
 10
0.0
 20
0.0
 30
0.0
  0
VERTEX
  5
589
330
588
100
AcDbEntity
  8
レイヤー 1
 62
     7
370
     9
100
AcDbVertex
100
AcDb2dVertex
 10
154.302381688855
 20
178.7110554566243
 30
0.0
  0
VERTEX
  5
58A
330
588
100
AcDbEntity
  8
レイヤー 1
 62
     7
370
     9
100
AcDbVertex
100
AcDb2dVertex
 10
154.144251806082
 20
178.634057572529
 30
0.0
  0
VERTEX
  5
58B
330
588
100
AcDbEntity
  8
レイヤー 1
 62
     7
370
     9
100
AcDbVertex
100
AcDb2dVertex
 10
154.0033474007353
 20
178.4933254219565
 30
0.0
  0
VERTEX
  5
58C
330
588
100
AcDbEntity
  8
レイヤー 1
 62
     7
370
     9
100
AcDbVertex
100
AcDb2dVertex
 10
153.8944823834014
 20
178.3041896798163
 30
0.0
  0
VERTEX
  5
58D
330
588
100
AcDbEntity
  8
レイヤー 1
 62
     7
370
     9
100
AcDbVertex
100
AcDb2dVertex
 10
153.8300590978272
 20
178.0869764094713
 30
0.0
  0
VERTEX
  5
58E
330
588
100
AcDbEntity
  8
レイヤー 1
 62
     7
370
     9
100
AcDbVertex
100
AcDb2dVertex
 10
153.8169677349833
 20
177.8651122602212
 30
0.0
  0
VERTEX
  5
58F
330
588
100
AcDbEntity
  8
レイヤー 1
 62
     7
370
     9
100
AcDbVertex
100
AcDb2dVertex
 10
153.8562418235151
 20
177.6632296647856
 30
0.0
  0
VERTEX
  5
590
330
588
100
AcDbEntity
  8
レイヤー 1
 62
     7
370
     9
100
AcDbVertex
100
AcDb2dVertex
 10
153.944091758389
 20
177.5025159603987
 30
0.0
  0
VERTEX
  5
591
330
588
100
AcDbEntity
  8
レイヤー 1
 62
     7
370
     9
100
AcDbVertex
100
AcDb2dVertex
 10
154.0708712722462
 20
177.4008856435838
 30
0.0
  0
VERTEX
  5
592
330
588
100
AcDbEntity
  8
レイヤー 1
 62
     7
370
     9
100
AcDbVertex
100
AcDb2dVertex
 10
154.1687119840273
 20
177.3716023319592
 30
0.0
  0
SEQEND
  5
593
330
588
100
AcDbEntity
  8
レイヤー 1
370
     9
  0
ENDBLK
  5
587
330
584
100
AcDbEntity
  8
0
100
AcDbBlockEnd
  0
BLOCK
  5
596
330
594
100
AcDbEntity
  8
0
100
AcDbBlockBegin
  2
block 91
 70
     0
 10
0.0
 20
0.0
 30
0.0
  3
block 91
  1

  0
POLYLINE
  5
598
330
594
100
AcDbEntity
  8
レイヤー 1
 62
     7
370
     9
100
AcDb2dPolyline
 66
     1
 10
0.0
 20
0.0
 30
0.0
  0
VERTEX
  5
599
330
598
100
AcDbEntity
  8
レイヤー 1
 62
     7
370
     9
100
AcDbVertex
100
AcDb2dVertex
 10
154.5135660421008
 20
178.6998588962973
 30
0.0
  0
VERTEX
  5
59A
330
598
100
AcDbEntity
  8
レイヤー 1
 62
     7
370
     9
100
AcDbVertex
100
AcDb2dVertex
 10
154.4605115716279
 20
178.7158785903037
 30
0.0
  0
VERTEX
  5
59B
330
598
100
AcDbEntity
  8
レイヤー 1
 62
     7
370
     9
100
AcDbVertex
100
AcDb2dVertex
 10
154.302381688855
 20
178.7110554566243
 30
0.0
  0
SEQEND
  5
59C
330
598
100
AcDbEntity
  8
レイヤー 1
370
     9
  0
ENDBLK
  5
597
330
594
100
AcDbEntity
  8
0
100
AcDbBlockEnd
  0
ENDSEC
  0
SECTION
  2
ENTITIES
  0
INSERT
  5
19E
330
1F
100
AcDbEntity
  8
レイヤー 1
100
AcDbBlockReference
  2
block 19
 10
-58.69115218091471
 20
34.00625341978686
 30
0.0
  0
MTEXT
  5
5E2
330
1F
100
AcDbEntity
  8
0
100
AcDbMText
 10
112.1294311262585
 20
89.66445543668038
 30
0.0
 40
3.0
 41
115.7149016143326
 46
3.135050643991497
 71
     1
 72
     5
  1
{\fＭＳ Ｐゴシック|b0|i0|c0|p0;HBC-D82A/Y/P/S/G/X}
 73
     1
 44
1.0
  0
POINT
  5
609
330
1F
100
AcDbEntity
  8
0
100
AcDbPoint
 10
0.7172915065955578
 20
0.8828814262037952
 30
0.0
  0
ENDSEC
  0
SECTION
  2
OBJECTS
  0
DICTIONARY
  5
C
330
0
100
AcDbDictionary
281
     1
  3
ACAD_DETAILVIEWSTYLE
350
5E8
  3
ACAD_GROUP
350
D
  3
ACAD_LAYOUT
350
1A
  3
ACAD_MATERIAL
350
624
  3
ACAD_MLEADERSTYLE
350
62A
  3
ACAD_MLINESTYLE
350
17
  3
ACAD_PLOTSETTINGS
350
19
  3
ACAD_PLOTSTYLENAME
350
E
  3
ACAD_SCALELIST
350
59E
  3
ACAD_SECTIONVIEWSTYLE
350
5E9
  3
ACAD_TABLESTYLE
350
628
  3
ACAD_VISUALSTYLE
350
60B
  3
ACDB_RECOMPOSE_DATA
350
633
  3
AcDbVariableDictionary
350
5E3
  3
APPDATA
350
5D1
  0
SUN
  5
630
330
29
100
AcDbSun
 90
        1
290
     0
 63
     7
421
 16777215
 40
1.0
291
     1
 91
  2455826
 92
 54000000
292
     0
 70
     2
 71
   256
280
     1
  0
DICTIONARY
  5
5D2
330
2
100
AcDbDictionary
280
     1
281
     1
  3
ACAD_LAYERSTATES
360
5D3
  0
DICTIONARY
  5
5E8
102
{ACAD_REACTORS
330
C
102
}
330
C
100
AcDbDictionary
281
     1
  0
DICTIONARY
  5
D
102
{ACAD_REACTORS
330
C
102
}
330
C
100
AcDbDictionary
281
     1
  0
DICTIONARY
  5
1A
102
{ACAD_REACTORS
330
C
102
}
330
C
100
AcDbDictionary
281
     1
  3
Layout1
350
1E
  3
Layout2
350
26
  3
Model
350
22
  0
DICTIONARY
  5
624
102
{ACAD_REACTORS
330
C
102
}
330
C
100
AcDbDictionary
281
     1
  3
ByBlock
350
626
  3
ByLayer
350
625
  3
Global
350
627
  0
DICTIONARY
  5
62A
102
{ACAD_REACTORS
330
C
102
}
330
C
100
AcDbDictionary
281
     1
  3
Standard
350
62B
  0
DICTIONARY
  5
17
102
{ACAD_REACTORS
330
C
102
}
330
C
100
AcDbDictionary
281
     1
  3
Standard
350
18
  0
DICTIONARY
  5
19
102
{ACAD_REACTORS
330
C
102
}
330
C
100
AcDbDictionary
281
     1
  0
ACDBDICTIONARYWDFLT
  5
E
102
{ACAD_REACTORS
330
C
102
}
330
C
100
AcDbDictionary
281
     1
  3
Normal
350
F
100
AcDbDictionaryWithDefault
340
F
  0
DICTIONARY
  5
59E
102
{ACAD_REACTORS
330
C
102
}
330
C
100
AcDbDictionary
281
     1
  3
A0
350
59F
  3
A1
350
5A0
  3
A2
350
5A1
  3
A3
350
5A2
  3
A4
350
5A3
  3
A5
350
5A4
  3
A6
350
5A5
  3
A7
350
5A6
  3
A8
350
5A7
  3
A9
350
5A8
  3
B0
350
5A9
  3
B1
350
5AA
  3
B2
350
5AB
  3
B3
350
5AC
  3
B4
350
5AD
  3
B5
350
5AE
  3
B6
350
5AF
  3
B7
350
5B0
  3
B8
350
5B1
  3
B9
350
5B2
  3
C0
350
5B3
  3
C1
350
5B4
  3
C2
350
5B5
  3
C3
350
5B6
  3
C4
350
5B7
  3
C5
350
5B8
  3
C6
350
5B9
  3
C7
350
5BA
  3
C8
350
5BB
  3
C9
350
5BC
  3
D0
350
5BD
  3
D1
350
5BE
  3
D2
350
5BF
  0
DICTIONARY
  5
5E9
102
{ACAD_REACTORS
330
C
102
}
330
C
100
AcDbDictionary
281
     1
  0
DICTIONARY
  5
628
102
{ACAD_REACTORS
330
C
102
}
330
C
100
AcDbDictionary
281
     1
  3
Standard
350
629
  0
DICTIONARY
  5
60B
102
{ACAD_REACTORS
330
C
102
}
330
C
100
AcDbDictionary
281
     1
  3
2dWireframe
350
610
  3
Basic
350
613
  3
Brighten
350
617
  3
ColorChange
350
61B
  3
Conceptual
350
615
  3
Dim
350
616
  3
EdgeColorOff
350
61E
  3
Facepattern
350
61A
  3
Flat
350
60C
  3
FlatWithEdges
350
60D
  3
Gouraud
350
60E
  3
GouraudWithEdges
350
60F
  3
Hidden
350
612
  3
JitterOff
350
61C
  3
Linepattern
350
619
  3
OverhangOff
350
61D
  3
Realistic
350
614
  3
Shaded
350
623
  3
Shaded with edges
350
622
  3
Shades of Gray
350
61F
  3
Sketchy
350
620
  3
Thicken
350
618
  3
Wireframe
350
611
  3
X-Ray
350
621
  0
XRECORD
  5
633
102
{ACAD_REACTORS
330
C
102
}
330
C
100
AcDbXrecord
280
     1
 90
        1
330
629
  0
DICTIONARY
  5
5E3
102
{ACAD_REACTORS
330
C
102
}
330
C
100
AcDbDictionary
281
     1
  3
CANNOSCALE
350
62C
  3
CMLEADERSTYLE
350
62E
  3
CTABLESTYLE
350
62D
  3
MSLTSCALE
350
62F
  0
DICTIONARY
  5
5D1
102
{ACAD_REACTORS
330
C
102
}
330
C
100
AcDbDictionary
281
     1
  0
DICTIONARY
  5
5D3
102
{ACAD_REACTORS
330
5D2
102
}
330
5D2
100
AcDbDictionary
281
     1
  0
LAYOUT
  5
1E
102
{ACAD_REACTORS
330
1A
102
}
330
1A
100
AcDbPlotSettings
  1

  2
none_device
  4

  6

 40
0.0
 41
0.0
 42
0.0
 43
0.0
 44
0.0
 45
0.0
 46
0.0
 47
0.0
 48
0.0
 49
0.0
140
0.0
141
0.0
142
1.0
143
1.0
 70
   688
 72
     0
 73
     0
 74
     5
  7

 75
    16
 76
     0
 77
     2
 78
   300
147
1.0
148
0.0
149
0.0
100
AcDbLayout
  1
Layout1
 70
     1
 71
     1
 10
0.0
 20
0.0
 11
12.0
 21
9.0
 12
0.0
 22
0.0
 32
0.0
 14
1.000000000000000E+20
 24
1.000000000000000E+20
 34
1.000000000000000E+20
 15
-1.000000000000000E+20
 25
-1.000000000000000E+20
 35
-1.000000000000000E+20
146
0.0
 13
0.0
 23
0.0
 33
0.0
 16
1.0
 26
0.0
 36
0.0
 17
0.0
 27
1.0
 37
0.0
 76
     0
330
1B
  0
LAYOUT
  5
26
102
{ACAD_REACTORS
330
1A
102
}
330
1A
100
AcDbPlotSettings
  1

  2
none_device
  4

  6

 40
0.0
 41
0.0
 42
0.0
 43
0.0
 44
0.0
 45
0.0
 46
0.0
 47
0.0
 48
0.0
 49
0.0
140
0.0
141
0.0
142
1.0
143
1.0
 70
   688
 72
     0
 73
     0
 74
     5
  7

 75
    16
 76
     0
 77
     2
 78
   300
147
1.0
148
0.0
149
0.0
100
AcDbLayout
  1
Layout2
 70
     1
 71
     2
 10
0.0
 20
0.0
 11
0.0
 21
0.0
 12
0.0
 22
0.0
 32
0.0
 14
0.0
 24
0.0
 34
0.0
 15
0.0
 25
0.0
 35
0.0
146
0.0
 13
0.0
 23
0.0
 33
0.0
 16
1.0
 26
0.0
 36
0.0
 17
0.0
 27
1.0
 37
0.0
 76
     0
330
23
  0
LAYOUT
  5
22
102
{ACAD_REACTORS
330
1A
102
}
330
1A
100
AcDbPlotSettings
  1

  2
none_device
  4

  6

 40
0.0
 41
0.0
 42
0.0
 43
0.0
 44
0.0
 45
0.0
 46
0.0
 47
0.0
 48
0.0
 49
0.0
140
0.0
141
0.0
142
1.0
143
1.0
 70
  1712
 72
     0
 73
     0
 74
     0
  7

 75
     0
 76
     0
 77
     2
 78
   300
147
1.0
148
0.0
149
0.0
100
AcDbLayout
  1
Model
 70
     1
 71
     0
 10
0.0
 20
0.0
 11
12.0
 21
9.0
 12
0.0
 22
0.0
 32
0.0
 14
0.7172915065955578
 24
0.8828814262037668
 34
0.0
 15
156.7231537722508
 25
243.7959889494792
 35
0.0
146
0.0
 13
0.0
 23
0.0
 33
0.0
 16
1.0
 26
0.0
 36
0.0
 17
0.0
 27
1.0
 37
0.0
 76
     0
330
1F
331
29
  0
MATERIAL
  5
626
102
{ACAD_REACTORS
330
624
102
}
330
624
100
AcDbMaterial
  1
ByBlock
 72
     1
 94
      127
  0
MATERIAL
  5
625
102
{ACAD_REACTORS
330
624
102
}
330
624
100
AcDbMaterial
  1
ByLayer
 72
     1
 94
      127
  0
MATERIAL
  5
627
102
{ACAD_REACTORS
330
624
102
}
330
624
100
AcDbMaterial
  1
Global
 72
     1
 94
      127
  0
MLEADERSTYLE
  5
62B
102
{ACAD_REACTORS
330
62A
102
}
330
62A
100
AcDbMLeaderStyle
179
     2
170
     2
171
     1
172
     0
 90
        2
 40
0.0
 41
0.0
173
     1
 91
-1056964608
340
14
 92
       -2
290
     1
 42
0.09
291
     1
 43
0.36
  3
Standard
341
0
 44
0.18
300

342
11
174
     1
178
     1
175
     1
176
     0
 93
-1056964608
 45
0.18
292
     0
297
     0
 46
0.18
343
0
 94
-1056964608
 47
1.0
 49
1.0
140
1.0
293
     1
141
0.0
294
     1
177
     0
142
1.0
295
     0
296
     0
143
0.125
271
     0
272
     9
273
     9
298
     0
  0
MLINESTYLE
  5
18
102
{ACAD_REACTORS
330
17
102
}
330
17
100
AcDbMlineStyle
  2
Standard
 70
     0
  3

 62
   256
 51
90.0
 52
90.0
 71
     2
 49
0.5
 62
   256
  6
BYLAYER
 49
-0.5
 62
   256
  6
BYLAYER
  0
ACDBPLACEHOLDER
  5
F
102
{ACAD_REACTORS
330
E
102
}
330
E
  0
SCALE
  5
59F
102
{ACAD_REACTORS
330
59E
102
}
330
59E
100
AcDbScale
 70
     0
300
1:1
140
1.0
141
1.0
290
     1
  0
SCALE
  5
5A0
102
{ACAD_REACTORS
330
59E
102
}
330
59E
100
AcDbScale
 70
     0
300
1:2
140
1.0
141
2.0
290
     0
  0
SCALE
  5
5A1
102
{ACAD_REACTORS
330
59E
102
}
330
59E
100
AcDbScale
 70
     0
300
1:4
140
1.0
141
4.0
290
     0
  0
SCALE
  5
5A2
102
{ACAD_REACTORS
330
59E
102
}
330
59E
100
AcDbScale
 70
     0
300
1:5
140
1.0
141
5.0
290
     0
  0
SCALE
  5
5A3
102
{ACAD_REACTORS
330
59E
102
}
330
59E
100
AcDbScale
 70
     0
300
1:8
140
1.0
141
8.0
290
     0
  0
SCALE
  5
5A4
102
{ACAD_REACTORS
330
59E
102
}
330
59E
100
AcDbScale
 70
     0
300
1:10
140
1.0
141
10.0
290
     0
  0
SCALE
  5
5A5
102
{ACAD_REACTORS
330
59E
102
}
330
59E
100
AcDbScale
 70
     0
300
1:16
140
1.0
141
16.0
290
     0
  0
SCALE
  5
5A6
102
{ACAD_REACTORS
330
59E
102
}
330
59E
100
AcDbScale
 70
     0
300
1:20
140
1.0
141
20.0
290
     0
  0
SCALE
  5
5A7
102
{ACAD_REACTORS
330
59E
102
}
330
59E
100
AcDbScale
 70
     0
300
1:30
140
1.0
141
30.0
290
     0
  0
SCALE
  5
5A8
102
{ACAD_REACTORS
330
59E
102
}
330
59E
100
AcDbScale
 70
     0
300
1:40
140
1.0
141
40.0
290
     0
  0
SCALE
  5
5A9
102
{ACAD_REACTORS
330
59E
102
}
330
59E
100
AcDbScale
 70
     0
300
1:50
140
1.0
141
50.0
290
     0
  0
SCALE
  5
5AA
102
{ACAD_REACTORS
330
59E
102
}
330
59E
100
AcDbScale
 70
     0
300
1:100
140
1.0
141
100.0
290
     0
  0
SCALE
  5
5AB
102
{ACAD_REACTORS
330
59E
102
}
330
59E
100
AcDbScale
 70
     0
300
2:1
140
2.0
141
1.0
290
     0
  0
SCALE
  5
5AC
102
{ACAD_REACTORS
330
59E
102
}
330
59E
100
AcDbScale
 70
     0
300
4:1
140
4.0
141
1.0
290
     0
  0
SCALE
  5
5AD
102
{ACAD_REACTORS
330
59E
102
}
330
59E
100
AcDbScale
 70
     0
300
8:1
140
8.0
141
1.0
290
     0
  0
SCALE
  5
5AE
102
{ACAD_REACTORS
330
59E
102
}
330
59E
100
AcDbScale
 70
     0
300
10:1
140
10.0
141
1.0
290
     0
  0
SCALE
  5
5AF
102
{ACAD_REACTORS
330
59E
102
}
330
59E
100
AcDbScale
 70
     0
300
100:1
140
100.0
141
1.0
290
     0
  0
SCALE
  5
5B0
102
{ACAD_REACTORS
330
59E
102
}
330
59E
100
AcDbScale
 70
     0
300
1/128" = 1'-0"
140
0.0078125
141
12.0
290
     0
  0
SCALE
  5
5B1
102
{ACAD_REACTORS
330
59E
102
}
330
59E
100
AcDbScale
 70
     0
300
1/64" = 1'-0"
140
0.015625
141
12.0
290
     0
  0
SCALE
  5
5B2
102
{ACAD_REACTORS
330
59E
102
}
330
59E
100
AcDbScale
 70
     0
300
1/32" = 1'-0"
140
0.03125
141
12.0
290
     0
  0
SCALE
  5
5B3
102
{ACAD_REACTORS
330
59E
102
}
330
59E
100
AcDbScale
 70
     0
300
1/16" = 1'-0"
140
0.0625
141
12.0
290
     0
  0
SCALE
  5
5B4
102
{ACAD_REACTORS
330
59E
102
}
330
59E
100
AcDbScale
 70
     0
300
3/32" = 1'-0"
140
0.09375
141
12.0
290
     0
  0
SCALE
  5
5B5
102
{ACAD_REACTORS
330
59E
102
}
330
59E
100
AcDbScale
 70
     0
300
1/8" = 1'-0"
140
0.125
141
12.0
290
     0
  0
SCALE
  5
5B6
102
{ACAD_REACTORS
330
59E
102
}
330
59E
100
AcDbScale
 70
     0
300
3/16" = 1'-0"
140
0.1875
141
12.0
290
     0
  0
SCALE
  5
5B7
102
{ACAD_REACTORS
330
59E
102
}
330
59E
100
AcDbScale
 70
     0
300
1/4" = 1'-0"
140
0.25
141
12.0
290
     0
  0
SCALE
  5
5B8
102
{ACAD_REACTORS
330
59E
102
}
330
59E
100
AcDbScale
 70
     0
300
3/8" = 1'-0"
140
0.375
141
12.0
290
     0
  0
SCALE
  5
5B9
102
{ACAD_REACTORS
330
59E
102
}
330
59E
100
AcDbScale
 70
     0
300
1/2" = 1'-0"
140
0.5
141
12.0
290
     0
  0
SCALE
  5
5BA
102
{ACAD_REACTORS
330
59E
102
}
330
59E
100
AcDbScale
 70
     0
300
3/4" = 1'-0"
140
0.75
141
12.0
290
     0
  0
SCALE
  5
5BB
102
{ACAD_REACTORS
330
59E
102
}
330
59E
100
AcDbScale
 70
     0
300
1" = 1'-0"
140
1.0
141
12.0
290
     0
  0
SCALE
  5
5BC
102
{ACAD_REACTORS
330
59E
102
}
330
59E
100
AcDbScale
 70
     0
300
1-1/2" = 1'-0"
140
1.5
141
12.0
290
     0
  0
SCALE
  5
5BD
102
{ACAD_REACTORS
330
59E
102
}
330
59E
100
AcDbScale
 70
     0
300
3" = 1'-0"
140
3.0
141
12.0
290
     0
  0
SCALE
  5
5BE
102
{ACAD_REACTORS
330
59E
102
}
330
59E
100
AcDbScale
 70
     0
300
6" = 1'-0"
140
6.0
141
12.0
290
     0
  0
SCALE
  5
5BF
102
{ACAD_REACTORS
330
59E
102
}
330
59E
100
AcDbScale
 70
     0
300
1'-0" = 1'-0"
140
12.0
141
12.0
290
     0
  0
TABLESTYLE
  5
629
102
{ACAD_REACTORS
330
628
102
}
102
{ACAD_XDICTIONARY
360
631
102
}
330
628
100
AcDbTableStyle
  3
Standard
 70
     0
 71
     0
 40
0.06
 41
0.06
280
     0
281
     0
  7
Standard
140
0.18
170
     2
 62
     0
 63
   257
283
     0
 90
        4
 91
        0
  1

274
    -2
284
     1
 64
     0
275
    -2
285
     1
 65
     0
276
    -2
286
     1
 66
     0
277
    -2
287
     1
 67
     0
278
    -2
288
     1
 68
     0
279
    -2
289
     1
 69
     0
  7
Standard
140
0.25
170
     5
 62
     0
 63
   257
283
     0
 90
        4
 91
        0
  1

274
    -2
284
     1
 64
     0
275
    -2
285
     1
 65
     0
276
    -2
286
     1
 66
     0
277
    -2
287
     1
 67
     0
278
    -2
288
     1
 68
     0
279
    -2
289
     1
 69
     0
  7
Standard
140
0.18
170
     5
 62
     0
 63
   257
283
     0
 90
        4
 91
        0
  1

274
    -2
284
     1
 64
     0
275
    -2
285
     1
 65
     0
276
    -2
286
     1
 66
     0
277
    -2
287
     1
 67
     0
278
    -2
288
     1
 68
     0
279
    -2
289
     1
 69
     0
  0
VISUALSTYLE
  5
610
102
{ACAD_REACTORS
330
60B
102
}
330
60B
100
AcDbVisualStyle
  2
2dWireframe
 70
     4
177
     3
291
     0
 70
    58
 90
        0
176
     1
 90
        2
176
     1
 90
        0
176
     1
 90
        0
176
     1
 40
0.6
176
     1
 40
30.0
176
     1
 62
     7
420
 16777215
176
     1
 90
        1
176
     1
 90
        4
176
     1
 62
     7
176
     1
 62
   257
176
     1
 90
        1
176
     1
 90
        1
176
     1
 40
1.0
176
     1
 90
        0
176
     1
 62
   257
176
     1
 40
1.0
176
     1
 90
        1
176
     1
 90
        6
176
     1
 90
        2
176
     1
 62
     7
176
     1
 90
        5
176
     1
 90
        0
176
     1
 90
        0
176
     1
290
     0
176
     1
 90
        1
176
     1
 40
0.0
176
     1
 90
        0
176
     1
290
     1
176
     1
290
     1
176
     1
290
     0
176
     1
290
     0
176
     1
290
     0
176
     1
290
     0
176
     1
290
     0
176
     1
290
     0
176
     1
290
     0
176
     1
 90
       50
176
     1
 40
0.0
176
     1
 40
1.0
176
     1
 90
        0
176
     1
 62
    18
420
        0
176
     1
 90
       50
176
     1
 90
        3
176
     1
 62
     5
420
      255
176
     1
290
     0
176
     1
 90
       50
176
     1
 90
       50
176
     1
 90
       50
176
     1
290
     0
176
     1
 90
       50
176
     1
 62
   256
176
     0
 40
1.0
176
     0
 90
        2
176
     1
  1
strokes_ogs.tif
176
     1
290
     0
176
     1
 40
1.0
176
     1
 40
1.0
176
     1
  0
VISUALSTYLE
  5
613
102
{ACAD_REACTORS
330
60B
102
}
330
60B
100
AcDbVisualStyle
  2
Basic
 70
     7
177
     3
291
     1
 70
    58
 90
        1
176
     1
 90
        0
176
     1
 90
        1
176
     1
 90
        0
176
     1
 40
0.6
176
     1
 40
30.0
176
     1
 62
     7
420
 16777215
176
     1
 90
        0
176
     1
 90
        4
176
     1
 62
     7
176
     1
 62
   257
176
     1
 90
        1
176
     1
 90
        1
176
     1
 40
1.0
176
     1
 90
        8
176
     1
 62
     7
176
     1
 40
1.0
176
     1
 90
        1
176
     1
 90
        6
176
     1
 90
        2
176
     1
 62
     7
176
     1
 90
        5
176
     1
 90
        0
176
     1
 90
        0
176
     1
290
     0
176
     1
 90
        1
176
     1
 40
0.0
176
     1
 90
        0
176
     1
290
     0
176
     1
290
     1
176
     1
290
     1
176
     1
290
     0
176
     1
290
     0
176
     1
290
     0
176
     1
290
     0
176
     1
290
     0
176
     1
290
     0
176
     1
 90
       50
176
     1
 40
0.0
176
     1
 40
1.0
176
     1
 90
        0
176
     1
 62
    18
420
        0
176
     1
 90
       50
176
     1
 90
        3
176
     1
 62
     5
420
      255
176
     1
290
     0
176
     1
 90
       50
176
     1
 90
       50
176
     1
 90
       50
176
     1
290
     0
176
     1
 90
       50
176
     1
 62
   256
176
     0
 40
1.0
176
     0
 90
        2
176
     1
  1
strokes_ogs.tif
176
     1
290
     0
176
     1
 40
1.0
176
     1
 40
1.0
176
     1
  0
VISUALSTYLE
  5
617
102
{ACAD_REACTORS
330
60B
102
}
330
60B
100
AcDbVisualStyle
  2
Brighten
 70
    12
177
     3
291
     1
 70
    58
 90
        2
176
     1
 90
        2
176
     1
 90
        0
176
     1
 90
        0
176
     1
 40
0.6
176
     1
 40
30.0
176
     1
 62
     7
420
 16777215
176
     1
 90
        1
176
     1
 90
        4
176
     1
 62
     7
176
     1
 62
   257
176
     1
 90
        1
176
     1
 90
        1
176
     1
 40
1.0
176
     1
 90
        8
176
     1
 62
     7
176
     1
 40
1.0
176
     1
 90
        1
176
     1
 90
        6
176
     1
 90
        2
176
     1
 62
     7
176
     1
 90
        5
176
     1
 90
        0
176
     1
 90
        0
176
     1
290
     0
176
     1
 90
        1
176
     1
 40
50.0
176
     1
 90
        0
176
     1
290
     0
176
     1
290
     1
176
     1
290
     1
176
     1
290
     0
176
     1
290
     0
176
     1
290
     0
176
     1
290
     0
176
     1
290
     0
176
     1
290
     0
176
     1
 90
       50
176
     1
 40
0.0
176
     1
 40
1.0
176
     1
 90
        0
176
     1
 62
    18
420
        0
176
     1
 90
       50
176
     1
 90
        3
176
     1
 62
     5
420
      255
176
     1
290
     0
176
     1
 90
       50
176
     1
 90
       50
176
     1
 90
       50
176
     1
290
     0
176
     1
 90
       50
176
     1
 62
   256
176
     0
 40
1.0
176
     0
 90
        2
176
     1
  1
strokes_ogs.tif
176
     1
290
     0
176
     1
 40
1.0
176
     1
 40
1.0
176
     1
  0
VISUALSTYLE
  5
61B
102
{ACAD_REACTORS
330
60B
102
}
330
60B
100
AcDbVisualStyle
  2
ColorChange
 70
    16
177
     3
291
     1
 70
    58
 90
        2
176
     1
 90
        2
176
     1
 90
        3
176
     1
 90
        0
176
     1
 40
0.6
176
     1
 40
30.0
176
     1
 62
     8
420
  8421504
176
     1
 90
        1
176
     1
 90
        4
176
     1
 62
     7
176
     1
 62
   257
176
     1
 90
        1
176
     1
 90
        1
176
     1
 40
1.0
176
     1
 90
        8
176
     1
 62
     8
420
  8421504
176
     1
 40
1.0
176
     1
 90
        1
176
     1
 90
        6
176
     1
 90
        2
176
     1
 62
     7
176
     1
 90
        5
176
     1
 90
        0
176
     1
 90
        0
176
     1
290
     0
176
     1
 90
        1
176
     1
 40
0.0
176
     1
 90
        0
176
     1
290
     0
176
     1
290
     1
176
     1
290
     1
176
     1
290
     0
176
     1
290
     0
176
     1
290
     0
176
     1
290
     0
176
     1
290
     0
176
     1
290
     0
176
     1
 90
       50
176
     1
 40
0.0
176
     1
 40
1.0
176
     1
 90
        0
176
     1
 62
    18
420
        0
176
     1
 90
       50
176
     1
 90
        3
176
     1
 62
     5
420
      255
176
     1
290
     0
176
     1
 90
       50
176
     1
 90
       50
176
     1
 90
       50
176
     1
290
     0
176
     1
 90
       50
176
     1
 62
   256
176
     0
 40
1.0
176
     0
 90
        2
176
     1
  1
strokes_ogs.tif
176
     1
290
     0
176
     1
 40
1.0
176
     1
 40
1.0
176
     1
  0
VISUALSTYLE
  5
615
102
{ACAD_REACTORS
330
60B
102
}
330
60B
100
AcDbVisualStyle
  2
Conceptual
 70
     9
177
     3
291
     0
 70
    58
 90
        3
176
     1
 90
        2
176
     1
 90
        0
176
     1
 90
        0
176
     1
 40
0.6
176
     1
 40
30.0
176
     1
 62
     7
420
 16777215
176
     1
 90
        2
176
     1
 90
        2
176
     1
 62
     7
176
     1
 62
   257
176
     1
 90
        1
176
     1
 90
        1
176
     1
 40
179.0
176
     1
 90
        8
176
     1
 62
     7
176
     1
 40
1.0
176
     1
 90
        1
176
     1
 90
        6
176
     1
 90
        2
176
     1
 62
     7
176
     1
 90
        3
176
     1
 90
        0
176
     1
 90
        0
176
     1
290
     0
176
     1
 90
        1
176
     1
 40
0.0
176
     1
 90
        0
176
     1
290
     0
176
     1
290
     1
176
     1
290
     1
176
     1
290
     0
176
     1
290
     0
176
     1
290
     0
176
     1
290
     0
176
     1
290
     0
176
     1
290
     0
176
     1
 90
       50
176
     1
 40
0.0
176
     1
 40
1.0
176
     1
 90
        0
176
     1
 62
    18
420
        0
176
     1
 90
       50
176
     1
 90
        3
176
     1
 62
     5
420
      255
176
     1
290
     0
176
     1
 90
       50
176
     1
 90
       50
176
     1
 90
       50
176
     1
290
     0
176
     1
 90
       50
176
     1
 62
   256
176
     0
 40
1.0
176
     0
 90
        2
176
     1
  1
strokes_ogs.tif
176
     1
290
     0
176
     1
 40
1.0
176
     1
 40
1.0
176
     1
  0
VISUALSTYLE
  5
616
102
{ACAD_REACTORS
330
60B
102
}
330
60B
100
AcDbVisualStyle
  2
Dim
 70
    11
177
     3
291
     1
 70
    58
 90
        2
176
     1
 90
        2
176
     1
 90
        0
176
     1
 90
        0
176
     1
 40
0.6
176
     1
 40
30.0
176
     1
 62
     7
420
 16777215
176
     1
 90
        1
176
     1
 90
        4
176
     1
 62
     7
176
     1
 62
   257
176
     1
 90
        1
176
     1
 90
        1
176
     1
 40
1.0
176
     1
 90
        8
176
     1
 62
     7
176
     1
 40
1.0
176
     1
 90
        1
176
     1
 90
        6
176
     1
 90
        2
176
     1
 62
     7
176
     1
 90
        5
176
     1
 90
        0
176
     1
 90
        0
176
     1
290
     0
176
     1
 90
        1
176
     1
 40
-50.0
176
     1
 90
        0
176
     1
290
     0
176
     1
290
     1
176
     1
290
     1
176
     1
290
     0
176
     1
290
     0
176
     1
290
     0
176
     1
290
     0
176
     1
290
     0
176
     1
290
     0
176
     1
 90
       50
176
     1
 40
0.0
176
     1
 40
1.0
176
     1
 90
        0
176
     1
 62
    18
420
        0
176
     1
 90
       50
176
     1
 90
        3
176
     1
 62
     5
420
      255
176
     1
290
     0
176
     1
 90
       50
176
     1
 90
       50
176
     1
 90
       50
176
     1
290
     0
176
     1
 90
       50
176
     1
 62
   256
176
     0
 40
1.0
176
     0
 90
        2
176
     1
  1
strokes_ogs.tif
176
     1
290
     0
176
     1
 40
1.0
176
     1
 40
1.0
176
     1
  0
VISUALSTYLE
  5
61E
102
{ACAD_REACTORS
330
60B
102
}
330
60B
100
AcDbVisualStyle
  2
EdgeColorOff
 70
    22
177
     3
291
     1
 70
    58
 90
        2
176
     0
 90
        2
176
     0
 90
        0
176
     0
 90
        0
176
     0
 40
0.6
176
     0
 40
30.0
176
     0
 62
     7
420
 16777215
176
     0
 90
        1
176
     0
 90
        4
176
     0
 62
     7
176
     0
 62
   257
176
     0
 90
        1
176
     0
 90
        1
176
     0
 40
1.0
176
     0
 90
        8
176
     2
 62
     7
176
     0
 40
1.0
176
     0
 90
        1
176
     0
 90
        6
176
     0
 90
        2
176
     0
 62
     7
176
     0
 90
        5
176
     0
 90
        0
176
     0
 90
        0
176
     0
290
     0
176
     0
 90
        1
176
     0
 40
0.0
176
     0
 90
        0
176
     0
290
     0
176
     0
290
     1
176
     0
290
     1
176
     0
290
     0
176
     0
290
     0
176
     0
290
     0
176
     0
290
     0
176
     0
290
     0
176
     0
290
     0
176
     0
 90
       50
176
     0
 40
0.0
176
     0
 40
1.0
176
     0
 90
        0
176
     0
 62
    18
420
        0
176
     0
 90
       50
176
     0
 90
        3
176
     0
 62
     5
420
      255
176
     0
290
     0
176
     0
 90
       50
176
     0
 90
       50
176
     0
 90
       50
176
     0
290
     0
176
     0
 90
       50
176
     0
 62
   256
176
     0
 40
1.0
176
     0
 90
        2
176
     0
  1
strokes_ogs.tif
176
     0
290
     0
176
     0
 40
1.0
176
     0
 40
1.0
176
     0
  0
VISUALSTYLE
  5
61A
102
{ACAD_REACTORS
330
60B
102
}
330
60B
100
AcDbVisualStyle
  2
Facepattern
 70
    15
177
     3
291
     1
 70
    58
 90
        2
176
     1
 90
        2
176
     1
 90
        0
176
     1
 90
        0
176
     1
 40
0.6
176
     1
 40
30.0
176
     1
 62
     7
420
 16777215
176
     1
 90
        1
176
     1
 90
        4
176
     1
 62
     7
176
     1
 62
   257
176
     1
 90
        1
176
     1
 90
        1
176
     1
 40
1.0
176
     1
 90
        8
176
     1
 62
     7
176
     1
 40
1.0
176
     1
 90
        1
176
     1
 90
        6
176
     1
 90
        2
176
     1
 62
     7
176
     1
 90
        5
176
     1
 90
        0
176
     1
 90
        0
176
     1
290
     0
176
     1
 90
        1
176
     1
 40
0.0
176
     1
 90
        0
176
     1
290
     0
176
     1
290
     1
176
     1
290
     1
176
     1
290
     0
176
     1
290
     0
176
     1
290
     0
176
     1
290
     0
176
     1
290
     0
176
     1
290
     0
176
     1
 90
       50
176
     1
 40
0.0
176
     1
 40
1.0
176
     1
 90
        0
176
     1
 62
    18
420
        0
176
     1
 90
       50
176
     1
 90
        3
176
     1
 62
     5
420
      255
176
     1
290
     0
176
     1
 90
       50
176
     1
 90
       50
176
     1
 90
       50
176
     1
290
     0
176
     1
 90
       50
176
     1
 62
   256
176
     0
 40
1.0
176
     0
 90
        2
176
     1
  1
strokes_ogs.tif
176
     1
290
     0
176
     1
 40
1.0
176
     1
 40
1.0
176
     1
  0
VISUALSTYLE
  5
60C
102
{ACAD_REACTORS
330
60B
102
}
330
60B
100
AcDbVisualStyle
  2
Flat
 70
     0
177
     3
291
     1
 70
    58
 90
        2
176
     1
 90
        1
176
     1
 90
        1
176
     1
 90
        2
176
     1
 40
0.6
176
     1
 40
30.0
176
     1
 62
     7
420
 16777215
176
     1
 90
        0
176
     1
 90
        0
176
     1
 62
     7
176
     1
 62
   257
176
     1
 90
        1
176
     1
 90
        1
176
     1
 40
1.0
176
     1
 90
        8
176
     1
 62
     7
176
     1
 40
1.0
176
     1
 90
        1
176
     1
 90
        6
176
     1
 90
        2
176
     1
 62
     7
176
     1
 90
        5
176
     1
 90
        0
176
     1
 90
        0
176
     1
290
     0
176
     1
 90
       13
176
     1
 40
0.0
176
     1
 90
        0
176
     1
290
     0
176
     1
290
     1
176
     1
290
     1
176
     1
290
     0
176
     1
290
     0
176
     1
290
     0
176
     1
290
     0
176
     1
290
     0
176
     1
290
     0
176
     1
 90
       50
176
     1
 40
0.0
176
     1
 40
1.0
176
     1
 90
        0
176
     1
 62
    18
420
        0
176
     1
 90
       50
176
     1
 90
        3
176
     1
 62
     5
420
      255
176
     1
290
     0
176
     1
 90
       50
176
     1
 90
       50
176
     1
 90
       50
176
     1
290
     0
176
     1
 90
       50
176
     1
 62
   256
176
     0
 40
1.0
176
     0
 90
        2
176
     1
  1
strokes_ogs.tif
176
     1
290
     0
176
     1
 40
1.0
176
     1
 40
1.0
176
     1
  0
VISUALSTYLE
  5
60D
102
{ACAD_REACTORS
330
60B
102
}
330
60B
100
AcDbVisualStyle
  2
FlatWithEdges
 70
     1
177
     3
291
     1
 70
    58
 90
        2
176
     1
 90
        1
176
     1
 90
        1
176
     1
 90
        2
176
     1
 40
0.6
176
     1
 40
30.0
176
     1
 62
     7
420
 16777215
176
     1
 90
        1
176
     1
 90
        0
176
     1
 62
     7
176
     1
 62
   257
176
     1
 90
        1
176
     1
 90
        1
176
     1
 40
1.0
176
     1
 90
        0
176
     1
 62
   257
176
     1
 40
1.0
176
     1
 90
        1
176
     1
 90
        6
176
     1
 90
        2
176
     1
 62
     7
176
     1
 90
        5
176
     1
 90
        0
176
     1
 90
        0
176
     1
290
     0
176
     1
 90
       13
176
     1
 40
0.0
176
     1
 90
        0
176
     1
290
     0
176
     1
290
     1
176
     1
290
     1
176
     1
290
     0
176
     1
290
     0
176
     1
290
     0
176
     1
290
     0
176
     1
290
     0
176
     1
290
     0
176
     1
 90
       50
176
     1
 40
0.0
176
     1
 40
1.0
176
     1
 90
        0
176
     1
 62
    18
420
        0
176
     1
 90
       50
176
     1
 90
        3
176
     1
 62
     5
420
      255
176
     1
290
     0
176
     1
 90
       50
176
     1
 90
       50
176
     1
 90
       50
176
     1
290
     0
176
     1
 90
       50
176
     1
 62
   256
176
     0
 40
1.0
176
     0
 90
        2
176
     1
  1
strokes_ogs.tif
176
     1
290
     0
176
     1
 40
1.0
176
     1
 40
1.0
176
     1
  0
VISUALSTYLE
  5
60E
102
{ACAD_REACTORS
330
60B
102
}
330
60B
100
AcDbVisualStyle
  2
Gouraud
 70
     2
177
     3
291
     1
 70
    58
 90
        2
176
     1
 90
        2
176
     1
 90
        1
176
     1
 90
        2
176
     1
 40
0.6
176
     1
 40
30.0
176
     1
 62
     7
420
 16777215
176
     1
 90
        0
176
     1
 90
        0
176
     1
 62
     7
176
     1
 62
   257
176
     1
 90
        1
176
     1
 90
        1
176
     1
 40
1.0
176
     1
 90
        0
176
     1
 62
     7
176
     1
 40
1.0
176
     1
 90
        1
176
     1
 90
        6
176
     1
 90
        2
176
     1
 62
     7
176
     1
 90
        5
176
     1
 90
        0
176
     1
 90
        0
176
     1
290
     0
176
     1
 90
       13
176
     1
 40
0.0
176
     1
 90
        0
176
     1
290
     0
176
     1
290
     1
176
     1
290
     1
176
     1
290
     0
176
     1
290
     0
176
     1
290
     0
176
     1
290
     0
176
     1
290
     0
176
     1
290
     0
176
     1
 90
       50
176
     1
 40
0.0
176
     1
 40
1.0
176
     1
 90
        0
176
     1
 62
    18
420
        0
176
     1
 90
       50
176
     1
 90
        3
176
     1
 62
     5
420
      255
176
     1
290
     0
176
     1
 90
       50
176
     1
 90
       50
176
     1
 90
       50
176
     1
290
     0
176
     1
 90
       50
176
     1
 62
   256
176
     0
 40
1.0
176
     0
 90
        2
176
     1
  1
strokes_ogs.tif
176
     1
290
     0
176
     1
 40
1.0
176
     1
 40
1.0
176
     1
  0
VISUALSTYLE
  5
60F
102
{ACAD_REACTORS
330
60B
102
}
330
60B
100
AcDbVisualStyle
  2
GouraudWithEdges
 70
     3
177
     3
291
     1
 70
    58
 90
        2
176
     1
 90
        2
176
     1
 90
        1
176
     1
 90
        2
176
     1
 40
0.6
176
     1
 40
30.0
176
     1
 62
     7
420
 16777215
176
     1
 90
        1
176
     1
 90
        0
176
     1
 62
     7
176
     1
 62
   257
176
     1
 90
        1
176
     1
 90
        1
176
     1
 40
1.0
176
     1
 90
        0
176
     1
 62
   257
176
     1
 40
1.0
176
     1
 90
        1
176
     1
 90
        6
176
     1
 90
        2
176
     1
 62
     7
176
     1
 90
        5
176
     1
 90
        0
176
     1
 90
        0
176
     1
290
     0
176
     1
 90
       13
176
     1
 40
0.0
176
     1
 90
        0
176
     1
290
     0
176
     1
290
     1
176
     1
290
     1
176
     1
290
     0
176
     1
290
     0
176
     1
290
     0
176
     1
290
     0
176
     1
290
     0
176
     1
290
     0
176
     1
 90
       50
176
     1
 40
0.0
176
     1
 40
1.0
176
     1
 90
        0
176
     1
 62
    18
420
        0
176
     1
 90
       50
176
     1
 90
        3
176
     1
 62
     5
420
      255
176
     1
290
     0
176
     1
 90
       50
176
     1
 90
       50
176
     1
 90
       50
176
     1
290
     0
176
     1
 90
       50
176
     1
 62
   256
176
     0
 40
1.0
176
     0
 90
        2
176
     1
  1
strokes_ogs.tif
176
     1
290
     0
176
     1
 40
1.0
176
     1
 40
1.0
176
     1
  0
VISUALSTYLE
  5
612
102
{ACAD_REACTORS
330
60B
102
}
330
60B
100
AcDbVisualStyle
  2
Hidden
 70
     6
177
     3
291
     0
 70
    58
 90
        1
176
     1
 90
        2
176
     1
 90
        2
176
     1
 90
        0
176
     1
 40
0.6
176
     1
 40
30.0
176
     1
 62
     7
420
 16777215
176
     1
 90
        2
176
     1
 90
        2
176
     1
 62
     7
176
     1
 62
   257
176
     1
 90
        2
176
     1
 90
        1
176
     1
 40
40.0
176
     1
 90
        0
176
     1
 62
   257
176
     1
 40
1.0
176
     1
 90
        1
176
     1
 90
        6
176
     1
 90
        2
176
     1
 62
     7
176
     1
 90
        3
176
     1
 90
        0
176
     1
 90
        0
176
     1
290
     0
176
     1
 90
        1
176
     1
 40
0.0
176
     1
 90
        0
176
     1
290
     0
176
     1
290
     1
176
     1
290
     1
176
     1
290
     0
176
     1
290
     0
176
     1
290
     0
176
     1
290
     0
176
     1
290
     0
176
     1
290
     0
176
     1
 90
       50
176
     1
 40
0.0
176
     1
 40
1.0
176
     1
 90
        0
176
     1
 62
    18
420
        0
176
     1
 90
       50
176
     1
 90
        3
176
     1
 62
     5
420
      255
176
     1
290
     0
176
     1
 90
       50
176
     1
 90
       50
176
     1
 90
       50
176
     1
290
     0
176
     1
 90
       50
176
     1
 62
   256
176
     0
 40
1.0
176
     0
 90
        2
176
     1
  1
strokes_ogs.tif
176
     1
290
     0
176
     1
 40
1.0
176
     1
 40
1.0
176
     1
  0
VISUALSTYLE
  5
61C
102
{ACAD_REACTORS
330
60B
102
}
330
60B
100
AcDbVisualStyle
  2
JitterOff
 70
    20
177
     3
291
     1
 70
    58
 90
        2
176
     0
 90
        2
176
     0
 90
        0
176
     0
 90
        0
176
     0
 40
0.6
176
     0
 40
30.0
176
     0
 62
     7
420
 16777215
176
     0
 90
        1
176
     0
 90
        4
176
     0
 62
     7
176
     0
 62
   257
176
     0
 90
        1
176
     0
 90
        1
176
     0
 40
1.0
176
     0
 90
       10
176
     2
 62
     7
176
     0
 40
1.0
176
     0
 90
        1
176
     0
 90
        6
176
     0
 90
        2
176
     0
 62
     7
176
     0
 90
        5
176
     0
 90
        0
176
     0
 90
        0
176
     0
290
     0
176
     0
 90
        1
176
     0
 40
0.0
176
     0
 90
        0
176
     0
290
     0
176
     0
290
     1
176
     0
290
     1
176
     0
290
     0
176
     0
290
     0
176
     0
290
     0
176
     0
290
     0
176
     0
290
     0
176
     0
290
     0
176
     0
 90
       50
176
     0
 40
0.0
176
     0
 40
1.0
176
     0
 90
        0
176
     0
 62
    18
420
        0
176
     0
 90
       50
176
     0
 90
        3
176
     0
 62
     5
420
      255
176
     0
290
     0
176
     0
 90
       50
176
     0
 90
       50
176
     0
 90
       50
176
     0
290
     0
176
     0
 90
       50
176
     0
 62
   256
176
     0
 40
1.0
176
     0
 90
        2
176
     0
  1
strokes_ogs.tif
176
     0
290
     0
176
     0
 40
1.0
176
     0
 40
1.0
176
     0
  0
VISUALSTYLE
  5
619
102
{ACAD_REACTORS
330
60B
102
}
330
60B
100
AcDbVisualStyle
  2
Linepattern
 70
    14
177
     3
291
     1
 70
    58
 90
        2
176
     1
 90
        2
176
     1
 90
        0
176
     1
 90
        0
176
     1
 40
0.6
176
     1
 40
30.0
176
     1
 62
     7
420
 16777215
176
     1
 90
        1
176
     1
 90
        4
176
     1
 62
     7
176
     1
 62
   257
176
     1
 90
        7
176
     1
 90
        7
176
     1
 40
1.0
176
     1
 90
        8
176
     1
 62
     7
176
     1
 40
1.0
176
     1
 90
        1
176
     1
 90
        6
176
     1
 90
        2
176
     1
 62
     7
176
     1
 90
        5
176
     1
 90
        0
176
     1
 90
        0
176
     1
290
     0
176
     1
 90
        1
176
     1
 40
0.0
176
     1
 90
        0
176
     1
290
     0
176
     1
290
     1
176
     1
290
     1
176
     1
290
     0
176
     1
290
     0
176
     1
290
     0
176
     1
290
     0
176
     1
290
     0
176
     1
290
     0
176
     1
 90
       50
176
     1
 40
0.0
176
     1
 40
1.0
176
     1
 90
        0
176
     1
 62
    18
420
        0
176
     1
 90
       50
176
     1
 90
        3
176
     1
 62
     5
420
      255
176
     1
290
     0
176
     1
 90
       50
176
     1
 90
       50
176
     1
 90
       50
176
     1
290
     0
176
     1
 90
       50
176
     1
 62
   256
176
     0
 40
1.0
176
     0
 90
        2
176
     1
  1
strokes_ogs.tif
176
     1
290
     0
176
     1
 40
1.0
176
     1
 40
1.0
176
     1
  0
VISUALSTYLE
  5
61D
102
{ACAD_REACTORS
330
60B
102
}
330
60B
100
AcDbVisualStyle
  2
OverhangOff
 70
    21
177
     3
291
     1
 70
    58
 90
        2
176
     0
 90
        2
176
     0
 90
        0
176
     0
 90
        0
176
     0
 40
0.6
176
     0
 40
30.0
176
     0
 62
     7
420
 16777215
176
     0
 90
        1
176
     0
 90
        4
176
     0
 62
     7
176
     0
 62
   257
176
     0
 90
        1
176
     0
 90
        1
176
     0
 40
1.0
176
     0
 90
        9
176
     2
 62
     7
176
     0
 40
1.0
176
     0
 90
        1
176
     0
 90
        6
176
     0
 90
        2
176
     0
 62
     7
176
     0
 90
        5
176
     0
 90
        0
176
     0
 90
        0
176
     0
290
     0
176
     0
 90
        1
176
     0
 40
0.0
176
     0
 90
        0
176
     0
290
     0
176
     0
290
     1
176
     0
290
     1
176
     0
290
     0
176
     0
290
     0
176
     0
290
     0
176
     0
290
     0
176
     0
290
     0
176
     0
290
     0
176
     0
 90
       50
176
     0
 40
0.0
176
     0
 40
1.0
176
     0
 90
        0
176
     0
 62
    18
420
        0
176
     0
 90
       50
176
     0
 90
        3
176
     0
 62
     5
420
      255
176
     0
290
     0
176
     0
 90
       50
176
     0
 90
       50
176
     0
 90
       50
176
     0
290
     0
176
     0
 90
       50
176
     0
 62
   256
176
     0
 40
1.0
176
     0
 90
        2
176
     0
  1
strokes_ogs.tif
176
     0
290
     0
176
     0
 40
1.0
176
     0
 40
1.0
176
     0
  0
VISUALSTYLE
  5
614
102
{ACAD_REACTORS
330
60B
102
}
330
60B
100
AcDbVisualStyle
  2
Realistic
 70
     8
177
     3
291
     0
 70
    58
 90
        2
176
     1
 90
        3
176
     1
 90
        0
176
     1
 90
        2
176
     1
 40
0.6
176
     1
 40
30.0
176
     1
 62
     7
420
 16777215
176
     1
 90
        0
176
     1
 90
        0
176
     1
 62
     7
176
     1
 62
   257
176
     1
 90
        1
176
     1
 90
        1
176
     1
 40
1.0
176
     1
 90
        8
176
     1
 62
   257
176
     1
 40
1.0
176
     1
 90
        1
176
     1
 90
        6
176
     1
 90
        2
176
     1
 62
     7
176
     1
 90
        3
176
     1
 90
        0
176
     1
 90
        0
176
     1
290
     0
176
     1
 90
       13
176
     1
 40
0.0
176
     1
 90
        0
176
     1
290
     0
176
     1
290
     1
176
     1
290
     1
176
     1
290
     0
176
     1
290
     0
176
     1
290
     0
176
     1
290
     0
176
     1
290
     0
176
     1
290
     0
176
     1
 90
       50
176
     1
 40
0.0
176
     1
 40
1.0
176
     1
 90
        0
176
     1
 62
    18
420
        0
176
     1
 90
       50
176
     1
 90
        3
176
     1
 62
     5
420
      255
176
     1
290
     0
176
     1
 90
       50
176
     1
 90
       50
176
     1
 90
       50
176
     1
290
     0
176
     1
 90
       50
176
     1
 62
   256
176
     0
 40
1.0
176
     0
 90
        2
176
     1
  1
strokes_ogs.tif
176
     1
290
     0
176
     1
 40
1.0
176
     1
 40
1.0
176
     1
  0
VISUALSTYLE
  5
623
102
{ACAD_REACTORS
330
60B
102
}
330
60B
100
AcDbVisualStyle
  2
Shaded
 70
    27
177
     3
291
     0
 70
    58
 90
        2
176
     1
 90
        2
176
     1
 90
        1
176
     1
 90
        2
176
     1
 40
0.6
176
     1
 40
30.0
176
     1
 62
     7
420
 16777215
176
     1
 90
        0
176
     1
 90
        4
176
     1
 62
     7
176
     1
 62
   257
176
     1
 90
        1
176
     1
 90
        1
176
     1
 40
1.0
176
     1
 90
        8
176
     1
 62
   257
176
     1
 40
1.0
176
     1
 90
        1
176
     1
 90
        6
176
     1
 90
        2
176
     1
 62
     8
420
  7895160
176
     1
 90
        3
176
     1
 90
        0
176
     1
 90
        0
176
     1
290
     0
176
     1
 90
        5
176
     1
 40
0.0
176
     1
 90
        0
176
     1
290
     0
176
     1
290
     1
176
     1
290
     1
176
     1
290
     0
176
     1
290
     0
176
     1
290
     0
176
     1
290
     0
176
     1
290
     0
176
     1
290
     0
176
     1
 90
       50
176
     1
 40
0.0
176
     1
 40
1.0
176
     1
 90
        0
176
     1
 62
    18
420
        0
176
     1
 90
       50
176
     1
 90
        3
176
     1
 62
     5
420
      255
176
     1
290
     0
176
     1
 90
       50
176
     1
 90
       50
176
     1
 90
       50
176
     1
290
     0
176
     1
 90
       50
176
     1
 62
   256
176
     0
 40
1.0
176
     0
 90
        2
176
     1
  1
strokes_ogs.tif
176
     1
290
     0
176
     1
 40
1.0
176
     1
 40
1.0
176
     1
  0
VISUALSTYLE
  5
622
102
{ACAD_REACTORS
330
60B
102
}
330
60B
100
AcDbVisualStyle
  2
Shaded with edges
 70
    26
177
     3
291
     0
 70
    58
 90
        2
176
     1
 90
        2
176
     1
 90
        1
176
     1
 90
        2
176
     1
 40
0.6
176
     1
 40
30.0
176
     1
 62
     7
420
 16777215
176
     1
 90
        1
176
     1
 90
       10
176
     1
 62
     7
176
     1
 62
   257
176
     1
 90
        2
176
     1
 90
        1
176
     1
 40
1.0
176
     1
 90
        8
176
     1
 62
   257
176
     1
 40
1.0
176
     1
 90
        1
176
     1
 90
        6
176
     1
 90
        2
176
     1
 62
     7
176
     1
 90
        3
176
     1
 90
        0
176
     1
 90
        0
176
     1
290
     0
176
     1
 90
        5
176
     1
 40
0.0
176
     1
 90
        0
176
     1
290
     0
176
     1
290
     1
176
     1
290
     1
176
     1
290
     0
176
     1
290
     0
176
     1
290
     0
176
     1
290
     0
176
     1
290
     0
176
     1
290
     0
176
     1
 90
       50
176
     1
 40
0.0
176
     1
 40
1.0
176
     1
 90
        0
176
     1
 62
    18
420
        0
176
     1
 90
       50
176
     1
 90
        3
176
     1
 62
     5
420
      255
176
     1
290
     0
176
     1
 90
       50
176
     1
 90
       50
176
     1
 90
       50
176
     1
290
     0
176
     1
 90
       50
176
     1
 62
   256
176
     0
 40
1.0
176
     0
 90
        2
176
     1
  1
strokes_ogs.tif
176
     1
290
     0
176
     1
 40
1.0
176
     1
 40
1.0
176
     1
  0
VISUALSTYLE
  5
61F
102
{ACAD_REACTORS
330
60B
102
}
330
60B
100
AcDbVisualStyle
  2
Shades of Gray
 70
    23
177
     3
291
     0
 70
    58
 90
        2
176
     1
 90
        2
176
     1
 90
        3
176
     1
 90
        0
176
     1
 40
0.6
176
     1
 40
30.0
176
     1
 62
     7
420
 16777215
176
     1
 90
        2
176
     1
 90
        2
176
     1
 62
     7
176
     1
 62
     7
176
     1
 90
        1
176
     1
 90
        1
176
     1
 40
40.0
176
     1
 90
        8
176
     1
 62
     7
176
     1
 40
1.0
176
     1
 90
        1
176
     1
 90
        6
176
     1
 90
        2
176
     1
 62
     7
176
     1
 90
        3
176
     1
 90
        0
176
     1
 90
        0
176
     1
290
     0
176
     1
 90
        1
176
     1
 40
0.0
176
     1
 90
        0
176
     1
290
     0
176
     1
290
     1
176
     1
290
     1
176
     1
290
     0
176
     1
290
     0
176
     1
290
     0
176
     1
290
     0
176
     1
290
     0
176
     1
290
     0
176
     1
 90
       50
176
     1
 40
0.0
176
     1
 40
1.0
176
     1
 90
        0
176
     1
 62
    18
420
        0
176
     1
 90
       50
176
     1
 90
        3
176
     1
 62
     5
420
      255
176
     1
290
     0
176
     1
 90
       50
176
     1
 90
       50
176
     1
 90
       50
176
     1
290
     0
176
     1
 90
       50
176
     1
 62
   256
176
     0
 40
1.0
176
     0
 90
        2
176
     1
  1
strokes_ogs.tif
176
     1
290
     0
176
     1
 40
1.0
176
     1
 40
1.0
176
     1
  0
VISUALSTYLE
  5
620
102
{ACAD_REACTORS
330
60B
102
}
330
60B
100
AcDbVisualStyle
  2
Sketchy
 70
    24
177
     3
291
     0
 70
    58
 90
        1
176
     1
 90
        2
176
     1
 90
        2
176
     1
 90
        0
176
     1
 40
0.6
176
     1
 40
30.0
176
     1
 62
     7
420
 16777215
176
     1
 90
        2
176
     1
 90
        2
176
     1
 62
     7
176
     1
 62
     7
176
     1
 90
        1
176
     1
 90
        1
176
     1
 40
40.0
176
     1
 90
       11
176
     1
 62
     7
176
     1
 40
1.0
176
     1
 90
        1
176
     1
 90
        6
176
     1
 90
        2
176
     1
 62
     7
176
     1
 90
        6
176
     1
 90
        0
176
     1
 90
        0
176
     1
290
     0
176
     1
 90
        1
176
     1
 40
0.0
176
     1
 90
        0
176
     1
290
     0
176
     1
290
     1
176
     1
290
     1
176
     1
290
     0
176
     1
290
     0
176
     1
290
     0
176
     1
290
     0
176
     1
290
     0
176
     1
290
     0
176
     1
 90
       50
176
     1
 40
0.0
176
     1
 40
1.0
176
     1
 90
        0
176
     1
 62
    18
420
        0
176
     1
 90
       50
176
     1
 90
        3
176
     1
 62
     5
420
      255
176
     1
290
     0
176
     1
 90
       50
176
     1
 90
       50
176
     1
 90
       50
176
     1
290
     0
176
     1
 90
       50
176
     1
 62
   256
176
     0
 40
1.0
176
     0
 90
        2
176
     1
  1
strokes_ogs.tif
176
     1
290
     0
176
     1
 40
1.0
176
     1
 40
1.0
176
     1
  0
VISUALSTYLE
  5
618
102
{ACAD_REACTORS
330
60B
102
}
330
60B
100
AcDbVisualStyle
  2
Thicken
 70
    13
177
     3
291
     1
 70
    58
 90
        2
176
     1
 90
        2
176
     1
 90
        0
176
     1
 90
        0
176
     1
 40
0.6
176
     1
 40
30.0
176
     1
 62
     7
420
 16777215
176
     1
 90
        1
176
     1
 90
        4
176
     1
 62
     7
176
     1
 62
   257
176
     1
 90
        1
176
     1
 90
        1
176
     1
 40
1.0
176
     1
 90
       12
176
     1
 62
     7
176
     1
 40
1.0
176
     1
 90
        1
176
     1
 90
        6
176
     1
 90
        2
176
     1
 62
     7
176
     1
 90
        5
176
     1
 90
        0
176
     1
 90
        0
176
     1
290
     0
176
     1
 90
        1
176
     1
 40
0.0
176
     1
 90
        0
176
     1
290
     0
176
     1
290
     1
176
     1
290
     1
176
     1
290
     0
176
     1
290
     0
176
     1
290
     0
176
     1
290
     0
176
     1
290
     0
176
     1
290
     0
176
     1
 90
       50
176
     1
 40
0.0
176
     1
 40
1.0
176
     1
 90
        0
176
     1
 62
    18
420
        0
176
     1
 90
       50
176
     1
 90
        3
176
     1
 62
     5
420
      255
176
     1
290
     0
176
     1
 90
       50
176
     1
 90
       50
176
     1
 90
       50
176
     1
290
     0
176
     1
 90
       50
176
     1
 62
   256
176
     0
 40
1.0
176
     0
 90
        2
176
     1
  1
strokes_ogs.tif
176
     1
290
     0
176
     1
 40
1.0
176
     1
 40
1.0
176
     1
  0
VISUALSTYLE
  5
611
102
{ACAD_REACTORS
330
60B
102
}
330
60B
100
AcDbVisualStyle
  2
Wireframe
 70
     5
177
     3
291
     0
 70
    58
 90
        0
176
     1
 90
        2
176
     1
 90
        0
176
     1
 90
        0
176
     1
 40
0.6
176
     1
 40
30.0
176
     1
 62
     7
420
 16777215
176
     1
 90
        1
176
     1
 90
        4
176
     1
 62
     7
176
     1
 62
   257
176
     1
 90
        1
176
     1
 90
        1
176
     1
 40
1.0
176
     1
 90
        0
176
     1
 62
   257
176
     1
 40
1.0
176
     1
 90
        1
176
     1
 90
        6
176
     1
 90
        2
176
     1
 62
     7
176
     1
 90
        3
176
     1
 90
        0
176
     1
 90
        0
176
     1
290
     0
176
     1
 90
        1
176
     1
 40
0.0
176
     1
 90
        0
176
     1
290
     0
176
     1
290
     1
176
     1
290
     1
176
     1
290
     0
176
     1
290
     0
176
     1
290
     0
176
     1
290
     0
176
     1
290
     0
176
     1
290
     0
176
     1
 90
       50
176
     1
 40
0.0
176
     1
 40
1.0
176
     1
 90
        0
176
     1
 62
    18
420
        0
176
     1
 90
       50
176
     1
 90
        3
176
     1
 62
     5
420
      255
176
     1
290
     0
176
     1
 90
       50
176
     1
 90
       50
176
     1
 90
       50
176
     1
290
     0
176
     1
 90
       50
176
     1
 62
   256
176
     0
 40
1.0
176
     0
 90
        2
176
     1
  1
strokes_ogs.tif
176
     1
290
     0
176
     1
 40
1.0
176
     1
 40
1.0
176
     1
  0
VISUALSTYLE
  5
621
102
{ACAD_REACTORS
330
60B
102
}
330
60B
100
AcDbVisualStyle
  2
X-Ray
 70
    25
177
     3
291
     0
 70
    58
 90
        2
176
     1
 90
        2
176
     1
 90
        1
176
     1
 90
        1
176
     1
 40
0.5
176
     1
 40
30.0
176
     1
 62
     7
420
 16777215
176
     1
 90
        1
176
     1
 90
        0
176
     1
 62
     7
176
     1
 62
   257
176
     1
 90
        1
176
     1
 90
        1
176
     1
 40
1.0
176
     1
 90
        8
176
     1
 62
     7
176
     1
 40
1.0
176
     1
 90
        1
176
     1
 90
        6
176
     1
 90
        2
176
     1
 62
     7
176
     1
 90
        3
176
     1
 90
        0
176
     1
 90
        0
176
     1
290
     0
176
     1
 90
       13
176
     1
 40
0.0
176
     1
 90
        0
176
     1
290
     0
176
     1
290
     1
176
     1
290
     1
176
     1
290
     0
176
     1
290
     0
176
     1
290
     0
176
     1
290
     0
176
     1
290
     0
176
     1
290
     0
176
     1
 90
       50
176
     1
 40
0.0
176
     1
 40
1.0
176
     1
 90
        0
176
     1
 62
    18
420
        0
176
     1
 90
       50
176
     1
 90
        3
176
     1
 62
     5
420
      255
176
     1
290
     0
176
     1
 90
       50
176
     1
 90
       50
176
     1
 90
       50
176
     1
290
     0
176
     1
 90
       50
176
     1
 62
   256
176
     0
 40
1.0
176
     0
 90
        2
176
     1
  1
strokes_ogs.tif
176
     1
290
     0
176
     1
 40
1.0
176
     1
 40
1.0
176
     1
  0
DICTIONARYVAR
  5
62C
102
{ACAD_REACTORS
330
5E3
102
}
330
5E3
100
DictionaryVariables
280
     0
  1
1:1
  0
DICTIONARYVAR
  5
62E
102
{ACAD_REACTORS
330
5E3
102
}
330
5E3
100
DictionaryVariables
280
     0
  1
Standard
  0
DICTIONARYVAR
  5
62D
102
{ACAD_REACTORS
330
5E3
102
}
330
5E3
100
DictionaryVariables
280
     0
  1
Standard
  0
DICTIONARYVAR
  5
62F
102
{ACAD_REACTORS
330
5E3
102
}
330
5E3
100
DictionaryVariables
280
     0
  1
0
  0
DICTIONARY
  5
631
330
629
100
AcDbDictionary
280
     1
281
     1
  3
ACAD_ROUNDTRIP_2008_TABLESTYLE_CELLSTYLEMAP
360
632
  0
CELLSTYLEMAP
  5
632
102
{ACAD_REACTORS
330
631
102
}
330
631
100
AcDbCellStyleMap
 90
        3
300
CELLSTYLE
  1
TABLEFORMAT_BEGIN
 90
        5
170
     1
 91
        0
 92
    32768
 62
   257
 93
        1
300
CONTENTFORMAT
  1
CONTENTFORMAT_BEGIN
 90
        0
 91
        0
 92
        4
 93
        0
300

 40
0.0
140
1.0
 94
        5
 62
     0
340
11
144
0.25
309
CONTENTFORMAT_END
171
     1
301
MARGIN
  1
CELLMARGIN_BEGIN
 40
0.06
 40
0.06
 40
0.06
 40
0.06
 40
0.06
 40
0.06
309
CELLMARGIN_END
 94
        6
 95
        1
302
GRIDFORMAT
  1
GRIDFORMAT_BEGIN
 90
        0
 91
        1
 62
     0
 92
       -2
340
14
 93
        0
 40
0.045
309
GRIDFORMAT_END
 95
        2
302
GRIDFORMAT
  1
GRIDFORMAT_BEGIN
 90
        0
 91
        1
 62
     0
 92
       -2
340
14
 93
        0
 40
0.045
309
GRIDFORMAT_END
 95
        4
302
GRIDFORMAT
  1
GRIDFORMAT_BEGIN
 90
        0
 91
        1
 62
     0
 92
       -2
340
14
 93
        0
 40
0.045
309
GRIDFORMAT_END
 95
        8
302
GRIDFORMAT
  1
GRIDFORMAT_BEGIN
 90
        0
 91
        1
 62
     0
 92
       -2
340
14
 93
        0
 40
0.045
309
GRIDFORMAT_END
 95
       16
302
GRIDFORMAT
  1
GRIDFORMAT_BEGIN
 90
        0
 91
        1
 62
     0
 92
       -2
340
14
 93
        0
 40
0.045
309
GRIDFORMAT_END
 95
       32
302
GRIDFORMAT
  1
GRIDFORMAT_BEGIN
 90
        0
 91
        1
 62
     0
 92
       -2
340
14
 93
        0
 40
0.045
309
GRIDFORMAT_END
309
TABLEFORMAT_END
  1
CELLSTYLE_BEGIN
 90
        1
 91
        1
300
_TITLE
309
CELLSTYLE_END
300
CELLSTYLE
  1
TABLEFORMAT_BEGIN
 90
        5
170
     1
 91
        0
 92
        0
 62
   257
 93
        1
300
CONTENTFORMAT
  1
CONTENTFORMAT_BEGIN
 90
        0
 91
        0
 92
        4
 93
        0
300

 40
0.0
140
1.0
 94
        5
 62
     0
340
11
144
0.18
309
CONTENTFORMAT_END
171
     1
301
MARGIN
  1
CELLMARGIN_BEGIN
 40
0.06
 40
0.06
 40
0.06
 40
0.06
 40
0.06
 40
0.06
309
CELLMARGIN_END
 94
        6
 95
        1
302
GRIDFORMAT
  1
GRIDFORMAT_BEGIN
 90
        0
 91
        1
 62
     0
 92
       -2
340
14
 93
        0
 40
0.045
309
GRIDFORMAT_END
 95
        2
302
GRIDFORMAT
  1
GRIDFORMAT_BEGIN
 90
        0
 91
        1
 62
     0
 92
       -2
340
14
 93
        0
 40
0.045
309
GRIDFORMAT_END
 95
        4
302
GRIDFORMAT
  1
GRIDFORMAT_BEGIN
 90
        0
 91
        1
 62
     0
 92
       -2
340
14
 93
        0
 40
0.045
309
GRIDFORMAT_END
 95
        8
302
GRIDFORMAT
  1
GRIDFORMAT_BEGIN
 90
        0
 91
        1
 62
     0
 92
       -2
340
14
 93
        0
 40
0.045
309
GRIDFORMAT_END
 95
       16
302
GRIDFORMAT
  1
GRIDFORMAT_BEGIN
 90
        0
 91
        1
 62
     0
 92
       -2
340
14
 93
        0
 40
0.045
309
GRIDFORMAT_END
 95
       32
302
GRIDFORMAT
  1
GRIDFORMAT_BEGIN
 90
        0
 91
        1
 62
     0
 92
       -2
340
14
 93
        0
 40
0.045
309
GRIDFORMAT_END
309
TABLEFORMAT_END
  1
CELLSTYLE_BEGIN
 90
        2
 91
        1
300
_HEADER
309
CELLSTYLE_END
300
CELLSTYLE
  1
TABLEFORMAT_BEGIN
 90
        5
170
     1
 91
        0
 92
        0
 62
   257
 93
        1
300
CONTENTFORMAT
  1
CONTENTFORMAT_BEGIN
 90
        0
 91
        0
 92
        4
 93
        0
300

 40
0.0
140
1.0
 94
        2
 62
     0
340
11
144
0.18
309
CONTENTFORMAT_END
171
     1
301
MARGIN
  1
CELLMARGIN_BEGIN
 40
0.06
 40
0.06
 40
0.06
 40
0.06
 40
0.06
 40
0.06
309
CELLMARGIN_END
 94
        6
 95
        1
302
GRIDFORMAT
  1
GRIDFORMAT_BEGIN
 90
        0
 91
        1
 62
     0
 92
       -2
340
14
 93
        0
 40
0.045
309
GRIDFORMAT_END
 95
        2
302
GRIDFORMAT
  1
GRIDFORMAT_BEGIN
 90
        0
 91
        1
 62
     0
 92
       -2
340
14
 93
        0
 40
0.045
309
GRIDFORMAT_END
 95
        4
302
GRIDFORMAT
  1
GRIDFORMAT_BEGIN
 90
        0
 91
        1
 62
     0
 92
       -2
340
14
 93
        0
 40
0.045
309
GRIDFORMAT_END
 95
        8
302
GRIDFORMAT
  1
GRIDFORMAT_BEGIN
 90
        0
 91
        1
 62
     0
 92
       -2
340
14
 93
        0
 40
0.045
309
GRIDFORMAT_END
 95
       16
302
GRIDFORMAT
  1
GRIDFORMAT_BEGIN
 90
        0
 91
        1
 62
     0
 92
       -2
340
14
 93
        0
 40
0.045
309
GRIDFORMAT_END
 95
       32
302
GRIDFORMAT
  1
GRIDFORMAT_BEGIN
 90
        0
 91
        1
 62
     0
 92
       -2
340
14
 93
        0
 40
0.045
309
GRIDFORMAT_END
309
TABLEFORMAT_END
  1
CELLSTYLE_BEGIN
 90
        3
 91
        2
300
_DATA
309
CELLSTYLE_END
  0
ENDSEC
  0
EOF
