  0
SECTION
  2
HEADER
  9
$ACADVER
  1
AC1032
  9
$ACADMAINTVER
 90
        4
  9
$DWGCODEPAGE
  3
ANSI_932
  9
$LASTSAVEDBY
  1
9128
  9
$REQUIREDVERSIONS
160
                 0
  9
$INSBASE
 10
0.0
 20
0.0
 30
0.0
  9
$EXTMIN
 10
205.5711814962426
 20
47.70528355851511
 30
0.0
  9
$EXTMAX
 10
267.5377525257745
 20
244.599392365603
 30
0.0
  9
$LIMMIN
 10
0.0
 20
0.0
  9
$LIMMAX
 10
0.0
 20
0.0
  9
$ORTHOMODE
 70
     0
  9
$REGENMODE
 70
     1
  9
$FILLMODE
 70
     1
  9
$QTEXTMODE
 70
     0
  9
$MIRRTEXT
 70
     1
  9
$LTSCALE
 40
5.08
  9
$ATTMODE
 70
     1
  9
$TEXTSIZE
 40
2.5
  9
$TRACEWID
 40
1.0
  9
$TEXTSTYLE
  7
Standard
  9
$CLAYER
  8
0
  9
$CELTYPE
  6
Continuous
  9
$CECOLOR
 62
   256
  9
$CELTSCALE
 40
1.0
  9
$DISPSILH
 70
     0
  9
$DIMSCALE
 40
1.0
  9
$DIMASZ
 40
0.18
  9
$DIMEXO
 40
0.0625
  9
$DIMDLI
 40
0.38
  9
$DIMRND
 40
0.0
  9
$DIMDLE
 40
0.0
  9
$DIMEXE
 40
0.18
  9
$DIMTP
 40
0.0
  9
$DIMTM
 40
0.0
  9
$DIMTXT
 40
0.18
  9
$DIMCEN
 40
0.09
  9
$DIMTSZ
 40
0.0
  9
$DIMTOL
 70
     0
  9
$DIMLIM
 70
     0
  9
$DIMTIH
 70
     1
  9
$DIMTOH
 70
     1
  9
$DIMSE1
 70
     0
  9
$DIMSE2
 70
     0
  9
$DIMTAD
 70
     0
  9
$DIMZIN
 70
     0
  9
$DIMBLK
  1

  9
$DIMASO
 70
     1
  9
$DIMSHO
 70
     1
  9
$DIMPOST
  1

  9
$DIMAPOST
  1

  9
$DIMALT
 70
     0
  9
$DIMALTD
 70
     2
  9
$DIMALTF
 40
25.4
  9
$DIMLFAC
 40
1.0
  9
$DIMTOFL
 70
     0
  9
$DIMTVP
 40
0.0
  9
$DIMTIX
 70
     0
  9
$DIMSOXD
 70
     0
  9
$DIMSAH
 70
     0
  9
$DIMBLK1
  1

  9
$DIMBLK2
  1

  9
$DIMSTYLE
  2
Standard
  9
$DIMCLRD
 70
     0
  9
$DIMCLRE
 70
     0
  9
$DIMCLRT
 70
     0
  9
$DIMTFAC
 40
1.0
  9
$DIMGAP
 40
0.09
  9
$DIMJUST
 70
     0
  9
$DIMSD1
 70
     0
  9
$DIMSD2
 70
     0
  9
$DIMTOLJ
 70
     1
  9
$DIMTZIN
 70
     0
  9
$DIMALTZ
 70
     0
  9
$DIMALTTZ
 70
     0
  9
$DIMUPT
 70
     0
  9
$DIMDEC
 70
     4
  9
$DIMTDEC
 70
     4
  9
$DIMALTU
 70
     2
  9
$DIMALTTD
 70
     2
  9
$DIMTXSTY
  7
Standard
  9
$DIMAUNIT
 70
     0
  9
$DIMADEC
 70
     0
  9
$DIMALTRND
 40
0.0
  9
$DIMAZIN
 70
     0
  9
$DIMDSEP
 70
     0
  9
$DIMATFIT
 70
     3
  9
$DIMFRAC
 70
     0
  9
$DIMLDRBLK
  1

  9
$DIMLUNIT
 70
     2
  9
$DIMLWD
 70
     0
  9
$DIMLWE
 70
     0
  9
$DIMTMOVE
 70
     0
  9
$DIMFXL
 40
1.0
  9
$DIMFXLON
 70
     0
  9
$DIMJOGANG
 40
0.7853981633974483
  9
$DIMTFILL
 70
     0
  9
$DIMTFILLCLR
 70
     0
  9
$DIMARCSYM
 70
     0
  9
$DIMLTYPE
  6

  9
$DIMLTEX1
  6

  9
$DIMLTEX2
  6

  9
$DIMTXTDIRECTION
 70
     0
  9
$LUNITS
 70
     2
  9
$LUPREC
 70
     4
  9
$SKETCHINC
 40
0.1
  9
$FILLETRAD
 40
0.0
  9
$AUNITS
 70
     0
  9
$AUPREC
 70
     0
  9
$MENU
  1
acad
  9
$ELEVATION
 40
0.0
  9
$PELEVATION
 40
0.0
  9
$THICKNESS
 40
0.0
  9
$LIMCHECK
 70
     0
  9
$CHAMFERA
 40
0.0
  9
$CHAMFERB
 40
0.0
  9
$CHAMFERC
 40
0.0
  9
$CHAMFERD
 40
0.0
  9
$SKPOLY
 70
     0
  9
$TDCREATE
 40
2447893.375
  9
$TDUCREATE
 40
0.0
  9
$TDUPDATE
 40
2459608.567517419
  9
$TDUUPDATE
 40
2459608.192517419
  9
$TDINDWG
 40
0.0011353588
  9
$TDUSRTIMER
 40
0.0000718287
  9
$USRTIMER
 70
     1
  9
$ANGBASE
 50
0.0
  9
$ANGDIR
 70
     0
  9
$PDMODE
 70
     1
  9
$PDSIZE
 40
-2.0
  9
$PLINEWID
 40
0.0
  9
$SPLFRAME
 70
     0
  9
$SPLINETYPE
 70
     6
  9
$SPLINESEGS
 70
     8
  9
$HANDSEED
  5
226
  9
$SURFTAB1
 70
     6
  9
$SURFTAB2
 70
     6
  9
$SURFTYPE
 70
     6
  9
$SURFU
 70
     6
  9
$SURFV
 70
     6
  9
$UCSBASE
  2

  9
$UCSNAME
  2

  9
$UCSORG
 10
0.0
 20
0.0
 30
0.0
  9
$UCSXDIR
 10
1.0
 20
0.0
 30
0.0
  9
$UCSYDIR
 10
0.0
 20
1.0
 30
0.0
  9
$UCSORTHOREF
  2

  9
$UCSORTHOVIEW
 70
     0
  9
$UCSORGTOP
 10
0.0
 20
0.0
 30
0.0
  9
$UCSORGBOTTOM
 10
0.0
 20
0.0
 30
0.0
  9
$UCSORGLEFT
 10
0.0
 20
0.0
 30
0.0
  9
$UCSORGRIGHT
 10
0.0
 20
0.0
 30
0.0
  9
$UCSORGFRONT
 10
0.0
 20
0.0
 30
0.0
  9
$UCSORGBACK
 10
0.0
 20
0.0
 30
0.0
  9
$PUCSBASE
  2

  9
$PUCSNAME
  2

  9
$PUCSORG
 10
0.0
 20
0.0
 30
0.0
  9
$PUCSXDIR
 10
1.0
 20
0.0
 30
0.0
  9
$PUCSYDIR
 10
0.0
 20
1.0
 30
0.0
  9
$PUCSORTHOREF
  2

  9
$PUCSORTHOVIEW
 70
     0
  9
$PUCSORGTOP
 10
0.0
 20
0.0
 30
0.0
  9
$PUCSORGBOTTOM
 10
0.0
 20
0.0
 30
0.0
  9
$PUCSORGLEFT
 10
0.0
 20
0.0
 30
0.0
  9
$PUCSORGRIGHT
 10
0.0
 20
0.0
 30
0.0
  9
$PUCSORGFRONT
 10
0.0
 20
0.0
 30
0.0
  9
$PUCSORGBACK
 10
0.0
 20
0.0
 30
0.0
  9
$USERI1
 70
     0
  9
$USERI2
 70
     0
  9
$USERI3
 70
     0
  9
$USERI4
 70
     0
  9
$USERI5
 70
     0
  9
$USERR1
 40
0.0
  9
$USERR2
 40
0.0
  9
$USERR3
 40
0.0
  9
$USERR4
 40
0.0
  9
$USERR5
 40
0.0
  9
$WORLDVIEW
 70
     1
  9
$SHADEDGE
 70
     3
  9
$SHADEDIF
 70
    70
  9
$TILEMODE
 70
     1
  9
$MAXACTVP
 70
    16
  9
$PINSBASE
 10
0.0
 20
0.0
 30
0.0
  9
$PLIMCHECK
 70
     0
  9
$PEXTMIN
 10
1.000000000000000E+20
 20
1.000000000000000E+20
 30
1.000000000000000E+20
  9
$PEXTMAX
 10
-1.000000000000000E+20
 20
-1.000000000000000E+20
 30
-1.000000000000000E+20
  9
$PLIMMIN
 10
0.0
 20
0.0
  9
$PLIMMAX
 10
0.0
 20
0.0
  9
$UNITMODE
 70
     0
  9
$VISRETAIN
 70
     0
  9
$PLINEGEN
 70
     1
  9
$PSLTSCALE
 70
     0
  9
$TREEDEPTH
 70
  3020
  9
$CMLSTYLE
  2
Standard
  9
$CMLJUST
 70
     0
  9
$CMLSCALE
 40
1.0
  9
$PROXYGRAPHICS
 70
     0
  9
$MEASUREMENT
 70
     1
  9
$CELWEIGHT
370
     0
  9
$ENDCAPS
280
     0
  9
$JOINSTYLE
280
     0
  9
$LWDISPLAY
290
     1
  9
$INSUNITS
 70
     4
  9
$HYPERLINKBASE
  1

  9
$STYLESHEET
  1

  9
$XEDIT
290
     1
  9
$CEPSNTYPE
380
     0
  9
$PSTYLEMODE
290
     1
  9
$FINGERPRINTGUID
  2

  9
$VERSIONGUID
  2

  9
$EXTNAMES
290
     1
  9
$PSVPSCALE
 40
0.0
  9
$OLESTARTUP
290
     0
  9
$SORTENTS
280
   127
  9
$INDEXCTL
280
     0
  9
$HIDETEXT
280
     1
  9
$XCLIPFRAME
280
     2
  9
$HALOGAP
280
     0
  9
$OBSCOLOR
 70
   257
  9
$OBSLTYPE
280
     0
  9
$INTERSECTIONDISPLAY
280
     0
  9
$INTERSECTIONCOLOR
 70
   257
  9
$DIMASSOC
280
     2
  9
$PROJECTNAME
  1

  9
$CAMERADISPLAY
290
     0
  9
$LENSLENGTH
 40
50.0
  9
$CAMERAHEIGHT
 40
0.0
  9
$STEPSPERSEC
 40
2.0
  9
$STEPSIZE
 40
6.0
  9
$3DDWFPREC
 40
2.0
  9
$PSOLWIDTH
 40
0.25
  9
$PSOLHEIGHT
 40
4.0
  9
$LOFTANG1
 40
1.570796326794897
  9
$LOFTANG2
 40
1.570796326794897
  9
$LOFTMAG1
 40
0.0
  9
$LOFTMAG2
 40
0.0
  9
$LOFTPARAM
 70
     7
  9
$LOFTNORMALS
280
     1
  9
$LATITUDE
 40
37.795
  9
$LONGITUDE
 40
-122.394
  9
$NORTHDIRECTION
 40
0.0
  9
$TIMEZONE
 70
 -8000
  9
$LIGHTGLYPHDISPLAY
280
     1
  9
$TILEMODELIGHTSYNCH
280
     1
  9
$SOLIDHIST
280
     0
  9
$SHOWHIST
280
     1
  9
$DWFFRAME
280
     2
  9
$DGNFRAME
280
     2
  9
$REALWORLDSCALE
290
     1
  9
$INTERFERECOLOR
 62
   256
  9
$CSHADOW
280
     0
  9
$SHADOWPLANELOCATION
 40
0.0
  0
ENDSEC
  0
SECTION
  2
CLASSES
  0
CLASS
  1
LWPOLYLINE
  2
AcDbPolyline
  3
ObjectDBX Classes
 90
        0
 91
        1
280
     0
281
     1
  0
CLASS
  1
IMAGE
  2
AcDbRasterImage
  3
ISM
 90
      127
 91
        4
280
     0
281
     1
  0
CLASS
  1
OLE2FRAME
  2
AcDbOle2Frame
  3
ObjectDBX Classes
 90
        0
 91
        1
280
     0
281
     1
  0
CLASS
  1
HATCH
  2
AcDbHatch
  3
ObjectDBX Classes
 90
        0
 91
        1
280
     0
281
     1
  0
CLASS
  1
DICTIONARYVAR
  2
AcDbDictionaryVar
  3
ObjectDBX Classes
 90
        0
 91
        3
280
     0
281
     0
  0
CLASS
  1
RASTERVARIABLES
  2
AcDbRasterVariables
  3
ISM
 90
        0
 91
        3
280
     0
281
     0
  0
CLASS
  1
IMAGEDEF
  2
AcDbRasterImageDef
  3
ISM
 90
        0
 91
        3
280
     0
281
     0
  0
CLASS
  1
IMAGEDEF_REACTOR
  2
AcDbRasterImageDefReactor
  3
ISM
 90
        1
 91
        3
280
     0
281
     0
  0
CLASS
  1
IDBUFFER
  2
AcDbIdBuffer
  3
ObjectDBX Classes
 90
        0
 91
        3
280
     0
281
     0
  0
CLASS
  1
SPATIAL_FILTER
  2
AcDbSpatialFilter
  3
ObjectDBX Classes
 90
        0
 91
        3
280
     0
281
     0
  0
CLASS
  1
XRECORD
  2
AcDbXrecord
  3
ObjectDBX Classes
 90
        0
 91
        1
280
     0
281
     0
  0
CLASS
  1
SORTENTSTABLE
  2
AcDbSortentsTable
  3
ObjectDBX Classes
 90
        0
 91
        3
280
     0
281
     0
  0
CLASS
  1
LAYER_INDEX
  2
AcDbLayerIndex
  3
ObjectDBX Classes
 90
        0
 91
        3
280
     0
281
     0
  0
CLASS
  1
SPATIAL_INDEX
  2
AcDbSpatialIndex
  3
AutoCAD 2000
 90
        0
 91
        3
280
     0
281
     0
  0
CLASS
  1
OBJECT_PTR
  2
CAseDLPNTableRecord
  3
ASE-LPNTableRecord
 90
        1
 91
        3
280
     0
281
     0
  0
CLASS
  1
LAYOUT
  2
AcDbLayout
  3
ObjectDBX Classes
 90
        0
 91
        1
280
     0
281
     0
  0
CLASS
  1
PLOTSETTINGS
  2
AcDbPlotSettings
  3
ObjectDBX Classes
 90
        0
 91
        3
280
     0
281
     0
  0
CLASS
  1
ACDBDICTIONARYWDFLT
  2
AcDbDictionaryWithDefault
  3
ObjectDBX Classes
 90
        0
 91
        3
280
     0
281
     0
  0
CLASS
  1
ACDBPLACEHOLDER
  2
AcDbPlaceHolder
  3
ObjectDBX Classes
 90
        0
 91
        1
280
     0
281
     0
  0
CLASS
  1
VBA_PROJECT
  2
AcDbVbaProject
  3
ObjectDBX Classes
 90
        0
 91
        1
280
     0
281
     0
  0
CLASS
  1
WIPEOUT
  2
AcDbWipeout
  3
WipeOut|AutoCAD Express Tool|expresstools@autodesk.com
 90
      127
 91
        3
280
     0
281
     1
  0
CLASS
  1
WIPEOUTVARIABLES
  2
AcDbWipeoutVariables
  3
WipeOut|AutoCAD Express Tool|expresstools@autodesk.com
 90
        0
 91
        3
280
     0
281
     0
  0
CLASS
  1
RTEXT
  2
RText
  3
RText|AutoCAD Express Tool|expresstools@autodesk.com
 90
        0
 91
        3
280
     0
281
     1
  0
CLASS
  1
ARCALIGNEDTEXT
  2
AcDbArcAlignedText
  3
ATEXT|AutoCAD Express Tool|expresstools@autodesk.com
 90
        0
 91
        3
280
     0
281
     1
  0
CLASS
  1
SCALE
  2
AcDbScale
  3
ObjectDBX Classes
 90
     1153
 91
        3
280
     0
281
     0
  0
CLASS
  1
VISUALSTYLE
  2
AcDbVisualStyle
  3
ObjectDBX Classes
 90
     4095
 91
        3
280
     0
281
     0
  0
CLASS
  1
MATERIAL
  2
AcDbMaterial
  3
ObjectDBX Classes
 90
     1153
 91
        3
280
     0
281
     0
  0
CLASS
  1
TABLESTYLE
  2
AcDbTableStyle
  3
ObjectDBX Classes
 90
     4095
 91
        3
280
     0
281
     0
  0
CLASS
  1
MLEADERSTYLE
  2
AcDbMLeaderStyle
  3
ACDB_MLEADERSTYLE_CLASS
 90
     4095
 91
        3
280
     0
281
     0
  0
CLASS
  1
SUN
  2
AcDbSun
  3
SCENEOE
 90
     1153
 91
        3
280
     0
281
     0
  0
CLASS
  1
CELLSTYLEMAP
  2
AcDbCellStyleMap
  3
ObjectDBX Classes
 90
     1152
 91
        3
280
     0
281
     0
  0
ENDSEC
  0
SECTION
  2
TABLES
  0
TABLE
  2
VPORT
  5
7
330
0
100
AcDbSymbolTable
 70
     1
  0
VPORT
  5
15
330
7
100
AcDbSymbolTableRecord
100
AcDbViewportTableRecord
  2
*ACTIVE
 70
     0
 10
0.0
 20
0.0
 11
1.0
 21
1.0
 12
289.4794075535503
 22
170.6955893321667
 13
0.0
 23
0.0
 14
1.0
 24
1.0
 15
0.0
 25
0.0
 16
0.0
 26
0.0
 36
1.0
 17
0.0
 27
0.0
 37
0.0
 40
499.1722660607783
 41
0.9309815950920245
 42
50.0
 43
0.0
 44
0.0
 50
0.0
 51
0.0
 71
    16
 72
   100
 73
     1
 74
     1
 75
     0
 76
     0
 77
     0
 78
     0
281
     0
 65
     0
110
0.0
120
0.0
130
0.0
111
1.0
121
0.0
131
0.0
112
0.0
122
1.0
132
0.0
 79
     0
146
0.0
348
1EC
 60
     3
 61
     5
292
     1
282
     1
141
0.0
142
0.0
 63
   256
361
210
  0
ENDTAB
  0
TABLE
  2
LTYPE
  5
4
330
0
100
AcDbSymbolTable
 70
    12
  0
LTYPE
  5
11
330
4
100
AcDbSymbolTableRecord
100
AcDbLinetypeTableRecord
  2
ByBlock
 70
     0
  3

 72
    65
 73
     0
 40
0.0
  0
LTYPE
  5
12
330
4
100
AcDbSymbolTableRecord
100
AcDbLinetypeTableRecord
  2
ByLayer
 70
     0
  3

 72
    65
 73
     0
 40
0.0
  0
LTYPE
  5
13
330
4
100
AcDbSymbolTableRecord
100
AcDbLinetypeTableRecord
  2
Continuous
 70
     0
  3
Solid line
 72
    65
 73
     0
 40
0.0
  0
LTYPE
  5
25
330
4
100
AcDbSymbolTableRecord
100
AcDbLinetypeTableRecord
  2
STYLE_01
 70
     0
  3

 72
    65
 73
     2
 40
0.075
 49
0.05
 74
     0
 49
-0.025
 74
     0
  0
LTYPE
  5
26
330
4
100
AcDbSymbolTableRecord
100
AcDbLinetypeTableRecord
  2
STYLE_02
 70
     0
  3

 72
    65
 73
     6
 40
0.4999999999999999
 49
0.25
 74
     0
 49
-0.05
 74
     0
 49
0.05
 74
     0
 49
-0.05
 74
     0
 49
0.05
 74
     0
 49
-0.05
 74
     0
  0
LTYPE
  5
27
330
4
100
AcDbSymbolTableRecord
100
AcDbLinetypeTableRecord
  2
STYLE_03
 70
     0
  3

 72
    65
 73
     4
 40
0.3999999999999999
 49
0.25
 74
     0
 49
-0.05
 74
     0
 49
0.05
 74
     0
 49
-0.05
 74
     0
  0
LTYPE
  5
28
330
4
100
AcDbSymbolTableRecord
100
AcDbLinetypeTableRecord
  2
STYLE_04
 70
     0
  3

 72
    65
 73
     4
 40
0.7999999999999998
 49
0.4999999999999999
 74
     0
 49
-0.1
 74
     0
 49
0.1
 74
     0
 49
-0.1
 74
     0
  0
LTYPE
  5
29
330
4
100
AcDbSymbolTableRecord
100
AcDbLinetypeTableRecord
  2
STYLE_05
 70
     0
  3

 72
    65
 73
     2
 40
0.025
 49
0.0005
 74
     0
 49
-0.0245
 74
     0
  0
LTYPE
  5
2A
330
4
100
AcDbSymbolTableRecord
100
AcDbLinetypeTableRecord
  2
STYLE_06
 70
     0
  3

 72
    65
 73
     4
 40
1.04164
 49
0.625
 74
     0
 49
-0.20828
 74
     0
 49
0.06943
 74
     0
 49
-0.13893
 74
     0
  0
LTYPE
  5
2B
330
4
100
AcDbSymbolTableRecord
100
AcDbLinetypeTableRecord
  2
STYLE_07
 70
     0
  3

 72
    65
 73
     6
 40
1.875
 49
0.625
 74
     0
 49
-0.20828
 74
     0
 49
0.6250000000000001
 74
     0
 49
-0.2083599999999999
 74
     0
 49
0.06943
 74
     0
 49
-0.1389299999999999
 74
     0
  0
LTYPE
  5
2C
330
4
100
AcDbSymbolTableRecord
100
AcDbLinetypeTableRecord
  2
STYLE_08
 70
     0
  3

 72
    65
 73
     6
 40
1.25
 49
0.625
 74
     0
 49
-0.20828
 74
     0
 49
0.06943
 74
     0
 49
-0.13893
 74
     0
 49
0.0694299999999999
 74
     0
 49
-0.13893
 74
     0
  0
LTYPE
  5
2D
330
4
100
AcDbSymbolTableRecord
100
AcDbLinetypeTableRecord
  2
STYLE_09
 70
     0
  3

 72
    65
 73
     4
 40
5.0
 49
3.75
 74
     0
 49
-0.2777849999999998
 74
     0
 49
0.6944300000000003
 74
     0
 49
-0.2777849999999998
 74
     0
  0
LTYPE
  5
2E
330
4
100
AcDbSymbolTableRecord
100
AcDbLinetypeTableRecord
  2
STYLE_10
 70
     0
  3

 72
    65
 73
     6
 40
5.9375
 49
3.75
 74
     0
 49
-0.2777849999999998
 74
     0
 49
0.6944300000000003
 74
     0
 49
-0.2777849999999998
 74
     0
 49
0.625
 74
     0
 49
-0.3125
 74
     0
  0
LTYPE
  5
2F
330
4
100
AcDbSymbolTableRecord
100
AcDbLinetypeTableRecord
  2
STYLE_11
 70
     0
  3

 72
    65
 73
     2
 40
0.1875
 49
0.125
 74
     0
 49
-0.0625
 74
     0
  0
ENDTAB
  0
TABLE
  2
LAYER
  5
2
330
0
100
AcDbSymbolTable
 70
     6
  0
LAYER
  5
14
330
2
100
AcDbSymbolTableRecord
100
AcDbLayerTableRecord
  2
0
 70
     0
 62
     7
  6
Continuous
370
    15
390
1D
347
203
348
0
  0
LAYER
  5
30
330
2
100
AcDbSymbolTableRecord
100
AcDbLayerTableRecord
  2
Defpoints
 70
     0
 62
     7
  6
Continuous
290
     0
370
    -3
390
1D
347
203
348
0
  0
LAYER
  5
31
330
2
100
AcDbSymbolTableRecord
100
AcDbLayerTableRecord
  2
一般
 70
     0
 62
     7
  6
Continuous
370
     5
390
1D
347
203
348
0
  0
LAYER
  5
32
330
2
100
AcDbSymbolTableRecord
100
AcDbLayerTableRecord
  2
寸法
 70
     0
 62
     7
  6
Continuous
370
     5
390
1D
347
203
348
0
  0
LAYER
  5
33
330
2
100
AcDbSymbolTableRecord
100
AcDbLayerTableRecord
  2
レイヤー_1
 70
     0
 62
    19
  6
Continuous
370
    15
390
1D
347
203
348
0
  0
LAYER
  5
34
330
2
100
AcDbSymbolTableRecord
100
AcDbLayerTableRecord
  2
FORMAT
 70
     0
 62
     7
  6
Continuous
370
    15
390
1D
347
203
348
0
  0
ENDTAB
  0
TABLE
  2
STYLE
  5
3
330
0
100
AcDbSymbolTable
 70
     2
  0
STYLE
  5
17
330
3
100
AcDbSymbolTableRecord
100
AcDbTextStyleTableRecord
  2
Standard
 70
     0
 40
0.0
 41
1.0
 50
0.0
 71
     0
 42
2.5
  3
txt
  4
BIGFONT.SHX
  0
STYLE
  5
24
330
3
100
AcDbSymbolTableRecord
100
AcDbTextStyleTableRecord
  2
Arial
 70
     0
 40
0.0
 41
1.0
 50
0.0
 71
     0
 42
0.0
  3
Arial
  4

1001
ACAD
1000
Arial
1071
        0
  0
ENDTAB
  0
TABLE
  2
VIEW
  5
5
330
0
100
AcDbSymbolTable
 70
     0
  0
ENDTAB
  0
TABLE
  2
UCS
  5
6
330
0
100
AcDbSymbolTable
 70
     0
  0
ENDTAB
  0
TABLE
  2
APPID
  5
8
330
0
100
AcDbSymbolTable
 70
     2
  0
APPID
  5
16
330
8
100
AcDbSymbolTableRecord
100
AcDbRegAppTableRecord
  2
ACAD
 70
     0
  0
APPID
  5
222
330
8
100
AcDbSymbolTableRecord
100
AcDbRegAppTableRecord
  2
PLOTTRANSPARENCY
 70
     0
  0
ENDTAB
  0
TABLE
  2
DIMSTYLE
  5
9
330
0
100
AcDbSymbolTable
 70
     1
100
AcDbDimStyleTable
  0
DIMSTYLE
105
18
330
9
100
AcDbSymbolTableRecord
100
AcDbDimStyleTableRecord
  2
Standard
 70
     0
178
     0
340
17
  0
ENDTAB
  0
TABLE
  2
BLOCK_RECORD
  5
1
330
0
100
AcDbSymbolTable
 70
     0
  0
BLOCK_RECORD
  5
A
330
1
100
AcDbSymbolTableRecord
100
AcDbBlockTableRecord
  2
*MODEL_SPACE
340
20
 70
     0
280
     1
281
     0
  0
BLOCK_RECORD
  5
B
330
1
100
AcDbSymbolTableRecord
100
AcDbBlockTableRecord
  2
*PAPER_SPACE
340
21
 70
     0
280
     1
281
     0
  0
ENDTAB
  0
ENDSEC
  0
SECTION
  2
BLOCKS
  0
BLOCK
  5
D
330
A
100
AcDbEntity
  8
0
100
AcDbBlockBegin
  2
*MODEL_SPACE
 70
     0
 10
0.0
 20
0.0
 30
0.0
  3
*MODEL_SPACE
  1

  0
ENDBLK
  5
E
330
A
100
AcDbEntity
  8
0
100
AcDbBlockEnd
  0
BLOCK
  5
F
330
B
100
AcDbEntity
 67
     1
  8
0
100
AcDbBlockBegin
  2
*PAPER_SPACE
 70
     0
 10
0.0
 20
0.0
 30
0.0
  3
*PAPER_SPACE
  1

  0
ENDBLK
  5
10
330
B
100
AcDbEntity
 67
     1
  8
0
100
AcDbBlockEnd
  0
ENDSEC
  0
SECTION
  2
ENTITIES
  0
MTEXT
  5
35
330
A
100
AcDbEntity
  8
0
 62
     7
100
AcDbMText
 10
239.1793801299411
 20
86.87752232551944
 30
0.0
 40
3.031684027777777
 41
0.0
 46
3.083222656249999
 71
     1
 72
     1
  1
{HBC-D89P/B/E}
  7
Arial
 73
     1
 44
0.9673603504928806
  0
ARC
  5
36
102
{ACAD_REACTORS
330
221
102
}
330
A
100
AcDbEntity
  8
0
  6
Continuous
 62
     7
370
    15
100
AcDbCircle
 10
216.4510272544554
 20
238.490780144677
 30
0.0
 40
0.7517110490394905
100
AcDbArc
 50
118.0980374197398
 51
183.3312128817418
  0
LINE
  5
37
102
{ACAD_REACTORS
330
221
102
}
330
A
100
AcDbEntity
  8
0
  6
Continuous
 62
     7
370
    15
100
AcDbLine
 10
215.6972102372304
 20
226.1315747505423
 30
0.0
 11
215.7005863644312
 21
238.4470998072644
 31
0.0
  0
ARC
  5
38
102
{ACAD_REACTORS
330
221
102
}
330
A
100
AcDbEntity
  8
0
  6
Continuous
 62
     7
370
    15
100
AcDbCircle
 10
215.8361110379733
 20
238.491585484665
 30
0.0
 40
0.7118367444533428
100
AcDbArc
 50
357.7025131843426
 51
68.50129288964239
  0
ARC
  5
39
102
{ACAD_REACTORS
330
221
102
}
330
A
100
AcDbEntity
  8
0
  6
Continuous
 62
     7
370
    15
100
AcDbCircle
 10
216.0931362974387
 20
240.0926674137698
 30
0.0
 40
1.691741173301233
100
AcDbArc
 50
256.5828539192419
 51
285.5752657321428
  0
LINE
  5
3A
102
{ACAD_REACTORS
330
221
102
}
330
A
100
AcDbEntity
  8
0
  6
Continuous
 62
     7
370
    15
100
AcDbLine
 10
216.5473755756357
 20
238.4630493985214
 30
0.0
 11
216.5439994484349
 21
226.1475243417993
 31
0.0
  0
ARC
  5
3B
102
{ACAD_REACTORS
330
221
102
}
330
A
100
AcDbEntity
  8
0
  6
Continuous
 62
     7
370
    15
100
AcDbCircle
 10
216.089760170198
 20
227.7771423570487
 30
0.0
 40
1.69174117330089
100
AcDbArc
 50
256.5828539192419
 51
285.5752657321423
  0
ARC
  5
3C
102
{ACAD_REACTORS
330
221
102
}
330
A
100
AcDbEntity
  8
0
  6
Continuous
 62
     7
370
    15
100
AcDbCircle
 10
217.7019871697354
 20
233.1478587469738
 30
0.0
 40
6.631064333793123
100
AcDbArc
 50
283.5457866536421
 51
293.8183211148419
  0
ARC
  5
3D
102
{ACAD_REACTORS
330
221
102
}
330
A
100
AcDbEntity
  8
0
  6
Continuous
 62
     7
370
    15
100
AcDbCircle
 10
214.0840443603504
 20
235.4535780103118
 30
0.0
 40
9.052638598956415
100
AcDbArc
 50
247.9162689914421
 51
262.6402723658418
  0
SPLINE
  5
3E
102
{ACAD_REACTORS
330
221
102
}
330
A
100
AcDbEntity
  8
0
  6
Continuous
 62
     7
370
    15
100
AcDbSpline
210
0.0
220
0.0
230
1.0
 70
     8
 71
     2
 72
    11
 73
     8
 74
     0
 42
0.000000001
 43
0.000001
 40
0.0
 40
0.0
 40
0.0
 40
1.0
 40
1.0
 40
2.0
 40
3.0
 40
3.0
 40
4.0
 40
4.0
 40
4.0
 10
214.737449401722
 20
237.7313193360265
 30
0.0
 10
214.7389788604409
 20
237.7036491534707
 30
0.0
 10
214.7405083191597
 20
237.675978970915
 30
0.0
 10
214.9517855869467
 20
233.5783910905745
 30
0.0
 10
215.58615297277
 20
228.0928261958569
 30
0.0
 10
215.7781163622652
 20
226.5819506751354
 30
0.0
 10
215.7781338014582
 20
226.5818122613026
 30
0.0
 10
215.7781512406511
 20
226.5816738474699
 30
0.0
  0
SPLINE
  5
3F
102
{ACAD_REACTORS
330
221
102
}
330
A
100
AcDbEntity
  8
0
  6
Continuous
 62
     7
370
    15
100
AcDbSpline
210
0.0
220
0.0
230
1.0
 70
     8
 71
     2
 72
    17
 73
    14
 74
     0
 42
0.000000001
 43
0.000001
 40
0.0
 40
0.0
 40
0.0
 40
1.0
 40
1.0
 40
2.0
 40
3.0
 40
4.0
 40
5.0
 40
6.0
 40
7.0
 40
8.0
 40
9.0
 40
9.0
 40
10.0
 40
10.0
 40
10.0
 10
219.7007414147872
 20
227.9080277868436
 30
0.0
 10
219.7009145561791
 20
227.9059820861386
 30
0.0
 10
219.7010876975711
 20
227.9039363854335
 30
0.0
 10
219.7081409976079
 20
227.8425675353668
 30
0.0
 10
219.6970057251035
 20
227.6729379597099
 30
0.0
 10
219.4793882546182
 20
227.381012805067
 30
0.0
 10
218.8519877704277
 20
227.0463160723437
 30
0.0
 10
218.1235940331716
 20
226.8452157027529
 30
0.0
 10
217.5052394419943
 20
226.7221287007285
 30
0.0
 10
216.670659414127
 20
226.6175433547852
 30
0.0
 10
215.9972282812827
 20
226.5880217636162
 30
0.0
 10
215.7918337189633
 20
226.582087083252
 30
0.0
 10
215.7849919540517
 20
226.5818804554581
 30
0.0
 10
215.7781501891401
 20
226.5816738276643
 30
0.0
  0
SPLINE
  5
40
102
{ACAD_REACTORS
330
221
102
}
330
A
100
AcDbEntity
  8
0
  6
Continuous
 62
     7
370
    15
100
AcDbSpline
210
0.0
220
0.0
230
1.0
 70
     8
 71
     2
 72
    11
 73
     8
 74
     0
 42
0.000000001
 43
0.000001
 40
0.0
 40
0.0
 40
0.0
 40
1.0
 40
1.0
 40
2.0
 40
3.0
 40
3.0
 40
4.0
 40
4.0
 40
4.0
 10
218.6024245466694
 20
238.4193589293041
 30
0.0
 10
218.6067616997812
 20
238.3934383255348
 30
0.0
 10
218.611098852893
 20
238.3675177217655
 30
0.0
 10
219.0554375849768
 20
235.7858063969822
 30
0.0
 10
219.6586826513472
 20
230.5835110230725
 30
0.0
 10
219.700737708788
 20
227.9082934123818
 30
0.0
 10
219.7007395280702
 20
227.9081607560839
 30
0.0
 10
219.7007413473523
 20
227.9080280997859
 30
0.0
  0
SPLINE
  5
41
102
{ACAD_REACTORS
330
221
102
}
330
A
100
AcDbEntity
  8
0
  6
Continuous
 62
     7
370
    15
100
AcDbSpline
210
0.0
220
0.0
230
1.0
 70
     8
 71
     2
 72
    11
 73
     8
 74
     0
 42
0.000000001
 43
0.000001
 40
0.0
 40
0.0
 40
0.0
 40
1.0
 40
1.0
 40
2.0
 40
3.0
 40
3.0
 40
4.0
 40
4.0
 40
4.0
 10
216.6755615826468
 20
237.7678244032785
 30
0.0
 10
216.6849353783956
 20
237.7710979934715
 30
0.0
 10
216.6943091741445
 20
237.7743715836645
 30
0.0
 10
217.3899052063873
 20
238.019164938833
 30
0.0
 10
218.3095975037348
 20
238.3237611195401
 30
0.0
 10
218.5841170469585
 20
238.4133765553481
 30
0.0
 10
218.5932707968139
 20
238.416367742326
 30
0.0
 10
218.6024245466694
 20
238.4193589293041
 30
0.0
  0
SPLINE
  5
42
102
{ACAD_REACTORS
330
221
102
}
330
A
100
AcDbEntity
  8
0
  6
Continuous
 62
     7
370
    15
100
AcDbSpline
210
0.0
220
0.0
230
1.0
 70
     8
 71
     2
 72
    12
 73
     9
 74
     0
 42
0.000000001
 43
0.000001
 40
0.0
 40
0.0
 40
0.0
 40
1.0
 40
1.0
 40
2.0
 40
3.0
 40
4.0
 40
4.0
 40
5.0
 40
5.0
 40
5.0
 10
215.7781512406511
 20
226.5816738474699
 30
0.0
 10
215.7781683750543
 20
226.5818129125093
 30
0.0
 10
215.7781855094575
 20
226.5819519775487
 30
0.0
 10
215.922364094301
 20
227.7437335182268
 30
0.0
 10
216.466561454921
 20
232.5842720353146
 30
0.0
 10
216.6486416699092
 20
236.9916715507874
 30
0.0
 10
216.6736088284306
 20
237.7123896414584
 30
0.0
 10
216.6745852055386
 20
237.7401070223685
 30
0.0
 10
216.6755615826468
 20
237.7678244032785
 30
0.0
  0
SPLINE
  5
43
102
{ACAD_REACTORS
330
221
102
}
330
A
100
AcDbEntity
  8
0
  6
Continuous
 62
     7
370
    15
100
AcDbSpline
210
0.0
220
0.0
230
1.0
 70
     8
 71
     2
 72
    16
 73
    13
 74
     0
 42
0.000000001
 43
0.000001
 40
0.0
 40
0.0
 40
0.0
 40
1.0
 40
1.0
 40
2.0
 40
3.0
 40
4.0
 40
5.0
 40
6.0
 40
7.0
 40
8.0
 40
8.0
 40
9.0
 40
9.0
 40
9.0
 10
216.3804811218449
 20
238.1957942289122
 30
0.0
 10
216.3782443905179
 20
238.1951909028892
 30
0.0
 10
216.3760076591909
 20
238.1945875768662
 30
0.0
 10
216.3181162423986
 20
238.1787791309178
 30
0.0
 10
216.1347776139396
 20
238.1320768102136
 30
0.0
 10
215.9297380390333
 20
238.1103333885781
 30
0.0
 10
215.6928013883782
 20
238.0936533292002
 30
0.0
 10
215.4060144662806
 20
238.1055369332376
 30
0.0
 10
215.1871122529042
 20
238.1281824741166
 30
0.0
 10
215.0395558043706
 20
238.159834415091
 30
0.0
 10
214.9988359217859
 20
238.1691039901187
 30
0.0
 10
214.9974756094451
 20
238.1694115856737
 30
0.0
 10
214.9961152971042
 20
238.1697191812287
 30
0.0
  0
SPLINE
  5
44
102
{ACAD_REACTORS
330
221
102
}
330
A
100
AcDbEntity
  8
0
  6
Continuous
 62
     7
370
    15
100
AcDbSpline
210
0.0
220
0.0
230
1.0
 70
     8
 71
     2
 72
    16
 73
    13
 74
     0
 42
0.000000001
 43
0.000001
 40
0.0
 40
0.0
 40
0.0
 40
1.0
 40
1.0
 40
2.0
 40
3.0
 40
4.0
 40
5.0
 40
6.0
 40
7.0
 40
8.0
 40
8.0
 40
9.0
 40
9.0
 40
9.0
 10
214.737449401722
 20
237.7313193360265
 30
0.0
 10
214.7395002380126
 20
237.7309129398308
 30
0.0
 10
214.7415510743032
 20
237.7305065436351
 30
0.0
 10
214.8028336944964
 20
237.7182130436562
 30
0.0
 10
215.0490625068844
 20
237.6726724869182
 30
0.0
 10
215.4120686636252
 20
237.6476138664158
 30
0.0
 10
215.7007147355543
 20
237.6435967049592
 30
0.0
 10
215.9895238887386
 20
237.6547827906581
 30
0.0
 10
216.3144838450188
 20
237.687249747686
 30
0.0
 10
216.5681012108437
 20
237.7415953613306
 30
0.0
 10
216.6688134862095
 20
237.7661981762513
 30
0.0
 10
216.6721875344281
 20
237.7670112897649
 30
0.0
 10
216.6755615826468
 20
237.7678244032785
 30
0.0
  0
ARC
  5
45
102
{ACAD_REACTORS
330
221
102
}
330
A
100
AcDbEntity
  8
0
  6
Continuous
 62
     7
370
    15
100
AcDbCircle
 10
215.2322562984224
 20
237.7348813032426
 30
0.0
 40
0.4948197172854851
100
AcDbArc
 50
118.5044058763371
 51
180.4124480988429
  0
SPLINE
  5
46
102
{ACAD_REACTORS
330
221
102
}
330
A
100
AcDbEntity
  8
0
  6
Continuous
 62
     7
370
    15
100
AcDbSpline
210
0.0
220
0.0
230
1.0
 70
     8
 71
     2
 72
    10
 73
     7
 74
     0
 42
0.000000001
 43
0.000001
 40
0.0
 40
0.0
 40
0.0
 40
1.0
 40
1.0
 40
2.0
 40
2.0
 40
3.0
 40
3.0
 40
3.0
 10
214.9961152971042
 20
238.1697191812287
 30
0.0
 10
214.9846362413335
 20
238.1726565273326
 30
0.0
 10
214.9731571855629
 20
238.1755938734366
 30
0.0
 10
213.8922128899855
 20
238.4511314117733
 30
0.0
 10
212.8367375294234
 20
238.735284046299
 30
0.0
 10
212.8254887351848
 20
238.7383008572842
 30
0.0
 10
212.8142399409463
 20
238.7413176682693
 30
0.0
  0
SPLINE
  5
47
102
{ACAD_REACTORS
330
221
102
}
330
A
100
AcDbEntity
  8
0
  6
Continuous
 62
     7
370
    15
100
AcDbSpline
210
0.0
220
0.0
230
1.0
 70
     8
 71
     2
 72
    10
 73
     7
 74
     0
 42
0.000000001
 43
0.000001
 40
0.0
 40
0.0
 40
0.0
 40
1.0
 40
1.0
 40
2.0
 40
2.0
 40
3.0
 40
3.0
 40
3.0
 10
212.5465059683465
 20
238.3052934396226
 30
0.0
 10
212.5578147770202
 20
238.3024520436208
 30
0.0
 10
212.5691235856939
 20
238.2996106476191
 30
0.0
 10
213.6304359032888
 20
238.0348302362401
 30
0.0
 10
214.7144223967697
 20
237.7375942912477
 30
0.0
 10
214.7259358992459
 20
237.7344568136371
 30
0.0
 10
214.737449401722
 20
237.7313193360265
 30
0.0
  0
ARC
  5
48
102
{ACAD_REACTORS
330
221
102
}
330
A
100
AcDbEntity
  8
0
  6
Continuous
 62
     7
370
    15
100
AcDbCircle
 10
216.2048966915928
 20
237.759018436813
 30
0.0
 40
0.4707472620317522
100
AcDbArc
 50
1.071857839941593
 51
68.0998094198439
  0
SPLINE
  5
49
102
{ACAD_REACTORS
330
221
102
}
330
A
100
AcDbEntity
  8
0
  6
Continuous
 62
     7
370
    15
100
AcDbSpline
210
0.0
220
0.0
230
1.0
 70
     8
 71
     2
 72
    10
 73
     7
 74
     0
 42
0.000000001
 43
0.000001
 40
0.0
 40
0.0
 40
0.0
 40
1.0
 40
1.0
 40
2.0
 40
2.0
 40
3.0
 40
3.0
 40
3.0
 10
218.2993690090674
 20
238.8446321242068
 30
0.0
 10
218.2902669074071
 20
238.8414810560671
 30
0.0
 10
218.2811648057468
 20
238.8383299879274
 30
0.0
 10
217.3543355878908
 20
238.5164405830979
 30
0.0
 10
216.3991786470446
 20
238.2019697344104
 30
0.0
 10
216.3898298844447
 20
238.1988819816613
 30
0.0
 10
216.3804811218449
 20
238.1957942289122
 30
0.0
  0
POLYLINE
  5
4A
102
{ACAD_REACTORS
330
221
102
}
330
A
100
AcDbEntity
  8
0
  6
Continuous
 62
     7
370
    15
100
AcDb2dPolyline
 66
     1
 10
0.0
 20
0.0
 30
0.0
 75
     5
  0
VERTEX
  5
4B
330
4A
100
AcDbEntity
  8
0
  6
Continuous
 62
     7
370
    15
100
AcDbVertex
100
AcDb2dVertex
 10
211.3179621527228
 20
227.7501356350034
 30
0.0
  0
VERTEX
  5
4C
330
4A
100
AcDbEntity
  8
0
  6
Continuous
 62
     7
370
    15
100
AcDbVertex
100
AcDb2dVertex
 10
211.3187348255506
 20
227.9136301086152
 30
0.0
  0
VERTEX
  5
4D
330
4A
100
AcDbEntity
  8
0
  6
Continuous
 62
     7
370
    15
100
AcDbVertex
100
AcDb2dVertex
 10
211.4539959773547
 20
228.1552911403136
 30
0.0
  0
VERTEX
  5
4E
330
4A
100
AcDbEntity
  8
0
  6
Continuous
 62
     7
370
    15
100
AcDbVertex
100
AcDb2dVertex
 10
211.7451023234699
 20
228.3844160467437
 30
0.0
  0
VERTEX
  5
4F
330
4A
100
AcDbEntity
  8
0
  6
Continuous
 62
     7
370
    15
100
AcDbVertex
100
AcDb2dVertex
 10
212.1808665464252
 20
228.5921998053658
 30
0.0
  0
VERTEX
  5
50
330
4A
100
AcDbEntity
  8
0
  6
Continuous
 62
     7
370
    15
100
AcDbVertex
100
AcDb2dVertex
 10
212.7445426061389
 20
228.7706573613557
 30
0.0
  0
VERTEX
  5
51
330
4A
100
AcDbEntity
  8
0
  6
Continuous
 62
     7
370
    15
100
AcDbVertex
100
AcDb2dVertex
 10
213.4144687569307
 20
228.9129306963744
 30
0.0
  0
VERTEX
  5
52
330
4A
100
AcDbEntity
  8
0
  6
Continuous
 62
     7
370
    15
100
AcDbVertex
100
AcDb2dVertex
 10
214.164899963013
 20
229.0135523325269
 30
0.0
  0
VERTEX
  5
53
330
4A
100
AcDbEntity
  8
0
  6
Continuous
 62
     7
370
    15
100
AcDbVertex
100
AcDb2dVertex
 10
214.6957663875132
 20
229.0555132501449
 30
0.0
  0
VERTEX
  5
54
330
4A
100
AcDbEntity
  8
0
  6
Continuous
 62
     7
370
    15
100
AcDbVertex
100
AcDb2dVertex
 10
215.2405533783802
 20
229.0764895941891
 30
0.0
  0
SEQEND
  5
55
330
4A
100
AcDbEntity
  8
0
  6
Continuous
 62
     7
370
    15
  0
POLYLINE
  5
56
102
{ACAD_REACTORS
330
221
102
}
330
A
100
AcDbEntity
  8
0
  6
Continuous
 62
     7
370
    15
100
AcDb2dPolyline
 66
     1
 10
0.0
 20
0.0
 30
0.0
 75
     5
  0
VERTEX
  5
57
330
56
100
AcDbEntity
  8
0
  6
Continuous
 62
     7
370
    15
100
AcDbVertex
100
AcDb2dVertex
 10
215.2405533783802
 20
229.0764895941891
 30
0.0
  0
VERTEX
  5
58
330
56
100
AcDbEntity
  8
0
  6
Continuous
 62
     7
370
    15
100
AcDbVertex
100
AcDb2dVertex
 10
215.7899380321313
 20
229.076122381985
 30
0.0
  0
VERTEX
  5
59
330
56
100
AcDbEntity
  8
0
  6
Continuous
 62
     7
370
    15
100
AcDbVertex
100
AcDb2dVertex
 10
216.6020955900479
 20
229.0356662827842
 30
0.0
  0
VERTEX
  5
5A
330
56
100
AcDbEntity
  8
0
  6
Continuous
 62
     7
370
    15
100
AcDbVertex
100
AcDb2dVertex
 10
217.3722593482757
 20
228.9488417720391
 30
0.0
  0
VERTEX
  5
5B
330
56
100
AcDbEntity
  8
0
  6
Continuous
 62
     7
370
    15
100
AcDbVertex
100
AcDb2dVertex
 10
218.0708327453705
 20
228.8189855454958
 30
0.0
  0
VERTEX
  5
5C
330
56
100
AcDbEntity
  8
0
  6
Continuous
 62
     7
370
    15
100
AcDbVertex
100
AcDb2dVertex
 10
218.6709698582397
 20
228.6510878650467
 30
0.0
  0
VERTEX
  5
5D
330
56
100
AcDbEntity
  8
0
  6
Continuous
 62
     7
370
    15
100
AcDbVertex
100
AcDb2dVertex
 10
219.1496077723386
 20
228.4516009416669
 30
0.0
  0
VERTEX
  5
5E
330
56
100
AcDbEntity
  8
0
  6
Continuous
 62
     7
370
    15
100
AcDbVertex
100
AcDb2dVertex
 10
219.4883527230962
 20
228.2281909904558
 30
0.0
  0
VERTEX
  5
5F
330
56
100
AcDbEntity
  8
0
  6
Continuous
 62
     7
370
    15
100
AcDbVertex
100
AcDb2dVertex
 10
219.6297980409901
 20
228.0701719332222
 30
0.0
  0
VERTEX
  5
60
330
56
100
AcDbEntity
  8
0
  6
Continuous
 62
     7
370
    15
100
AcDbVertex
100
AcDb2dVertex
 10
219.7007414147721
 20
227.9080277868489
 30
0.0
  0
SEQEND
  5
61
330
56
100
AcDbEntity
  8
0
  6
Continuous
 62
     7
370
    15
  0
POLYLINE
  5
62
102
{ACAD_REACTORS
330
221
102
}
330
A
100
AcDbEntity
  8
0
  6
Continuous
 62
     7
370
    15
100
AcDb2dPolyline
 66
     1
 10
0.0
 20
0.0
 30
0.0
 75
     5
  0
VERTEX
  5
63
330
62
100
AcDbEntity
  8
0
  6
Continuous
 62
     7
370
    15
100
AcDbVertex
100
AcDb2dVertex
 10
215.7781501891548
 20
226.5816738276621
 30
0.0
  0
VERTEX
  5
64
330
62
100
AcDbEntity
  8
0
  6
Continuous
 62
     7
370
    15
100
AcDbVertex
100
AcDb2dVertex
 10
215.2287655354036
 20
226.5820410398663
 30
0.0
  0
VERTEX
  5
65
330
62
100
AcDbEntity
  8
0
  6
Continuous
 62
     7
370
    15
100
AcDbVertex
100
AcDb2dVertex
 10
214.4166079774471
 20
226.6224971390681
 30
0.0
  0
VERTEX
  5
66
330
62
100
AcDbEntity
  8
0
  6
Continuous
 62
     7
370
    15
100
AcDbVertex
100
AcDb2dVertex
 10
213.6464442192592
 20
226.709321649812
 30
0.0
  0
VERTEX
  5
67
330
62
100
AcDbEntity
  8
0
  6
Continuous
 62
     7
370
    15
100
AcDbVertex
100
AcDb2dVertex
 10
212.9478708221645
 20
226.8391778763554
 30
0.0
  0
VERTEX
  5
68
330
62
100
AcDbEntity
  8
0
  6
Continuous
 62
     7
370
    15
100
AcDbVertex
100
AcDb2dVertex
 10
212.3477337092952
 20
227.0070755568045
 30
0.0
  0
VERTEX
  5
69
330
62
100
AcDbEntity
  8
0
  6
Continuous
 62
     7
370
    15
100
AcDbVertex
100
AcDb2dVertex
 10
211.8690957951963
 20
227.2065624801843
 30
0.0
  0
VERTEX
  5
6A
330
62
100
AcDbEntity
  8
0
  6
Continuous
 62
     7
370
    15
100
AcDbVertex
100
AcDb2dVertex
 10
211.5303508444387
 20
227.4299724313954
 30
0.0
  0
VERTEX
  5
6B
330
62
100
AcDbEntity
  8
0
  6
Continuous
 62
     7
370
    15
100
AcDbVertex
100
AcDb2dVertex
 10
211.3889055265437
 20
227.587991488589
 30
0.0
  0
VERTEX
  5
6C
330
62
100
AcDbEntity
  8
0
  6
Continuous
 62
     7
370
    15
100
AcDbVertex
100
AcDb2dVertex
 10
211.3179621527228
 20
227.7501356350034
 30
0.0
  0
SEQEND
  5
6D
330
62
100
AcDbEntity
  8
0
  6
Continuous
 62
     7
370
    15
  0
SPLINE
  5
6E
102
{ACAD_REACTORS
330
221
102
}
330
A
100
AcDbEntity
  8
0
  6
Continuous
 62
     7
370
    15
100
AcDbSpline
210
0.0
220
0.0
230
1.0
 70
     8
 71
     2
 72
    18
 73
    15
 74
     0
 42
0.000000001
 43
0.000001
 40
0.0
 40
0.0
 40
0.0
 40
1.0
 40
1.0
 40
2.0
 40
3.0
 40
4.0
 40
5.0
 40
6.0
 40
7.0
 40
8.0
 40
9.0
 40
10.0
 40
10.0
 40
11.0
 40
11.0
 40
11.0
 10
212.4222122242986
 20
238.8820988971105
 30
0.0
 10
212.4210272116268
 20
238.8816747576051
 30
0.0
 10
212.419842198955
 20
238.8812506180996
 30
0.0
 10
212.3841206151272
 20
238.868564329957
 30
0.0
 10
212.3147747260044
 20
238.8427392641905
 30
0.0
 10
212.1787991223799
 20
238.7812148629796
 30
0.0
 10
212.0918367257026
 20
238.6787669219797
 30
0.0
 10
212.0886585337291
 20
238.5806977943545
 30
0.0
 10
212.1492165831967
 20
238.4981379008652
 30
0.0
 10
212.2279898959032
 20
238.4385548398603
 30
0.0
 10
212.337789575462
 20
238.3834209476302
 30
0.0
 10
212.4715703893482
 20
238.3321048350026
 30
0.0
 10
212.5418446955412
 20
238.3069726160959
 30
0.0
 10
212.5441753319438
 20
238.3061330278593
 30
0.0
 10
212.5465059683465
 20
238.3052934396226
 30
0.0
  0
SPLINE
  5
6F
102
{ACAD_REACTORS
330
221
102
}
330
A
100
AcDbEntity
  8
0
  6
Continuous
 62
     7
370
    15
100
AcDbSpline
210
0.0
220
0.0
230
1.0
 70
     8
 71
     2
 72
    11
 73
     8
 74
     0
 42
0.000000001
 43
0.000001
 40
0.0
 40
0.0
 40
0.0
 40
1.0
 40
1.0
 40
2.0
 40
3.0
 40
3.0
 40
4.0
 40
4.0
 40
4.0
 10
212.4222122242986
 20
238.8820988971105
 30
0.0
 10
212.4178604936836
 20
238.8552657770508
 30
0.0
 10
212.4135087630685
 20
238.8284326569911
 30
0.0
 10
211.9677485703009
 20
236.161748001975
 30
0.0
 10
211.361915526602
 20
230.6429423498434
 30
0.0
 10
211.3179660096564
 20
227.7504214369798
 30
0.0
 10
211.3179641149144
 20
227.7502783795183
 30
0.0
 10
211.3179622201724
 20
227.7501353220568
 30
0.0
  0
SPLINE
  5
70
102
{ACAD_REACTORS
330
221
102
}
330
A
100
AcDbEntity
  8
0
  6
Continuous
 62
     7
370
    15
100
AcDbSpline
210
0.0
220
0.0
230
1.0
 70
     8
 71
     2
 72
    11
 73
     8
 74
     0
 42
0.000000001
 43
0.000001
 40
0.0
 40
0.0
 40
0.0
 40
1.0
 40
1.0
 40
2.0
 40
3.0
 40
3.0
 40
4.0
 40
4.0
 40
4.0
 10
211.3179622201724
 20
227.7501353220568
 30
0.0
 10
211.3179663321656
 20
227.7502680900009
 30
0.0
 10
211.3179704441589
 20
227.750400857945
 30
0.0
 10
211.4127314673933
 20
230.4268323085973
 30
0.0
 10
212.0805910496867
 20
235.6555827975972
 30
0.0
 10
212.5374811018645
 20
238.2531187331666
 30
0.0
 10
212.5419935351055
 20
238.2792060863946
 30
0.0
 10
212.5465059683465
 20
238.3052934396226
 30
0.0
  0
ARC
  5
71
102
{ACAD_REACTORS
330
221
102
}
330
A
100
AcDbEntity
  8
0
  6
Continuous
 62
     7
370
    15
100
AcDbCircle
 10
212.6776937349102
 20
238.9015891979913
 30
0.0
 40
0.256223874933686
100
AcDbArc
 50
79.2561339900563
 51
184.3625588200438
  0
ARC
  5
72
102
{ACAD_REACTORS
330
221
102
}
330
A
100
AcDbEntity
  8
0
  6
Continuous
 62
     7
370
    15
100
AcDbCircle
 10
213.0344923343364
 20
238.3058639943509
 30
0.0
 40
0.4879866995403182
100
AcDbArc
 50
116.8302785043419
 51
180.066990319947
  0
SPLINE
  5
73
102
{ACAD_REACTORS
330
221
102
}
330
A
100
AcDbEntity
  8
0
  6
Continuous
 62
     7
370
    15
100
AcDbSpline
210
0.0
220
0.0
230
1.0
 70
     8
 71
     2
 72
    18
 73
    15
 74
     0
 42
0.000000001
 43
0.000001
 40
0.0
 40
0.0
 40
0.0
 40
1.0
 40
1.0
 40
2.0
 40
3.0
 40
4.0
 40
5.0
 40
6.0
 40
7.0
 40
8.0
 40
9.0
 40
10.0
 40
10.0
 40
11.0
 40
11.0
 40
11.0
 10
212.8142399409463
 20
238.7413176682693
 30
0.0
 10
212.8128194936166
 20
238.741783972761
 30
0.0
 10
212.8113990462868
 20
238.7422502772527
 30
0.0
 10
212.7685401367719
 20
238.7561925338032
 30
0.0
 10
212.6858884051289
 20
238.7846641423488
 30
0.0
 10
212.5801191869959
 20
238.829582311113
 30
0.0
 10
212.4976018112127
 20
238.9014075507992
 30
0.0
 10
212.4812037982115
 20
238.9790608645844
 30
0.0
 10
212.5161670873001
 20
239.035732764854
 30
0.0
 10
212.5741641234874
 20
239.0884280033788
 30
0.0
 10
212.659736526613
 20
239.1271213564276
 30
0.0
 10
212.7022836701577
 20
239.1442684150387
 30
0.0
 10
212.7240132537143
 20
239.1527551691558
 30
0.0
 10
212.7247359750581
 20
239.1530383650213
 30
0.0
 10
212.725458696402
 20
239.1533215608868
 30
0.0
  0
SPLINE
  5
74
102
{ACAD_REACTORS
330
221
102
}
330
A
100
AcDbEntity
  8
0
  6
Continuous
 62
     7
370
    15
100
AcDbSpline
210
0.0
220
0.0
230
1.0
 70
     8
 71
     2
 72
    11
 73
     8
 74
     0
 42
0.000000001
 43
0.000001
 40
0.0
 40
0.0
 40
0.0
 40
1.0
 40
1.0
 40
2.0
 40
3.0
 40
3.0
 40
4.0
 40
4.0
 40
4.0
 10
219.7007413473523
 20
227.9080280997859
 30
0.0
 10
219.700737310843
 20
227.9081710454882
 30
0.0
 10
219.7007332743336
 20
227.9083139911906
 30
0.0
 10
219.609936399713
 20
230.8005829304606
 30
0.0
 10
218.9430580110455
 20
236.2919865702472
 30
0.0
 10
218.4871265601912
 20
238.9428314327254
 30
0.0
 10
218.4826286814063
 20
238.9694979097587
 30
0.0
 10
218.4781308026214
 20
238.9961643867919
 30
0.0
  0
SPLINE
  5
75
102
{ACAD_REACTORS
330
221
102
}
330
A
100
AcDbEntity
  8
0
  6
Continuous
 62
     7
370
    15
100
AcDbSpline
210
0.0
220
0.0
230
1.0
 70
     8
 71
     2
 72
    18
 73
    15
 74
     0
 42
0.000000001
 43
0.000001
 40
0.0
 40
0.0
 40
0.0
 40
1.0
 40
1.0
 40
2.0
 40
3.0
 40
4.0
 40
5.0
 40
6.0
 40
7.0
 40
8.0
 40
9.0
 40
10.0
 40
10.0
 40
11.0
 40
11.0
 40
11.0
 10
218.6024245466694
 20
238.4193589293041
 30
0.0
 10
218.6036095825203
 20
238.4198676222995
 30
0.0
 10
218.6047946183712
 20
238.420376315295
 30
0.0
 10
218.640516900555
 20
238.4356100841747
 30
0.0
 10
218.7098641497888
 20
238.4663967653375
 30
0.0
 10
218.8458424601113
 20
238.5377941351209
 30
0.0
 10
218.9328068482923
 20
238.6474299893478
 30
0.0
 10
218.9359854655812
 20
238.7471000010293
 30
0.0
 10
218.8754266372882
 20
238.8268448890389
 30
0.0
 10
218.7966521316509
 20
238.8820780788736
 30
0.0
 10
218.6868506773435
 20
238.9307380191094
 30
0.0
 10
218.5530676367281
 20
238.9739314087371
 30
0.0
 10
218.4827921534529
 20
238.9947698362236
 30
0.0
 10
218.4804614780371
 20
238.9954671115078
 30
0.0
 10
218.4781308026214
 20
238.9961643867919
 30
0.0
  0
SPLINE
  5
76
102
{ACAD_REACTORS
330
221
102
}
330
A
100
AcDbEntity
  8
0
  6
Continuous
 62
     7
370
    15
100
AcDbSpline
210
0.0
220
0.0
230
1.0
 70
     8
 71
     2
 72
    11
 73
     8
 74
     0
 42
0.000000001
 43
0.000001
 40
0.0
 40
0.0
 40
0.0
 40
1.0
 40
1.0
 40
2.0
 40
3.0
 40
3.0
 40
4.0
 40
4.0
 40
4.0
 10
216.2871873692459
 20
239.570138490388
 30
0.0
 10
216.2856434488218
 20
239.5450548871034
 30
0.0
 10
216.2840995283977
 20
239.5199712838188
 30
0.0
 10
216.0682579754497
 20
235.8240200815681
 30
0.0
 10
215.4334735632918
 20
230.5751355881772
 30
0.0
 10
215.2405873564257
 20
229.0767641740874
 30
0.0
 10
215.2405698416497
 20
229.0766268742302
 30
0.0
 10
215.2405523268737
 20
229.0764895743729
 30
0.0
  0
SPLINE
  5
77
102
{ACAD_REACTORS
330
221
102
}
330
A
100
AcDbEntity
  8
0
  6
Continuous
 62
     7
370
    15
100
AcDbSpline
210
0.0
220
0.0
230
1.0
 70
     8
 71
     2
 72
    11
 73
     8
 74
     0
 42
0.000000001
 43
0.000001
 40
0.0
 40
0.0
 40
0.0
 40
1.0
 40
1.0
 40
2.0
 40
3.0
 40
3.0
 40
4.0
 40
4.0
 40
4.0
 10
218.4781308026214
 20
238.9961643867919
 30
0.0
 10
218.4668220945477
 20
238.999372753944
 30
0.0
 10
218.4555133864739
 20
239.0025811210961
 30
0.0
 10
217.7562062664466
 20
239.205270016676
 30
0.0
 10
216.7018590361324
 20
239.4707813231636
 30
0.0
 10
216.3102145753665
 20
239.5645973622355
 30
0.0
 10
216.2987009723062
 20
239.5673679263117
 30
0.0
 10
216.2871873692459
 20
239.570138490388
 30
0.0
  0
POLYLINE
  5
78
102
{ACAD_REACTORS
330
221
102
}
330
A
100
AcDbEntity
  8
0
  6
Continuous
 62
     7
370
    15
100
AcDb2dPolyline
 66
     1
 10
0.0
 20
0.0
 30
0.0
 75
     5
  0
VERTEX
  5
79
330
78
100
AcDbEntity
  8
0
  6
Continuous
 62
     7
370
    15
100
AcDbVertex
100
AcDb2dVertex
 10
218.4781308026248
 20
238.9961643868002
 30
0.0
  0
VERTEX
  5
7A
330
78
100
AcDbEntity
  8
0
  6
Continuous
 62
     7
370
    15
100
AcDbVertex
100
AcDb2dVertex
 10
218.4692068917171
 20
239.0627496631937
 30
0.0
  0
VERTEX
  5
7B
330
78
100
AcDbEntity
  8
0
  6
Continuous
 62
     7
370
    15
100
AcDbVertex
100
AcDb2dVertex
 10
218.451422174261
 20
239.1228969276357
 30
0.0
  0
VERTEX
  5
7C
330
78
100
AcDbEntity
  8
0
  6
Continuous
 62
     7
370
    15
100
AcDbVertex
100
AcDb2dVertex
 10
218.4253857533068
 20
239.1745462909871
 30
0.0
  0
VERTEX
  5
7D
330
78
100
AcDbEntity
  8
0
  6
Continuous
 62
     7
370
    15
100
AcDbVertex
100
AcDb2dVertex
 10
218.39198935009
 20
239.2159276264331
 30
0.0
  0
VERTEX
  5
7E
330
78
100
AcDbEntity
  8
0
  6
Continuous
 62
     7
370
    15
100
AcDbVertex
100
AcDb2dVertex
 10
218.3523766976313
 20
239.2456251943111
 30
0.0
  0
VERTEX
  5
7F
330
78
100
AcDbEntity
  8
0
  6
Continuous
 62
     7
370
    15
100
AcDbVertex
100
AcDb2dVertex
 10
218.3079043885875
 20
239.262621553818
 30
0.0
  0
VERTEX
  5
80
330
78
100
AcDbEntity
  8
0
  6
Continuous
 62
     7
370
    15
100
AcDbVertex
100
AcDb2dVertex
 10
218.2600956259913
 20
239.2663338052734
 30
0.0
  0
VERTEX
  5
81
330
78
100
AcDbEntity
  8
0
  6
Continuous
 62
     7
370
    15
100
AcDbVertex
100
AcDb2dVertex
 10
218.210587764526
 20
239.2566360168284
 30
0.0
  0
SEQEND
  5
82
330
78
100
AcDbEntity
  8
0
  6
Continuous
 62
     7
370
    15
  0
ARC
  5
83
102
{ACAD_REACTORS
330
221
102
}
330
A
100
AcDbEntity
  8
0
  6
Continuous
 62
     7
370
    15
100
AcDbCircle
 10
218.1360410509986
 20
238.4076249980966
 30
0.0
 40
0.4665310816728734
100
AcDbArc
 50
1.4412236729391
 51
69.50716796644146
  0
SPLINE
  5
84
102
{ACAD_REACTORS
330
221
102
}
330
A
100
AcDbEntity
  8
0
  6
Continuous
 62
     7
370
    15
100
AcDbSpline
210
0.0
220
0.0
230
1.0
 70
     8
 71
     2
 72
    18
 73
    15
 74
     0
 42
0.000000001
 43
0.000001
 40
0.0
 40
0.0
 40
0.0
 40
1.0
 40
1.0
 40
2.0
 40
3.0
 40
4.0
 40
5.0
 40
6.0
 40
7.0
 40
8.0
 40
9.0
 40
10.0
 40
10.0
 40
11.0
 40
11.0
 40
11.0
 10
218.2105877645231
 20
239.2566360168242
 30
0.0
 10
218.2120082118528
 20
239.2561697123325
 30
0.0
 10
218.2134286591826
 20
239.2557034078409
 30
0.0
 10
218.2562875686974
 20
239.2417611512902
 30
0.0
 10
218.3389393003406
 20
239.2132895427451
 30
0.0
 10
218.4447085184735
 20
239.1683713739804
 30
0.0
 10
218.5272258942566
 20
239.0965461342945
 30
0.0
 10
218.543623907258
 20
239.0188928205091
 30
0.0
 10
218.5086606181692
 20
238.9622209202395
 30
0.0
 10
218.4506635819819
 20
238.9095256817149
 30
0.0
 10
218.3650911788563
 20
238.8708323286661
 30
0.0
 10
218.3225440353117
 20
238.8536852700549
 30
0.0
 10
218.3008144517551
 20
238.8451985159378
 30
0.0
 10
218.3000917304113
 20
238.8449153200723
 30
0.0
 10
218.2993690090674
 20
238.8446321242068
 30
0.0
  0
SPLINE
  5
85
102
{ACAD_REACTORS
330
221
102
}
330
A
100
AcDbEntity
  8
0
  6
Continuous
 62
     7
370
    15
100
AcDbSpline
210
0.0
220
0.0
230
1.0
 70
     8
 71
     2
 72
    11
 73
     8
 74
     0
 42
0.000000001
 43
0.000001
 40
0.0
 40
0.0
 40
0.0
 40
1.0
 40
1.0
 40
2.0
 40
3.0
 40
3.0
 40
4.0
 40
4.0
 40
4.0
 10
214.3490751883212
 20
239.533633423136
 30
0.0
 10
214.3397014854338
 20
239.5306985755433
 30
0.0
 10
214.3303277825464
 20
239.5277637279505
 30
0.0
 10
213.6347403124994
 20
239.314203774094
 30
0.0
 10
212.7150423175677
 20
238.9888237968782
 30
0.0
 10
212.4405199097033
 20
238.8887586498991
 30
0.0
 10
212.4313660670009
 20
238.8854287735048
 30
0.0
 10
212.4222122242986
 20
238.8820988971105
 30
0.0
  0
SPLINE
  5
86
102
{ACAD_REACTORS
330
221
102
}
330
A
100
AcDbEntity
  8
0
  6
Continuous
 62
     7
370
    15
100
AcDbSpline
210
0.0
220
0.0
230
1.0
 70
     8
 71
     2
 72
    11
 73
     8
 74
     0
 42
0.000000001
 43
0.000001
 40
0.0
 40
0.0
 40
0.0
 40
1.0
 40
1.0
 40
2.0
 40
3.0
 40
3.0
 40
4.0
 40
4.0
 40
4.0
 10
215.2405523268737
 20
229.0764895743729
 30
0.0
 10
215.2405352680535
 20
229.0766262230236
 30
0.0
 10
215.2405182092332
 20
229.0767628716742
 30
0.0
 10
215.0045527979799
 20
230.9177680672306
 30
0.0
 10
214.4692678208498
 20
236.1238217114076
 30
0.0
 10
214.3509990191269
 20
239.4835606132754
 30
0.0
 10
214.3500371037241
 20
239.5085970182057
 30
0.0
 10
214.3490751883212
 20
239.533633423136
 30
0.0
  0
POLYLINE
  5
87
102
{ACAD_REACTORS
330
221
102
}
330
A
100
AcDbEntity
  8
0
  6
Continuous
 62
     7
370
    15
100
AcDb2dPolyline
 66
     1
 10
0.0
 20
0.0
 30
0.0
 75
     5
  0
VERTEX
  5
88
330
87
100
AcDbEntity
  8
0
  6
Continuous
 62
     7
370
    15
100
AcDbVertex
100
AcDb2dVertex
 10
216.2871873692649
 20
239.5701384903835
 30
0.0
  0
VERTEX
  5
89
330
87
100
AcDbEntity
  8
0
  6
Continuous
 62
     7
370
    15
100
AcDbVertex
100
AcDb2dVertex
 10
216.2785664129575
 20
239.6366444000015
 30
0.0
  0
VERTEX
  5
8A
330
87
100
AcDbEntity
  8
0
  6
Continuous
 62
     7
370
    15
100
AcDbVertex
100
AcDb2dVertex
 10
216.2613849471619
 20
239.6966336271636
 30
0.0
  0
VERTEX
  5
8B
330
87
100
AcDbEntity
  8
0
  6
Continuous
 62
     7
370
    15
100
AcDbVertex
100
AcDb2dVertex
 10
216.236231234616
 20
239.7480517422443
 30
0.0
  0
VERTEX
  5
8C
330
87
100
AcDbEntity
  8
0
  6
Continuous
 62
     7
370
    15
100
AcDbVertex
100
AcDb2dVertex
 10
216.2039667850495
 20
239.7891365332883
 30
0.0
  0
VERTEX
  5
8D
330
87
100
AcDbEntity
  8
0
  6
Continuous
 62
     7
370
    15
100
AcDbVertex
100
AcDb2dVertex
 10
216.1656967277949
 20
239.8184823737498
 30
0.0
  0
VERTEX
  5
8E
330
87
100
AcDbEntity
  8
0
  6
Continuous
 62
     7
370
    15
100
AcDbVertex
100
AcDb2dVertex
 10
216.1227314989471
 20
239.8350839147473
 30
0.0
  0
VERTEX
  5
8F
330
87
100
AcDbEntity
  8
0
  6
Continuous
 62
     7
370
    15
100
AcDbVertex
100
AcDb2dVertex
 10
216.0765428300908
 20
239.8383717408591
 30
0.0
  0
VERTEX
  5
90
330
87
100
AcDbEntity
  8
0
  6
Continuous
 62
     7
370
    15
100
AcDbVertex
100
AcDb2dVertex
 10
216.0287124083762
 20
239.8282345038628
 30
0.0
  0
SEQEND
  5
91
330
87
100
AcDbEntity
  8
0
  6
Continuous
 62
     7
370
    15
  0
SPLINE
  5
92
102
{ACAD_REACTORS
330
221
102
}
330
A
100
AcDbEntity
  8
0
  6
Continuous
 62
     7
370
    15
100
AcDbSpline
210
0.0
220
0.0
230
1.0
 70
     8
 71
     2
 72
    10
 73
     7
 74
     0
 42
0.000000001
 43
0.000001
 40
0.0
 40
0.0
 40
0.0
 40
1.0
 40
1.0
 40
2.0
 40
2.0
 40
3.0
 40
3.0
 40
3.0
 10
216.0287124083653
 20
239.8282345038648
 30
0.0
 10
216.0401914641359
 20
239.8252971577609
 30
0.0
 10
216.0516705199065
 20
239.822359811657
 30
0.0
 10
217.1326148154839
 20
239.5468222733204
 30
0.0
 10
218.188090176046
 20
239.2626696387945
 30
0.0
 10
218.1993389702845
 20
239.2596528278094
 30
0.0
 10
218.2105877645231
 20
239.2566360168242
 30
0.0
  0
ARC
  5
93
102
{ACAD_REACTORS
330
221
102
}
330
A
100
AcDbEntity
  8
0
  6
Continuous
 62
     7
370
    15
100
AcDbCircle
 10
214.5974217495749
 20
239.5571547105148
 30
0.0
 40
0.2494579432463198
100
AcDbArc
 50
79.15765715574405
 51
185.4104328229502
  0
SPLINE
  5
94
102
{ACAD_REACTORS
330
221
102
}
330
A
100
AcDbEntity
  8
0
  6
Continuous
 62
     7
370
    15
100
AcDbSpline
210
0.0
220
0.0
230
1.0
 70
     8
 71
     2
 72
    10
 73
     7
 74
     0
 42
0.000000001
 43
0.000001
 40
0.0
 40
0.0
 40
0.0
 40
1.0
 40
1.0
 40
2.0
 40
2.0
 40
3.0
 40
3.0
 40
3.0
 10
212.725458696402
 20
239.1533215608868
 30
0.0
 10
212.7345607980623
 20
239.1564726290265
 30
0.0
 10
212.7436628997227
 20
239.1596236971662
 30
0.0
 10
213.6704921175785
 20
239.4815131019957
 30
0.0
 10
214.6256490584248
 20
239.7959839506832
 30
0.0
 10
214.6349978210247
 20
239.7990717034322
 30
0.0
 10
214.6443465836246
 20
239.8021594561813
 30
0.0
  0
SPLINE
  5
95
102
{ACAD_REACTORS
330
221
102
}
330
A
100
AcDbEntity
  8
0
  6
Continuous
 62
     7
370
    15
100
AcDbSpline
210
0.0
220
0.0
230
1.0
 70
     8
 71
     2
 72
    16
 73
    13
 74
     0
 42
0.000000001
 43
0.000001
 40
0.0
 40
0.0
 40
0.0
 40
1.0
 40
1.0
 40
2.0
 40
3.0
 40
4.0
 40
5.0
 40
6.0
 40
7.0
 40
8.0
 40
8.0
 40
9.0
 40
9.0
 40
9.0
 10
216.2871873692459
 20
239.570138490388
 30
0.0
 10
216.2851365632665
 20
239.5706554565322
 30
0.0
 10
216.2830857572871
 20
239.5711724226765
 30
0.0
 10
216.2218040530911
 20
239.5868073211971
 30
0.0
 10
215.9755786561473
 20
239.6448068244646
 30
0.0
 10
215.6125746606278
 20
239.6777492044461
 30
0.0
 10
215.3239292285397
 20
239.6841003941941
 30
0.0
 10
215.0351196871068
 20
239.6714980453466
 30
0.0
 10
214.7101579457737
 20
239.6325195254838
 30
0.0
 10
214.4565372076436
 20
239.5658723295421
 30
0.0
 10
214.3558233867927
 20
239.5356318532697
 30
0.0
 10
214.3524492875569
 20
239.5346326382029
 30
0.0
 10
214.3490751883212
 20
239.533633423136
 30
0.0
  0
SPLINE
  5
96
102
{ACAD_REACTORS
330
221
102
}
330
A
100
AcDbEntity
  8
0
  6
Continuous
 62
     7
370
    15
100
AcDbSpline
210
0.0
220
0.0
230
1.0
 70
     8
 71
     2
 72
    16
 73
    13
 74
     0
 42
0.000000001
 43
0.000001
 40
0.0
 40
0.0
 40
0.0
 40
1.0
 40
1.0
 40
2.0
 40
3.0
 40
4.0
 40
5.0
 40
6.0
 40
7.0
 40
8.0
 40
8.0
 40
9.0
 40
9.0
 40
9.0
 10
214.6443465836246
 20
239.8021594561813
 30
0.0
 10
214.6465833149516
 20
239.8027627822044
 30
0.0
 10
214.6488200462785
 20
239.8033661082274
 30
0.0
 10
214.7067114630708
 20
239.8191745541759
 30
0.0
 10
214.8900500915298
 20
239.8658768748798
 30
0.0
 10
215.0950896664361
 20
239.8876202965155
 30
0.0
 10
215.3320263170912
 20
239.9043003558932
 30
0.0
 10
215.6188132391888
 20
239.892416751856
 30
0.0
 10
215.8377154525652
 20
239.8697712109769
 30
0.0
 10
215.9852719010988
 20
239.8381192700026
 30
0.0
 10
216.0259917836835
 20
239.8288496949748
 30
0.0
 10
216.0273520960244
 20
239.8285420994199
 30
0.0
 10
216.0287124083653
 20
239.8282345038648
 30
0.0
  0
LINE
  5
97
102
{ACAD_REACTORS
330
221
102
}
330
A
100
AcDbEntity
  8
0
  6
Continuous
 62
     7
370
    15
100
AcDbLine
 10
219.6672978377314
 20
227.6516242355306
 30
0.0
 11
219.6799718619502
 21
228.6767628687402
 31
0.0
  0
SPLINE
  5
98
102
{ACAD_REACTORS
330
221
102
}
330
A
100
AcDbEntity
  8
0
  6
Continuous
 62
     7
370
    15
100
AcDbSpline
210
0.0
220
0.0
230
1.0
 70
     8
 71
     2
 72
    11
 73
     8
 74
     0
 42
0.000000001
 43
0.000001
 40
0.0
 40
0.0
 40
0.0
 40
1.0
 40
1.0
 40
2.0
 40
3.0
 40
3.0
 40
4.0
 40
4.0
 40
4.0
 10
212.0993678660111
 20
238.6419181471421
 30
0.0
 10
212.0965942550314
 20
238.6207410281098
 30
0.0
 10
212.0938206440516
 20
238.5995639090776
 30
0.0
 10
211.9355307801661
 20
237.4252635446501
 30
0.0
 10
211.4441540896738
 20
232.5096792002269
 30
0.0
 10
211.3430084818527
 20
228.6629261283088
 30
0.0
 10
211.3421982439706
 20
228.6342781536488
 30
0.0
 10
211.3413880060885
 20
228.6056301789888
 30
0.0
  0
SPLINE
  5
99
102
{ACAD_REACTORS
330
221
102
}
330
A
100
AcDbEntity
  8
0
  6
Continuous
 62
     7
370
    15
100
AcDbSpline
210
0.0
220
0.0
230
1.0
 70
     8
 71
     2
 72
    17
 73
    14
 74
     0
 42
0.000000001
 43
0.000001
 40
0.0
 40
0.0
 40
0.0
 40
1.0
 40
1.0
 40
2.0
 40
3.0
 40
4.0
 40
5.0
 40
6.0
 40
7.0
 40
8.0
 40
9.0
 40
9.0
 40
10.0
 40
10.0
 40
10.0
 10
212.5969146831961
 20
239.147395397437
 30
0.0
 10
212.5966104992945
 20
239.1473082279879
 30
0.0
 10
212.5963063153928
 20
239.1472210585388
 30
0.0
 10
212.5312019528612
 20
239.129531744642
 30
0.0
 10
212.430318943293
 20
239.0831752260535
 30
0.0
 10
212.3473510752277
 20
239.0313652684946
 30
0.0
 10
212.2600271369886
 20
238.9642513902457
 30
0.0
 10
212.1936436690082
 20
238.8906382650049
 30
0.0
 10
212.1482721293941
 20
238.8242987537618
 30
0.0
 10
212.1185163417835
 20
238.7496233530371
 30
0.0
 10
212.100874767459
 20
238.6846090562319
 30
0.0
 10
212.0929942324664
 20
238.6515594556276
 30
0.0
 10
212.0927282564691
 20
238.6504596980371
 30
0.0
 10
212.0924622804718
 20
238.6493599404466
 30
0.0
  0
SPLINE
  5
9A
102
{ACAD_REACTORS
330
221
102
}
330
A
100
AcDbEntity
  8
0
  6
Continuous
 62
     7
370
    15
100
AcDbSpline
210
0.0
220
0.0
230
1.0
 70
     8
 71
     2
 72
    11
 73
     8
 74
     0
 42
0.000000001
 43
0.000001
 40
0.0
 40
0.0
 40
0.0
 40
1.0
 40
1.0
 40
2.0
 40
3.0
 40
3.0
 40
4.0
 40
4.0
 40
4.0
 10
219.6863407185577
 20
228.516132979756
 30
0.0
 10
219.6859526143994
 20
228.5312939364821
 30
0.0
 10
219.6855645102411
 20
228.5464548932083
 30
0.0
 10
219.5942716015389
 20
232.2998821093516
 30
0.0
 10
219.1101136893663
 20
237.3117818022746
 30
0.0
 10
218.9314131276416
 20
238.6655362388441
 30
0.0
 10
218.9280527035928
 20
238.6915343767029
 30
0.0
 10
218.9246922795439
 20
238.7175325145617
 30
0.0
  0
SPLINE
  5
9B
102
{ACAD_REACTORS
330
221
102
}
330
A
100
AcDbEntity
  8
0
  6
Continuous
 62
     7
370
    15
100
AcDbSpline
210
0.0
220
0.0
230
1.0
 70
     8
 71
     2
 72
    17
 73
    14
 74
     0
 42
0.000000001
 43
0.000001
 40
0.0
 40
0.0
 40
0.0
 40
1.0
 40
1.0
 40
2.0
 40
3.0
 40
4.0
 40
5.0
 40
6.0
 40
7.0
 40
8.0
 40
9.0
 40
9.0
 40
10.0
 40
10.0
 40
10.0
 10
218.9265030557773
 20
238.7181193491479
 30
0.0
 10
218.9264970329276
 20
238.7185297500368
 30
0.0
 10
218.9264910100779
 20
238.7189401509257
 30
0.0
 10
218.9263536993472
 20
238.7312609315787
 30
0.0
 10
218.9248505529231
 20
238.7851351499934
 30
0.0
 10
218.8974722475427
 20
238.8608334945729
 30
0.0
 10
218.8152176371454
 20
238.9980991000439
 30
0.0
 10
218.6672479788786
 20
239.1168044679763
 30
0.0
 10
218.5360285546748
 20
239.1875446989559
 30
0.0
 10
218.4278946596533
 20
239.2252811353954
 30
0.0
 10
218.351815306499
 20
239.2471071782394
 30
0.0
 10
218.3132137956024
 20
239.2575573925619
 30
0.0
 10
218.3119290482101
 20
239.2579073535188
 30
0.0
 10
218.3106443008178
 20
239.2582573144757
 30
0.0
  0
LINE
  5
9C
102
{ACAD_REACTORS
330
221
102
}
330
A
100
AcDbEntity
  8
0
  6
Continuous
 62
     7
370
    15
100
AcDbLine
 10
211.3447170338103
 20
228.7735321836203
 30
0.0
 11
211.3570883644683
 21
228.0180075548564
 31
0.0
  0
SPLINE
  5
9D
102
{ACAD_REACTORS
330
221
102
}
330
A
100
AcDbEntity
  8
0
  6
Continuous
 62
     7
370
    15
100
AcDbSpline
210
0.0
220
0.0
230
1.0
 70
     8
 71
     2
 72
    10
 73
     7
 74
     0
 42
0.000000001
 43
0.000001
 40
0.0
 40
0.0
 40
0.0
 40
1.0
 40
1.0
 40
2.0
 40
2.0
 40
3.0
 40
3.0
 40
3.0
 10
218.3102286668467
 20
239.2594897087269
 30
0.0
 10
218.2992751916512
 20
239.262466085917
 30
0.0
 10
218.2883217164556
 20
239.2654424631072
 30
0.0
 10
217.2373498905023
 20
239.5524267953061
 30
0.0
 10
216.1482387920642
 20
239.8271330900232
 30
0.0
 10
216.1364200684705
 20
239.8301303316336
 30
0.0
 10
216.1246013448767
 20
239.833127573244
 30
0.0
  0
SPLINE
  5
9E
102
{ACAD_REACTORS
330
221
102
}
330
A
100
AcDbEntity
  8
0
  6
Continuous
 62
     7
370
    15
100
AcDbSpline
210
0.0
220
0.0
230
1.0
 70
     8
 71
     2
 72
    11
 73
     8
 74
     0
 42
0.000000001
 43
0.000001
 40
0.0
 40
0.0
 40
0.0
 40
1.0
 40
1.0
 40
2.0
 40
3.0
 40
3.0
 40
4.0
 40
4.0
 40
4.0
 10
214.5242153374814
 20
239.7990032247475
 30
0.0
 10
214.5151623260629
 20
239.7960523450126
 30
0.0
 10
214.5061093146444
 20
239.7931014652777
 30
0.0
 10
213.8157822569273
 20
239.5699123737731
 30
0.0
 10
212.8996804178188
 20
239.2542793948735
 30
0.0
 10
212.6157508388545
 20
239.1550040611388
 30
0.0
 10
212.6062810248812
 20
239.1516963633278
 30
0.0
 10
212.596811210908
 20
239.1483886655168
 30
0.0
  0
SPLINE
  5
9F
102
{ACAD_REACTORS
330
221
102
}
330
A
100
AcDbEntity
  8
0
  6
Continuous
 62
     7
370
    15
100
AcDbSpline
210
0.0
220
0.0
230
1.0
 70
     8
 71
     2
 72
    15
 73
    12
 74
     0
 42
0.000000001
 43
0.000001
 40
0.0
 40
0.0
 40
0.0
 40
1.0
 40
1.0
 40
2.0
 40
3.0
 40
4.0
 40
5.0
 40
6.0
 40
7.0
 40
7.0
 40
8.0
 40
8.0
 40
8.0
 10
216.1248038602882
 20
239.8324375901597
 30
0.0
 10
216.1244790244916
 20
239.8325388277285
 30
0.0
 10
216.1241541886949
 20
239.8326400652974
 30
0.0
 10
216.0437779815569
 20
239.8582719838371
 30
0.0
 10
215.8239556464163
 20
239.8924799896274
 30
0.0
 10
215.5245476326333
 20
239.9189771011054
 30
0.0
 10
215.1393367841775
 20
239.9152177959688
 30
0.0
 10
214.7730636619987
 20
239.870469526122
 30
0.0
 10
214.5799618200666
 20
239.8166960260485
 30
0.0
 10
214.5255734275101
 20
239.8003230774925
 30
0.0
 10
214.5237560940828
 20
239.799780355781
 30
0.0
 10
214.5219387606556
 20
239.7992376340696
 30
0.0
  0
LINE
  5
A0
102
{ACAD_REACTORS
330
221
102
}
330
A
100
AcDbEntity
  8
0
  6
Continuous
 62
     7
370
    15
100
AcDbLine
 10
205.654713215457
 20
227.2150334399878
 30
0.0
 11
205.6062566198446
 21
50.45379909890747
 31
0.0
  0
LINE
  5
A1
102
{ACAD_REACTORS
330
221
102
}
330
A
100
AcDbEntity
  8
0
  6
Continuous
 62
     7
370
    15
100
AcDbLine
 10
225.315298229171
 20
50.8227331407967
 30
0.0
 11
225.3637537017781
 21
227.5798710556462
 31
0.0
  0
LINE
  5
A2
102
{ACAD_REACTORS
330
221
102
}
330
A
100
AcDbEntity
  8
0
  6
Continuous
 62
     7
370
    15
100
AcDbLine
 10
206.2546350262481
 20
228.2228407119681
 30
0.0
 11
215.9413975577723
 21
225.6851435920295
 31
0.0
  0
ARC
  5
A3
102
{ACAD_REACTORS
330
221
102
}
330
A
100
AcDbEntity
  8
0
  6
Continuous
 62
     7
370
    15
100
AcDbCircle
 10
216.0934520073646
 20
226.2655567434842
 30
0.0
 40
0.6000000000000243
100
AcDbArc
 50
255.3197993636408
 51
288.6820538842398
  0
LINE
  5
A4
102
{ACAD_REACTORS
330
221
102
}
330
A
100
AcDbEntity
  8
0
  6
Continuous
 62
     7
370
    15
100
AcDbLine
 10
216.285642223359
 20
225.6971703693706
 30
0.0
 11
224.8048324858436
 21
228.5777834142376
 31
0.0
  0
LINE
  5
A5
102
{ACAD_REACTORS
330
221
102
}
330
A
100
AcDbEntity
  8
0
  6
Continuous
 62
     7
370
    15
100
AcDbLine
 10
224.7680727853665
 20
242.0421089504824
 30
0.0
 11
215.0813102538422
 21
244.5798060704211
 31
0.0
  0
ARC
  5
A6
102
{ACAD_REACTORS
330
221
102
}
330
A
100
AcDbEntity
  8
0
  6
Continuous
 62
     7
370
    15
100
AcDbCircle
 10
206.4100650928605
 20
241.1187791690006
 30
0.0
 40
0.600000000000006
100
AcDbArc
 50
108.6820538842441
 51
179.9842931717398
  0
LINE
  5
A7
102
{ACAD_REACTORS
330
221
102
}
330
A
100
AcDbEntity
  8
0
  6
Continuous
 62
     7
370
    15
100
AcDbLine
 10
205.8100652849724
 20
241.1189435821568
 30
0.0
 11
205.8066891577317
 21
228.8034185254358
 31
0.0
  0
LINE
  5
A8
102
{ACAD_REACTORS
330
221
102
}
330
A
100
AcDbEntity
  8
0
  6
Continuous
 62
     7
370
    15
100
AcDbLine
 10
214.7370655882122
 20
244.5677790707979
 30
0.0
 11
206.2178753256887
 21
241.687166025972
 31
0.0
  0
ARC
  5
A9
102
{ACAD_REACTORS
330
221
102
}
330
A
100
AcDbEntity
  8
0
  6
Continuous
 62
     7
370
    15
100
AcDbCircle
 10
224.6160188458834
 20
241.4616951120099
 30
0.0
 40
0.6000000000000099
100
AcDbArc
 50
359.9842931717398
 51
75.31979936364466
  0
LINE
  5
AA
102
{ACAD_REACTORS
330
221
102
}
330
A
100
AcDbEntity
  8
0
  6
Continuous
 62
     7
370
    15
100
AcDbLine
 10
225.2126425264556
 20
229.1460053689925
 30
0.0
 11
225.2160186536963
 21
241.4615304257134
 31
0.0
  0
ARC
  5
AB
102
{ACAD_REACTORS
330
221
102
}
330
A
100
AcDbEntity
  8
0
  6
Continuous
 62
     7
370
    15
100
AcDbCircle
 10
206.4066889655869
 20
228.8032539970773
 30
0.0
 40
0.5999999999999645
100
AcDbArc
 50
179.9842931717398
 51
255.3197993636433
  0
ARC
  5
AC
102
{ACAD_REACTORS
330
221
102
}
330
A
100
AcDbEntity
  8
0
  6
Continuous
 62
     7
370
    15
100
AcDbCircle
 10
224.6126427186088
 20
229.1461699400466
 30
0.0
 40
0.600000000000006
100
AcDbArc
 50
288.6820538842433
 51
359.9842931717398
  0
ARC
  5
AD
102
{ACAD_REACTORS
330
221
102
}
330
A
100
AcDbEntity
  8
0
  6
Continuous
 62
     7
370
    15
100
AcDbCircle
 10
214.9292558041058
 20
243.9993923656029
 30
0.0
 40
0.6000000000000243
100
AcDbArc
 50
75.3197993636401
 51
108.6820538842424
  0
SPLINE
  5
AE
102
{ACAD_REACTORS
330
221
102
}
330
A
100
AcDbEntity
  8
0
  6
Continuous
 62
     7
370
    15
100
AcDbSpline
210
0.0
220
0.0
230
1.0
 70
     8
 71
     2
 72
    16
 73
    13
 74
     0
 42
0.000000001
 43
0.000001
 40
0.0
 40
0.0
 40
0.0
 40
1.0
 40
1.0
 40
2.0
 40
3.0
 40
4.0
 40
5.0
 40
6.0
 40
7.0
 40
8.0
 40
8.0
 40
9.0
 40
9.0
 40
9.0
 10
205.6606868550163
 20
227.8491543392015
 30
0.0
 10
205.6605536025117
 20
227.8490830127337
 30
0.0
 10
205.6604203500071
 20
227.8490116862658
 30
0.0
 10
205.6521145851925
 20
227.8446248662883
 30
0.0
 10
205.6309162336441
 20
227.8326813455307
 30
0.0
 10
205.6078424708051
 20
227.8121431540861
 30
0.0
 10
205.5935498061031
 20
227.7919988401279
 30
0.0
 10
205.5855845620867
 20
227.7754233019243
 30
0.0
 10
205.5826202870437
 20
227.7623109824116
 30
0.0
 10
205.5808612767994
 20
227.7500156863796
 30
0.0
 10
205.580154531282
 20
227.7416651927944
 30
0.0
 10
205.5801421843044
 20
227.7415306352007
 30
0.0
 10
205.5801298373268
 20
227.741396077607
 30
0.0
  0
LINE
  5
AF
102
{ACAD_REACTORS
330
221
102
}
330
A
100
AcDbEntity
  8
0
  6
Continuous
 62
     7
370
    15
100
AcDbLine
 10
205.5800709176081
 20
227.7431589566746
 30
0.0
 11
205.5711814962426
 21
227.2641635052061
 31
0.0
  0
LINE
  5
B0
102
{ACAD_REACTORS
330
221
102
}
330
A
100
AcDbEntity
  8
0
  6
Continuous
 62
     7
370
    15
100
AcDbLine
 10
206.5405785530782
 20
228.1479304080681
 30
0.0
 11
205.6707520947976
 21
227.8538140231298
 31
0.0
  0
SPLINE
  5
B1
102
{ACAD_REACTORS
330
221
102
}
330
A
100
AcDbEntity
  8
0
  6
Continuous
 62
     7
370
    15
100
AcDbSpline
210
0.0
220
0.0
230
1.0
 70
     8
 71
     2
 72
    16
 73
    13
 74
     0
 42
0.000000001
 43
0.000001
 40
0.0
 40
0.0
 40
0.0
 40
1.0
 40
1.0
 40
2.0
 40
3.0
 40
4.0
 40
5.0
 40
6.0
 40
7.0
 40
8.0
 40
8.0
 40
9.0
 40
9.0
 40
9.0
 10
225.4385942894134
 20
228.1113808799285
 30
0.0
 10
225.4385707195513
 20
228.1115261790684
 30
0.0
 10
225.4385471496892
 20
228.1116714782083
 30
0.0
 10
225.4371909491823
 20
228.1206961853572
 30
0.0
 10
225.4342332747071
 20
228.1339423490236
 30
0.0
 10
225.4286569092861
 20
228.1513605452018
 30
0.0
 10
225.4142315329176
 20
228.1716545338161
 30
0.0
 10
225.3997317288326
 20
228.1869007659908
 30
0.0
 10
225.3780707933858
 20
228.2040239243623
 30
0.0
 10
225.3532064830343
 20
228.2162901289672
 30
0.0
 10
225.3437447093496
 20
228.2205946983905
 30
0.0
 10
225.343592625122
 20
228.2206646461833
 30
0.0
 10
225.3434405408944
 20
228.2207345939761
 30
0.0
  0
LINE
  5
B2
102
{ACAD_REACTORS
330
221
102
}
330
A
100
AcDbEntity
  8
0
  6
Continuous
 62
     7
370
    15
100
AcDbLine
 10
225.4473125153226
 20
227.6308940142969
 30
0.0
 11
225.4386860422796
 21
228.1098943407366
 31
0.0
  0
LINE
  5
B3
102
{ACAD_REACTORS
330
221
102
}
330
A
100
AcDbEntity
  8
0
  6
Continuous
 62
     7
370
    15
100
AcDbLine
 10
225.3330547875947
 20
228.2250846184357
 30
0.0
 11
224.4477008947632
 21
228.4570258905224
 31
0.0
  0
ARC
  5
B4
102
{ACAD_REACTORS
330
221
102
}
330
A
100
AcDbEntity
  8
0
  6
Continuous
 62
     7
370
    15
100
AcDbCircle
 10
216.088544038517
 20
47.874458004506
 30
0.0
 40
0.1691744459909068
100
AcDbArc
 50
256.582827513237
 51
285.5752921381409
  0
LINE
  5
B5
102
{ACAD_REACTORS
330
221
102
}
330
A
100
AcDbEntity
  8
0
  6
Continuous
 62
     7
370
    15
100
AcDbLine
 10
216.0492888931301
 20
47.70990094228869
 30
0.0
 11
205.6266325865376
 21
50.4403844040947
 31
0.0
  0
POLYLINE
  5
B6
102
{ACAD_REACTORS
330
221
102
}
330
A
100
AcDbEntity
  8
0
  6
Continuous
 62
     7
370
    15
100
AcDb2dPolyline
 66
     1
 10
0.0
 20
0.0
 30
0.0
 75
     5
  0
VERTEX
  5
B7
330
B6
100
AcDbEntity
  8
0
  6
Continuous
 62
     7
370
    15
100
AcDbVertex
100
AcDb2dVertex
 10
210.8450270522099
 20
74.85182144472293
 30
0.0
  0
VERTEX
  5
B8
330
B6
100
AcDbEntity
  8
0
  6
Continuous
 62
     7
370
    15
100
AcDbVertex
100
AcDb2dVertex
 10
211.188914722593
 20
74.79530701823597
 30
0.0
  0
VERTEX
  5
B9
330
B6
100
AcDbEntity
  8
0
  6
Continuous
 62
     7
370
    15
100
AcDbVertex
100
AcDb2dVertex
 10
211.5247603920755
 20
74.80724293027976
 30
0.0
  0
VERTEX
  5
BA
330
B6
100
AcDbEntity
  8
0
  6
Continuous
 62
     7
370
    15
100
AcDbVertex
100
AcDb2dVertex
 10
211.8446920183995
 20
74.88734684908076
 30
0.0
  0
VERTEX
  5
BB
330
B6
100
AcDbEntity
  8
0
  6
Continuous
 62
     7
370
    15
100
AcDbVertex
100
AcDb2dVertex
 10
212.1412108816276
 20
75.03375902950617
 30
0.0
  0
VERTEX
  5
BC
330
B6
100
AcDbEntity
  8
0
  6
Continuous
 62
     7
370
    15
100
AcDbVertex
100
AcDb2dVertex
 10
212.4073665368325
 20
75.24304200612121
 30
0.0
  0
VERTEX
  5
BD
330
B6
100
AcDbEntity
  8
0
  6
Continuous
 62
     7
370
    15
100
AcDbVertex
100
AcDb2dVertex
 10
212.6369207421584
 20
75.51027422742979
 30
0.0
  0
VERTEX
  5
BE
330
B6
100
AcDbEntity
  8
0
  6
Continuous
 62
     7
370
    15
100
AcDbVertex
100
AcDb2dVertex
 10
212.8244929079476
 20
75.82921682143117
 30
0.0
  0
VERTEX
  5
BF
330
B6
100
AcDbEntity
  8
0
  6
Continuous
 62
     7
370
    15
100
AcDbVertex
100
AcDb2dVertex
 10
212.9656864227534
 20
76.19237155389459
 30
0.0
  0
VERTEX
  5
C0
330
B6
100
AcDbEntity
  8
0
  6
Continuous
 62
     7
370
    15
100
AcDbVertex
100
AcDb2dVertex
 10
213.0571919541596
 20
76.59123830718934
 30
0.0
  0
VERTEX
  5
C1
330
B6
100
AcDbEntity
  8
0
  6
Continuous
 62
     7
370
    15
100
AcDbVertex
100
AcDb2dVertex
 10
213.0968645659585
 20
77.01647698337896
 30
0.0
  0
VERTEX
  5
C2
330
B6
100
AcDbEntity
  8
0
  6
Continuous
 62
     7
370
    15
100
AcDbVertex
100
AcDb2dVertex
 10
213.0837745465833
 20
77.45809905783958
 30
0.0
  0
VERTEX
  5
C3
330
B6
100
AcDbEntity
  8
0
  6
Continuous
 62
     7
370
    15
100
AcDbVertex
100
AcDb2dVertex
 10
213.0182284735716
 20
77.90576936477444
 30
0.0
  0
VERTEX
  5
C4
330
B6
100
AcDbEntity
  8
0
  6
Continuous
 62
     7
370
    15
100
AcDbVertex
100
AcDb2dVertex
 10
212.9017626865157
 20
78.34897853187067
 30
0.0
  0
VERTEX
  5
C5
330
B6
100
AcDbEntity
  8
0
  6
Continuous
 62
     7
370
    15
100
AcDbVertex
100
AcDb2dVertex
 10
212.7371072852523
 20
78.77735971569791
 30
0.0
  0
VERTEX
  5
C6
330
B6
100
AcDbEntity
  8
0
  6
Continuous
 62
     7
370
    15
100
AcDbVertex
100
AcDb2dVertex
 10
212.5281215514985
 20
79.18085348101798
 30
0.0
  0
VERTEX
  5
C7
330
B6
100
AcDbEntity
  8
0
  6
Continuous
 62
     7
370
    15
100
AcDbVertex
100
AcDb2dVertex
 10
212.2797039513772
 20
79.55001591872525
 30
0.0
  0
VERTEX
  5
C8
330
B6
100
AcDbEntity
  8
0
  6
Continuous
 62
     7
370
    15
100
AcDbVertex
100
AcDb2dVertex
 10
211.997677064787
 20
79.87619675272086
 30
0.0
  0
VERTEX
  5
C9
330
B6
100
AcDbEntity
  8
0
  6
Continuous
 62
     7
370
    15
100
AcDbVertex
100
AcDb2dVertex
 10
211.6886514638945
 20
80.15172296164357
 30
0.0
  0
VERTEX
  5
CA
330
B6
100
AcDbEntity
  8
0
  6
Continuous
 62
     7
370
    15
100
AcDbVertex
100
AcDb2dVertex
 10
211.3598704172547
 20
80.37016709540026
 30
0.0
  0
VERTEX
  5
CB
330
B6
100
AcDbEntity
  8
0
  6
Continuous
 62
     7
370
    15
100
AcDbVertex
100
AcDb2dVertex
 10
211.0190402672897
 20
80.52640309354743
 30
0.0
  0
VERTEX
  5
CC
330
B6
100
AcDbEntity
  8
0
  6
Continuous
 62
     7
370
    15
100
AcDbVertex
100
AcDb2dVertex
 10
210.6741498189499
 20
80.61675603599355
 30
0.0
  0
VERTEX
  5
CD
330
B6
100
AcDbEntity
  8
0
  6
Continuous
 62
     7
370
    15
100
AcDbVertex
100
AcDb2dVertex
 10
210.3332829666009
 20
80.63910813820524
 30
0.0
  0
VERTEX
  5
CE
330
B6
100
AcDbEntity
  8
0
  6
Continuous
 62
     7
370
    15
100
AcDbVertex
100
AcDb2dVertex
 10
210.0044293824949
 20
80.59294834641852
 30
0.0
  0
VERTEX
  5
CF
330
B6
100
AcDbEntity
  8
0
  6
Continuous
 62
     7
370
    15
100
AcDbVertex
100
AcDb2dVertex
 10
209.6952971126338
 20
80.47936452466561
 30
0.0
  0
VERTEX
  5
D0
330
B6
100
AcDbEntity
  8
0
  6
Continuous
 62
     7
370
    15
100
AcDbVertex
100
AcDb2dVertex
 10
209.413131908834
 20
80.30098835069555
 30
0.0
  0
VERTEX
  5
D1
330
B6
100
AcDbEntity
  8
0
  6
Continuous
 62
     7
370
    15
100
AcDbVertex
100
AcDb2dVertex
 10
209.1645476005622
 20
80.06202837306483
 30
0.0
  0
VERTEX
  5
D2
330
B6
100
AcDbEntity
  8
0
  6
Continuous
 62
     7
370
    15
100
AcDbVertex
100
AcDb2dVertex
 10
208.955370673715
 20
79.76808309474492
 30
0.0
  0
VERTEX
  5
D3
330
B6
100
AcDbEntity
  8
0
  6
Continuous
 62
     7
370
    15
100
AcDbVertex
100
AcDb2dVertex
 10
208.7905040684349
 20
79.42602869390814
 30
0.0
  0
VERTEX
  5
D4
330
B6
100
AcDbEntity
  8
0
  6
Continuous
 62
     7
370
    15
100
AcDbVertex
100
AcDb2dVertex
 10
208.6738120269955
 20
79.04390122959842
 30
0.0
  0
VERTEX
  5
D5
330
B6
100
AcDbEntity
  8
0
  6
Continuous
 62
     7
370
    15
100
AcDbVertex
100
AcDb2dVertex
 10
208.6080299405752
 20
78.63063571899357
 30
0.0
  0
VERTEX
  5
D6
330
B6
100
AcDbEntity
  8
0
  6
Continuous
 62
     7
370
    15
100
AcDbVertex
100
AcDb2dVertex
 10
208.5946996897633
 20
78.19593511530175
 30
0.0
  0
VERTEX
  5
D7
330
B6
100
AcDbEntity
  8
0
  6
Continuous
 62
     7
370
    15
100
AcDbVertex
100
AcDb2dVertex
 10
208.6341334740251
 20
77.74997247970575
 30
0.0
  0
VERTEX
  5
D8
330
B6
100
AcDbEntity
  8
0
  6
Continuous
 62
     7
370
    15
100
AcDbVertex
100
AcDb2dVertex
 10
208.7254071914095
 20
77.30322199104674
 30
0.0
  0
VERTEX
  5
D9
330
B6
100
AcDbEntity
  8
0
  6
Continuous
 62
     7
370
    15
100
AcDbVertex
100
AcDb2dVertex
 10
208.8663813343267
 20
76.86614616784348
 30
0.0
  0
VERTEX
  5
DA
330
B6
100
AcDbEntity
  8
0
  6
Continuous
 62
     7
370
    15
100
AcDbVertex
100
AcDb2dVertex
 10
209.0537517056233
 20
76.44897771216401
 30
0.0
  0
VERTEX
  5
DB
330
B6
100
AcDbEntity
  8
0
  6
Continuous
 62
     7
370
    15
100
AcDbVertex
100
AcDb2dVertex
 10
209.2831264361765
 20
76.06151722727492
 30
0.0
  0
VERTEX
  5
DC
330
B6
100
AcDbEntity
  8
0
  6
Continuous
 62
     7
370
    15
100
AcDbVertex
100
AcDb2dVertex
 10
209.5491291294591
 20
75.71282165500699
 30
0.0
  0
VERTEX
  5
DD
330
B6
100
AcDbEntity
  8
0
  6
Continuous
 62
     7
370
    15
100
AcDbVertex
100
AcDb2dVertex
 10
209.8455251376712
 20
75.41108014166997
 30
0.0
  0
VERTEX
  5
DE
330
B6
100
AcDbEntity
  8
0
  6
Continuous
 62
     7
370
    15
100
AcDbVertex
100
AcDb2dVertex
 10
210.1653668987128
 20
75.16337109401681
 30
0.0
  0
VERTEX
  5
DF
330
B6
100
AcDbEntity
  8
0
  6
Continuous
 62
     7
370
    15
100
AcDbVertex
100
AcDb2dVertex
 10
210.5011577891703
 20
74.97548267379159
 30
0.0
  0
VERTEX
  5
E0
330
B6
100
AcDbEntity
  8
0
  6
Continuous
 62
     7
370
    15
100
AcDbVertex
100
AcDb2dVertex
 10
210.8450270522099
 20
74.85182144472293
 30
0.0
  0
SEQEND
  5
E1
330
B6
100
AcDbEntity
  8
0
  6
Continuous
 62
     7
370
    15
  0
POLYLINE
  5
E2
102
{ACAD_REACTORS
330
221
102
}
330
A
100
AcDbEntity
  8
0
  6
Continuous
 62
     7
370
    15
100
AcDb2dPolyline
 66
     1
 10
0.0
 20
0.0
 30
0.0
 75
     5
  0
VERTEX
  5
E3
330
E2
100
AcDbEntity
  8
0
  6
Continuous
 62
     7
370
    15
100
AcDbVertex
100
AcDb2dVertex
 10
210.8402376631848
 20
57.38096315882657
 30
0.0
  0
VERTEX
  5
E4
330
E2
100
AcDbEntity
  8
0
  6
Continuous
 62
     7
370
    15
100
AcDbVertex
100
AcDb2dVertex
 10
211.0653706852628
 20
57.35544575702708
 30
0.0
  0
VERTEX
  5
E5
330
E2
100
AcDbEntity
  8
0
  6
Continuous
 62
     7
370
    15
100
AcDbVertex
100
AcDb2dVertex
 10
211.2783850815605
 20
57.39820607289109
 30
0.0
  0
VERTEX
  5
E6
330
E2
100
AcDbEntity
  8
0
  6
Continuous
 62
     7
370
    15
100
AcDbVertex
100
AcDb2dVertex
 10
211.4677971427922
 20
57.50694871982047
 30
0.0
  0
VERTEX
  5
E7
330
E2
100
AcDbEntity
  8
0
  6
Continuous
 62
     7
370
    15
100
AcDbVertex
100
AcDb2dVertex
 10
211.6233957008524
 20
57.67580117133184
 30
0.0
  0
VERTEX
  5
E8
330
E2
100
AcDbEntity
  8
0
  6
Continuous
 62
     7
370
    15
100
AcDbVertex
100
AcDb2dVertex
 10
211.736792280503
 20
57.89567042646157
 30
0.0
  0
VERTEX
  5
E9
330
E2
100
AcDbEntity
  8
0
  6
Continuous
 62
     7
370
    15
100
AcDbVertex
100
AcDb2dVertex
 10
211.8018738163393
 20
58.15469349042046
 30
0.0
  0
VERTEX
  5
EA
330
E2
100
AcDbEntity
  8
0
  6
Continuous
 62
     7
370
    15
100
AcDbVertex
100
AcDb2dVertex
 10
211.8151315554554
 20
58.43892516086922
 30
0.0
  0
VERTEX
  5
EB
330
E2
100
AcDbEntity
  8
0
  6
Continuous
 62
     7
370
    15
100
AcDbVertex
100
AcDb2dVertex
 10
211.7758508515501
 20
58.7330281127165
 30
0.0
  0
VERTEX
  5
EC
330
E2
100
AcDbEntity
  8
0
  6
Continuous
 62
     7
370
    15
100
AcDbVertex
100
AcDb2dVertex
 10
211.6861493794273
 20
59.02113927231215
 30
0.0
  0
VERTEX
  5
ED
330
E2
100
AcDbEntity
  8
0
  6
Continuous
 62
     7
370
    15
100
AcDbVertex
100
AcDb2dVertex
 10
211.5508629536602
 20
59.28774197098686
 30
0.0
  0
VERTEX
  5
EE
330
E2
100
AcDbEntity
  8
0
  6
Continuous
 62
     7
370
    15
100
AcDbVertex
100
AcDb2dVertex
 10
211.3772848039511
 20
59.51846267291283
 30
0.0
  0
VERTEX
  5
EF
330
E2
100
AcDbEntity
  8
0
  6
Continuous
 62
     7
370
    15
100
AcDbVertex
100
AcDb2dVertex
 10
211.1747726946238
 20
59.7008454165202
 30
0.0
  0
VERTEX
  5
F0
330
E2
100
AcDbEntity
  8
0
  6
Continuous
 62
     7
370
    15
100
AcDbVertex
100
AcDb2dVertex
 10
210.9542440345912
 20
59.82508731015315
 30
0.0
  0
VERTEX
  5
F1
330
E2
100
AcDbEntity
  8
0
  6
Continuous
 62
     7
370
    15
100
AcDbVertex
100
AcDb2dVertex
 10
210.7275876137789
 20
59.88446580160659
 30
0.0
  0
VERTEX
  5
F2
330
E2
100
AcDbEntity
  8
0
  6
Continuous
 62
     7
370
    15
100
AcDbVertex
100
AcDb2dVertex
 10
210.5070225134474
 20
59.87577978764816
 30
0.0
  0
VERTEX
  5
F3
330
E2
100
AcDbEntity
  8
0
  6
Continuous
 62
     7
370
    15
100
AcDbVertex
100
AcDb2dVertex
 10
210.3044395015361
 20
59.79952215228597
 30
0.0
  0
VERTEX
  5
F4
330
E2
100
AcDbEntity
  8
0
  6
Continuous
 62
     7
370
    15
100
AcDbVertex
100
AcDb2dVertex
 10
210.1307597931936
 20
59.65977459681463
 30
0.0
  0
VERTEX
  5
F5
330
E2
100
AcDbEntity
  8
0
  6
Continuous
 62
     7
370
    15
100
AcDbVertex
100
AcDb2dVertex
 10
209.9953466374739
 20
59.46408863075456
 30
0.0
  0
VERTEX
  5
F6
330
E2
100
AcDbEntity
  8
0
  6
Continuous
 62
     7
370
    15
100
AcDbVertex
100
AcDb2dVertex
 10
209.9055000967523
 20
59.22301470093566
 30
0.0
  0
VERTEX
  5
F7
330
E2
100
AcDbEntity
  8
0
  6
Continuous
 62
     7
370
    15
100
AcDbVertex
100
AcDb2dVertex
 10
209.8660637977607
 20
58.94953369690498
 30
0.0
  0
VERTEX
  5
F8
330
E2
100
AcDbEntity
  8
0
  6
Continuous
 62
     7
370
    15
100
AcDbVertex
100
AcDb2dVertex
 10
209.8791638077476
 20
58.65839693471182
 30
0.0
  0
VERTEX
  5
F9
330
E2
100
AcDbEntity
  8
0
  6
Continuous
 62
     7
370
    15
100
AcDbVertex
100
AcDb2dVertex
 10
209.9440939914919
 20
58.3653139497847
 30
0.0
  0
VERTEX
  5
FA
330
E2
100
AcDbEntity
  8
0
  6
Continuous
 62
     7
370
    15
100
AcDbVertex
100
AcDb2dVertex
 10
210.0573537452472
 20
58.08606622608217
 30
0.0
  0
VERTEX
  5
FB
330
E2
100
AcDbEntity
  8
0
  6
Continuous
 62
     7
370
    15
100
AcDbVertex
100
AcDb2dVertex
 10
210.2128373853416
 20
57.83571777466219
 30
0.0
  0
VERTEX
  5
FC
330
E2
100
AcDbEntity
  8
0
  6
Continuous
 62
     7
370
    15
100
AcDbVertex
100
AcDb2dVertex
 10
210.4021626262809
 20
57.62775512955374
 30
0.0
  0
VERTEX
  5
FD
330
E2
100
AcDbEntity
  8
0
  6
Continuous
 62
     7
370
    15
100
AcDbVertex
100
AcDb2dVertex
 10
210.6151229860444
 20
57.4733997468993
 30
0.0
  0
VERTEX
  5
FE
330
E2
100
AcDbEntity
  8
0
  6
Continuous
 62
     7
370
    15
100
AcDbVertex
100
AcDb2dVertex
 10
210.8402376631848
 20
57.38096315882657
 30
0.0
  0
SEQEND
  5
FF
330
E2
100
AcDbEntity
  8
0
  6
Continuous
 62
     7
370
    15
  0
LINE
  5
100
102
{ACAD_REACTORS
330
221
102
}
330
A
100
AcDbEntity
  8
0
  6
Continuous
 62
     7
370
    15
100
AcDbLine
 10
225.3003528559477
 20
50.81094627798468
 30
0.0
 11
216.1339681296749
 21
47.71149590734021
 31
0.0
  0
POLYLINE
  5
101
102
{ACAD_REACTORS
330
221
102
}
330
A
100
AcDbEntity
  8
0
  6
Continuous
 62
     7
370
    15
100
AcDb2dPolyline
 66
     1
 10
0.0
 20
0.0
 30
0.0
 75
     5
  0
VERTEX
  5
102
330
101
100
AcDbEntity
  8
0
  6
Continuous
 62
     7
370
    15
100
AcDbVertex
100
AcDb2dVertex
 10
205.6266325865376
 20
50.4403844040947
 30
0.0
  0
VERTEX
  5
103
330
101
100
AcDbEntity
  8
0
  6
Continuous
 62
     7
370
    15
100
AcDbVertex
100
AcDb2dVertex
 10
205.6186038902187
 20
50.44294452007261
 30
0.0
  0
VERTEX
  5
104
330
101
100
AcDbEntity
  8
0
  6
Continuous
 62
     7
370
    15
100
AcDbVertex
100
AcDb2dVertex
 10
205.6124069432502
 20
50.44592122005945
 30
0.0
  0
VERTEX
  5
105
330
101
100
AcDbEntity
  8
0
  6
Continuous
 62
     7
370
    15
100
AcDbVertex
100
AcDb2dVertex
 10
205.6082791492456
 20
50.44920004630643
 30
0.0
  0
VERTEX
  5
106
330
101
100
AcDbEntity
  8
0
  6
Continuous
 62
     7
370
    15
100
AcDbVertex
100
AcDb2dVertex
 10
205.6063796627344
 20
50.452654855174
 30
0.0
  0
VERTEX
  5
107
330
101
100
AcDbEntity
  8
0
  6
Continuous
 62
     7
370
    15
100
AcDbVertex
100
AcDb2dVertex
 10
205.6062566198446
 20
50.45379909890747
 30
0.0
  0
SEQEND
  5
108
330
101
100
AcDbEntity
  8
0
  6
Continuous
 62
     7
370
    15
  0
POLYLINE
  5
109
330
A
100
AcDbEntity
  8
0
  6
Continuous
 62
     7
370
    15
100
AcDb2dPolyline
 66
     1
 10
0.0
 20
0.0
 30
0.0
 75
     5
  0
VERTEX
  5
10A
330
109
100
AcDbEntity
  8
0
  6
Continuous
 62
     7
370
    15
100
AcDbVertex
100
AcDb2dVertex
 10
225.315298229171
 20
50.8227331407967
 30
0.0
  0
VERTEX
  5
10B
330
109
100
AcDbEntity
  8
0
  6
Continuous
 62
     7
370
    15
100
AcDbVertex
100
AcDb2dVertex
 10
225.314838583491
 20
50.82036577491671
 30
0.0
  0
VERTEX
  5
10C
330
109
100
AcDbEntity
  8
0
  6
Continuous
 62
     7
370
    15
100
AcDbVertex
100
AcDb2dVertex
 10
225.312245787251
 20
50.81688632679669
 30
0.0
  0
VERTEX
  5
10D
330
109
100
AcDbEntity
  8
0
  6
Continuous
 62
     7
370
    15
100
AcDbVertex
100
AcDb2dVertex
 10
225.307465625011
 20
50.81356912875671
 30
0.0
  0
VERTEX
  5
10E
330
109
100
AcDbEntity
  8
0
  6
Continuous
 62
     7
370
    15
100
AcDbVertex
100
AcDb2dVertex
 10
225.300681031571
 20
50.8105416745167
 30
0.0
  0
SEQEND
  5
10F
330
109
100
AcDbEntity
  8
0
  6
Continuous
 62
     7
370
    15
  0
LINE
  5
110
102
{ACAD_REACTORS
330
221
102
}
330
A
100
AcDbEntity
  8
0
  6
Continuous
 62
     7
370
    15
100
AcDbLine
 10
208.9200719966739
 20
77.70618266806483
 30
0.0
 11
208.9372608109258
 21
77.58940094569536
 31
0.0
  0
SPLINE
  5
111
102
{ACAD_REACTORS
330
221
102
}
330
A
100
AcDbEntity
  8
0
  6
Continuous
 62
     7
370
    15
100
AcDbSpline
210
0.0
220
0.0
230
1.0
 70
     8
 71
     2
 72
    10
 73
     7
 74
     0
 42
0.000000001
 43
0.000001
 40
0.0
 40
0.0
 40
0.0
 40
1.0
 40
1.0
 40
2.0
 40
2.0
 40
3.0
 40
3.0
 40
3.0
 10
208.9372608077775
 20
77.58940478087246
 30
0.0
 10
208.9377226344133
 20
77.58478234116879
 30
0.0
 10
208.938184461049
 20
77.5801599014651
 30
0.0
 10
208.9714762364224
 20
77.25440021443467
 30
0.0
 10
209.0276265110388
 20
76.93311473106104
 30
0.0
 10
209.0284344347743
 20
76.92855149304964
 30
0.0
 10
209.0292423585099
 20
76.92398825503821
 30
0.0
  0
LINE
  5
112
102
{ACAD_REACTORS
330
221
102
}
330
A
100
AcDbEntity
  8
0
  6
Continuous
 62
     7
370
    15
100
AcDbLine
 10
209.0292425230514
 20
76.92398945069357
 30
0.0
 11
209.0464471208417
 21
76.8647832663631
 31
0.0
  0
POLYLINE
  5
113
102
{ACAD_REACTORS
330
221
102
}
330
A
100
AcDbEntity
  8
0
  6
Continuous
 62
     7
370
    15
100
AcDb2dPolyline
 66
     1
 10
0.0
 20
0.0
 30
0.0
 75
     5
  0
VERTEX
  5
114
330
113
100
AcDbEntity
  8
0
  6
Continuous
 62
     7
370
    15
100
AcDbVertex
100
AcDb2dVertex
 10
209.0464471208417
 20
76.8647832663631
 30
0.0
  0
VERTEX
  5
115
330
113
100
AcDbEntity
  8
0
  6
Continuous
 62
     7
370
    15
100
AcDbVertex
100
AcDb2dVertex
 10
209.2518137755664
 20
76.42809271807408
 30
0.0
  0
VERTEX
  5
116
330
113
100
AcDbEntity
  8
0
  6
Continuous
 62
     7
370
    15
100
AcDbVertex
100
AcDb2dVertex
 10
209.5030758713743
 20
76.02653277467732
 30
0.0
  0
VERTEX
  5
117
330
113
100
AcDbEntity
  8
0
  6
Continuous
 62
     7
370
    15
100
AcDbVertex
100
AcDb2dVertex
 10
209.7936530613472
 20
75.67062532866092
 30
0.0
  0
VERTEX
  5
118
330
113
100
AcDbEntity
  8
0
  6
Continuous
 62
     7
370
    15
100
AcDbVertex
100
AcDb2dVertex
 10
210.1159357222872
 20
75.36968230588457
 30
0.0
  0
VERTEX
  5
119
330
113
100
AcDbEntity
  8
0
  6
Continuous
 62
     7
370
    15
100
AcDbVertex
100
AcDb2dVertex
 10
210.4614836955877
 20
75.13158287591864
 30
0.0
  0
VERTEX
  5
11A
330
113
100
AcDbEntity
  8
0
  6
Continuous
 62
     7
370
    15
100
AcDbVertex
100
AcDb2dVertex
 10
210.821247465806
 20
74.96256754720241
 30
0.0
  0
VERTEX
  5
11B
330
113
100
AcDbEntity
  8
0
  6
Continuous
 62
     7
370
    15
100
AcDbVertex
100
AcDb2dVertex
 10
211.1858053809829
 20
74.8670622049147
 30
0.0
  0
VERTEX
  5
11C
330
113
100
AcDbEntity
  8
0
  6
Continuous
 62
     7
370
    15
100
AcDbVertex
100
AcDb2dVertex
 10
211.5456101403477
 20
74.8475680105276
 30
0.0
  0
VERTEX
  5
11D
330
113
100
AcDbEntity
  8
0
  6
Continuous
 62
     7
370
    15
100
AcDbVertex
100
AcDb2dVertex
 10
211.8852824700996
 20
74.9029125557573
 30
0.0
  0
SEQEND
  5
11E
330
113
100
AcDbEntity
  8
0
  6
Continuous
 62
     7
370
    15
  0
ARC
  5
11F
102
{ACAD_REACTORS
330
221
102
}
330
A
100
AcDbEntity
  8
0
  6
Continuous
 62
     7
370
    15
100
AcDbCircle
 10
212.4738068137706
 20
78.37790566642016
 30
0.0
 40
3.616661849947634
100
AcDbArc
 50
169.2648840525419
 51
190.7037022909419
  0
LINE
  5
120
102
{ACAD_REACTORS
330
221
102
}
330
A
100
AcDbEntity
  8
0
  6
Continuous
 62
     7
370
    15
100
AcDbLine
 10
208.937689436938
 20
79.15295407728871
 30
0.0
 11
208.9204408175143
 21
79.05157697606288
 31
0.0
  0
SPLINE
  5
121
102
{ACAD_REACTORS
330
221
102
}
330
A
100
AcDbEntity
  8
0
  6
Continuous
 62
     7
370
    15
100
AcDbSpline
210
0.0
220
0.0
230
1.0
 70
     8
 71
     2
 72
    11
 73
     8
 74
     0
 42
0.000000001
 43
0.000001
 40
0.0
 40
0.0
 40
0.0
 40
1.0
 40
1.0
 40
2.0
 40
3.0
 40
3.0
 40
4.0
 40
4.0
 40
4.0
 10
209.0299913057065
 20
79.65601720054605
 30
0.0
 10
209.0292622743251
 20
79.65319317505131
 30
0.0
 10
209.0285332429438
 20
79.65036914955655
 30
0.0
 10
209.0068588454252
 20
79.56505212678994
 30
0.0
 10
208.9598515829049
 20
79.33074975147335
 30
0.0
 10
208.9385248804035
 20
79.15980753952942
 30
0.0
 10
208.9381071567846
 20
79.15638154598835
 30
0.0
 10
208.9376894331656
 20
79.15295555244725
 30
0.0
  0
LINE
  5
122
102
{ACAD_REACTORS
330
221
102
}
330
A
100
AcDbEntity
  8
0
  6
Continuous
 62
     7
370
    15
100
AcDbLine
 10
209.0472243071112
 20
79.69982369985755
 30
0.0
 11
209.0299914712248
 21
79.6560221366307
 31
0.0
  0
ARC
  5
123
102
{ACAD_REACTORS
330
221
102
}
330
A
100
AcDbEntity
  8
0
  6
Continuous
 62
     7
370
    15
100
AcDbCircle
 10
210.6585029516123
 20
78.94303440428098
 30
0.0
 40
1.780154180971517
100
AcDbArc
 50
112.9336618887429
 51
154.8413798127422
  0
POLYLINE
  5
124
102
{ACAD_REACTORS
330
221
102
}
330
A
100
AcDbEntity
  8
0
  6
Continuous
 62
     7
370
    15
100
AcDb2dPolyline
 66
     1
 10
0.0
 20
0.0
 30
0.0
 75
     5
  0
VERTEX
  5
125
330
124
100
AcDbEntity
  8
0
  6
Continuous
 62
     7
370
    15
100
AcDbVertex
100
AcDb2dVertex
 10
210.9987344573568
 20
57.43455603778114
 30
0.0
  0
VERTEX
  5
126
330
124
100
AcDbEntity
  8
0
  6
Continuous
 62
     7
370
    15
100
AcDbVertex
100
AcDb2dVertex
 10
211.2238674794359
 20
57.40903863602164
 30
0.0
  0
VERTEX
  5
127
330
124
100
AcDbEntity
  8
0
  6
Continuous
 62
     7
370
    15
100
AcDbVertex
100
AcDb2dVertex
 10
211.334556785954
 20
57.42232347962279
 30
0.0
  0
SEQEND
  5
128
330
124
100
AcDbEntity
  8
0
  6
Continuous
 62
     7
370
    15
  0
POLYLINE
  5
129
102
{ACAD_REACTORS
330
221
102
}
330
A
100
AcDbEntity
  8
0
  6
Continuous
 62
     7
370
    15
100
AcDb2dPolyline
 66
     1
 10
0.0
 20
0.0
 30
0.0
 75
     5
  0
VERTEX
  5
12A
330
129
100
AcDbEntity
  8
0
  6
Continuous
 62
     7
370
    15
100
AcDbVertex
100
AcDb2dVertex
 10
210.5050960168657
 20
59.87539562222242
 30
0.0
  0
VERTEX
  5
12B
330
129
100
AcDbEntity
  8
0
  6
Continuous
 62
     7
370
    15
100
AcDbVertex
100
AcDb2dVertex
 10
210.4629362957092
 20
59.85311503128053
 30
0.0
  0
VERTEX
  5
12C
330
129
100
AcDbEntity
  8
0
  6
Continuous
 62
     7
370
    15
100
AcDbVertex
100
AcDb2dVertex
 10
210.2892565873667
 20
59.71336747580918
 30
0.0
  0
VERTEX
  5
12D
330
129
100
AcDbEntity
  8
0
  6
Continuous
 62
     7
370
    15
100
AcDbVertex
100
AcDb2dVertex
 10
210.153843431647
 20
59.51768150974913
 30
0.0
  0
VERTEX
  5
12E
330
129
100
AcDbEntity
  8
0
  6
Continuous
 62
     7
370
    15
100
AcDbVertex
100
AcDb2dVertex
 10
210.0639968909254
 20
59.27660757993022
 30
0.0
  0
VERTEX
  5
12F
330
129
100
AcDbEntity
  8
0
  6
Continuous
 62
     7
370
    15
100
AcDbVertex
100
AcDb2dVertex
 10
210.0245605919337
 20
59.00312657589951
 30
0.0
  0
VERTEX
  5
130
330
129
100
AcDbEntity
  8
0
  6
Continuous
 62
     7
370
    15
100
AcDbVertex
100
AcDb2dVertex
 10
210.0376606018806
 20
58.71198981370745
 30
0.0
  0
VERTEX
  5
131
330
129
100
AcDbEntity
  8
0
  6
Continuous
 62
     7
370
    15
100
AcDbVertex
100
AcDb2dVertex
 10
210.102590785665
 20
58.41890682877924
 30
0.0
  0
VERTEX
  5
132
330
129
100
AcDbEntity
  8
0
  6
Continuous
 62
     7
370
    15
100
AcDbVertex
100
AcDb2dVertex
 10
210.2158505394202
 20
58.13965910507674
 30
0.0
  0
VERTEX
  5
133
330
129
100
AcDbEntity
  8
0
  6
Continuous
 62
     7
370
    15
100
AcDbVertex
100
AcDb2dVertex
 10
210.3713341794747
 20
57.88931065365785
 30
0.0
  0
VERTEX
  5
134
330
129
100
AcDbEntity
  8
0
  6
Continuous
 62
     7
370
    15
100
AcDbVertex
100
AcDb2dVertex
 10
210.5606594204139
 20
57.68134800854937
 30
0.0
  0
VERTEX
  5
135
330
129
100
AcDbEntity
  8
0
  6
Continuous
 62
     7
370
    15
100
AcDbVertex
100
AcDb2dVertex
 10
210.7736197802175
 20
57.52699262589384
 30
0.0
  0
VERTEX
  5
136
330
129
100
AcDbEntity
  8
0
  6
Continuous
 62
     7
370
    15
100
AcDbVertex
100
AcDb2dVertex
 10
210.9987344573568
 20
57.43455603778114
 30
0.0
  0
SEQEND
  5
137
330
129
100
AcDbEntity
  8
0
  6
Continuous
 62
     7
370
    15
  0
LINE
  5
138
102
{ACAD_REACTORS
330
221
102
}
330
A
100
AcDbEntity
  8
0
  6
Continuous
 62
     7
370
    15
100
AcDbLine
 10
206.4102226014374
 20
241.691593904001
 30
0.0
 11
216.0969851329617
 21
239.1538967840623
 31
0.0
  0
LINE
  5
139
102
{ACAD_REACTORS
330
221
102
}
330
A
100
AcDbEntity
  8
0
  6
Continuous
 62
     7
370
    15
100
AcDbLine
 10
215.7005863644312
 20
238.4470998072644
 30
0.0
 11
206.0138238329057
 21
240.984796927163
 31
0.0
  0
ARC
  5
13A
102
{ACAD_REACTORS
330
221
102
}
330
A
100
AcDbEntity
  8
0
  6
Continuous
 62
     7
370
    15
100
AcDbCircle
 10
206.7642647228899
 20
241.0284772645768
 30
0.0
 40
0.751711049039513
100
AcDbArc
 50
118.0980374197417
 51
183.3312128817419
  0
LINE
  5
13B
102
{ACAD_REACTORS
330
221
102
}
330
A
100
AcDbEntity
  8
0
  6
Continuous
 62
     7
370
    15
100
AcDbLine
 10
206.0104477056661
 20
228.669271870482
 30
0.0
 11
215.6972102372304
 21
226.1315747505423
 31
0.0
  0
LINE
  5
13C
102
{ACAD_REACTORS
330
221
102
}
330
A
100
AcDbEntity
  8
0
  6
Continuous
 62
     7
370
    15
100
AcDbLine
 10
206.0138238329057
 20
240.984796927163
 30
0.0
 11
206.0104477056661
 21
228.669271870482
 31
0.0
  0
LINE
  5
13D
102
{ACAD_REACTORS
330
221
102
}
330
A
100
AcDbEntity
  8
0
  6
Continuous
 62
     7
370
    15
100
AcDbLine
 10
224.6161753954463
 20
242.0345098289293
 30
0.0
 11
214.9294128639209
 21
244.572206948828
 31
0.0
  0
LINE
  5
13E
102
{ACAD_REACTORS
330
221
102
}
330
A
100
AcDbEntity
  8
0
  6
Continuous
 62
     7
370
    15
100
AcDbLine
 10
216.0969851329617
 20
239.1538967840623
 30
0.0
 11
224.6161753954463
 21
242.0345098289293
 31
0.0
  0
LINE
  5
13F
102
{ACAD_REACTORS
330
221
102
}
330
A
100
AcDbEntity
  8
0
  6
Continuous
 62
     7
370
    15
100
AcDbLine
 10
214.9294128639209
 20
244.572206948828
 30
0.0
 11
206.4102226014374
 21
241.691593904001
 31
0.0
  0
ARC
  5
140
102
{ACAD_REACTORS
330
221
102
}
330
A
100
AcDbEntity
  8
0
  6
Continuous
 62
     7
370
    15
100
AcDbCircle
 10
224.3553013004968
 20
241.3721985294909
 30
0.0
 40
0.7118367444532973
100
AcDbArc
 50
357.70251318434
 51
68.50129288964155
  0
LINE
  5
141
102
{ACAD_REACTORS
330
221
102
}
330
A
100
AcDbEntity
  8
0
  6
Continuous
 62
     7
370
    15
100
AcDbLine
 10
225.0665658381603
 20
241.3436624433873
 30
0.0
 11
216.5473755756357
 21
238.4630493985214
 31
0.0
  0
LINE
  5
142
102
{ACAD_REACTORS
330
221
102
}
330
A
100
AcDbEntity
  8
0
  6
Continuous
 62
     7
370
    15
100
AcDbLine
 10
225.0631897109196
 20
229.0281373866663
 30
0.0
 11
225.0665658381603
 21
241.3436624433873
 31
0.0
  0
LINE
  5
143
102
{ACAD_REACTORS
330
221
102
}
330
A
100
AcDbEntity
  8
0
  6
Continuous
 62
     7
370
    15
100
AcDbLine
 10
216.5439994484349
 20
226.1475243417993
 30
0.0
 11
225.0631897109196
 21
229.0281373866663
 31
0.0
  0
ARC
  5
144
102
{ACAD_REACTORS
330
221
102
}
330
A
100
AcDbEntity
  8
0
  6
Continuous
 62
     7
370
    15
100
AcDbCircle
 10
216.1327170845839
 20
225.5098506353223
 30
0.0
 40
0.5392217484349141
100
AcDbArc
 50
256.5828959635462
 51
285.5752236878447
  0
ARC
  5
145
102
{ACAD_REACTORS
330
221
102
}
330
A
100
AcDbEntity
  8
0
  6
Continuous
 62
     7
370
    15
100
AcDbCircle
 10
216.1322907488635
 20
224.9912706201576
 30
0.0
 40
0.1248344230753625
100
AcDbArc
 50
118.016526383552
 51
182.7202452460473
  0
ARC
  5
146
102
{ACAD_REACTORS
330
221
102
}
330
A
100
AcDbEntity
  8
0
  6
Continuous
 62
     7
370
    15
100
AcDbCircle
 10
216.1333579701415
 20
225.3517636956041
 30
0.0
 40
0.2573104389141446
100
AcDbArc
 50
256.5830449222398
 51
285.5750747290333
  0
ARC
  5
147
102
{ACAD_REACTORS
330
221
102
}
330
A
100
AcDbEntity
  8
0
  6
Continuous
 62
     7
370
    15
100
AcDbCircle
 10
216.1591732747122
 20
224.9937224297325
 30
0.0
 40
0.1183724302042706
100
AcDbArc
 50
358.4060516456464
 51
68.55767604705764
  0
ARC
  5
148
102
{ACAD_REACTORS
330
221
102
}
330
A
100
AcDbEntity
  8
0
  6
Continuous
 62
     7
370
    15
100
AcDbCircle
 10
216.1325318325748
 20
225.0529056004728
 30
0.0
 40
0.5639184536410379
100
AcDbArc
 50
256.5829597565374
 51
285.5751598948381
  0
LINE
  5
149
102
{ACAD_REACTORS
330
221
102
}
330
A
100
AcDbEntity
  8
0
  6
Continuous
 62
     7
370
    15
100
AcDbLine
 10
216.0016817708057
 20
224.5043782231658
 30
0.0
 11
216.007596993254
 21
224.9853460531347
 31
0.0
  0
LINE
  5
14A
102
{ACAD_REACTORS
330
221
102
}
330
A
100
AcDbEntity
  8
0
  6
Continuous
 62
     7
370
    15
100
AcDbLine
 10
216.27749990175
 20
224.9904297752603
 30
0.0
 11
216.283945191692
 21
224.5096947601686
 31
0.0
  0
LINE
  5
14B
102
{ACAD_REACTORS
330
221
102
}
330
A
100
AcDbEntity
  8
0
  6
Continuous
 62
     7
370
    15
100
AcDbLine
 10
216.007596993254
 20
224.9853460531347
 30
0.0
 11
205.6450135337266
 21
227.7000918843084
 31
0.0
  0
ARC
  5
14C
102
{ACAD_REACTORS
330
221
102
}
330
A
100
AcDbEntity
  8
0
  6
Continuous
 62
     7
370
    15
100
AcDbCircle
 10
205.7697072893762
 20
227.7060164513302
 30
0.0
 40
0.1248344230751594
100
AcDbArc
 50
118.0165263835542
 51
182.720245246038
  0
LINE
  5
14D
102
{ACAD_REACTORS
330
221
102
}
330
A
100
AcDbEntity
  8
0
  6
Continuous
 62
     7
370
    15
100
AcDbLine
 10
205.7110692876342
 20
227.816221795744
 30
0.0
 11
216.0736527471216
 21
225.1014759645714
 31
0.0
  0
POLYLINE
  5
14E
102
{ACAD_REACTORS
330
221
102
}
330
A
100
AcDbEntity
  8
0
  6
Continuous
 62
     7
370
    15
100
AcDb2dPolyline
 66
     1
 10
0.0
 20
0.0
 30
0.0
 75
     5
  0
VERTEX
  5
14F
330
14E
100
AcDbEntity
  8
0
  6
Continuous
 62
     7
370
    15
100
AcDbVertex
100
AcDb2dVertex
 10
225.3159986524691
 20
228.1854879672198
 30
0.0
  0
VERTEX
  5
150
330
14E
100
AcDbEntity
  8
0
  6
Continuous
 62
     7
370
    15
100
AcDbVertex
100
AcDb2dVertex
 10
225.3264393959792
 20
228.1898086612477
 30
0.0
  0
VERTEX
  5
151
330
14E
100
AcDbEntity
  8
0
  6
Continuous
 62
     7
370
    15
100
AcDbVertex
100
AcDb2dVertex
 10
225.3338454294309
 20
228.1946530171844
 30
0.0
  0
VERTEX
  5
152
330
14E
100
AcDbEntity
  8
0
  6
Continuous
 62
     7
370
    15
100
AcDbVertex
100
AcDb2dVertex
 10
225.3379316624032
 20
228.1998349929744
 30
0.0
  0
VERTEX
  5
153
330
14E
100
AcDbEntity
  8
0
  6
Continuous
 62
     7
370
    15
100
AcDbVertex
100
AcDb2dVertex
 10
225.3385424900857
 20
228.2051555892441
 30
0.0
  0
VERTEX
  5
154
330
14E
100
AcDbEntity
  8
0
  6
Continuous
 62
     7
370
    15
100
AcDbVertex
100
AcDb2dVertex
 10
225.3356528375207
 20
228.2104102526559
 30
0.0
  0
VERTEX
  5
155
330
14E
100
AcDbEntity
  8
0
  6
Continuous
 62
     7
370
    15
100
AcDbVertex
100
AcDb2dVertex
 10
225.3293753775534
 20
228.215397024463
 30
0.0
  0
VERTEX
  5
156
330
14E
100
AcDbEntity
  8
0
  6
Continuous
 62
     7
370
    15
100
AcDbVertex
100
AcDb2dVertex
 10
225.3199498735428
 20
228.2199243520594
 30
0.0
  0
VERTEX
  5
157
330
14E
100
AcDbEntity
  8
0
  6
Continuous
 62
     7
370
    15
100
AcDbVertex
100
AcDb2dVertex
 10
225.3077389659784
 20
228.2238183937859
 30
0.0
  0
SEQEND
  5
158
330
14E
100
AcDbEntity
  8
0
  6
Continuous
 62
     7
370
    15
  0
LINE
  5
159
102
{ACAD_REACTORS
330
221
102
}
330
A
100
AcDbEntity
  8
0
  6
Continuous
 62
     7
370
    15
100
AcDbLine
 10
216.2024460268879
 20
225.1039018341087
 30
0.0
 11
225.3159986524691
 21
228.1854879672198
 31
0.0
  0
POLYLINE
  5
15A
102
{ACAD_REACTORS
330
221
102
}
330
A
100
AcDbEntity
  8
0
  6
Continuous
 62
     7
370
    15
100
AcDb2dPolyline
 66
     1
 10
0.0
 20
0.0
 30
0.0
 75
     5
  0
VERTEX
  5
15B
330
15A
100
AcDbEntity
  8
0
  6
Continuous
 62
     7
370
    15
100
AcDbVertex
100
AcDb2dVertex
 10
205.7028096011435
 20
227.8545522223101
 30
0.0
  0
VERTEX
  5
15C
330
15A
100
AcDbEntity
  8
0
  6
Continuous
 62
     7
370
    15
100
AcDbVertex
100
AcDb2dVertex
 10
205.6923688576334
 20
227.8502315282823
 30
0.0
  0
VERTEX
  5
15D
330
15A
100
AcDbEntity
  8
0
  6
Continuous
 62
     7
370
    15
100
AcDbVertex
100
AcDb2dVertex
 10
205.6849628241817
 20
227.8453871723455
 30
0.0
  0
VERTEX
  5
15E
330
15A
100
AcDbEntity
  8
0
  6
Continuous
 62
     7
370
    15
100
AcDbVertex
100
AcDb2dVertex
 10
205.6808765912493
 20
227.8402051965544
 30
0.0
  0
VERTEX
  5
15F
330
15A
100
AcDbEntity
  8
0
  6
Continuous
 62
     7
370
    15
100
AcDbVertex
100
AcDb2dVertex
 10
205.6802657635269
 20
227.8348846002858
 30
0.0
  0
VERTEX
  5
160
330
15A
100
AcDbEntity
  8
0
  6
Continuous
 62
     7
370
    15
100
AcDbVertex
100
AcDb2dVertex
 10
205.6831554160919
 20
227.8296299368741
 30
0.0
  0
VERTEX
  5
161
330
15A
100
AcDbEntity
  8
0
  6
Continuous
 62
     7
370
    15
100
AcDbVertex
100
AcDb2dVertex
 10
205.6894328761003
 20
227.8246431651058
 30
0.0
  0
VERTEX
  5
162
330
15A
100
AcDbEntity
  8
0
  6
Continuous
 62
     7
370
    15
100
AcDbVertex
100
AcDb2dVertex
 10
205.6988583800698
 20
227.8201158374705
 30
0.0
  0
VERTEX
  5
163
330
15A
100
AcDbEntity
  8
0
  6
Continuous
 62
     7
370
    15
100
AcDbVertex
100
AcDb2dVertex
 10
205.7110692876342
 20
227.816221795744
 30
0.0
  0
SEQEND
  5
164
330
15A
100
AcDbEntity
  8
0
  6
Continuous
 62
     7
370
    15
  0
LINE
  5
165
102
{ACAD_REACTORS
330
221
102
}
330
A
100
AcDbEntity
  8
0
  6
Continuous
 62
     7
370
    15
100
AcDbLine
 10
225.3910525272912
 20
228.0720159083725
 30
0.0
 11
216.27749990175
 21
224.9904297752603
 31
0.0
  0
ARC
  5
166
102
{ACAD_REACTORS
330
221
102
}
330
A
100
AcDbEntity
  8
0
  6
Continuous
 62
     7
370
    15
100
AcDbCircle
 10
225.2727259002922
 20
228.0753085628037
 30
0.0
 40
0.1183724302043615
100
AcDbArc
 50
358.4060516456609
 51
68.55767604704711
  0
LINE
  5
167
102
{ACAD_REACTORS
330
221
102
}
330
A
100
AcDbEntity
  8
0
  6
Continuous
 62
     7
370
    15
100
AcDbLine
 10
205.6390983112784
 20
227.2191240543394
 30
0.0
 11
216.0016817708057
 21
224.5043782231658
 31
0.0
  0
LINE
  5
168
102
{ACAD_REACTORS
330
221
102
}
330
A
100
AcDbEntity
  8
0
  6
Continuous
 62
     7
370
    15
100
AcDbLine
 10
205.6450135337266
 20
227.7000918843084
 30
0.0
 11
205.6390983112784
 21
227.2191240543394
 31
0.0
  0
LINE
  5
169
102
{ACAD_REACTORS
330
221
102
}
330
A
100
AcDbEntity
  8
0
  6
Continuous
 62
     7
370
    15
100
AcDbLine
 10
216.283945191692
 20
224.5096947601686
 30
0.0
 11
225.3974978172732
 21
227.5912808932798
 31
0.0
  0
LINE
  5
16A
102
{ACAD_REACTORS
330
221
102
}
330
A
100
AcDbEntity
  8
0
  6
Continuous
 62
     7
370
    15
100
AcDbLine
 10
225.3974978172732
 20
227.5912808932798
 30
0.0
 11
225.3910525272912
 21
228.0720159083725
 31
0.0
  0
LINE
  5
16B
102
{ACAD_REACTORS
330
221
102
}
330
A
100
AcDbEntity
  8
0
  6
Continuous
 62
     7
370
    15
100
AcDbLine
 10
205.5801310111717
 20
227.7413857307178
 30
0.0
 11
205.5800709176081
 21
227.7431589566746
 31
0.0
  0
POLYLINE
  5
16C
102
{ACAD_REACTORS
330
221
102
}
330
A
100
AcDbEntity
  8
0
  6
Continuous
 62
     7
370
    15
100
AcDb2dPolyline
 66
     1
 10
0.0
 20
0.0
 30
0.0
 75
     5
  0
VERTEX
  5
16D
330
16C
100
AcDbEntity
  8
0
  6
Continuous
 62
     7
370
    15
100
AcDbVertex
100
AcDb2dVertex
 10
205.6707520947976
 20
227.8538140231298
 30
0.0
  0
VERTEX
  5
16E
330
16C
100
AcDbEntity
  8
0
  6
Continuous
 62
     7
370
    15
100
AcDbVertex
100
AcDb2dVertex
 10
205.6614966008943
 20
227.8496300799756
 30
0.0
  0
VERTEX
  5
16F
330
16C
100
AcDbEntity
  8
0
  6
Continuous
 62
     7
370
    15
100
AcDbVertex
100
AcDb2dVertex
 10
205.6605682187089
 20
227.8490831649559
 30
0.0
  0
SEQEND
  5
170
330
16C
100
AcDbEntity
  8
0
  6
Continuous
 62
     7
370
    15
  0
POLYLINE
  5
171
102
{ACAD_REACTORS
330
221
102
}
330
A
100
AcDbEntity
  8
0
  6
Continuous
 62
     7
370
    15
100
AcDb2dPolyline
 66
     1
 10
0.0
 20
0.0
 30
0.0
 75
     5
  0
VERTEX
  5
172
330
171
100
AcDbEntity
  8
0
  6
Continuous
 62
     7
370
    15
100
AcDbVertex
100
AcDb2dVertex
 10
205.6390983112784
 20
227.2191240543394
 30
0.0
  0
VERTEX
  5
173
330
171
100
AcDbEntity
  8
0
  6
Continuous
 62
     7
370
    15
100
AcDbVertex
100
AcDb2dVertex
 10
205.6123372056883
 20
227.2276578494561
 30
0.0
  0
VERTEX
  5
174
330
171
100
AcDbEntity
  8
0
  6
Continuous
 62
     7
370
    15
100
AcDbVertex
100
AcDb2dVertex
 10
205.591680201305
 20
227.237580120776
 30
0.0
  0
VERTEX
  5
175
330
171
100
AcDbEntity
  8
0
  6
Continuous
 62
     7
370
    15
100
AcDbVertex
100
AcDb2dVertex
 10
205.5779211193135
 20
227.2485092840244
 30
0.0
  0
VERTEX
  5
176
330
171
100
AcDbEntity
  8
0
  6
Continuous
 62
     7
370
    15
100
AcDbVertex
100
AcDb2dVertex
 10
205.5715885876716
 20
227.2600254535116
 30
0.0
  0
VERTEX
  5
177
330
171
100
AcDbEntity
  8
0
  6
Continuous
 62
     7
370
    15
100
AcDbVertex
100
AcDb2dVertex
 10
205.5711814962426
 20
227.2641635052061
 30
0.0
  0
SEQEND
  5
178
330
171
100
AcDbEntity
  8
0
  6
Continuous
 62
     7
370
    15
  0
LINE
  5
179
102
{ACAD_REACTORS
330
221
102
}
330
A
100
AcDbEntity
  8
0
  6
Continuous
 62
     7
370
    15
100
AcDbLine
 10
225.3330547875947
 20
228.2250846184357
 30
0.0
 11
225.3435172792008
 21
228.2206888736265
 31
0.0
  0
LINE
  5
17A
102
{ACAD_REACTORS
330
221
102
}
330
A
100
AcDbEntity
  8
0
  6
Continuous
 62
     7
370
    15
100
AcDbLine
 10
225.4385801759011
 20
228.1115100696312
 30
0.0
 11
225.4386860422796
 21
228.1098943407366
 31
0.0
  0
POLYLINE
  5
17B
102
{ACAD_REACTORS
330
221
102
}
330
A
100
AcDbEntity
  8
0
  6
Continuous
 62
     7
370
    15
100
AcDb2dPolyline
 66
     1
 10
0.0
 20
0.0
 30
0.0
 75
     5
  0
VERTEX
  5
17C
330
17B
100
AcDbEntity
  8
0
  6
Continuous
 62
     7
370
    15
100
AcDbVertex
100
AcDb2dVertex
 10
225.4473125153226
 20
227.6308940142969
 30
0.0
  0
VERTEX
  5
17D
330
17B
100
AcDbEntity
  8
0
  6
Continuous
 62
     7
370
    15
100
AcDbVertex
100
AcDb2dVertex
 10
225.4455673661147
 20
227.6227238261698
 30
0.0
  0
VERTEX
  5
17E
330
17B
100
AcDbEntity
  8
0
  6
Continuous
 62
     7
370
    15
100
AcDbVertex
100
AcDb2dVertex
 10
225.436610654821
 20
227.6113668024232
 30
0.0
  0
VERTEX
  5
17F
330
17B
100
AcDbEntity
  8
0
  6
Continuous
 62
     7
370
    15
100
AcDbVertex
100
AcDb2dVertex
 10
225.4203795999576
 20
227.6007497307378
 30
0.0
  0
VERTEX
  5
180
330
17B
100
AcDbEntity
  8
0
  6
Continuous
 62
     7
370
    15
100
AcDbVertex
100
AcDb2dVertex
 10
225.3974978172732
 20
227.5912808932798
 30
0.0
  0
SEQEND
  5
181
330
17B
100
AcDbEntity
  8
0
  6
Continuous
 62
     7
370
    15
  0
LINE
  5
182
102
{ACAD_REACTORS
330
221
102
}
330
A
100
AcDbEntity
  8
0
  6
Continuous
 62
     7
370
    15
100
AcDbLine
 10
216.0977507976924
 20
224.4905015166068
 30
0.0
 11
216.0492888931301
 21
47.70990094228869
 31
0.0
  0
LINE
  5
183
102
{ACAD_REACTORS
330
221
102
}
330
A
100
AcDbEntity
  8
0
  6
Continuous
 62
     7
370
    15
100
AcDbLine
 10
216.182429815
 20
224.4912966238621
 30
0.0
 11
216.1339681296749
 21
47.71149590734021
 31
0.0
  0
LINE
  5
184
102
{ACAD_REACTORS
330
221
102
}
330
A
100
AcDbEntity
  8
0
  6
Continuous
 62
     7
370
    15
100
AcDbLine
 10
205.6750913960992
 20
227.2096948108502
 30
0.0
 11
205.6266325865376
 21
50.4403844040947
 31
0.0
  0
LINE
  5
185
102
{ACAD_REACTORS
330
221
102
}
330
A
100
AcDbEntity
  8
0
  6
Continuous
 62
     7
370
    15
100
AcDbLine
 10
225.3488101745861
 20
227.5748181227056
 30
0.0
 11
225.3003528559477
 21
50.81094627798468
 31
0.0
  0
LINE
  5
186
102
{ACAD_REACTORS
330
221
102
}
330
A
100
AcDbEntity
  8
0
  6
Continuous
 62
     7
370
    15
100
AcDbLine
 10
212.1136040484617
 20
79.75196569644598
 30
0.0
 11
212.1123057251867
 21
75.01590823460106
 31
0.0
  0
LINE
  5
187
102
{ACAD_REACTORS
330
221
102
}
330
A
100
AcDbEntity
  8
0
  6
Continuous
 62
     7
370
    15
100
AcDbLine
 10
212.1394427615037
 20
79.72250854659234
 30
0.0
 11
212.1381568803608
 21
75.03183777099457
 31
0.0
  0
LINE
  5
188
102
{ACAD_REACTORS
330
221
102
}
330
A
100
AcDbEntity
  8
0
  6
Continuous
 62
     7
370
    15
100
AcDbLine
 10
212.4120371315079
 20
79.36501923598777
 30
0.0
 11
212.4109080841174
 21
75.24645059942742
 31
0.0
  0
LINE
  5
189
102
{ACAD_REACTORS
330
221
102
}
330
A
100
AcDbEntity
  8
0
  6
Continuous
 62
     7
370
    15
100
AcDbLine
 10
212.4378732176382
 20
79.32597944077361
 30
0.0
 11
212.4367618630979
 21
75.2719514004036
 31
0.0
  0
LINE
  5
18A
102
{ACAD_REACTORS
330
221
102
}
330
A
100
AcDbEntity
  8
0
  6
Continuous
 62
     7
370
    15
100
AcDbLine
 10
213.0764902422432
 20
77.53235342439243
 30
0.0
 11
213.0762704928165
 21
76.7307457902171
 31
0.0
  0
LINE
  5
18B
102
{ACAD_REACTORS
330
221
102
}
330
A
100
AcDbEntity
  8
0
  6
Continuous
 62
     7
370
    15
100
AcDbLine
 10
213.0902205903762
 20
77.3749746692601
 30
0.0
 11
213.0900851497411
 21
76.8809107718478
 31
0.0
  0
ARC
  5
18C
102
{ACAD_REACTORS
330
221
102
}
330
A
100
AcDbEntity
  8
0
  6
Continuous
 62
     7
370
    15
100
AcDbCircle
 10
206.4331176215009
 20
228.6104644178825
 30
0.0
 40
0.4267413434543264
100
AcDbArc
 50
172.0791000655402
 51
245.2761395506397
  0
ARC
  5
18D
102
{ACAD_REACTORS
330
221
102
}
330
A
100
AcDbEntity
  8
0
  6
Continuous
 62
     7
370
    15
100
AcDbCircle
 10
216.1198801530263
 20
226.0727672979839
 30
0.0
 40
0.4267413434545976
100
AcDbArc
 50
172.0791000655498
 51
245.2761395506453
  0
ARC
  5
18E
102
{ACAD_REACTORS
330
221
102
}
330
A
100
AcDbEntity
  8
0
  6
Continuous
 62
     7
370
    15
100
AcDbCircle
 10
216.1003792794923
 20
226.1027349016804
 30
0.0
 40
0.4458754851012865
100
AcDbArc
 50
294.5510451202445
 51
5.765245200637478
  0
ARC
  5
18F
102
{ACAD_REACTORS
330
221
102
}
330
A
100
AcDbEntity
  8
0
  6
Continuous
 62
     7
370
    15
100
AcDbCircle
 10
224.6195695420158
 20
228.9833479465063
 30
0.0
 40
0.4458754851012865
100
AcDbArc
 50
294.5510451202442
 51
5.765245200641479
  0
ARC
  5
190
102
{ACAD_REACTORS
330
221
102
}
330
A
100
AcDbEntity
  8
0
  6
Continuous
 62
     7
370
    15
100
AcDbCircle
 10
224.7044589512686
 20
241.7917502119554
 30
0.0
 40
0.2583141843753847
100
AcDbArc
 50
75.74337543804093
 51
109.9846347832375
  0
ARC
  5
191
102
{ACAD_REACTORS
330
221
102
}
330
A
100
AcDbEntity
  8
0
  6
Continuous
 62
     7
370
    15
100
AcDbCircle
 10
215.0176964197054
 20
244.3294473319352
 30
0.0
 40
0.2583141843118459
100
AcDbArc
 50
75.74337543363826
 51
109.9846347875434
  0
POLYLINE
  5
192
102
{ACAD_REACTORS
330
221
102
}
330
A
100
AcDbEntity
  8
0
  6
Continuous
 62
     7
370
    15
100
AcDb2dPolyline
 66
     1
 10
0.0
 20
0.0
 30
0.0
 75
     5
  0
VERTEX
  5
193
330
192
100
AcDbEntity
  8
0
  6
Continuous
 62
     7
370
    15
100
AcDbVertex
100
AcDb2dVertex
 10
205.8100652849724
 20
241.1189435821568
 30
0.0
  0
VERTEX
  5
194
330
192
100
AcDbEntity
  8
0
  6
Continuous
 62
     7
370
    15
100
AcDbVertex
100
AcDb2dVertex
 10
205.8112952215649
 20
241.107500978153
 30
0.0
  0
VERTEX
  5
195
330
192
100
AcDbEntity
  8
0
  6
Continuous
 62
     7
370
    15
100
AcDbVertex
100
AcDb2dVertex
 10
205.8302917650353
 20
241.0729524498998
 30
0.0
  0
VERTEX
  5
196
330
192
100
AcDbEntity
  8
0
  6
Continuous
 62
     7
370
    15
100
AcDbVertex
100
AcDb2dVertex
 10
205.8715685189105
 20
241.0401647937199
 30
0.0
  0
VERTEX
  5
197
330
192
100
AcDbEntity
  8
0
  6
Continuous
 62
     7
370
    15
100
AcDbVertex
100
AcDb2dVertex
 10
205.9335399566583
 20
241.0103984591196
 30
0.0
  0
VERTEX
  5
198
330
192
100
AcDbEntity
  8
0
  6
Continuous
 62
     7
370
    15
100
AcDbVertex
100
AcDb2dVertex
 10
206.0138238329057
 20
240.984796927163
 30
0.0
  0
SEQEND
  5
199
330
192
100
AcDbEntity
  8
0
  6
Continuous
 62
     7
370
    15
  0
ARC
  5
19A
102
{ACAD_REACTORS
330
221
102
}
330
A
100
AcDbEntity
  8
0
  6
Continuous
 62
     7
370
    15
100
AcDbCircle
 10
206.3212909539079
 20
241.3747874892949
 30
0.0
 40
0.3290518839264103
100
AcDbArc
 50
74.31988390624626
 51
108.3175740216411
  0
POLYLINE
  5
19B
102
{ACAD_REACTORS
330
221
102
}
330
A
100
AcDbEntity
  8
0
  6
Continuous
 62
     7
370
    15
100
AcDb2dPolyline
 66
     1
 10
0.0
 20
0.0
 30
0.0
 75
     5
  0
VERTEX
  5
19C
330
19B
100
AcDbEntity
  8
0
  6
Continuous
 62
     7
370
    15
100
AcDbVertex
100
AcDb2dVertex
 10
205.8066891577317
 20
228.8034185254358
 30
0.0
  0
VERTEX
  5
19D
330
19B
100
AcDbEntity
  8
0
  6
Continuous
 62
     7
370
    15
100
AcDbVertex
100
AcDb2dVertex
 10
205.8079190943241
 20
228.791975921432
 30
0.0
  0
VERTEX
  5
19E
330
19B
100
AcDbEntity
  8
0
  6
Continuous
 62
     7
370
    15
100
AcDbVertex
100
AcDb2dVertex
 10
205.8269156377945
 20
228.7574273931787
 30
0.0
  0
VERTEX
  5
19F
330
19B
100
AcDbEntity
  8
0
  6
Continuous
 62
     7
370
    15
100
AcDbVertex
100
AcDb2dVertex
 10
205.8681923917097
 20
228.7246397369978
 30
0.0
  0
VERTEX
  5
1A0
330
19B
100
AcDbEntity
  8
0
  6
Continuous
 62
     7
370
    15
100
AcDbVertex
100
AcDb2dVertex
 10
205.9301638294575
 20
228.6948734023975
 30
0.0
  0
VERTEX
  5
1A1
330
19B
100
AcDbEntity
  8
0
  6
Continuous
 62
     7
370
    15
100
AcDbVertex
100
AcDb2dVertex
 10
206.0104477056661
 20
228.669271870482
 30
0.0
  0
SEQEND
  5
1A2
330
19B
100
AcDbEntity
  8
0
  6
Continuous
 62
     7
370
    15
  0
ARC
  5
1A3
102
{ACAD_REACTORS
330
221
102
}
330
A
100
AcDbEntity
  8
0
  6
Continuous
 62
     7
370
    15
100
AcDbCircle
 10
214.8404812163926
 20
244.2554005341619
 30
0.0
 40
0.3290518839285161
100
AcDbArc
 50
74.31988390634923
 51
108.3175740215449
  0
POLYLINE
  5
1A4
102
{ACAD_REACTORS
330
221
102
}
330
A
100
AcDbEntity
  8
0
  6
Continuous
 62
     7
370
    15
100
AcDb2dPolyline
 66
     1
 10
0.0
 20
0.0
 30
0.0
 75
     5
  0
VERTEX
  5
1A5
330
1A4
100
AcDbEntity
  8
0
  6
Continuous
 62
     7
370
    15
100
AcDbVertex
100
AcDb2dVertex
 10
225.2160186536963
 20
241.4615304257134
 30
0.0
  0
VERTEX
  5
1A6
330
1A4
100
AcDbEntity
  8
0
  6
Continuous
 62
     7
370
    15
100
AcDbVertex
100
AcDb2dVertex
 10
225.2107750442033
 20
241.4379910954897
 30
0.0
  0
VERTEX
  5
1A7
330
1A4
100
AcDbEntity
  8
0
  6
Continuous
 62
     7
370
    15
100
AcDbVertex
100
AcDb2dVertex
 10
225.1839054698017
 20
241.4039198777236
 30
0.0
  0
VERTEX
  5
1A8
330
1A4
100
AcDbEntity
  8
0
  6
Continuous
 62
     7
370
    15
100
AcDbVertex
100
AcDb2dVertex
 10
225.1352116783117
 20
241.372069122156
 30
0.0
  0
VERTEX
  5
1A9
330
1A4
100
AcDbEntity
  8
0
  6
Continuous
 62
     7
370
    15
100
AcDbVertex
100
AcDb2dVertex
 10
225.0665658381603
 20
241.3436624433873
 30
0.0
  0
SEQEND
  5
1AA
330
1A4
100
AcDbEntity
  8
0
  6
Continuous
 62
     7
370
    15
  0
POLYLINE
  5
1AB
102
{ACAD_REACTORS
330
221
102
}
330
A
100
AcDbEntity
  8
0
  6
Continuous
 62
     7
370
    15
100
AcDb2dPolyline
 66
     1
 10
0.0
 20
0.0
 30
0.0
 75
     5
  0
VERTEX
  5
1AC
330
1AB
100
AcDbEntity
  8
0
  6
Continuous
 62
     7
370
    15
100
AcDbVertex
100
AcDb2dVertex
 10
225.0631897109196
 20
229.0281373866663
 30
0.0
  0
VERTEX
  5
1AD
330
1AB
100
AcDbEntity
  8
0
  6
Continuous
 62
     7
370
    15
100
AcDbVertex
100
AcDb2dVertex
 10
225.131835551111
 20
229.0565440654339
 30
0.0
  0
VERTEX
  5
1AE
330
1AB
100
AcDbEntity
  8
0
  6
Continuous
 62
     7
370
    15
100
AcDbVertex
100
AcDb2dVertex
 10
225.180529342561
 20
229.0883948210026
 30
0.0
  0
VERTEX
  5
1AF
330
1AB
100
AcDbEntity
  8
0
  6
Continuous
 62
     7
370
    15
100
AcDbVertex
100
AcDb2dVertex
 10
225.2073989169625
 20
229.1224660387687
 30
0.0
  0
VERTEX
  5
1B0
330
1AB
100
AcDbEntity
  8
0
  6
Continuous
 62
     7
370
    15
100
AcDbVertex
100
AcDb2dVertex
 10
225.2126425264556
 20
229.1460053689925
 30
0.0
  0
SEQEND
  5
1B1
330
1AB
100
AcDbEntity
  8
0
  6
Continuous
 62
     7
370
    15
  0
LINE
  5
1B2
102
{ACAD_REACTORS
330
221
102
}
330
A
100
AcDbEntity
  8
0
  6
Continuous
 62
     7
370
    15
100
AcDbLine
 10
225.3077389659784
 20
228.2238183937859
 30
0.0
 11
224.4345393429647
 21
228.4525755416108
 31
0.0
  0
LINE
  5
1B3
102
{ACAD_REACTORS
330
221
102
}
330
A
100
AcDbEntity
  8
0
  6
Continuous
 62
     7
370
    15
100
AcDbLine
 10
206.5574114160215
 20
228.143520664185
 30
0.0
 11
205.7028096011435
 21
227.8545522223101
 31
0.0
  0
POLYLINE
  5
1B4
102
{ACAD_REACTORS
330
221
102
}
330
A
100
AcDbEntity
  8
0
  6
Continuous
 62
     7
370
    15
100
AcDb2dPolyline
 66
     1
 10
0.0
 20
0.0
 30
0.0
 75
     5
  0
VERTEX
  5
1B5
330
1B4
100
AcDbEntity
  8
0
  6
Continuous
 62
     7
370
    15
100
AcDbVertex
100
AcDb2dVertex
 10
205.6450135337266
 20
227.7000918843084
 30
0.0
  0
VERTEX
  5
1B6
330
1B4
100
AcDbEntity
  8
0
  6
Continuous
 62
     7
370
    15
100
AcDbVertex
100
AcDb2dVertex
 10
205.6194240989618
 20
227.7082519976483
 30
0.0
  0
VERTEX
  5
1B7
330
1B4
100
AcDbEntity
  8
0
  6
Continuous
 62
     7
370
    15
100
AcDbVertex
100
AcDb2dVertex
 10
205.5996715589369
 20
227.7177397815646
 30
0.0
  0
VERTEX
  5
1B8
330
1B4
100
AcDbEntity
  8
0
  6
Continuous
 62
     7
370
    15
100
AcDbVertex
100
AcDb2dVertex
 10
205.586515532033
 20
227.7281902892615
 30
0.0
  0
VERTEX
  5
1B9
330
1B4
100
AcDbEntity
  8
0
  6
Continuous
 62
     7
370
    15
100
AcDbVertex
100
AcDb2dVertex
 10
205.5804600619379
 20
227.7392021817677
 30
0.0
  0
VERTEX
  5
1BA
330
1B4
100
AcDbEntity
  8
0
  6
Continuous
 62
     7
370
    15
100
AcDbVertex
100
AcDb2dVertex
 10
205.5801310111717
 20
227.7413857307178
 30
0.0
  0
SEQEND
  5
1BB
330
1B4
100
AcDbEntity
  8
0
  6
Continuous
 62
     7
370
    15
  0
ARC
  5
1BC
102
{ACAD_REACTORS
330
221
102
}
330
A
100
AcDbEntity
  8
0
  6
Continuous
 62
     7
370
    15
100
AcDbCircle
 10
205.6879887146238
 20
227.8017295380707
 30
0.0
 40
0.0548625067687658
100
AcDbArc
 50
74.32704537851195
 51
108.3112274371176
  0
ARC
  5
1BD
102
{ACAD_REACTORS
330
221
102
}
330
A
100
AcDbEntity
  8
0
  6
Continuous
 62
     7
370
    15
100
AcDbCircle
 10
225.3224440096972
 20
228.1835228669572
 30
0.0
 40
0.0428948457579483
100
AcDbArc
 50
75.67822882284837
 51
110.0485391994569
  0
POLYLINE
  5
1BE
102
{ACAD_REACTORS
330
221
102
}
330
A
100
AcDbEntity
  8
0
  6
Continuous
 62
     7
370
    15
100
AcDb2dPolyline
 66
     1
 10
0.0
 20
0.0
 30
0.0
 75
     5
  0
VERTEX
  5
1BF
330
1BE
100
AcDbEntity
  8
0
  6
Continuous
 62
     7
370
    15
100
AcDbVertex
100
AcDb2dVertex
 10
225.4386860422796
 20
228.1098943407366
 30
0.0
  0
VERTEX
  5
1C0
330
1BE
100
AcDbEntity
  8
0
  6
Continuous
 62
     7
370
    15
100
AcDbVertex
100
AcDb2dVertex
 10
225.4370168911179
 20
228.1020819010074
 30
0.0
  0
VERTEX
  5
1C1
330
1BE
100
AcDbEntity
  8
0
  6
Continuous
 62
     7
370
    15
100
AcDbVertex
100
AcDb2dVertex
 10
225.4284529057033
 20
228.0912222887837
 30
0.0
  0
VERTEX
  5
1C2
330
1BE
100
AcDbEntity
  8
0
  6
Continuous
 62
     7
370
    15
100
AcDbVertex
100
AcDb2dVertex
 10
225.4129325074835
 20
228.081070125898
 30
0.0
  0
VERTEX
  5
1C3
330
1BE
100
AcDbEntity
  8
0
  6
Continuous
 62
     7
370
    15
100
AcDbVertex
100
AcDb2dVertex
 10
225.3910525272912
 20
228.0720159083725
 30
0.0
  0
SEQEND
  5
1C4
330
1BE
100
AcDbEntity
  8
0
  6
Continuous
 62
     7
370
    15
  0
ENDSEC
  0
SECTION
  2
OBJECTS
  0
DICTIONARY
  5
19
330
0
100
AcDbDictionary
281
     1
  3
ACAD_DETAILVIEWSTYLE
350
20E
  3
ACAD_GROUP
350
1A
  3
ACAD_LAYOUT
350
1E
  3
ACAD_MATERIAL
350
200
  3
ACAD_MLEADERSTYLE
350
206
  3
ACAD_MLINESTYLE
350
1B
  3
ACAD_PLOTSETTINGS
350
22
  3
ACAD_PLOTSTYLENAME
350
1F
  3
ACAD_SCALELIST
350
1C5
  3
ACAD_SECTIONVIEWSTYLE
350
20F
  3
ACAD_TABLESTYLE
350
204
  3
ACAD_VISUALSTYLE
350
1E7
  3
ACAD_WIPEOUT_VARS
350
23
  3
ACDB_RECOMPOSE_DATA
350
225
  3
AcDbVariableDictionary
350
209
  3
APPDATA
350
208
  0
SUN
  5
210
330
15
100
AcDbSun
 90
        1
290
     0
 63
     7
421
 16777215
 40
1.0
291
     1
 91
  2455826
 92
 54000000
292
     0
 70
     2
 71
   256
280
     1
  0
DICTIONARY
  5
20E
102
{ACAD_REACTORS
330
19
102
}
330
19
100
AcDbDictionary
281
     1
  0
DICTIONARY
  5
1A
102
{ACAD_REACTORS
330
19
102
}
330
19
100
AcDbDictionary
281
     1
  3
*A1
350
221
  0
DICTIONARY
  5
1E
102
{ACAD_REACTORS
330
19
102
}
330
19
100
AcDbDictionary
281
     1
  3
Layout1
350
21
  3
Model
350
20
  0
DICTIONARY
  5
200
102
{ACAD_REACTORS
330
19
102
}
330
19
100
AcDbDictionary
281
     1
  3
ByBlock
350
202
  3
ByLayer
350
201
  3
Global
350
203
  0
DICTIONARY
  5
206
102
{ACAD_REACTORS
330
19
102
}
330
19
100
AcDbDictionary
281
     1
  3
Standard
350
207
  0
DICTIONARY
  5
1B
102
{ACAD_REACTORS
330
19
102
}
330
19
100
AcDbDictionary
281
     1
  3
Standard
350
1C
  0
DICTIONARY
  5
22
102
{ACAD_REACTORS
330
19
102
}
330
19
100
AcDbDictionary
281
     1
  0
ACDBDICTIONARYWDFLT
  5
1F
102
{ACAD_REACTORS
330
19
102
}
330
19
100
AcDbDictionary
281
     1
  3
Normal
350
1D
100
AcDbDictionaryWithDefault
340
1D
  0
DICTIONARY
  5
1C5
102
{ACAD_REACTORS
330
19
102
}
330
19
100
AcDbDictionary
281
     1
  3
A0
350
1C6
  3
A1
350
1C7
  3
A2
350
1C8
  3
A3
350
1C9
  3
A4
350
1CA
  3
A5
350
1CB
  3
A6
350
1CC
  3
A7
350
1CD
  3
A8
350
1CE
  3
A9
350
1CF
  3
B0
350
1D0
  3
B1
350
1D1
  3
B2
350
1D2
  3
B3
350
1D3
  3
B4
350
1D4
  3
B5
350
1D5
  3
B6
350
1D6
  3
B7
350
1D7
  3
B8
350
1D8
  3
B9
350
1D9
  3
C0
350
1DA
  3
C1
350
1DB
  3
C2
350
1DC
  3
C3
350
1DD
  3
C4
350
1DE
  3
C5
350
1DF
  3
C6
350
1E0
  3
C7
350
1E1
  3
C8
350
1E2
  3
C9
350
1E3
  3
D0
350
1E4
  3
D1
350
1E5
  3
D2
350
1E6
  0
DICTIONARY
  5
20F
102
{ACAD_REACTORS
330
19
102
}
330
19
100
AcDbDictionary
281
     1
  0
DICTIONARY
  5
204
102
{ACAD_REACTORS
330
19
102
}
330
19
100
AcDbDictionary
281
     1
  3
Standard
350
205
  0
DICTIONARY
  5
1E7
102
{ACAD_REACTORS
330
19
102
}
330
19
100
AcDbDictionary
281
     1
  3
2dWireframe
350
1EC
  3
Basic
350
1EF
  3
Brighten
350
1F3
  3
ColorChange
350
1F7
  3
Conceptual
350
1F1
  3
Dim
350
1F2
  3
EdgeColorOff
350
1FA
  3
Facepattern
350
1F6
  3
Flat
350
1E8
  3
FlatWithEdges
350
1E9
  3
Gouraud
350
1EA
  3
GouraudWithEdges
350
1EB
  3
Hidden
350
1EE
  3
JitterOff
350
1F8
  3
Linepattern
350
1F5
  3
OverhangOff
350
1F9
  3
Realistic
350
1F0
  3
Shaded
350
1FF
  3
Shaded with edges
350
1FE
  3
Shades of Gray
350
1FB
  3
Sketchy
350
1FC
  3
Thicken
350
1F4
  3
Wireframe
350
1ED
  3
X-Ray
350
1FD
  0
WIPEOUTVARIABLES
  5
23
330
19
100
AcDbWipeoutVariables
 70
     1
  0
XRECORD
  5
225
102
{ACAD_REACTORS
330
19
102
}
330
19
100
AcDbXrecord
280
     1
 90
        1
330
205
  0
DICTIONARY
  5
209
102
{ACAD_REACTORS
330
19
102
}
330
19
100
AcDbDictionary
281
     1
  3
CANNOSCALE
350
20A
  3
CMLEADERSTYLE
350
20C
  3
CTABLESTYLE
350
20B
  3
MSLTSCALE
350
20D
  0
DICTIONARY
  5
208
102
{ACAD_REACTORS
330
19
102
}
330
19
100
AcDbDictionary
281
     1
  0
GROUP
  5
221
102
{ACAD_REACTORS
330
1A
102
}
330
1A
100
AcDbGroup
300

 70
     1
 71
     1
340
36
340
37
340
38
340
39
340
3A
340
3B
340
3C
340
3D
340
3E
340
3F
340
40
340
41
340
42
340
43
340
44
340
45
340
46
340
47
340
48
340
49
340
4A
340
56
340
62
340
6E
340
6F
340
70
340
71
340
72
340
73
340
74
340
75
340
76
340
77
340
78
340
83
340
84
340
85
340
86
340
87
340
92
340
93
340
94
340
95
340
96
340
97
340
98
340
99
340
9A
340
9B
340
9C
340
9D
340
9E
340
9F
340
A0
340
A1
340
A2
340
A3
340
A4
340
A5
340
A6
340
A7
340
A8
340
A9
340
AA
340
AB
340
AC
340
AD
340
AE
340
AF
340
B0
340
B1
340
B2
340
B3
340
B4
340
B5
340
B6
340
E2
340
100
340
101
340
110
340
111
340
112
340
113
340
11F
340
120
340
121
340
122
340
123
340
124
340
129
340
138
340
139
340
13A
340
13B
340
13C
340
13D
340
13E
340
13F
340
140
340
141
340
142
340
143
340
144
340
145
340
146
340
147
340
148
340
149
340
14A
340
14B
340
14C
340
14D
340
14E
340
159
340
15A
340
165
340
166
340
167
340
168
340
169
340
16A
340
16B
340
16C
340
171
340
179
340
17A
340
17B
340
182
340
183
340
184
340
185
340
186
340
187
340
188
340
189
340
18A
340
18B
340
18C
340
18D
340
18E
340
18F
340
190
340
191
340
192
340
19A
340
19B
340
1A3
340
1A4
340
1AB
340
1B2
340
1B3
340
1B4
340
1BC
340
1BD
340
1BE
  0
LAYOUT
  5
21
102
{ACAD_REACTORS
330
1E
102
}
330
1E
100
AcDbPlotSettings
  1

  2

  4

  6

 40
0.0
 41
0.0
 42
0.0
 43
0.0
 44
0.0
 45
0.0
 46
0.0
 47
0.0
 48
0.0
 49
0.0
140
0.0
141
0.0
142
1.0
143
1.0
 70
     0
 72
     0
 73
     0
 74
     0
  7

 75
     0
 76
     0
 77
     2
 78
   300
147
1.0
148
0.0
149
0.0
100
AcDbLayout
  1
Layout1
 70
     0
 71
     0
 10
0.0
 20
0.0
 11
0.0
 21
0.0
 12
0.0
 22
0.0
 32
0.0
 14
0.0
 24
0.0
 34
0.0
 15
0.0
 25
0.0
 35
0.0
146
0.0
 13
0.0
 23
0.0
 33
0.0
 16
0.0
 26
0.0
 36
0.0
 17
0.0
 27
0.0
 37
0.0
 76
     0
330
B
  0
LAYOUT
  5
20
102
{ACAD_REACTORS
330
1E
102
}
330
1E
100
AcDbPlotSettings
  1

  2

  4

  6

 40
0.0
 41
0.0
 42
0.0
 43
0.0
 44
0.0
 45
0.0
 46
0.0
 47
0.0
 48
0.0
 49
0.0
140
0.0
141
0.0
142
1.0
143
1.0
 70
  1024
 72
     0
 73
     0
 74
     0
  7

 75
     0
 76
     0
 77
     2
 78
   300
147
1.0
148
0.0
149
0.0
100
AcDbLayout
  1
Model
 70
     0
 71
     1
 10
0.0
 20
0.0
 11
0.0
 21
0.0
 12
0.0
 22
0.0
 32
0.0
 14
205.5711814962426
 24
47.70528355851511
 34
0.0
 15
267.5377525257745
 25
244.599392365603
 35
0.0
146
0.0
 13
0.0
 23
0.0
 33
0.0
 16
0.0
 26
0.0
 36
0.0
 17
0.0
 27
0.0
 37
0.0
 76
     0
330
A
331
15
  0
MATERIAL
  5
202
102
{ACAD_REACTORS
330
200
102
}
330
200
100
AcDbMaterial
  1
ByBlock
 72
     1
 94
      127
  0
MATERIAL
  5
201
102
{ACAD_REACTORS
330
200
102
}
330
200
100
AcDbMaterial
  1
ByLayer
 72
     1
 94
      127
  0
MATERIAL
  5
203
102
{ACAD_REACTORS
330
200
102
}
330
200
100
AcDbMaterial
  1
Global
 72
     1
 94
      127
  0
MLEADERSTYLE
  5
207
102
{ACAD_REACTORS
330
206
102
}
330
206
100
AcDbMLeaderStyle
179
     2
170
     2
171
     1
172
     0
 90
        2
 40
0.0
 41
0.0
173
     1
 91
-1056964608
340
11
 92
       -2
290
     1
 42
2.0
291
     1
 43
8.0
  3
Standard
341
0
 44
4.0
300

342
17
174
     1
178
     1
175
     1
176
     0
 93
-1056964608
 45
4.0
292
     0
297
     0
 46
4.0
343
0
 94
-1056964608
 47
1.0
 49
1.0
140
1.0
293
     1
141
0.0
294
     1
177
     0
142
1.0
295
     0
296
     0
143
3.75
271
     0
272
     9
273
     9
298
     0
  0
MLINESTYLE
  5
1C
102
{ACAD_REACTORS
330
1B
102
}
330
1B
100
AcDbMlineStyle
  2
Standard
 70
     0
  3

 62
     0
 51
90.0
 52
90.0
 71
     2
 49
0.5
 62
   256
  6
BYLAYER
 49
-0.5
 62
   256
  6
BYLAYER
  0
ACDBPLACEHOLDER
  5
1D
102
{ACAD_REACTORS
330
1F
102
}
330
1F
  0
SCALE
  5
1C6
102
{ACAD_REACTORS
330
1C5
102
}
330
1C5
100
AcDbScale
 70
     0
300
1:1
140
1.0
141
1.0
290
     1
  0
SCALE
  5
1C7
102
{ACAD_REACTORS
330
1C5
102
}
330
1C5
100
AcDbScale
 70
     0
300
1:2
140
1.0
141
2.0
290
     0
  0
SCALE
  5
1C8
102
{ACAD_REACTORS
330
1C5
102
}
330
1C5
100
AcDbScale
 70
     0
300
1:4
140
1.0
141
4.0
290
     0
  0
SCALE
  5
1C9
102
{ACAD_REACTORS
330
1C5
102
}
330
1C5
100
AcDbScale
 70
     0
300
1:5
140
1.0
141
5.0
290
     0
  0
SCALE
  5
1CA
102
{ACAD_REACTORS
330
1C5
102
}
330
1C5
100
AcDbScale
 70
     0
300
1:8
140
1.0
141
8.0
290
     0
  0
SCALE
  5
1CB
102
{ACAD_REACTORS
330
1C5
102
}
330
1C5
100
AcDbScale
 70
     0
300
1:10
140
1.0
141
10.0
290
     0
  0
SCALE
  5
1CC
102
{ACAD_REACTORS
330
1C5
102
}
330
1C5
100
AcDbScale
 70
     0
300
1:16
140
1.0
141
16.0
290
     0
  0
SCALE
  5
1CD
102
{ACAD_REACTORS
330
1C5
102
}
330
1C5
100
AcDbScale
 70
     0
300
1:20
140
1.0
141
20.0
290
     0
  0
SCALE
  5
1CE
102
{ACAD_REACTORS
330
1C5
102
}
330
1C5
100
AcDbScale
 70
     0
300
1:30
140
1.0
141
30.0
290
     0
  0
SCALE
  5
1CF
102
{ACAD_REACTORS
330
1C5
102
}
330
1C5
100
AcDbScale
 70
     0
300
1:40
140
1.0
141
40.0
290
     0
  0
SCALE
  5
1D0
102
{ACAD_REACTORS
330
1C5
102
}
330
1C5
100
AcDbScale
 70
     0
300
1:50
140
1.0
141
50.0
290
     0
  0
SCALE
  5
1D1
102
{ACAD_REACTORS
330
1C5
102
}
330
1C5
100
AcDbScale
 70
     0
300
1:100
140
1.0
141
100.0
290
     0
  0
SCALE
  5
1D2
102
{ACAD_REACTORS
330
1C5
102
}
330
1C5
100
AcDbScale
 70
     0
300
2:1
140
2.0
141
1.0
290
     0
  0
SCALE
  5
1D3
102
{ACAD_REACTORS
330
1C5
102
}
330
1C5
100
AcDbScale
 70
     0
300
4:1
140
4.0
141
1.0
290
     0
  0
SCALE
  5
1D4
102
{ACAD_REACTORS
330
1C5
102
}
330
1C5
100
AcDbScale
 70
     0
300
8:1
140
8.0
141
1.0
290
     0
  0
SCALE
  5
1D5
102
{ACAD_REACTORS
330
1C5
102
}
330
1C5
100
AcDbScale
 70
     0
300
10:1
140
10.0
141
1.0
290
     0
  0
SCALE
  5
1D6
102
{ACAD_REACTORS
330
1C5
102
}
330
1C5
100
AcDbScale
 70
     0
300
100:1
140
100.0
141
1.0
290
     0
  0
SCALE
  5
1D7
102
{ACAD_REACTORS
330
1C5
102
}
330
1C5
100
AcDbScale
 70
     0
300
1/128" = 1'-0"
140
0.0078125
141
12.0
290
     0
  0
SCALE
  5
1D8
102
{ACAD_REACTORS
330
1C5
102
}
330
1C5
100
AcDbScale
 70
     0
300
1/64" = 1'-0"
140
0.015625
141
12.0
290
     0
  0
SCALE
  5
1D9
102
{ACAD_REACTORS
330
1C5
102
}
330
1C5
100
AcDbScale
 70
     0
300
1/32" = 1'-0"
140
0.03125
141
12.0
290
     0
  0
SCALE
  5
1DA
102
{ACAD_REACTORS
330
1C5
102
}
330
1C5
100
AcDbScale
 70
     0
300
1/16" = 1'-0"
140
0.0625
141
12.0
290
     0
  0
SCALE
  5
1DB
102
{ACAD_REACTORS
330
1C5
102
}
330
1C5
100
AcDbScale
 70
     0
300
3/32" = 1'-0"
140
0.09375
141
12.0
290
     0
  0
SCALE
  5
1DC
102
{ACAD_REACTORS
330
1C5
102
}
330
1C5
100
AcDbScale
 70
     0
300
1/8" = 1'-0"
140
0.125
141
12.0
290
     0
  0
SCALE
  5
1DD
102
{ACAD_REACTORS
330
1C5
102
}
330
1C5
100
AcDbScale
 70
     0
300
3/16" = 1'-0"
140
0.1875
141
12.0
290
     0
  0
SCALE
  5
1DE
102
{ACAD_REACTORS
330
1C5
102
}
330
1C5
100
AcDbScale
 70
     0
300
1/4" = 1'-0"
140
0.25
141
12.0
290
     0
  0
SCALE
  5
1DF
102
{ACAD_REACTORS
330
1C5
102
}
330
1C5
100
AcDbScale
 70
     0
300
3/8" = 1'-0"
140
0.375
141
12.0
290
     0
  0
SCALE
  5
1E0
102
{ACAD_REACTORS
330
1C5
102
}
330
1C5
100
AcDbScale
 70
     0
300
1/2" = 1'-0"
140
0.5
141
12.0
290
     0
  0
SCALE
  5
1E1
102
{ACAD_REACTORS
330
1C5
102
}
330
1C5
100
AcDbScale
 70
     0
300
3/4" = 1'-0"
140
0.75
141
12.0
290
     0
  0
SCALE
  5
1E2
102
{ACAD_REACTORS
330
1C5
102
}
330
1C5
100
AcDbScale
 70
     0
300
1" = 1'-0"
140
1.0
141
12.0
290
     0
  0
SCALE
  5
1E3
102
{ACAD_REACTORS
330
1C5
102
}
330
1C5
100
AcDbScale
 70
     0
300
1-1/2" = 1'-0"
140
1.5
141
12.0
290
     0
  0
SCALE
  5
1E4
102
{ACAD_REACTORS
330
1C5
102
}
330
1C5
100
AcDbScale
 70
     0
300
3" = 1'-0"
140
3.0
141
12.0
290
     0
  0
SCALE
  5
1E5
102
{ACAD_REACTORS
330
1C5
102
}
330
1C5
100
AcDbScale
 70
     0
300
6" = 1'-0"
140
6.0
141
12.0
290
     0
  0
SCALE
  5
1E6
102
{ACAD_REACTORS
330
1C5
102
}
330
1C5
100
AcDbScale
 70
     0
300
1'-0" = 1'-0"
140
12.0
141
12.0
290
     0
  0
TABLESTYLE
  5
205
102
{ACAD_REACTORS
330
204
102
}
102
{ACAD_XDICTIONARY
360
223
102
}
330
204
100
AcDbTableStyle
  3
Standard
 70
     0
 71
     0
 40
1.5
 41
1.5
280
     0
281
     0
  7
Standard
140
4.5
170
     2
 62
     0
 63
   257
283
     0
 90
        4
 91
        0
  1

274
    -2
284
     1
 64
     0
275
    -2
285
     1
 65
     0
276
    -2
286
     1
 66
     0
277
    -2
287
     1
 67
     0
278
    -2
288
     1
 68
     0
279
    -2
289
     1
 69
     0
  7
Standard
140
6.0
170
     5
 62
     0
 63
   257
283
     0
 90
        4
 91
        0
  1

274
    -2
284
     1
 64
     0
275
    -2
285
     1
 65
     0
276
    -2
286
     1
 66
     0
277
    -2
287
     1
 67
     0
278
    -2
288
     1
 68
     0
279
    -2
289
     1
 69
     0
  7
Standard
140
4.5
170
     5
 62
     0
 63
   257
283
     0
 90
        4
 91
        0
  1

274
    -2
284
     1
 64
     0
275
    -2
285
     1
 65
     0
276
    -2
286
     1
 66
     0
277
    -2
287
     1
 67
     0
278
    -2
288
     1
 68
     0
279
    -2
289
     1
 69
     0
  0
VISUALSTYLE
  5
1EC
102
{ACAD_REACTORS
330
1E7
102
}
330
1E7
100
AcDbVisualStyle
  2
2dWireframe
 70
     4
177
     3
291
     0
 70
    58
 90
        0
176
     1
 90
        2
176
     1
 90
        0
176
     1
 90
        0
176
     1
 40
0.6
176
     1
 40
30.0
176
     1
 62
     7
420
 16777215
176
     1
 90
        1
176
     1
 90
        4
176
     1
 62
     7
176
     1
 62
   257
176
     1
 90
        1
176
     1
 90
        1
176
     1
 40
1.0
176
     1
 90
        0
176
     1
 62
   257
176
     1
 40
1.0
176
     1
 90
        1
176
     1
 90
        6
176
     1
 90
        2
176
     1
 62
     7
176
     1
 90
        5
176
     1
 90
        0
176
     1
 90
        0
176
     1
290
     0
176
     1
 90
        1
176
     1
 40
0.0
176
     1
 90
        0
176
     1
290
     1
176
     1
290
     1
176
     1
290
     0
176
     1
290
     0
176
     1
290
     0
176
     1
290
     0
176
     1
290
     0
176
     1
290
     0
176
     1
290
     0
176
     1
 90
       50
176
     1
 40
0.0
176
     1
 40
1.0
176
     1
 90
        0
176
     1
 62
    18
420
        0
176
     1
 90
       50
176
     1
 90
        3
176
     1
 62
     5
420
      255
176
     1
290
     0
176
     1
 90
       50
176
     1
 90
       50
176
     1
 90
       50
176
     1
290
     0
176
     1
 90
       50
176
     1
 62
   256
176
     0
 40
1.0
176
     0
 90
        2
176
     1
  1
strokes_ogs.tif
176
     1
290
     0
176
     1
 40
1.0
176
     1
 40
1.0
176
     1
  0
VISUALSTYLE
  5
1EF
102
{ACAD_REACTORS
330
1E7
102
}
330
1E7
100
AcDbVisualStyle
  2
Basic
 70
     7
177
     3
291
     1
 70
    58
 90
        1
176
     1
 90
        0
176
     1
 90
        1
176
     1
 90
        0
176
     1
 40
0.6
176
     1
 40
30.0
176
     1
 62
     7
420
 16777215
176
     1
 90
        0
176
     1
 90
        4
176
     1
 62
     7
176
     1
 62
   257
176
     1
 90
        1
176
     1
 90
        1
176
     1
 40
1.0
176
     1
 90
        8
176
     1
 62
     7
176
     1
 40
1.0
176
     1
 90
        1
176
     1
 90
        6
176
     1
 90
        2
176
     1
 62
     7
176
     1
 90
        5
176
     1
 90
        0
176
     1
 90
        0
176
     1
290
     0
176
     1
 90
        1
176
     1
 40
0.0
176
     1
 90
        0
176
     1
290
     0
176
     1
290
     1
176
     1
290
     1
176
     1
290
     0
176
     1
290
     0
176
     1
290
     0
176
     1
290
     0
176
     1
290
     0
176
     1
290
     0
176
     1
 90
       50
176
     1
 40
0.0
176
     1
 40
1.0
176
     1
 90
        0
176
     1
 62
    18
420
        0
176
     1
 90
       50
176
     1
 90
        3
176
     1
 62
     5
420
      255
176
     1
290
     0
176
     1
 90
       50
176
     1
 90
       50
176
     1
 90
       50
176
     1
290
     0
176
     1
 90
       50
176
     1
 62
   256
176
     0
 40
1.0
176
     0
 90
        2
176
     1
  1
strokes_ogs.tif
176
     1
290
     0
176
     1
 40
1.0
176
     1
 40
1.0
176
     1
  0
VISUALSTYLE
  5
1F3
102
{ACAD_REACTORS
330
1E7
102
}
330
1E7
100
AcDbVisualStyle
  2
Brighten
 70
    12
177
     3
291
     1
 70
    58
 90
        2
176
     1
 90
        2
176
     1
 90
        0
176
     1
 90
        0
176
     1
 40
0.6
176
     1
 40
30.0
176
     1
 62
     7
420
 16777215
176
     1
 90
        1
176
     1
 90
        4
176
     1
 62
     7
176
     1
 62
   257
176
     1
 90
        1
176
     1
 90
        1
176
     1
 40
1.0
176
     1
 90
        8
176
     1
 62
     7
176
     1
 40
1.0
176
     1
 90
        1
176
     1
 90
        6
176
     1
 90
        2
176
     1
 62
     7
176
     1
 90
        5
176
     1
 90
        0
176
     1
 90
        0
176
     1
290
     0
176
     1
 90
        1
176
     1
 40
50.0
176
     1
 90
        0
176
     1
290
     0
176
     1
290
     1
176
     1
290
     1
176
     1
290
     0
176
     1
290
     0
176
     1
290
     0
176
     1
290
     0
176
     1
290
     0
176
     1
290
     0
176
     1
 90
       50
176
     1
 40
0.0
176
     1
 40
1.0
176
     1
 90
        0
176
     1
 62
    18
420
        0
176
     1
 90
       50
176
     1
 90
        3
176
     1
 62
     5
420
      255
176
     1
290
     0
176
     1
 90
       50
176
     1
 90
       50
176
     1
 90
       50
176
     1
290
     0
176
     1
 90
       50
176
     1
 62
   256
176
     0
 40
1.0
176
     0
 90
        2
176
     1
  1
strokes_ogs.tif
176
     1
290
     0
176
     1
 40
1.0
176
     1
 40
1.0
176
     1
  0
VISUALSTYLE
  5
1F7
102
{ACAD_REACTORS
330
1E7
102
}
330
1E7
100
AcDbVisualStyle
  2
ColorChange
 70
    16
177
     3
291
     1
 70
    58
 90
        2
176
     1
 90
        2
176
     1
 90
        3
176
     1
 90
        0
176
     1
 40
0.6
176
     1
 40
30.0
176
     1
 62
     8
420
  8421504
176
     1
 90
        1
176
     1
 90
        4
176
     1
 62
     7
176
     1
 62
   257
176
     1
 90
        1
176
     1
 90
        1
176
     1
 40
1.0
176
     1
 90
        8
176
     1
 62
     8
420
  8421504
176
     1
 40
1.0
176
     1
 90
        1
176
     1
 90
        6
176
     1
 90
        2
176
     1
 62
     7
176
     1
 90
        5
176
     1
 90
        0
176
     1
 90
        0
176
     1
290
     0
176
     1
 90
        1
176
     1
 40
0.0
176
     1
 90
        0
176
     1
290
     0
176
     1
290
     1
176
     1
290
     1
176
     1
290
     0
176
     1
290
     0
176
     1
290
     0
176
     1
290
     0
176
     1
290
     0
176
     1
290
     0
176
     1
 90
       50
176
     1
 40
0.0
176
     1
 40
1.0
176
     1
 90
        0
176
     1
 62
    18
420
        0
176
     1
 90
       50
176
     1
 90
        3
176
     1
 62
     5
420
      255
176
     1
290
     0
176
     1
 90
       50
176
     1
 90
       50
176
     1
 90
       50
176
     1
290
     0
176
     1
 90
       50
176
     1
 62
   256
176
     0
 40
1.0
176
     0
 90
        2
176
     1
  1
strokes_ogs.tif
176
     1
290
     0
176
     1
 40
1.0
176
     1
 40
1.0
176
     1
  0
VISUALSTYLE
  5
1F1
102
{ACAD_REACTORS
330
1E7
102
}
330
1E7
100
AcDbVisualStyle
  2
Conceptual
 70
     9
177
     3
291
     0
 70
    58
 90
        3
176
     1
 90
        2
176
     1
 90
        0
176
     1
 90
        0
176
     1
 40
0.6
176
     1
 40
30.0
176
     1
 62
     7
420
 16777215
176
     1
 90
        2
176
     1
 90
        2
176
     1
 62
     7
176
     1
 62
   257
176
     1
 90
        1
176
     1
 90
        1
176
     1
 40
179.0
176
     1
 90
        8
176
     1
 62
     7
176
     1
 40
1.0
176
     1
 90
        1
176
     1
 90
        6
176
     1
 90
        2
176
     1
 62
     7
176
     1
 90
        3
176
     1
 90
        0
176
     1
 90
        0
176
     1
290
     0
176
     1
 90
        1
176
     1
 40
0.0
176
     1
 90
        0
176
     1
290
     0
176
     1
290
     1
176
     1
290
     1
176
     1
290
     0
176
     1
290
     0
176
     1
290
     0
176
     1
290
     0
176
     1
290
     0
176
     1
290
     0
176
     1
 90
       50
176
     1
 40
0.0
176
     1
 40
1.0
176
     1
 90
        0
176
     1
 62
    18
420
        0
176
     1
 90
       50
176
     1
 90
        3
176
     1
 62
     5
420
      255
176
     1
290
     0
176
     1
 90
       50
176
     1
 90
       50
176
     1
 90
       50
176
     1
290
     0
176
     1
 90
       50
176
     1
 62
   256
176
     0
 40
1.0
176
     0
 90
        2
176
     1
  1
strokes_ogs.tif
176
     1
290
     0
176
     1
 40
1.0
176
     1
 40
1.0
176
     1
  0
VISUALSTYLE
  5
1F2
102
{ACAD_REACTORS
330
1E7
102
}
330
1E7
100
AcDbVisualStyle
  2
Dim
 70
    11
177
     3
291
     1
 70
    58
 90
        2
176
     1
 90
        2
176
     1
 90
        0
176
     1
 90
        0
176
     1
 40
0.6
176
     1
 40
30.0
176
     1
 62
     7
420
 16777215
176
     1
 90
        1
176
     1
 90
        4
176
     1
 62
     7
176
     1
 62
   257
176
     1
 90
        1
176
     1
 90
        1
176
     1
 40
1.0
176
     1
 90
        8
176
     1
 62
     7
176
     1
 40
1.0
176
     1
 90
        1
176
     1
 90
        6
176
     1
 90
        2
176
     1
 62
     7
176
     1
 90
        5
176
     1
 90
        0
176
     1
 90
        0
176
     1
290
     0
176
     1
 90
        1
176
     1
 40
-50.0
176
     1
 90
        0
176
     1
290
     0
176
     1
290
     1
176
     1
290
     1
176
     1
290
     0
176
     1
290
     0
176
     1
290
     0
176
     1
290
     0
176
     1
290
     0
176
     1
290
     0
176
     1
 90
       50
176
     1
 40
0.0
176
     1
 40
1.0
176
     1
 90
        0
176
     1
 62
    18
420
        0
176
     1
 90
       50
176
     1
 90
        3
176
     1
 62
     5
420
      255
176
     1
290
     0
176
     1
 90
       50
176
     1
 90
       50
176
     1
 90
       50
176
     1
290
     0
176
     1
 90
       50
176
     1
 62
   256
176
     0
 40
1.0
176
     0
 90
        2
176
     1
  1
strokes_ogs.tif
176
     1
290
     0
176
     1
 40
1.0
176
     1
 40
1.0
176
     1
  0
VISUALSTYLE
  5
1FA
102
{ACAD_REACTORS
330
1E7
102
}
330
1E7
100
AcDbVisualStyle
  2
EdgeColorOff
 70
    22
177
     3
291
     1
 70
    58
 90
        2
176
     0
 90
        2
176
     0
 90
        0
176
     0
 90
        0
176
     0
 40
0.6
176
     0
 40
30.0
176
     0
 62
     7
420
 16777215
176
     0
 90
        1
176
     0
 90
        4
176
     0
 62
     7
176
     0
 62
   257
176
     0
 90
        1
176
     0
 90
        1
176
     0
 40
1.0
176
     0
 90
        8
176
     2
 62
     7
176
     0
 40
1.0
176
     0
 90
        1
176
     0
 90
        6
176
     0
 90
        2
176
     0
 62
     7
176
     0
 90
        5
176
     0
 90
        0
176
     0
 90
        0
176
     0
290
     0
176
     0
 90
        1
176
     0
 40
0.0
176
     0
 90
        0
176
     0
290
     0
176
     0
290
     1
176
     0
290
     1
176
     0
290
     0
176
     0
290
     0
176
     0
290
     0
176
     0
290
     0
176
     0
290
     0
176
     0
290
     0
176
     0
 90
       50
176
     0
 40
0.0
176
     0
 40
1.0
176
     0
 90
        0
176
     0
 62
    18
420
        0
176
     0
 90
       50
176
     0
 90
        3
176
     0
 62
     5
420
      255
176
     0
290
     0
176
     0
 90
       50
176
     0
 90
       50
176
     0
 90
       50
176
     0
290
     0
176
     0
 90
       50
176
     0
 62
   256
176
     0
 40
1.0
176
     0
 90
        2
176
     0
  1
strokes_ogs.tif
176
     0
290
     0
176
     0
 40
1.0
176
     0
 40
1.0
176
     0
  0
VISUALSTYLE
  5
1F6
102
{ACAD_REACTORS
330
1E7
102
}
330
1E7
100
AcDbVisualStyle
  2
Facepattern
 70
    15
177
     3
291
     1
 70
    58
 90
        2
176
     1
 90
        2
176
     1
 90
        0
176
     1
 90
        0
176
     1
 40
0.6
176
     1
 40
30.0
176
     1
 62
     7
420
 16777215
176
     1
 90
        1
176
     1
 90
        4
176
     1
 62
     7
176
     1
 62
   257
176
     1
 90
        1
176
     1
 90
        1
176
     1
 40
1.0
176
     1
 90
        8
176
     1
 62
     7
176
     1
 40
1.0
176
     1
 90
        1
176
     1
 90
        6
176
     1
 90
        2
176
     1
 62
     7
176
     1
 90
        5
176
     1
 90
        0
176
     1
 90
        0
176
     1
290
     0
176
     1
 90
        1
176
     1
 40
0.0
176
     1
 90
        0
176
     1
290
     0
176
     1
290
     1
176
     1
290
     1
176
     1
290
     0
176
     1
290
     0
176
     1
290
     0
176
     1
290
     0
176
     1
290
     0
176
     1
290
     0
176
     1
 90
       50
176
     1
 40
0.0
176
     1
 40
1.0
176
     1
 90
        0
176
     1
 62
    18
420
        0
176
     1
 90
       50
176
     1
 90
        3
176
     1
 62
     5
420
      255
176
     1
290
     0
176
     1
 90
       50
176
     1
 90
       50
176
     1
 90
       50
176
     1
290
     0
176
     1
 90
       50
176
     1
 62
   256
176
     0
 40
1.0
176
     0
 90
        2
176
     1
  1
strokes_ogs.tif
176
     1
290
     0
176
     1
 40
1.0
176
     1
 40
1.0
176
     1
  0
VISUALSTYLE
  5
1E8
102
{ACAD_REACTORS
330
1E7
102
}
330
1E7
100
AcDbVisualStyle
  2
Flat
 70
     0
177
     3
291
     1
 70
    58
 90
        2
176
     1
 90
        1
176
     1
 90
        1
176
     1
 90
        2
176
     1
 40
0.6
176
     1
 40
30.0
176
     1
 62
     7
420
 16777215
176
     1
 90
        0
176
     1
 90
        0
176
     1
 62
     7
176
     1
 62
   257
176
     1
 90
        1
176
     1
 90
        1
176
     1
 40
1.0
176
     1
 90
        8
176
     1
 62
     7
176
     1
 40
1.0
176
     1
 90
        1
176
     1
 90
        6
176
     1
 90
        2
176
     1
 62
     7
176
     1
 90
        5
176
     1
 90
        0
176
     1
 90
        0
176
     1
290
     0
176
     1
 90
       13
176
     1
 40
0.0
176
     1
 90
        0
176
     1
290
     0
176
     1
290
     1
176
     1
290
     1
176
     1
290
     0
176
     1
290
     0
176
     1
290
     0
176
     1
290
     0
176
     1
290
     0
176
     1
290
     0
176
     1
 90
       50
176
     1
 40
0.0
176
     1
 40
1.0
176
     1
 90
        0
176
     1
 62
    18
420
        0
176
     1
 90
       50
176
     1
 90
        3
176
     1
 62
     5
420
      255
176
     1
290
     0
176
     1
 90
       50
176
     1
 90
       50
176
     1
 90
       50
176
     1
290
     0
176
     1
 90
       50
176
     1
 62
   256
176
     0
 40
1.0
176
     0
 90
        2
176
     1
  1
strokes_ogs.tif
176
     1
290
     0
176
     1
 40
1.0
176
     1
 40
1.0
176
     1
  0
VISUALSTYLE
  5
1E9
102
{ACAD_REACTORS
330
1E7
102
}
330
1E7
100
AcDbVisualStyle
  2
FlatWithEdges
 70
     1
177
     3
291
     1
 70
    58
 90
        2
176
     1
 90
        1
176
     1
 90
        1
176
     1
 90
        2
176
     1
 40
0.6
176
     1
 40
30.0
176
     1
 62
     7
420
 16777215
176
     1
 90
        1
176
     1
 90
        0
176
     1
 62
     7
176
     1
 62
   257
176
     1
 90
        1
176
     1
 90
        1
176
     1
 40
1.0
176
     1
 90
        0
176
     1
 62
   257
176
     1
 40
1.0
176
     1
 90
        1
176
     1
 90
        6
176
     1
 90
        2
176
     1
 62
     7
176
     1
 90
        5
176
     1
 90
        0
176
     1
 90
        0
176
     1
290
     0
176
     1
 90
       13
176
     1
 40
0.0
176
     1
 90
        0
176
     1
290
     0
176
     1
290
     1
176
     1
290
     1
176
     1
290
     0
176
     1
290
     0
176
     1
290
     0
176
     1
290
     0
176
     1
290
     0
176
     1
290
     0
176
     1
 90
       50
176
     1
 40
0.0
176
     1
 40
1.0
176
     1
 90
        0
176
     1
 62
    18
420
        0
176
     1
 90
       50
176
     1
 90
        3
176
     1
 62
     5
420
      255
176
     1
290
     0
176
     1
 90
       50
176
     1
 90
       50
176
     1
 90
       50
176
     1
290
     0
176
     1
 90
       50
176
     1
 62
   256
176
     0
 40
1.0
176
     0
 90
        2
176
     1
  1
strokes_ogs.tif
176
     1
290
     0
176
     1
 40
1.0
176
     1
 40
1.0
176
     1
  0
VISUALSTYLE
  5
1EA
102
{ACAD_REACTORS
330
1E7
102
}
330
1E7
100
AcDbVisualStyle
  2
Gouraud
 70
     2
177
     3
291
     1
 70
    58
 90
        2
176
     1
 90
        2
176
     1
 90
        1
176
     1
 90
        2
176
     1
 40
0.6
176
     1
 40
30.0
176
     1
 62
     7
420
 16777215
176
     1
 90
        0
176
     1
 90
        0
176
     1
 62
     7
176
     1
 62
   257
176
     1
 90
        1
176
     1
 90
        1
176
     1
 40
1.0
176
     1
 90
        0
176
     1
 62
     7
176
     1
 40
1.0
176
     1
 90
        1
176
     1
 90
        6
176
     1
 90
        2
176
     1
 62
     7
176
     1
 90
        5
176
     1
 90
        0
176
     1
 90
        0
176
     1
290
     0
176
     1
 90
       13
176
     1
 40
0.0
176
     1
 90
        0
176
     1
290
     0
176
     1
290
     1
176
     1
290
     1
176
     1
290
     0
176
     1
290
     0
176
     1
290
     0
176
     1
290
     0
176
     1
290
     0
176
     1
290
     0
176
     1
 90
       50
176
     1
 40
0.0
176
     1
 40
1.0
176
     1
 90
        0
176
     1
 62
    18
420
        0
176
     1
 90
       50
176
     1
 90
        3
176
     1
 62
     5
420
      255
176
     1
290
     0
176
     1
 90
       50
176
     1
 90
       50
176
     1
 90
       50
176
     1
290
     0
176
     1
 90
       50
176
     1
 62
   256
176
     0
 40
1.0
176
     0
 90
        2
176
     1
  1
strokes_ogs.tif
176
     1
290
     0
176
     1
 40
1.0
176
     1
 40
1.0
176
     1
  0
VISUALSTYLE
  5
1EB
102
{ACAD_REACTORS
330
1E7
102
}
330
1E7
100
AcDbVisualStyle
  2
GouraudWithEdges
 70
     3
177
     3
291
     1
 70
    58
 90
        2
176
     1
 90
        2
176
     1
 90
        1
176
     1
 90
        2
176
     1
 40
0.6
176
     1
 40
30.0
176
     1
 62
     7
420
 16777215
176
     1
 90
        1
176
     1
 90
        0
176
     1
 62
     7
176
     1
 62
   257
176
     1
 90
        1
176
     1
 90
        1
176
     1
 40
1.0
176
     1
 90
        0
176
     1
 62
   257
176
     1
 40
1.0
176
     1
 90
        1
176
     1
 90
        6
176
     1
 90
        2
176
     1
 62
     7
176
     1
 90
        5
176
     1
 90
        0
176
     1
 90
        0
176
     1
290
     0
176
     1
 90
       13
176
     1
 40
0.0
176
     1
 90
        0
176
     1
290
     0
176
     1
290
     1
176
     1
290
     1
176
     1
290
     0
176
     1
290
     0
176
     1
290
     0
176
     1
290
     0
176
     1
290
     0
176
     1
290
     0
176
     1
 90
       50
176
     1
 40
0.0
176
     1
 40
1.0
176
     1
 90
        0
176
     1
 62
    18
420
        0
176
     1
 90
       50
176
     1
 90
        3
176
     1
 62
     5
420
      255
176
     1
290
     0
176
     1
 90
       50
176
     1
 90
       50
176
     1
 90
       50
176
     1
290
     0
176
     1
 90
       50
176
     1
 62
   256
176
     0
 40
1.0
176
     0
 90
        2
176
     1
  1
strokes_ogs.tif
176
     1
290
     0
176
     1
 40
1.0
176
     1
 40
1.0
176
     1
  0
VISUALSTYLE
  5
1EE
102
{ACAD_REACTORS
330
1E7
102
}
330
1E7
100
AcDbVisualStyle
  2
Hidden
 70
     6
177
     3
291
     0
 70
    58
 90
        1
176
     1
 90
        2
176
     1
 90
        2
176
     1
 90
        0
176
     1
 40
0.6
176
     1
 40
30.0
176
     1
 62
     7
420
 16777215
176
     1
 90
        2
176
     1
 90
        2
176
     1
 62
     7
176
     1
 62
   257
176
     1
 90
        2
176
     1
 90
        1
176
     1
 40
40.0
176
     1
 90
        0
176
     1
 62
   257
176
     1
 40
1.0
176
     1
 90
        1
176
     1
 90
        6
176
     1
 90
        2
176
     1
 62
     7
176
     1
 90
        3
176
     1
 90
        0
176
     1
 90
        0
176
     1
290
     0
176
     1
 90
        1
176
     1
 40
0.0
176
     1
 90
        0
176
     1
290
     0
176
     1
290
     1
176
     1
290
     1
176
     1
290
     0
176
     1
290
     0
176
     1
290
     0
176
     1
290
     0
176
     1
290
     0
176
     1
290
     0
176
     1
 90
       50
176
     1
 40
0.0
176
     1
 40
1.0
176
     1
 90
        0
176
     1
 62
    18
420
        0
176
     1
 90
       50
176
     1
 90
        3
176
     1
 62
     5
420
      255
176
     1
290
     0
176
     1
 90
       50
176
     1
 90
       50
176
     1
 90
       50
176
     1
290
     0
176
     1
 90
       50
176
     1
 62
   256
176
     0
 40
1.0
176
     0
 90
        2
176
     1
  1
strokes_ogs.tif
176
     1
290
     0
176
     1
 40
1.0
176
     1
 40
1.0
176
     1
  0
VISUALSTYLE
  5
1F8
102
{ACAD_REACTORS
330
1E7
102
}
330
1E7
100
AcDbVisualStyle
  2
JitterOff
 70
    20
177
     3
291
     1
 70
    58
 90
        2
176
     0
 90
        2
176
     0
 90
        0
176
     0
 90
        0
176
     0
 40
0.6
176
     0
 40
30.0
176
     0
 62
     7
420
 16777215
176
     0
 90
        1
176
     0
 90
        4
176
     0
 62
     7
176
     0
 62
   257
176
     0
 90
        1
176
     0
 90
        1
176
     0
 40
1.0
176
     0
 90
       10
176
     2
 62
     7
176
     0
 40
1.0
176
     0
 90
        1
176
     0
 90
        6
176
     0
 90
        2
176
     0
 62
     7
176
     0
 90
        5
176
     0
 90
        0
176
     0
 90
        0
176
     0
290
     0
176
     0
 90
        1
176
     0
 40
0.0
176
     0
 90
        0
176
     0
290
     0
176
     0
290
     1
176
     0
290
     1
176
     0
290
     0
176
     0
290
     0
176
     0
290
     0
176
     0
290
     0
176
     0
290
     0
176
     0
290
     0
176
     0
 90
       50
176
     0
 40
0.0
176
     0
 40
1.0
176
     0
 90
        0
176
     0
 62
    18
420
        0
176
     0
 90
       50
176
     0
 90
        3
176
     0
 62
     5
420
      255
176
     0
290
     0
176
     0
 90
       50
176
     0
 90
       50
176
     0
 90
       50
176
     0
290
     0
176
     0
 90
       50
176
     0
 62
   256
176
     0
 40
1.0
176
     0
 90
        2
176
     0
  1
strokes_ogs.tif
176
     0
290
     0
176
     0
 40
1.0
176
     0
 40
1.0
176
     0
  0
VISUALSTYLE
  5
1F5
102
{ACAD_REACTORS
330
1E7
102
}
330
1E7
100
AcDbVisualStyle
  2
Linepattern
 70
    14
177
     3
291
     1
 70
    58
 90
        2
176
     1
 90
        2
176
     1
 90
        0
176
     1
 90
        0
176
     1
 40
0.6
176
     1
 40
30.0
176
     1
 62
     7
420
 16777215
176
     1
 90
        1
176
     1
 90
        4
176
     1
 62
     7
176
     1
 62
   257
176
     1
 90
        7
176
     1
 90
        7
176
     1
 40
1.0
176
     1
 90
        8
176
     1
 62
     7
176
     1
 40
1.0
176
     1
 90
        1
176
     1
 90
        6
176
     1
 90
        2
176
     1
 62
     7
176
     1
 90
        5
176
     1
 90
        0
176
     1
 90
        0
176
     1
290
     0
176
     1
 90
        1
176
     1
 40
0.0
176
     1
 90
        0
176
     1
290
     0
176
     1
290
     1
176
     1
290
     1
176
     1
290
     0
176
     1
290
     0
176
     1
290
     0
176
     1
290
     0
176
     1
290
     0
176
     1
290
     0
176
     1
 90
       50
176
     1
 40
0.0
176
     1
 40
1.0
176
     1
 90
        0
176
     1
 62
    18
420
        0
176
     1
 90
       50
176
     1
 90
        3
176
     1
 62
     5
420
      255
176
     1
290
     0
176
     1
 90
       50
176
     1
 90
       50
176
     1
 90
       50
176
     1
290
     0
176
     1
 90
       50
176
     1
 62
   256
176
     0
 40
1.0
176
     0
 90
        2
176
     1
  1
strokes_ogs.tif
176
     1
290
     0
176
     1
 40
1.0
176
     1
 40
1.0
176
     1
  0
VISUALSTYLE
  5
1F9
102
{ACAD_REACTORS
330
1E7
102
}
330
1E7
100
AcDbVisualStyle
  2
OverhangOff
 70
    21
177
     3
291
     1
 70
    58
 90
        2
176
     0
 90
        2
176
     0
 90
        0
176
     0
 90
        0
176
     0
 40
0.6
176
     0
 40
30.0
176
     0
 62
     7
420
 16777215
176
     0
 90
        1
176
     0
 90
        4
176
     0
 62
     7
176
     0
 62
   257
176
     0
 90
        1
176
     0
 90
        1
176
     0
 40
1.0
176
     0
 90
        9
176
     2
 62
     7
176
     0
 40
1.0
176
     0
 90
        1
176
     0
 90
        6
176
     0
 90
        2
176
     0
 62
     7
176
     0
 90
        5
176
     0
 90
        0
176
     0
 90
        0
176
     0
290
     0
176
     0
 90
        1
176
     0
 40
0.0
176
     0
 90
        0
176
     0
290
     0
176
     0
290
     1
176
     0
290
     1
176
     0
290
     0
176
     0
290
     0
176
     0
290
     0
176
     0
290
     0
176
     0
290
     0
176
     0
290
     0
176
     0
 90
       50
176
     0
 40
0.0
176
     0
 40
1.0
176
     0
 90
        0
176
     0
 62
    18
420
        0
176
     0
 90
       50
176
     0
 90
        3
176
     0
 62
     5
420
      255
176
     0
290
     0
176
     0
 90
       50
176
     0
 90
       50
176
     0
 90
       50
176
     0
290
     0
176
     0
 90
       50
176
     0
 62
   256
176
     0
 40
1.0
176
     0
 90
        2
176
     0
  1
strokes_ogs.tif
176
     0
290
     0
176
     0
 40
1.0
176
     0
 40
1.0
176
     0
  0
VISUALSTYLE
  5
1F0
102
{ACAD_REACTORS
330
1E7
102
}
330
1E7
100
AcDbVisualStyle
  2
Realistic
 70
     8
177
     3
291
     0
 70
    58
 90
        2
176
     1
 90
        3
176
     1
 90
        0
176
     1
 90
        2
176
     1
 40
0.6
176
     1
 40
30.0
176
     1
 62
     7
420
 16777215
176
     1
 90
        0
176
     1
 90
        0
176
     1
 62
     7
176
     1
 62
   257
176
     1
 90
        1
176
     1
 90
        1
176
     1
 40
1.0
176
     1
 90
        8
176
     1
 62
   257
176
     1
 40
1.0
176
     1
 90
        1
176
     1
 90
        6
176
     1
 90
        2
176
     1
 62
     7
176
     1
 90
        3
176
     1
 90
        0
176
     1
 90
        0
176
     1
290
     0
176
     1
 90
       13
176
     1
 40
0.0
176
     1
 90
        0
176
     1
290
     0
176
     1
290
     1
176
     1
290
     1
176
     1
290
     0
176
     1
290
     0
176
     1
290
     0
176
     1
290
     0
176
     1
290
     0
176
     1
290
     0
176
     1
 90
       50
176
     1
 40
0.0
176
     1
 40
1.0
176
     1
 90
        0
176
     1
 62
    18
420
        0
176
     1
 90
       50
176
     1
 90
        3
176
     1
 62
     5
420
      255
176
     1
290
     0
176
     1
 90
       50
176
     1
 90
       50
176
     1
 90
       50
176
     1
290
     0
176
     1
 90
       50
176
     1
 62
   256
176
     0
 40
1.0
176
     0
 90
        2
176
     1
  1
strokes_ogs.tif
176
     1
290
     0
176
     1
 40
1.0
176
     1
 40
1.0
176
     1
  0
VISUALSTYLE
  5
1FF
102
{ACAD_REACTORS
330
1E7
102
}
330
1E7
100
AcDbVisualStyle
  2
Shaded
 70
    27
177
     3
291
     0
 70
    58
 90
        2
176
     1
 90
        2
176
     1
 90
        1
176
     1
 90
        2
176
     1
 40
0.6
176
     1
 40
30.0
176
     1
 62
     7
420
 16777215
176
     1
 90
        0
176
     1
 90
        4
176
     1
 62
     7
176
     1
 62
   257
176
     1
 90
        1
176
     1
 90
        1
176
     1
 40
1.0
176
     1
 90
        8
176
     1
 62
   257
176
     1
 40
1.0
176
     1
 90
        1
176
     1
 90
        6
176
     1
 90
        2
176
     1
 62
     8
420
  7895160
176
     1
 90
        3
176
     1
 90
        0
176
     1
 90
        0
176
     1
290
     0
176
     1
 90
        5
176
     1
 40
0.0
176
     1
 90
        0
176
     1
290
     0
176
     1
290
     1
176
     1
290
     1
176
     1
290
     0
176
     1
290
     0
176
     1
290
     0
176
     1
290
     0
176
     1
290
     0
176
     1
290
     0
176
     1
 90
       50
176
     1
 40
0.0
176
     1
 40
1.0
176
     1
 90
        0
176
     1
 62
    18
420
        0
176
     1
 90
       50
176
     1
 90
        3
176
     1
 62
     5
420
      255
176
     1
290
     0
176
     1
 90
       50
176
     1
 90
       50
176
     1
 90
       50
176
     1
290
     0
176
     1
 90
       50
176
     1
 62
   256
176
     0
 40
1.0
176
     0
 90
        2
176
     1
  1
strokes_ogs.tif
176
     1
290
     0
176
     1
 40
1.0
176
     1
 40
1.0
176
     1
  0
VISUALSTYLE
  5
1FE
102
{ACAD_REACTORS
330
1E7
102
}
330
1E7
100
AcDbVisualStyle
  2
Shaded with edges
 70
    26
177
     3
291
     0
 70
    58
 90
        2
176
     1
 90
        2
176
     1
 90
        1
176
     1
 90
        2
176
     1
 40
0.6
176
     1
 40
30.0
176
     1
 62
     7
420
 16777215
176
     1
 90
        1
176
     1
 90
       10
176
     1
 62
     7
176
     1
 62
   257
176
     1
 90
        2
176
     1
 90
        1
176
     1
 40
1.0
176
     1
 90
        8
176
     1
 62
   257
176
     1
 40
1.0
176
     1
 90
        1
176
     1
 90
        6
176
     1
 90
        2
176
     1
 62
     7
176
     1
 90
        3
176
     1
 90
        0
176
     1
 90
        0
176
     1
290
     0
176
     1
 90
        5
176
     1
 40
0.0
176
     1
 90
        0
176
     1
290
     0
176
     1
290
     1
176
     1
290
     1
176
     1
290
     0
176
     1
290
     0
176
     1
290
     0
176
     1
290
     0
176
     1
290
     0
176
     1
290
     0
176
     1
 90
       50
176
     1
 40
0.0
176
     1
 40
1.0
176
     1
 90
        0
176
     1
 62
    18
420
        0
176
     1
 90
       50
176
     1
 90
        3
176
     1
 62
     5
420
      255
176
     1
290
     0
176
     1
 90
       50
176
     1
 90
       50
176
     1
 90
       50
176
     1
290
     0
176
     1
 90
       50
176
     1
 62
   256
176
     0
 40
1.0
176
     0
 90
        2
176
     1
  1
strokes_ogs.tif
176
     1
290
     0
176
     1
 40
1.0
176
     1
 40
1.0
176
     1
  0
VISUALSTYLE
  5
1FB
102
{ACAD_REACTORS
330
1E7
102
}
330
1E7
100
AcDbVisualStyle
  2
Shades of Gray
 70
    23
177
     3
291
     0
 70
    58
 90
        2
176
     1
 90
        2
176
     1
 90
        3
176
     1
 90
        0
176
     1
 40
0.6
176
     1
 40
30.0
176
     1
 62
     7
420
 16777215
176
     1
 90
        2
176
     1
 90
        2
176
     1
 62
     7
176
     1
 62
     7
176
     1
 90
        1
176
     1
 90
        1
176
     1
 40
40.0
176
     1
 90
        8
176
     1
 62
     7
176
     1
 40
1.0
176
     1
 90
        1
176
     1
 90
        6
176
     1
 90
        2
176
     1
 62
     7
176
     1
 90
        3
176
     1
 90
        0
176
     1
 90
        0
176
     1
290
     0
176
     1
 90
        1
176
     1
 40
0.0
176
     1
 90
        0
176
     1
290
     0
176
     1
290
     1
176
     1
290
     1
176
     1
290
     0
176
     1
290
     0
176
     1
290
     0
176
     1
290
     0
176
     1
290
     0
176
     1
290
     0
176
     1
 90
       50
176
     1
 40
0.0
176
     1
 40
1.0
176
     1
 90
        0
176
     1
 62
    18
420
        0
176
     1
 90
       50
176
     1
 90
        3
176
     1
 62
     5
420
      255
176
     1
290
     0
176
     1
 90
       50
176
     1
 90
       50
176
     1
 90
       50
176
     1
290
     0
176
     1
 90
       50
176
     1
 62
   256
176
     0
 40
1.0
176
     0
 90
        2
176
     1
  1
strokes_ogs.tif
176
     1
290
     0
176
     1
 40
1.0
176
     1
 40
1.0
176
     1
  0
VISUALSTYLE
  5
1FC
102
{ACAD_REACTORS
330
1E7
102
}
330
1E7
100
AcDbVisualStyle
  2
Sketchy
 70
    24
177
     3
291
     0
 70
    58
 90
        1
176
     1
 90
        2
176
     1
 90
        2
176
     1
 90
        0
176
     1
 40
0.6
176
     1
 40
30.0
176
     1
 62
     7
420
 16777215
176
     1
 90
        2
176
     1
 90
        2
176
     1
 62
     7
176
     1
 62
     7
176
     1
 90
        1
176
     1
 90
        1
176
     1
 40
40.0
176
     1
 90
       11
176
     1
 62
     7
176
     1
 40
1.0
176
     1
 90
        1
176
     1
 90
        6
176
     1
 90
        2
176
     1
 62
     7
176
     1
 90
        6
176
     1
 90
        0
176
     1
 90
        0
176
     1
290
     0
176
     1
 90
        1
176
     1
 40
0.0
176
     1
 90
        0
176
     1
290
     0
176
     1
290
     1
176
     1
290
     1
176
     1
290
     0
176
     1
290
     0
176
     1
290
     0
176
     1
290
     0
176
     1
290
     0
176
     1
290
     0
176
     1
 90
       50
176
     1
 40
0.0
176
     1
 40
1.0
176
     1
 90
        0
176
     1
 62
    18
420
        0
176
     1
 90
       50
176
     1
 90
        3
176
     1
 62
     5
420
      255
176
     1
290
     0
176
     1
 90
       50
176
     1
 90
       50
176
     1
 90
       50
176
     1
290
     0
176
     1
 90
       50
176
     1
 62
   256
176
     0
 40
1.0
176
     0
 90
        2
176
     1
  1
strokes_ogs.tif
176
     1
290
     0
176
     1
 40
1.0
176
     1
 40
1.0
176
     1
  0
VISUALSTYLE
  5
1F4
102
{ACAD_REACTORS
330
1E7
102
}
330
1E7
100
AcDbVisualStyle
  2
Thicken
 70
    13
177
     3
291
     1
 70
    58
 90
        2
176
     1
 90
        2
176
     1
 90
        0
176
     1
 90
        0
176
     1
 40
0.6
176
     1
 40
30.0
176
     1
 62
     7
420
 16777215
176
     1
 90
        1
176
     1
 90
        4
176
     1
 62
     7
176
     1
 62
   257
176
     1
 90
        1
176
     1
 90
        1
176
     1
 40
1.0
176
     1
 90
       12
176
     1
 62
     7
176
     1
 40
1.0
176
     1
 90
        1
176
     1
 90
        6
176
     1
 90
        2
176
     1
 62
     7
176
     1
 90
        5
176
     1
 90
        0
176
     1
 90
        0
176
     1
290
     0
176
     1
 90
        1
176
     1
 40
0.0
176
     1
 90
        0
176
     1
290
     0
176
     1
290
     1
176
     1
290
     1
176
     1
290
     0
176
     1
290
     0
176
     1
290
     0
176
     1
290
     0
176
     1
290
     0
176
     1
290
     0
176
     1
 90
       50
176
     1
 40
0.0
176
     1
 40
1.0
176
     1
 90
        0
176
     1
 62
    18
420
        0
176
     1
 90
       50
176
     1
 90
        3
176
     1
 62
     5
420
      255
176
     1
290
     0
176
     1
 90
       50
176
     1
 90
       50
176
     1
 90
       50
176
     1
290
     0
176
     1
 90
       50
176
     1
 62
   256
176
     0
 40
1.0
176
     0
 90
        2
176
     1
  1
strokes_ogs.tif
176
     1
290
     0
176
     1
 40
1.0
176
     1
 40
1.0
176
     1
  0
VISUALSTYLE
  5
1ED
102
{ACAD_REACTORS
330
1E7
102
}
330
1E7
100
AcDbVisualStyle
  2
Wireframe
 70
     5
177
     3
291
     0
 70
    58
 90
        0
176
     1
 90
        2
176
     1
 90
        0
176
     1
 90
        0
176
     1
 40
0.6
176
     1
 40
30.0
176
     1
 62
     7
420
 16777215
176
     1
 90
        1
176
     1
 90
        4
176
     1
 62
     7
176
     1
 62
   257
176
     1
 90
        1
176
     1
 90
        1
176
     1
 40
1.0
176
     1
 90
        0
176
     1
 62
   257
176
     1
 40
1.0
176
     1
 90
        1
176
     1
 90
        6
176
     1
 90
        2
176
     1
 62
     7
176
     1
 90
        3
176
     1
 90
        0
176
     1
 90
        0
176
     1
290
     0
176
     1
 90
        1
176
     1
 40
0.0
176
     1
 90
        0
176
     1
290
     0
176
     1
290
     1
176
     1
290
     1
176
     1
290
     0
176
     1
290
     0
176
     1
290
     0
176
     1
290
     0
176
     1
290
     0
176
     1
290
     0
176
     1
 90
       50
176
     1
 40
0.0
176
     1
 40
1.0
176
     1
 90
        0
176
     1
 62
    18
420
        0
176
     1
 90
       50
176
     1
 90
        3
176
     1
 62
     5
420
      255
176
     1
290
     0
176
     1
 90
       50
176
     1
 90
       50
176
     1
 90
       50
176
     1
290
     0
176
     1
 90
       50
176
     1
 62
   256
176
     0
 40
1.0
176
     0
 90
        2
176
     1
  1
strokes_ogs.tif
176
     1
290
     0
176
     1
 40
1.0
176
     1
 40
1.0
176
     1
  0
VISUALSTYLE
  5
1FD
102
{ACAD_REACTORS
330
1E7
102
}
330
1E7
100
AcDbVisualStyle
  2
X-Ray
 70
    25
177
     3
291
     0
 70
    58
 90
        2
176
     1
 90
        2
176
     1
 90
        1
176
     1
 90
        1
176
     1
 40
0.5
176
     1
 40
30.0
176
     1
 62
     7
420
 16777215
176
     1
 90
        1
176
     1
 90
        0
176
     1
 62
     7
176
     1
 62
   257
176
     1
 90
        1
176
     1
 90
        1
176
     1
 40
1.0
176
     1
 90
        8
176
     1
 62
     7
176
     1
 40
1.0
176
     1
 90
        1
176
     1
 90
        6
176
     1
 90
        2
176
     1
 62
     7
176
     1
 90
        3
176
     1
 90
        0
176
     1
 90
        0
176
     1
290
     0
176
     1
 90
       13
176
     1
 40
0.0
176
     1
 90
        0
176
     1
290
     0
176
     1
290
     1
176
     1
290
     1
176
     1
290
     0
176
     1
290
     0
176
     1
290
     0
176
     1
290
     0
176
     1
290
     0
176
     1
290
     0
176
     1
 90
       50
176
     1
 40
0.0
176
     1
 40
1.0
176
     1
 90
        0
176
     1
 62
    18
420
        0
176
     1
 90
       50
176
     1
 90
        3
176
     1
 62
     5
420
      255
176
     1
290
     0
176
     1
 90
       50
176
     1
 90
       50
176
     1
 90
       50
176
     1
290
     0
176
     1
 90
       50
176
     1
 62
   256
176
     0
 40
1.0
176
     0
 90
        2
176
     1
  1
strokes_ogs.tif
176
     1
290
     0
176
     1
 40
1.0
176
     1
 40
1.0
176
     1
  0
DICTIONARYVAR
  5
20A
102
{ACAD_REACTORS
330
209
102
}
330
209
100
DictionaryVariables
280
     0
  1
1:1
  0
DICTIONARYVAR
  5
20C
102
{ACAD_REACTORS
330
209
102
}
330
209
100
DictionaryVariables
280
     0
  1
Standard
  0
DICTIONARYVAR
  5
20B
102
{ACAD_REACTORS
330
209
102
}
330
209
100
DictionaryVariables
280
     0
  1
Standard
  0
DICTIONARYVAR
  5
20D
102
{ACAD_REACTORS
330
209
102
}
330
209
100
DictionaryVariables
280
     0
  1
0
  0
DICTIONARY
  5
223
330
205
100
AcDbDictionary
280
     1
281
     1
  3
ACAD_ROUNDTRIP_2008_TABLESTYLE_CELLSTYLEMAP
360
224
  0
CELLSTYLEMAP
  5
224
102
{ACAD_REACTORS
330
223
102
}
330
223
100
AcDbCellStyleMap
 90
        3
300
CELLSTYLE
  1
TABLEFORMAT_BEGIN
 90
        5
170
     1
 91
        0
 92
    32768
 62
   257
 93
        1
300
CONTENTFORMAT
  1
CONTENTFORMAT_BEGIN
 90
        0
 91
        0
 92
        4
 93
        0
300

 40
0.0
140
1.0
 94
        5
 62
     0
340
17
144
6.0
309
CONTENTFORMAT_END
171
     1
301
MARGIN
  1
CELLMARGIN_BEGIN
 40
1.5
 40
1.5
 40
1.5
 40
1.5
 40
1.5
 40
1.5
309
CELLMARGIN_END
 94
        6
 95
        1
302
GRIDFORMAT
  1
GRIDFORMAT_BEGIN
 90
        0
 91
        1
 62
     0
 92
       -2
340
11
 93
        0
 40
0.045
309
GRIDFORMAT_END
 95
        2
302
GRIDFORMAT
  1
GRIDFORMAT_BEGIN
 90
        0
 91
        1
 62
     0
 92
       -2
340
11
 93
        0
 40
0.045
309
GRIDFORMAT_END
 95
        4
302
GRIDFORMAT
  1
GRIDFORMAT_BEGIN
 90
        0
 91
        1
 62
     0
 92
       -2
340
11
 93
        0
 40
0.045
309
GRIDFORMAT_END
 95
        8
302
GRIDFORMAT
  1
GRIDFORMAT_BEGIN
 90
        0
 91
        1
 62
     0
 92
       -2
340
11
 93
        0
 40
0.045
309
GRIDFORMAT_END
 95
       16
302
GRIDFORMAT
  1
GRIDFORMAT_BEGIN
 90
        0
 91
        1
 62
     0
 92
       -2
340
11
 93
        0
 40
0.045
309
GRIDFORMAT_END
 95
       32
302
GRIDFORMAT
  1
GRIDFORMAT_BEGIN
 90
        0
 91
        1
 62
     0
 92
       -2
340
11
 93
        0
 40
0.045
309
GRIDFORMAT_END
309
TABLEFORMAT_END
  1
CELLSTYLE_BEGIN
 90
        1
 91
        1
300
_TITLE
309
CELLSTYLE_END
300
CELLSTYLE
  1
TABLEFORMAT_BEGIN
 90
        5
170
     1
 91
        0
 92
        0
 62
   257
 93
        1
300
CONTENTFORMAT
  1
CONTENTFORMAT_BEGIN
 90
        0
 91
        0
 92
        4
 93
        0
300

 40
0.0
140
1.0
 94
        5
 62
     0
340
17
144
4.5
309
CONTENTFORMAT_END
171
     1
301
MARGIN
  1
CELLMARGIN_BEGIN
 40
1.5
 40
1.5
 40
1.5
 40
1.5
 40
1.5
 40
1.5
309
CELLMARGIN_END
 94
        6
 95
        1
302
GRIDFORMAT
  1
GRIDFORMAT_BEGIN
 90
        0
 91
        1
 62
     0
 92
       -2
340
11
 93
        0
 40
0.045
309
GRIDFORMAT_END
 95
        2
302
GRIDFORMAT
  1
GRIDFORMAT_BEGIN
 90
        0
 91
        1
 62
     0
 92
       -2
340
11
 93
        0
 40
0.045
309
GRIDFORMAT_END
 95
        4
302
GRIDFORMAT
  1
GRIDFORMAT_BEGIN
 90
        0
 91
        1
 62
     0
 92
       -2
340
11
 93
        0
 40
0.045
309
GRIDFORMAT_END
 95
        8
302
GRIDFORMAT
  1
GRIDFORMAT_BEGIN
 90
        0
 91
        1
 62
     0
 92
       -2
340
11
 93
        0
 40
0.045
309
GRIDFORMAT_END
 95
       16
302
GRIDFORMAT
  1
GRIDFORMAT_BEGIN
 90
        0
 91
        1
 62
     0
 92
       -2
340
11
 93
        0
 40
0.045
309
GRIDFORMAT_END
 95
       32
302
GRIDFORMAT
  1
GRIDFORMAT_BEGIN
 90
        0
 91
        1
 62
     0
 92
       -2
340
11
 93
        0
 40
0.045
309
GRIDFORMAT_END
309
TABLEFORMAT_END
  1
CELLSTYLE_BEGIN
 90
        2
 91
        1
300
_HEADER
309
CELLSTYLE_END
300
CELLSTYLE
  1
TABLEFORMAT_BEGIN
 90
        5
170
     1
 91
        0
 92
        0
 62
   257
 93
        1
300
CONTENTFORMAT
  1
CONTENTFORMAT_BEGIN
 90
        0
 91
        0
 92
        4
 93
        0
300

 40
0.0
140
1.0
 94
        2
 62
     0
340
17
144
4.5
309
CONTENTFORMAT_END
171
     1
301
MARGIN
  1
CELLMARGIN_BEGIN
 40
1.5
 40
1.5
 40
1.5
 40
1.5
 40
1.5
 40
1.5
309
CELLMARGIN_END
 94
        6
 95
        1
302
GRIDFORMAT
  1
GRIDFORMAT_BEGIN
 90
        0
 91
        1
 62
     0
 92
       -2
340
11
 93
        0
 40
0.045
309
GRIDFORMAT_END
 95
        2
302
GRIDFORMAT
  1
GRIDFORMAT_BEGIN
 90
        0
 91
        1
 62
     0
 92
       -2
340
11
 93
        0
 40
0.045
309
GRIDFORMAT_END
 95
        4
302
GRIDFORMAT
  1
GRIDFORMAT_BEGIN
 90
        0
 91
        1
 62
     0
 92
       -2
340
11
 93
        0
 40
0.045
309
GRIDFORMAT_END
 95
        8
302
GRIDFORMAT
  1
GRIDFORMAT_BEGIN
 90
        0
 91
        1
 62
     0
 92
       -2
340
11
 93
        0
 40
0.045
309
GRIDFORMAT_END
 95
       16
302
GRIDFORMAT
  1
GRIDFORMAT_BEGIN
 90
        0
 91
        1
 62
     0
 92
       -2
340
11
 93
        0
 40
0.045
309
GRIDFORMAT_END
 95
       32
302
GRIDFORMAT
  1
GRIDFORMAT_BEGIN
 90
        0
 91
        1
 62
     0
 92
       -2
340
11
 93
        0
 40
0.045
309
GRIDFORMAT_END
309
TABLEFORMAT_END
  1
CELLSTYLE_BEGIN
 90
        3
 91
        2
300
_DATA
309
CELLSTYLE_END
  0
ENDSEC
  0
EOF
