  0
SECTION
  2
HEADER
  9
$ACADVER
  1
AC1032
  9
$ACADMAINTVER
 90
        4
  9
$DWGCODEPAGE
  3
ANSI_932
  9
$LASTSAVEDBY
  1
9128
  9
$REQUIREDVERSIONS
160
                 0
  9
$INSBASE
 10
0.0
 20
0.0
 30
0.0
  9
$EXTMIN
 10
201.0284794431527
 20
48.20951660926426
 30
0.0
  9
$EXTMAX
 10
275.8992055118912
 20
245.5893020855125
 30
0.0
  9
$LIMMIN
 10
0.0
 20
0.0
  9
$LIMMAX
 10
0.0
 20
0.0
  9
$ORTHOMODE
 70
     0
  9
$REGENMODE
 70
     1
  9
$FILLMODE
 70
     1
  9
$QTEXTMODE
 70
     0
  9
$MIRRTEXT
 70
     1
  9
$LTSCALE
 40
5.08
  9
$ATTMODE
 70
     1
  9
$TEXTSIZE
 40
2.5
  9
$TRACEWID
 40
1.0
  9
$TEXTSTYLE
  7
Standard
  9
$CLAYER
  8
0
  9
$CELTYPE
  6
Continuous
  9
$CECOLOR
 62
   256
  9
$CELTSCALE
 40
1.0
  9
$DISPSILH
 70
     0
  9
$DIMSCALE
 40
1.0
  9
$DIMASZ
 40
0.18
  9
$DIMEXO
 40
0.0625
  9
$DIMDLI
 40
0.38
  9
$DIMRND
 40
0.0
  9
$DIMDLE
 40
0.0
  9
$DIMEXE
 40
0.18
  9
$DIMTP
 40
0.0
  9
$DIMTM
 40
0.0
  9
$DIMTXT
 40
0.18
  9
$DIMCEN
 40
0.09
  9
$DIMTSZ
 40
0.0
  9
$DIMTOL
 70
     0
  9
$DIMLIM
 70
     0
  9
$DIMTIH
 70
     1
  9
$DIMTOH
 70
     1
  9
$DIMSE1
 70
     0
  9
$DIMSE2
 70
     0
  9
$DIMTAD
 70
     0
  9
$DIMZIN
 70
     0
  9
$DIMBLK
  1

  9
$DIMASO
 70
     1
  9
$DIMSHO
 70
     1
  9
$DIMPOST
  1

  9
$DIMAPOST
  1

  9
$DIMALT
 70
     0
  9
$DIMALTD
 70
     2
  9
$DIMALTF
 40
25.4
  9
$DIMLFAC
 40
1.0
  9
$DIMTOFL
 70
     0
  9
$DIMTVP
 40
0.0
  9
$DIMTIX
 70
     0
  9
$DIMSOXD
 70
     0
  9
$DIMSAH
 70
     0
  9
$DIMBLK1
  1

  9
$DIMBLK2
  1

  9
$DIMSTYLE
  2
Standard
  9
$DIMCLRD
 70
     0
  9
$DIMCLRE
 70
     0
  9
$DIMCLRT
 70
     0
  9
$DIMTFAC
 40
1.0
  9
$DIMGAP
 40
0.09
  9
$DIMJUST
 70
     0
  9
$DIMSD1
 70
     0
  9
$DIMSD2
 70
     0
  9
$DIMTOLJ
 70
     1
  9
$DIMTZIN
 70
     0
  9
$DIMALTZ
 70
     0
  9
$DIMALTTZ
 70
     0
  9
$DIMUPT
 70
     0
  9
$DIMDEC
 70
     4
  9
$DIMTDEC
 70
     4
  9
$DIMALTU
 70
     2
  9
$DIMALTTD
 70
     2
  9
$DIMTXSTY
  7
Standard
  9
$DIMAUNIT
 70
     0
  9
$DIMADEC
 70
     0
  9
$DIMALTRND
 40
0.0
  9
$DIMAZIN
 70
     0
  9
$DIMDSEP
 70
     0
  9
$DIMATFIT
 70
     3
  9
$DIMFRAC
 70
     0
  9
$DIMLDRBLK
  1

  9
$DIMLUNIT
 70
     2
  9
$DIMLWD
 70
     0
  9
$DIMLWE
 70
     0
  9
$DIMTMOVE
 70
     0
  9
$DIMFXL
 40
1.0
  9
$DIMFXLON
 70
     0
  9
$DIMJOGANG
 40
0.7853981633974483
  9
$DIMTFILL
 70
     0
  9
$DIMTFILLCLR
 70
     0
  9
$DIMARCSYM
 70
     0
  9
$DIMLTYPE
  6

  9
$DIMLTEX1
  6

  9
$DIMLTEX2
  6

  9
$DIMTXTDIRECTION
 70
     0
  9
$LUNITS
 70
     2
  9
$LUPREC
 70
     4
  9
$SKETCHINC
 40
0.1
  9
$FILLETRAD
 40
0.0
  9
$AUNITS
 70
     0
  9
$AUPREC
 70
     0
  9
$MENU
  1
acad
  9
$ELEVATION
 40
0.0
  9
$PELEVATION
 40
0.0
  9
$THICKNESS
 40
0.0
  9
$LIMCHECK
 70
     0
  9
$CHAMFERA
 40
0.0
  9
$CHAMFERB
 40
0.0
  9
$CHAMFERC
 40
0.0
  9
$CHAMFERD
 40
0.0
  9
$SKPOLY
 70
     0
  9
$TDCREATE
 40
2447893.375
  9
$TDUCREATE
 40
0.0
  9
$TDUPDATE
 40
2459608.56761544
  9
$TDUUPDATE
 40
2459608.19261544
  9
$TDINDWG
 40
0.0007222917
  9
$TDUSRTIMER
 40
0.0000832523
  9
$USRTIMER
 70
     1
  9
$ANGBASE
 50
0.0
  9
$ANGDIR
 70
     0
  9
$PDMODE
 70
     1
  9
$PDSIZE
 40
-2.0
  9
$PLINEWID
 40
0.0
  9
$SPLFRAME
 70
     0
  9
$SPLINETYPE
 70
     6
  9
$SPLINESEGS
 70
     8
  9
$HANDSEED
  5
30D
  9
$SURFTAB1
 70
     6
  9
$SURFTAB2
 70
     6
  9
$SURFTYPE
 70
     6
  9
$SURFU
 70
     6
  9
$SURFV
 70
     6
  9
$UCSBASE
  2

  9
$UCSNAME
  2

  9
$UCSORG
 10
0.0
 20
0.0
 30
0.0
  9
$UCSXDIR
 10
1.0
 20
0.0
 30
0.0
  9
$UCSYDIR
 10
0.0
 20
1.0
 30
0.0
  9
$UCSORTHOREF
  2

  9
$UCSORTHOVIEW
 70
     0
  9
$UCSORGTOP
 10
0.0
 20
0.0
 30
0.0
  9
$UCSORGBOTTOM
 10
0.0
 20
0.0
 30
0.0
  9
$UCSORGLEFT
 10
0.0
 20
0.0
 30
0.0
  9
$UCSORGRIGHT
 10
0.0
 20
0.0
 30
0.0
  9
$UCSORGFRONT
 10
0.0
 20
0.0
 30
0.0
  9
$UCSORGBACK
 10
0.0
 20
0.0
 30
0.0
  9
$PUCSBASE
  2

  9
$PUCSNAME
  2

  9
$PUCSORG
 10
0.0
 20
0.0
 30
0.0
  9
$PUCSXDIR
 10
1.0
 20
0.0
 30
0.0
  9
$PUCSYDIR
 10
0.0
 20
1.0
 30
0.0
  9
$PUCSORTHOREF
  2

  9
$PUCSORTHOVIEW
 70
     0
  9
$PUCSORGTOP
 10
0.0
 20
0.0
 30
0.0
  9
$PUCSORGBOTTOM
 10
0.0
 20
0.0
 30
0.0
  9
$PUCSORGLEFT
 10
0.0
 20
0.0
 30
0.0
  9
$PUCSORGRIGHT
 10
0.0
 20
0.0
 30
0.0
  9
$PUCSORGFRONT
 10
0.0
 20
0.0
 30
0.0
  9
$PUCSORGBACK
 10
0.0
 20
0.0
 30
0.0
  9
$USERI1
 70
     0
  9
$USERI2
 70
     0
  9
$USERI3
 70
     0
  9
$USERI4
 70
     0
  9
$USERI5
 70
     0
  9
$USERR1
 40
0.0
  9
$USERR2
 40
0.0
  9
$USERR3
 40
0.0
  9
$USERR4
 40
0.0
  9
$USERR5
 40
0.0
  9
$WORLDVIEW
 70
     1
  9
$SHADEDGE
 70
     3
  9
$SHADEDIF
 70
    70
  9
$TILEMODE
 70
     1
  9
$MAXACTVP
 70
    16
  9
$PINSBASE
 10
0.0
 20
0.0
 30
0.0
  9
$PLIMCHECK
 70
     0
  9
$PEXTMIN
 10
1.000000000000000E+20
 20
1.000000000000000E+20
 30
1.000000000000000E+20
  9
$PEXTMAX
 10
-1.000000000000000E+20
 20
-1.000000000000000E+20
 30
-1.000000000000000E+20
  9
$PLIMMIN
 10
0.0
 20
0.0
  9
$PLIMMAX
 10
0.0
 20
0.0
  9
$UNITMODE
 70
     0
  9
$VISRETAIN
 70
     0
  9
$PLINEGEN
 70
     1
  9
$PSLTSCALE
 70
     0
  9
$TREEDEPTH
 70
  3020
  9
$CMLSTYLE
  2
Standard
  9
$CMLJUST
 70
     0
  9
$CMLSCALE
 40
1.0
  9
$PROXYGRAPHICS
 70
     0
  9
$MEASUREMENT
 70
     1
  9
$CELWEIGHT
370
     0
  9
$ENDCAPS
280
     0
  9
$JOINSTYLE
280
     0
  9
$LWDISPLAY
290
     1
  9
$INSUNITS
 70
     4
  9
$HYPERLINKBASE
  1

  9
$STYLESHEET
  1

  9
$XEDIT
290
     1
  9
$CEPSNTYPE
380
     0
  9
$PSTYLEMODE
290
     1
  9
$FINGERPRINTGUID
  2

  9
$VERSIONGUID
  2

  9
$EXTNAMES
290
     1
  9
$PSVPSCALE
 40
0.0
  9
$OLESTARTUP
290
     0
  9
$SORTENTS
280
   127
  9
$INDEXCTL
280
     0
  9
$HIDETEXT
280
     1
  9
$XCLIPFRAME
280
     2
  9
$HALOGAP
280
     0
  9
$OBSCOLOR
 70
   257
  9
$OBSLTYPE
280
     0
  9
$INTERSECTIONDISPLAY
280
     0
  9
$INTERSECTIONCOLOR
 70
   257
  9
$DIMASSOC
280
     2
  9
$PROJECTNAME
  1

  9
$CAMERADISPLAY
290
     0
  9
$LENSLENGTH
 40
50.0
  9
$CAMERAHEIGHT
 40
0.0
  9
$STEPSPERSEC
 40
2.0
  9
$STEPSIZE
 40
6.0
  9
$3DDWFPREC
 40
2.0
  9
$PSOLWIDTH
 40
0.25
  9
$PSOLHEIGHT
 40
4.0
  9
$LOFTANG1
 40
1.570796326794897
  9
$LOFTANG2
 40
1.570796326794897
  9
$LOFTMAG1
 40
0.0
  9
$LOFTMAG2
 40
0.0
  9
$LOFTPARAM
 70
     7
  9
$LOFTNORMALS
280
     1
  9
$LATITUDE
 40
37.795
  9
$LONGITUDE
 40
-122.394
  9
$NORTHDIRECTION
 40
0.0
  9
$TIMEZONE
 70
 -8000
  9
$LIGHTGLYPHDISPLAY
280
     1
  9
$TILEMODELIGHTSYNCH
280
     1
  9
$SOLIDHIST
280
     0
  9
$SHOWHIST
280
     1
  9
$DWFFRAME
280
     2
  9
$DGNFRAME
280
     2
  9
$REALWORLDSCALE
290
     1
  9
$INTERFERECOLOR
 62
   256
  9
$CSHADOW
280
     0
  9
$SHADOWPLANELOCATION
 40
0.0
  0
ENDSEC
  0
SECTION
  2
CLASSES
  0
CLASS
  1
LWPOLYLINE
  2
AcDbPolyline
  3
ObjectDBX Classes
 90
        0
 91
        1
280
     0
281
     1
  0
CLASS
  1
IMAGE
  2
AcDbRasterImage
  3
ISM
 90
      127
 91
        4
280
     0
281
     1
  0
CLASS
  1
OLE2FRAME
  2
AcDbOle2Frame
  3
ObjectDBX Classes
 90
        0
 91
        1
280
     0
281
     1
  0
CLASS
  1
HATCH
  2
AcDbHatch
  3
ObjectDBX Classes
 90
        0
 91
        1
280
     0
281
     1
  0
CLASS
  1
DICTIONARYVAR
  2
AcDbDictionaryVar
  3
ObjectDBX Classes
 90
        0
 91
        3
280
     0
281
     0
  0
CLASS
  1
RASTERVARIABLES
  2
AcDbRasterVariables
  3
ISM
 90
        0
 91
        3
280
     0
281
     0
  0
CLASS
  1
IMAGEDEF
  2
AcDbRasterImageDef
  3
ISM
 90
        0
 91
        3
280
     0
281
     0
  0
CLASS
  1
IMAGEDEF_REACTOR
  2
AcDbRasterImageDefReactor
  3
ISM
 90
        1
 91
        3
280
     0
281
     0
  0
CLASS
  1
IDBUFFER
  2
AcDbIdBuffer
  3
ObjectDBX Classes
 90
        0
 91
        3
280
     0
281
     0
  0
CLASS
  1
SPATIAL_FILTER
  2
AcDbSpatialFilter
  3
ObjectDBX Classes
 90
        0
 91
        3
280
     0
281
     0
  0
CLASS
  1
XRECORD
  2
AcDbXrecord
  3
ObjectDBX Classes
 90
        0
 91
        1
280
     0
281
     0
  0
CLASS
  1
SORTENTSTABLE
  2
AcDbSortentsTable
  3
ObjectDBX Classes
 90
        0
 91
        3
280
     0
281
     0
  0
CLASS
  1
LAYER_INDEX
  2
AcDbLayerIndex
  3
ObjectDBX Classes
 90
        0
 91
        3
280
     0
281
     0
  0
CLASS
  1
SPATIAL_INDEX
  2
AcDbSpatialIndex
  3
AutoCAD 2000
 90
        0
 91
        3
280
     0
281
     0
  0
CLASS
  1
OBJECT_PTR
  2
CAseDLPNTableRecord
  3
ASE-LPNTableRecord
 90
        1
 91
        3
280
     0
281
     0
  0
CLASS
  1
LAYOUT
  2
AcDbLayout
  3
ObjectDBX Classes
 90
        0
 91
        1
280
     0
281
     0
  0
CLASS
  1
PLOTSETTINGS
  2
AcDbPlotSettings
  3
ObjectDBX Classes
 90
        0
 91
        3
280
     0
281
     0
  0
CLASS
  1
ACDBDICTIONARYWDFLT
  2
AcDbDictionaryWithDefault
  3
ObjectDBX Classes
 90
        0
 91
        3
280
     0
281
     0
  0
CLASS
  1
ACDBPLACEHOLDER
  2
AcDbPlaceHolder
  3
ObjectDBX Classes
 90
        0
 91
        1
280
     0
281
     0
  0
CLASS
  1
VBA_PROJECT
  2
AcDbVbaProject
  3
ObjectDBX Classes
 90
        0
 91
        1
280
     0
281
     0
  0
CLASS
  1
WIPEOUT
  2
AcDbWipeout
  3
WipeOut|AutoCAD Express Tool|expresstools@autodesk.com
 90
      127
 91
        3
280
     0
281
     1
  0
CLASS
  1
WIPEOUTVARIABLES
  2
AcDbWipeoutVariables
  3
WipeOut|AutoCAD Express Tool|expresstools@autodesk.com
 90
        0
 91
        3
280
     0
281
     0
  0
CLASS
  1
RTEXT
  2
RText
  3
RText|AutoCAD Express Tool|expresstools@autodesk.com
 90
        0
 91
        3
280
     0
281
     1
  0
CLASS
  1
ARCALIGNEDTEXT
  2
AcDbArcAlignedText
  3
ATEXT|AutoCAD Express Tool|expresstools@autodesk.com
 90
        0
 91
        3
280
     0
281
     1
  0
CLASS
  1
SCALE
  2
AcDbScale
  3
ObjectDBX Classes
 90
     1153
 91
        3
280
     0
281
     0
  0
CLASS
  1
VISUALSTYLE
  2
AcDbVisualStyle
  3
ObjectDBX Classes
 90
     4095
 91
        3
280
     0
281
     0
  0
CLASS
  1
MATERIAL
  2
AcDbMaterial
  3
ObjectDBX Classes
 90
     1153
 91
        3
280
     0
281
     0
  0
CLASS
  1
TABLESTYLE
  2
AcDbTableStyle
  3
ObjectDBX Classes
 90
     4095
 91
        3
280
     0
281
     0
  0
CLASS
  1
MLEADERSTYLE
  2
AcDbMLeaderStyle
  3
ACDB_MLEADERSTYLE_CLASS
 90
     4095
 91
        3
280
     0
281
     0
  0
CLASS
  1
SUN
  2
AcDbSun
  3
SCENEOE
 90
     1153
 91
        3
280
     0
281
     0
  0
CLASS
  1
CELLSTYLEMAP
  2
AcDbCellStyleMap
  3
ObjectDBX Classes
 90
     1152
 91
        3
280
     0
281
     0
  0
ENDSEC
  0
SECTION
  2
TABLES
  0
TABLE
  2
VPORT
  5
7
330
0
100
AcDbSymbolTable
 70
     1
  0
VPORT
  5
15
330
7
100
AcDbSymbolTableRecord
100
AcDbViewportTableRecord
  2
*ACTIVE
 70
     0
 10
0.0
 20
0.0
 11
1.0
 21
1.0
 12
242.5797651649719
 22
119.4553878784356
 13
0.0
 23
0.0
 14
1.0
 24
1.0
 15
0.0
 25
0.0
 16
0.0
 26
0.0
 36
1.0
 17
0.0
 27
0.0
 37
0.0
 40
426.6518437933921
 41
0.9410852713178295
 42
50.0
 43
0.0
 44
0.0
 50
0.0
 51
0.0
 71
    16
 72
   100
 73
     1
 74
     1
 75
     0
 76
     0
 77
     0
 78
     0
281
     0
 65
     0
110
0.0
120
0.0
130
0.0
111
1.0
121
0.0
131
0.0
112
0.0
122
1.0
132
0.0
 79
     0
146
0.0
348
2D4
 60
     3
 61
     5
292
     1
282
     1
141
0.0
142
0.0
 63
   256
361
2F8
  0
ENDTAB
  0
TABLE
  2
LTYPE
  5
4
330
0
100
AcDbSymbolTable
 70
    12
  0
LTYPE
  5
11
330
4
100
AcDbSymbolTableRecord
100
AcDbLinetypeTableRecord
  2
ByBlock
 70
     0
  3

 72
    65
 73
     0
 40
0.0
  0
LTYPE
  5
12
330
4
100
AcDbSymbolTableRecord
100
AcDbLinetypeTableRecord
  2
ByLayer
 70
     0
  3

 72
    65
 73
     0
 40
0.0
  0
LTYPE
  5
13
330
4
100
AcDbSymbolTableRecord
100
AcDbLinetypeTableRecord
  2
Continuous
 70
     0
  3
Solid line
 72
    65
 73
     0
 40
0.0
  0
LTYPE
  5
26
330
4
100
AcDbSymbolTableRecord
100
AcDbLinetypeTableRecord
  2
STYLE_01
 70
     0
  3

 72
    65
 73
     2
 40
0.075
 49
0.05
 74
     0
 49
-0.025
 74
     0
  0
LTYPE
  5
27
330
4
100
AcDbSymbolTableRecord
100
AcDbLinetypeTableRecord
  2
STYLE_02
 70
     0
  3

 72
    65
 73
     6
 40
0.4999999999999999
 49
0.25
 74
     0
 49
-0.05
 74
     0
 49
0.05
 74
     0
 49
-0.05
 74
     0
 49
0.05
 74
     0
 49
-0.05
 74
     0
  0
LTYPE
  5
28
330
4
100
AcDbSymbolTableRecord
100
AcDbLinetypeTableRecord
  2
STYLE_03
 70
     0
  3

 72
    65
 73
     4
 40
0.3999999999999999
 49
0.25
 74
     0
 49
-0.05
 74
     0
 49
0.05
 74
     0
 49
-0.05
 74
     0
  0
LTYPE
  5
29
330
4
100
AcDbSymbolTableRecord
100
AcDbLinetypeTableRecord
  2
STYLE_04
 70
     0
  3

 72
    65
 73
     4
 40
0.7999999999999998
 49
0.4999999999999999
 74
     0
 49
-0.1
 74
     0
 49
0.1
 74
     0
 49
-0.1
 74
     0
  0
LTYPE
  5
2A
330
4
100
AcDbSymbolTableRecord
100
AcDbLinetypeTableRecord
  2
STYLE_05
 70
     0
  3

 72
    65
 73
     2
 40
0.025
 49
0.0005
 74
     0
 49
-0.0245
 74
     0
  0
LTYPE
  5
2B
330
4
100
AcDbSymbolTableRecord
100
AcDbLinetypeTableRecord
  2
STYLE_06
 70
     0
  3

 72
    65
 73
     4
 40
1.04164
 49
0.625
 74
     0
 49
-0.20828
 74
     0
 49
0.06943
 74
     0
 49
-0.13893
 74
     0
  0
LTYPE
  5
2C
330
4
100
AcDbSymbolTableRecord
100
AcDbLinetypeTableRecord
  2
STYLE_07
 70
     0
  3

 72
    65
 73
     6
 40
1.875
 49
0.625
 74
     0
 49
-0.20828
 74
     0
 49
0.6250000000000001
 74
     0
 49
-0.2083599999999999
 74
     0
 49
0.06943
 74
     0
 49
-0.1389299999999999
 74
     0
  0
LTYPE
  5
2D
330
4
100
AcDbSymbolTableRecord
100
AcDbLinetypeTableRecord
  2
STYLE_08
 70
     0
  3

 72
    65
 73
     6
 40
1.25
 49
0.625
 74
     0
 49
-0.20828
 74
     0
 49
0.06943
 74
     0
 49
-0.13893
 74
     0
 49
0.0694299999999999
 74
     0
 49
-0.13893
 74
     0
  0
LTYPE
  5
2E
330
4
100
AcDbSymbolTableRecord
100
AcDbLinetypeTableRecord
  2
STYLE_09
 70
     0
  3

 72
    65
 73
     4
 40
5.0
 49
3.75
 74
     0
 49
-0.2777849999999998
 74
     0
 49
0.6944300000000003
 74
     0
 49
-0.2777849999999998
 74
     0
  0
LTYPE
  5
2F
330
4
100
AcDbSymbolTableRecord
100
AcDbLinetypeTableRecord
  2
STYLE_10
 70
     0
  3

 72
    65
 73
     6
 40
5.9375
 49
3.75
 74
     0
 49
-0.2777849999999998
 74
     0
 49
0.6944300000000003
 74
     0
 49
-0.2777849999999998
 74
     0
 49
0.625
 74
     0
 49
-0.3125
 74
     0
  0
LTYPE
  5
30
330
4
100
AcDbSymbolTableRecord
100
AcDbLinetypeTableRecord
  2
STYLE_11
 70
     0
  3

 72
    65
 73
     2
 40
0.1875
 49
0.125
 74
     0
 49
-0.0625
 74
     0
  0
ENDTAB
  0
TABLE
  2
LAYER
  5
2
330
0
100
AcDbSymbolTable
 70
     6
  0
LAYER
  5
14
330
2
100
AcDbSymbolTableRecord
100
AcDbLayerTableRecord
  2
0
 70
     0
 62
     7
  6
Continuous
370
    15
390
1D
347
2EB
348
0
  0
LAYER
  5
31
330
2
100
AcDbSymbolTableRecord
100
AcDbLayerTableRecord
  2
Defpoints
 70
     0
 62
     7
  6
Continuous
290
     0
370
    -3
390
1D
347
2EB
348
0
  0
LAYER
  5
32
330
2
100
AcDbSymbolTableRecord
100
AcDbLayerTableRecord
  2
一般
 70
     0
 62
     7
  6
Continuous
370
     5
390
1D
347
2EB
348
0
  0
LAYER
  5
33
330
2
100
AcDbSymbolTableRecord
100
AcDbLayerTableRecord
  2
寸法
 70
     0
 62
     7
  6
Continuous
370
     5
390
1D
347
2EB
348
0
  0
LAYER
  5
34
330
2
100
AcDbSymbolTableRecord
100
AcDbLayerTableRecord
  2
レイヤー_1
 70
     0
 62
    19
  6
Continuous
370
    15
390
1D
347
2EB
348
0
  0
LAYER
  5
35
330
2
100
AcDbSymbolTableRecord
100
AcDbLayerTableRecord
  2
FORMAT
 70
     0
 62
     7
  6
Continuous
370
    15
390
1D
347
2EB
348
0
  0
ENDTAB
  0
TABLE
  2
STYLE
  5
3
330
0
100
AcDbSymbolTable
 70
     2
  0
STYLE
  5
17
330
3
100
AcDbSymbolTableRecord
100
AcDbTextStyleTableRecord
  2
Standard
 70
     0
 40
0.0
 41
1.0
 50
0.0
 71
     0
 42
2.5
  3
txt
  4
BIGFONT.SHX
  0
STYLE
  5
25
330
3
100
AcDbSymbolTableRecord
100
AcDbTextStyleTableRecord
  2
Arial
 70
     0
 40
0.0
 41
1.0
 50
0.0
 71
     0
 42
0.0
  3
Arial
  4

1001
ACAD
1000
Arial
1071
        0
  0
ENDTAB
  0
TABLE
  2
VIEW
  5
5
330
0
100
AcDbSymbolTable
 70
     0
  0
ENDTAB
  0
TABLE
  2
UCS
  5
6
330
0
100
AcDbSymbolTable
 70
     0
  0
ENDTAB
  0
TABLE
  2
APPID
  5
8
330
0
100
AcDbSymbolTable
 70
     2
  0
APPID
  5
16
330
8
100
AcDbSymbolTableRecord
100
AcDbRegAppTableRecord
  2
ACAD
 70
     0
  0
APPID
  5
309
330
8
100
AcDbSymbolTableRecord
100
AcDbRegAppTableRecord
  2
PLOTTRANSPARENCY
 70
     0
  0
ENDTAB
  0
TABLE
  2
DIMSTYLE
  5
9
330
0
100
AcDbSymbolTable
 70
     1
100
AcDbDimStyleTable
  0
DIMSTYLE
105
18
330
9
100
AcDbSymbolTableRecord
100
AcDbDimStyleTableRecord
  2
Standard
 70
     0
178
     0
340
17
  0
ENDTAB
  0
TABLE
  2
BLOCK_RECORD
  5
1
330
0
100
AcDbSymbolTable
 70
     1
  0
BLOCK_RECORD
  5
A
330
1
100
AcDbSymbolTableRecord
100
AcDbBlockTableRecord
  2
*MODEL_SPACE
340
20
 70
     0
280
     1
281
     0
  0
BLOCK_RECORD
  5
B
330
1
100
AcDbSymbolTableRecord
100
AcDbBlockTableRecord
  2
*PAPER_SPACE
340
21
 70
     0
280
     1
281
     0
  0
BLOCK_RECORD
  5
24
330
1
100
AcDbSymbolTableRecord
100
AcDbBlockTableRecord
  2
*U0
340
0
102
{BLKREFS
331
2AC
102
}
 70
     0
280
     1
281
     0
  0
ENDTAB
  0
ENDSEC
  0
SECTION
  2
BLOCKS
  0
BLOCK
  5
D
330
A
100
AcDbEntity
  8
0
100
AcDbBlockBegin
  2
*MODEL_SPACE
 70
     0
 10
0.0
 20
0.0
 30
0.0
  3
*MODEL_SPACE
  1

  0
ENDBLK
  5
E
330
A
100
AcDbEntity
  8
0
100
AcDbBlockEnd
  0
BLOCK
  5
F
330
B
100
AcDbEntity
 67
     1
  8
0
100
AcDbBlockBegin
  2
*PAPER_SPACE
 70
     0
 10
0.0
 20
0.0
 30
0.0
  3
*PAPER_SPACE
  1

  0
ENDBLK
  5
10
330
B
100
AcDbEntity
 67
     1
  8
0
100
AcDbBlockEnd
  0
BLOCK
  5
36
330
24
100
AcDbEntity
  8
一般
100
AcDbBlockBegin
  2
*U0
 70
     1
 10
0.0
 20
0.0
 30
0.0
  3
*U0
  1

  0
SPLINE
  5
37
330
24
100
AcDbEntity
  8
0
  6
Continuous
 62
     7
370
    15
100
AcDbSpline
210
0.0
220
0.0
230
1.0
 70
     8
 71
     2
 72
    11
 73
     8
 74
     0
 42
0.000000001
 43
0.000001
 40
0.0
 40
0.0
 40
0.0
 40
1.0
 40
1.0
 40
2.0
 40
3.0
 40
3.0
 40
4.0
 40
4.0
 40
4.0
 10
0.6339119534582665
 20
448.1312786584385
 30
0.0
 10
0.6453427093703681
 20
447.9931888543787
 30
0.0
 10
0.6567734652824697
 20
447.8550990503188
 30
0.0
 10
2.27346900276558
 20
427.4037443625725
 30
0.0
 10
6.194750474311434
 20
400.0729987364507
 30
0.0
 10
7.360952782180505
 20
392.5477185604263
 30
0.0
 10
7.361058885728482
 20
392.5470291368257
 30
0.0
 10
7.36116498927646
 20
392.5463397132251
 30
0.0
  0
SPLINE
  5
38
330
24
100
AcDbEntity
  8
0
  6
Continuous
 62
     7
370
    15
100
AcDbSpline
210
0.0
220
0.0
230
1.0
 70
     8
 71
     2
 72
    17
 73
    14
 74
     0
 42
0.000000001
 43
0.000001
 40
0.0
 40
0.0
 40
0.0
 40
1.0
 40
1.0
 40
2.0
 40
3.0
 40
4.0
 40
5.0
 40
6.0
 40
7.0
 40
8.0
 40
9.0
 40
9.0
 40
10.0
 40
10.0
 40
10.0
 10
26.78527425295039
 20
399.7123839833139
 30
0.0
 10
26.78641956481835
 20
399.702183003281
 30
0.0
 10
26.7875648766863
 20
399.6919820232481
 30
0.0
 10
26.83121574536432
 20
399.38621786305
 30
0.0
 10
26.79877197377033
 20
398.5368639424337
 30
0.0
 10
25.75103857104074
 20
397.048006594953
 30
0.0
 10
22.66101031338536
 20
395.2892976570258
 30
0.0
 10
19.04792390003496
 20
394.1845006404883
 30
0.0
 10
15.97415195777745
 20
393.4846818715027
 30
0.0
 10
11.81712605521267
 20
392.8477489213976
 30
0.0
 10
8.455271268172112
 20
392.6080454241705
 30
0.0
 10
7.429495209898334
 20
392.5502773983533
 30
0.0
 10
7.395327473149507
 20
392.5483084343505
 30
0.0
 10
7.36115973640068
 20
392.5463394703477
 30
0.0
  0
SPLINE
  5
39
330
24
100
AcDbEntity
  8
0
  6
Continuous
 62
     7
370
    15
100
AcDbSpline
210
0.0
220
0.0
230
1.0
 70
     8
 71
     2
 72
    11
 73
     8
 74
     0
 42
0.000000001
 43
0.000001
 40
0.0
 40
0.0
 40
0.0
 40
1.0
 40
1.0
 40
2.0
 40
3.0
 40
3.0
 40
4.0
 40
4.0
 40
4.0
 10
19.85739949922691
 20
452.0990627254139
 30
0.0
 10
19.88262406032942
 20
451.9701017373627
 30
0.0
 10
19.90784862143192
 20
451.8411407493115
 30
0.0
 10
22.48198579911474
 20
438.9982215085752
 30
0.0
 10
26.2089519836166
 20
413.079034267322
 30
0.0
 10
26.78521938228283
 20
399.7137111064185
 30
0.0
 10
26.7852466276816
 20
399.7130483223151
 30
0.0
 10
26.78527387308037
 20
399.7123855382117
 30
0.0
  0
SPLINE
  5
3A
330
24
100
AcDbEntity
  8
0
  6
Continuous
 62
     7
370
    15
100
AcDbSpline
210
0.0
220
0.0
230
1.0
 70
     8
 71
     2
 72
    11
 73
     8
 74
     0
 42
0.000000001
 43
0.000001
 40
0.0
 40
0.0
 40
0.0
 40
1.0
 40
1.0
 40
2.0
 40
3.0
 40
3.0
 40
4.0
 40
4.0
 40
4.0
 10
10.31584787153957
 20
448.578942620316
 30
0.0
 10
10.36225134410012
 20
448.5965871299907
 30
0.0
 10
10.40865481666066
 20
448.6142316396654
 30
0.0
 10
13.85183527707983
 20
449.9329237899235
 30
0.0
 10
18.4068940869077
 20
451.5811829068557
 30
0.0
 10
19.76671490196719
 20
452.0666569016291
 30
0.0
 10
19.81205720059705
 20
452.0828598135215
 30
0.0
 10
19.85739949922691
 20
452.0990627254139
 30
0.0
  0
SPLINE
  5
3B
330
24
100
AcDbEntity
  8
0
  6
Continuous
 62
     7
370
    15
100
AcDbSpline
210
0.0
220
0.0
230
1.0
 70
     8
 71
     2
 72
    12
 73
     9
 74
     0
 42
0.000000001
 43
0.000001
 40
0.0
 40
0.0
 40
0.0
 40
1.0
 40
1.0
 40
2.0
 40
3.0
 40
4.0
 40
4.0
 40
5.0
 40
5.0
 40
5.0
 10
7.36116498927646
 20
392.5463397132251
 30
0.0
 10
7.3612315998501
 20
392.5470371226138
 30
0.0
 10
7.36129821042374
 20
392.5477345320026
 30
0.0
 10
7.92294549420609
 20
398.3741955198852
 30
0.0
 10
9.980544514021005
 20
422.6422894673208
 30
0.0
 10
10.28750576675185
 20
444.6959482823863
 30
0.0
 10
10.31367332803467
 20
448.3016054193538
 30
0.0
 10
10.31476059978712
 20
448.4402740198349
 30
0.0
 10
10.31584787153957
 20
448.578942620316
 30
0.0
  0
SPLINE
  5
3C
330
24
100
AcDbEntity
  8
0
  6
Continuous
 62
     7
370
    15
100
AcDbSpline
210
0.0
220
0.0
230
1.0
 70
     8
 71
     2
 72
    16
 73
    13
 74
     0
 42
0.000000001
 43
0.000001
 40
0.0
 40
0.0
 40
0.0
 40
1.0
 40
1.0
 40
2.0
 40
3.0
 40
4.0
 40
5.0
 40
6.0
 40
7.0
 40
8.0
 40
8.0
 40
9.0
 40
9.0
 40
9.0
 10
8.782435750604748
 20
450.6776120838977
 30
0.0
 10
8.771338840741521
 20
450.6742905143195
 30
0.0
 10
8.760241930878294
 20
450.6709689447414
 30
0.0
 10
8.473056459324937
 20
450.5840345875138
 30
0.0
 10
7.563097317716768
 20
450.3255227952991
 30
0.0
 10
6.541258764943962
 20
450.1887892455711
 30
0.0
 10
5.359301711239425
 20
450.0729982989851
 30
0.0
 10
3.924278071704123
 20
450.0931507740893
 30
0.0
 10
2.827078201007282
 20
450.176381972042
 30
0.0
 10
2.085241121633601
 20
450.3143911001778
 30
0.0
 10
1.880449541083237
 20
450.3551495963263
 30
0.0
 10
1.873608436287043
 20
450.3565008558957
 30
0.0
 10
1.866767331490848
 20
450.357852115465
 30
0.0
  0
SPLINE
  5
3D
330
24
100
AcDbEntity
  8
0
  6
Continuous
 62
     7
370
    15
100
AcDbSpline
210
0.0
220
0.0
230
1.0
 70
     8
 71
     2
 72
    16
 73
    13
 74
     0
 42
0.000000001
 43
0.000001
 40
0.0
 40
0.0
 40
0.0
 40
1.0
 40
1.0
 40
2.0
 40
3.0
 40
4.0
 40
5.0
 40
6.0
 40
7.0
 40
8.0
 40
8.0
 40
9.0
 40
9.0
 40
9.0
 10
0.6339119534582665
 20
448.1312786584385
 30
0.0
 10
0.6442179044451564
 20
448.1295280704734
 30
0.0
 10
0.6545238554320463
 20
448.1277774825082
 30
0.0
 10
0.9625044011627892
 20
448.0747187844613
 30
0.0
 10
2.199418992851236
 20
447.8807946966906
 30
0.0
 10
4.01719890171313
 20
447.8052214853712
 30
0.0
 10
5.460438381935148
 20
447.8246408927862
 30
0.0
 10
6.902412584232536
 20
447.9200703788824
 30
0.0
 10
8.522161071006906
 20
448.1268111627139
 30
0.0
 10
9.782336389466138
 20
448.4331418924908
 30
0.0
 10
10.28234255656508
 20
448.5698911361719
 30
0.0
 10
10.29909521405233
 20
448.5744168782439
 30
0.0
 10
10.31584787153957
 20
448.578942620316
 30
0.0
  0
ARC
  5
3E
330
24
100
AcDbEntity
  8
0
  6
Continuous
 62
     7
370
    15
100
AcDbCircle
 10
3.10653234647458
 20
448.2167901071386
 30
0.0
 40
2.474098586427539
100
AcDbArc
 50
120.0726472810039
 51
181.9806895034974
  0
SPLINE
  5
3F
330
24
100
AcDbEntity
  8
0
  6
Continuous
 62
     7
370
    15
100
AcDbSpline
210
0.0
220
0.0
230
1.0
 70
     8
 71
     2
 72
    10
 73
     7
 74
     0
 42
0.000000001
 43
0.000001
 40
0.0
 40
0.0
 40
0.0
 40
1.0
 40
1.0
 40
2.0
 40
2.0
 40
3.0
 40
3.0
 40
3.0
 10
1.866767331490848
 20
450.357852115465
 30
0.0
 10
1.808991610758483
 20
450.3709625762442
 30
0.0
 10
1.751215890026117
 20
450.3840730370234
 30
0.0
 10
-3.68918513429702
 20
451.613330668235
 30
0.0
 10
-9.003468052737105
 20
452.8891327588101
 30
0.0
 10
-9.06010377084391
 20
452.9026719036526
 30
0.0
 10
-9.116739488950714
 20
452.9162110484951
 30
0.0
  0
SPLINE
  5
40
330
24
100
AcDbEntity
  8
0
  6
Continuous
 62
     7
370
    15
100
AcDbSpline
210
0.0
220
0.0
230
1.0
 70
     8
 71
     2
 72
    10
 73
     7
 74
     0
 42
0.000000001
 43
0.000001
 40
0.0
 40
0.0
 40
0.0
 40
1.0
 40
1.0
 40
2.0
 40
2.0
 40
3.0
 40
3.0
 40
3.0
 10
-10.39524334442143
 20
450.7002703695005
 30
0.0
 10
-10.33833166993367
 20
450.687616183299
 30
0.0
 10
-10.2814199954459
 20
450.6749619970976
 30
0.0
 10
-4.940614075599512
 20
449.4967834581003
 30
0.0
 10
0.5179614028552919
 20
448.1594907182248
 30
0.0
 10
0.5759366781567792
 20
448.1453846883317
 30
0.0
 10
0.6339119534582665
 20
448.1312786584385
 30
0.0
  0
ARC
  5
41
330
24
100
AcDbEntity
  8
0
  6
Continuous
 62
     7
370
    15
100
AcDbCircle
 10
7.964609870674451
 20
448.4705245351386
 30
0.0
 40
2.353736310158988
100
AcDbArc
 50
2.640099244600878
 51
69.66805082449915
  0
SPLINE
  5
42
330
24
100
AcDbEntity
  8
0
  6
Continuous
 62
     7
370
    15
100
AcDbSpline
210
0.0
220
0.0
230
1.0
 70
     8
 71
     2
 72
    10
 73
     7
 74
     0
 42
0.000000001
 43
0.000001
 40
0.0
 40
0.0
 40
0.0
 40
1.0
 40
1.0
 40
2.0
 40
2.0
 40
3.0
 40
3.0
 40
3.0
 10
18.28449593108331
 20
454.1831627937099
 30
0.0
 10
18.23943365448696
 20
454.1661678428608
 30
0.0
 10
18.1943713778906
 20
454.1491728920116
 30
0.0
 10
13.60600769822446
 20
452.4135034409223
 30
0.0
 10
8.875043317171787
 20
450.7110365739222
 30
0.0
 10
8.828739533888267
 20
450.6943243289099
 30
0.0
 10
8.782435750604748
 20
450.6776120838977
 30
0.0
  0
POLYLINE
  5
43
330
24
100
AcDbEntity
  8
0
  6
Continuous
 62
     7
370
    15
100
AcDb2dPolyline
 66
     1
 10
0.0
 20
0.0
 30
0.0
 75
     5
  0
VERTEX
  5
44
330
43
100
AcDbEntity
  8
0
  6
Continuous
 62
     7
370
    15
100
AcDbVertex
100
AcDb2dVertex
 10
-15.09131710032551
 20
397.7761379159388
 30
0.0
  0
VERTEX
  5
45
330
43
100
AcDbEntity
  8
0
  6
Continuous
 62
     7
370
    15
100
AcDbVertex
100
AcDb2dVertex
 10
-15.10982740612548
 20
398.5934098209386
 30
0.0
  0
VERTEX
  5
46
330
43
100
AcDbEntity
  8
0
  6
Continuous
 62
     7
370
    15
100
AcDbVertex
100
AcDb2dVertex
 10
-14.46684332752551
 20
399.8197712319386
 30
0.0
  0
VERTEX
  5
47
330
43
100
AcDbEntity
  8
0
  6
Continuous
 62
     7
370
    15
100
AcDbVertex
100
AcDb2dVertex
 10
-13.04320972992554
 20
401.0048010067387
 30
0.0
  0
VERTEX
  5
48
330
43
100
AcDbEntity
  8
0
  6
Continuous
 62
     7
370
    15
100
AcDbVertex
100
AcDb2dVertex
 10
-10.89363738912556
 20
402.1029596749386
 30
0.0
  0
VERTEX
  5
49
330
43
100
AcDbEntity
  8
0
  6
Continuous
 62
     7
370
    15
100
AcDbVertex
100
AcDb2dVertex
 10
-8.10073248612565
 20
403.0720454257387
 30
0.0
  0
VERTEX
  5
4A
330
43
100
AcDbEntity
  8
0
  6
Continuous
 62
     7
370
    15
100
AcDbVertex
100
AcDb2dVertex
 10
-4.771824744925595
 20
403.8748168657387
 30
0.0
  0
VERTEX
  5
4B
330
43
100
AcDbEntity
  8
0
  6
Continuous
 62
     7
370
    15
100
AcDbVertex
100
AcDb2dVertex
 10
-1.034842971325531
 20
404.4804239511386
 30
0.0
  0
VERTEX
  5
4C
330
43
100
AcDbEntity
  8
0
  6
Continuous
 62
     7
370
    15
100
AcDbVertex
100
AcDb2dVertex
 10
1.612753100474549
 20
404.7627925441386
 30
0.0
  0
VERTEX
  5
4D
330
43
100
AcDbEntity
  8
0
  6
Continuous
 62
     7
370
    15
100
AcDbVertex
100
AcDb2dVertex
 10
4.332797416274445
 20
404.9421824289386
 30
0.0
  0
SEQEND
  5
4E
330
43
100
AcDbEntity
  8
0
  6
Continuous
 62
     7
370
    15
  0
POLYLINE
  5
4F
330
24
100
AcDbEntity
  8
0
  6
Continuous
 62
     7
370
    15
100
AcDb2dPolyline
 66
     1
 10
0.0
 20
0.0
 30
0.0
 75
     5
  0
VERTEX
  5
50
330
4F
100
AcDbEntity
  8
0
  6
Continuous
 62
     7
370
    15
100
AcDbVertex
100
AcDb2dVertex
 10
4.332797416274445
 20
404.9421824289386
 30
0.0
  0
VERTEX
  5
51
330
4F
100
AcDbEntity
  8
0
  6
Continuous
 62
     7
370
    15
100
AcDbVertex
100
AcDb2dVertex
 10
7.078742041074349
 20
405.0155236389387
 30
0.0
  0
VERTEX
  5
52
330
4F
100
AcDbEntity
  8
0
  6
Continuous
 62
     7
370
    15
100
AcDbVertex
100
AcDb2dVertex
 10
11.14354473807458
 20
404.9244527569388
 30
0.0
  0
VERTEX
  5
53
330
4F
100
AcDbEntity
  8
0
  6
Continuous
 62
     7
370
    15
100
AcDbVertex
100
AcDb2dVertex
 10
15.00480203407443
 20
404.5958803175386
 30
0.0
  0
VERTEX
  5
54
330
4F
100
AcDbEntity
  8
0
  6
Continuous
 62
     7
370
    15
100
AcDbVertex
100
AcDb2dVertex
 10
18.51412996447453
 20
404.0424336223386
 30
0.0
  0
VERTEX
  5
55
330
4F
100
AcDbEntity
  8
0
  6
Continuous
 62
     7
370
    15
100
AcDbVertex
100
AcDb2dVertex
 10
21.53666633467452
 20
403.2853810981387
 30
0.0
  0
VERTEX
  5
56
330
4F
100
AcDbEntity
  8
0
  6
Continuous
 62
     7
370
    15
100
AcDbVertex
100
AcDb2dVertex
 10
23.9562568580746
 20
402.3538158377387
 30
0.0
  0
VERTEX
  5
57
330
4F
100
AcDbEntity
  8
0
  6
Continuous
 62
     7
370
    15
100
AcDbVertex
100
AcDb2dVertex
 10
25.67991813187456
 20
401.2835375971388
 30
0.0
  0
VERTEX
  5
58
330
4F
100
AcDbEntity
  8
0
  6
Continuous
 62
     7
370
    15
100
AcDbVertex
100
AcDb2dVertex
 10
26.40850280027445
 20
400.5130933155388
 30
0.0
  0
VERTEX
  5
59
330
4F
100
AcDbEntity
  8
0
  6
Continuous
 62
     7
370
    15
100
AcDbVertex
100
AcDb2dVertex
 10
26.78527425287444
 20
399.7123839833387
 30
0.0
  0
SEQEND
  5
5A
330
4F
100
AcDbEntity
  8
0
  6
Continuous
 62
     7
370
    15
  0
POLYLINE
  5
5B
330
24
100
AcDbEntity
  8
0
  6
Continuous
 62
     7
370
    15
100
AcDb2dPolyline
 66
     1
 10
0.0
 20
0.0
 30
0.0
 75
     5
  0
VERTEX
  5
5C
330
5B
100
AcDbEntity
  8
0
  6
Continuous
 62
     7
370
    15
100
AcDbVertex
100
AcDb2dVertex
 10
7.361159736474349
 20
392.5463394703386
 30
0.0
  0
VERTEX
  5
5D
330
5B
100
AcDbEntity
  8
0
  6
Continuous
 62
     7
370
    15
100
AcDbVertex
100
AcDb2dVertex
 10
4.615215111674445
 20
392.4729982603387
 30
0.0
  0
VERTEX
  5
5E
330
5B
100
AcDbEntity
  8
0
  6
Continuous
 62
     7
370
    15
100
AcDbVertex
100
AcDb2dVertex
 10
0.5504124144745788
 20
392.5640691423387
 30
0.0
  0
VERTEX
  5
5F
330
5B
100
AcDbEntity
  8
0
  6
Continuous
 62
     7
370
    15
100
AcDbVertex
100
AcDb2dVertex
 10
-3.310844881325409
 20
392.8926415817386
 30
0.0
  0
VERTEX
  5
60
330
5B
100
AcDbEntity
  8
0
  6
Continuous
 62
     7
370
    15
100
AcDbVertex
100
AcDb2dVertex
 10
-6.820172811725513
 20
393.4460882769388
 30
0.0
  0
VERTEX
  5
61
330
5B
100
AcDbEntity
  8
0
  6
Continuous
 62
     7
370
    15
100
AcDbVertex
100
AcDb2dVertex
 10
-9.8427091819255
 20
394.2031408011387
 30
0.0
  0
VERTEX
  5
62
330
5B
100
AcDbEntity
  8
0
  6
Continuous
 62
     7
370
    15
100
AcDbVertex
100
AcDb2dVertex
 10
-12.26229970532557
 20
395.1347060615387
 30
0.0
  0
VERTEX
  5
63
330
5B
100
AcDbEntity
  8
0
  6
Continuous
 62
     7
370
    15
100
AcDbVertex
100
AcDb2dVertex
 10
-13.98596097912554
 20
396.2049843021387
 30
0.0
  0
VERTEX
  5
64
330
5B
100
AcDbEntity
  8
0
  6
Continuous
 62
     7
370
    15
100
AcDbVertex
100
AcDb2dVertex
 10
-14.71454564752543
 20
396.9754285835386
 30
0.0
  0
VERTEX
  5
65
330
5B
100
AcDbEntity
  8
0
  6
Continuous
 62
     7
370
    15
100
AcDbVertex
100
AcDb2dVertex
 10
-15.09131710032551
 20
397.7761379159388
 30
0.0
  0
SEQEND
  5
66
330
5B
100
AcDbEntity
  8
0
  6
Continuous
 62
     7
370
    15
  0
SPLINE
  5
67
330
24
100
AcDbEntity
  8
0
  6
Continuous
 62
     7
370
    15
100
AcDbSpline
210
0.0
220
0.0
230
1.0
 70
     8
 71
     2
 72
    18
 73
    15
 74
     0
 42
0.000000001
 43
0.000001
 40
0.0
 40
0.0
 40
0.0
 40
1.0
 40
1.0
 40
2.0
 40
3.0
 40
4.0
 40
5.0
 40
6.0
 40
7.0
 40
8.0
 40
9.0
 40
10.0
 40
10.0
 40
11.0
 40
11.0
 40
11.0
 10
-11.09540807178968
 20
453.5662093289834
 30
0.0
 10
-11.10127287753249
 20
453.5639272712701
 30
0.0
 10
-11.10713768327531
 20
453.5616452135569
 30
0.0
 10
-11.28394273904945
 20
453.4933494691581
 30
0.0
 10
-11.62700846807246
 20
453.3547833673456
 30
0.0
 10
-12.29821296662379
 20
453.0286699832902
 30
0.0
 10
-12.71884333595875
 20
452.5047224013056
 30
0.0
 10
-12.7213087807342
 20
452.0141255311396
 30
0.0
 10
-12.40733463346822
 20
451.6097673124082
 30
0.0
 10
-12.005462382752
 20
451.322742761296
 30
0.0
 10
-11.44912521866439
 20
451.0622013011673
 30
0.0
 10
-10.77344971155429
 20
450.8240231145642
 30
0.0
 10
-10.41877075357701
 20
450.708025268809
 30
0.0
 10
-10.40700704899922
 20
450.7041478191547
 30
0.0
 10
-10.39524334442143
 20
450.7002703695005
 30
0.0
  0
SPLINE
  5
68
330
24
100
AcDbEntity
  8
0
  6
Continuous
 62
     7
370
    15
100
AcDbSpline
210
0.0
220
0.0
230
1.0
 70
     8
 71
     2
 72
    11
 73
     8
 74
     0
 42
0.000000001
 43
0.000001
 40
0.0
 40
0.0
 40
0.0
 40
1.0
 40
1.0
 40
2.0
 40
3.0
 40
3.0
 40
4.0
 40
4.0
 40
4.0
 10
-11.09540807178968
 20
453.5662093289834
 30
0.0
 10
-11.11348678998769
 20
453.4314985007794
 30
0.0
 10
-11.1315655081857
 20
453.2967876725754
 30
0.0
 10
-12.99462840664313
 20
439.9073617474187
 30
0.0
 10
-15.26747783245077
 20
412.2407682986666
 30
0.0
 10
-15.09133693139296
 20
397.7775669183425
 30
0.0
 10
-15.09132682588694
 20
397.776851639682
 30
0.0
 10
-15.09131672038092
 20
397.7761363610216
 30
0.0
  0
SPLINE
  5
69
330
24
100
AcDbEntity
  8
0
  6
Continuous
 62
     7
370
    15
100
AcDbSpline
210
0.0
220
0.0
230
1.0
 70
     8
 71
     2
 72
    11
 73
     8
 74
     0
 42
0.000000001
 43
0.000001
 40
0.0
 40
0.0
 40
0.0
 40
1.0
 40
1.0
 40
2.0
 40
3.0
 40
3.0
 40
4.0
 40
4.0
 40
4.0
 10
-15.09131672038092
 20
397.7761363610216
 30
0.0
 10
-15.09131433578813
 20
397.7768005147692
 30
0.0
 10
-15.09131195119534
 20
397.7774646685168
 30
0.0
 10
-14.98392127603887
 20
411.1675763664084
 30
0.0
 10
-12.36136481285888
 20
437.3929247920137
 30
0.0
 10
-10.43321130332077
 20
450.4382596076664
 30
0.0
 10
-10.4142273238711
 20
450.5692649885834
 30
0.0
 10
-10.39524334442143
 20
450.7002703695005
 30
0.0
  0
ARC
  5
6A
330
24
100
AcDbEntity
  8
0
  6
Continuous
 62
     7
370
    15
100
AcDbCircle
 10
-9.821145996525445
 20
453.6985838577386
 30
0.0
 40
1.281119374668466
100
AcDbArc
 50
80.82437539469885
 51
185.9308002246977
  0
ARC
  5
6B
330
24
100
AcDbEntity
  8
0
  6
Continuous
 62
     7
370
    15
100
AcDbCircle
 10
-7.956303493125631
 20
450.7698970517388
 30
0.0
 40
2.439933497701483
100
AcDbArc
 50
118.3985199089955
 51
181.6352317246013
  0
SPLINE
  5
6C
330
24
100
AcDbEntity
  8
0
  6
Continuous
 62
     7
370
    15
100
AcDbSpline
210
0.0
220
0.0
230
1.0
 70
     8
 71
     2
 72
    18
 73
    15
 74
     0
 42
0.000000001
 43
0.000001
 40
0.0
 40
0.0
 40
0.0
 40
1.0
 40
1.0
 40
2.0
 40
3.0
 40
4.0
 40
5.0
 40
6.0
 40
7.0
 40
8.0
 40
9.0
 40
10.0
 40
10.0
 40
11.0
 40
11.0
 40
11.0
 10
-9.116739488950714
 20
452.9162110484951
 30
0.0
 10
-9.123902873450277
 20
452.9183473267772
 30
0.0
 10
-9.13106625794984
 20
452.9204836050592
 30
0.0
 10
-9.347188366587659
 20
452.9843040580588
 30
0.0
 10
-9.764188225970372
 20
453.1152988983931
 30
0.0
 10
-10.29898273416387
 20
453.3253323927352
 30
0.0
 10
-10.72124348105575
 20
453.6730325806664
 30
0.0
 10
-10.81382874376362
 20
454.058909851874
 30
0.0
 10
-10.64683263561363
 20
454.346947516884
 30
0.0
 10
-10.36416677216215
 20
454.6182612078053
 30
0.0
 10
-9.941759730310139
 20
454.823365046544
 30
0.0
 10
-9.731450060905388
 20
454.9148902836396
 30
0.0
 10
-9.624004147179164
 20
454.9602815884043
 30
0.0
 10
-9.620430645876183
 20
454.9617959329535
 30
0.0
 10
-9.616857144573203
 20
454.9633102775026
 30
0.0
  0
SPLINE
  5
6D
330
24
100
AcDbEntity
  8
0
  6
Continuous
 62
     7
370
    15
100
AcDbSpline
210
0.0
220
0.0
230
1.0
 70
     8
 71
     2
 72
    11
 73
     8
 74
     0
 42
0.000000001
 43
0.000001
 40
0.0
 40
0.0
 40
0.0
 40
1.0
 40
1.0
 40
2.0
 40
3.0
 40
3.0
 40
4.0
 40
4.0
 40
4.0
 10
26.78527387308037
 20
399.7123855382117
 30
0.0
 10
26.78523413771865
 20
399.7130994466664
 30
0.0
 10
26.78519440235692
 20
399.7138133551211
 30
0.0
 10
25.93560837721822
 20
414.157316940594
 30
0.0
 10
21.85103381736036
 20
441.5127966233429
 30
0.0
 10
19.20949467607971
 20
454.6996677566033
 30
0.0
 10
19.18336472396919
 20
454.8323347207501
 30
0.0
 10
19.15723477185867
 20
454.9650016848968
 30
0.0
  0
SPLINE
  5
6E
330
24
100
AcDbEntity
  8
0
  6
Continuous
 62
     7
370
    15
100
AcDbSpline
210
0.0
220
0.0
230
1.0
 70
     8
 71
     2
 72
    18
 73
    15
 74
     0
 42
0.000000001
 43
0.000001
 40
0.0
 40
0.0
 40
0.0
 40
1.0
 40
1.0
 40
2.0
 40
3.0
 40
4.0
 40
5.0
 40
6.0
 40
7.0
 40
8.0
 40
9.0
 40
10.0
 40
10.0
 40
11.0
 40
11.0
 40
11.0
 10
19.85739949922691
 20
452.0990627254139
 30
0.0
 10
19.8632528507091
 20
452.1017673953967
 30
0.0
 10
19.86910620219129
 20
452.1044720653795
 30
0.0
 10
20.04556615679627
 20
452.1855005380803
 30
0.0
 10
20.38795974732949
 20
452.3488656108318
 30
0.0
 10
21.05782677907547
 20
452.7243257179443
 30
0.0
 10
21.47748352401987
 20
453.2841996769896
 30
0.0
 10
21.47973203313569
 20
453.7827980274865
 30
0.0
 10
21.16613919233674
 20
454.1730863842138
 30
0.0
 10
20.76485620596992
 20
454.4383695627143
 30
0.0
 10
20.20939605276345
 20
454.6665531444939
 30
0.0
 10
19.53482091166308
 20
454.8641326237048
 30
0.0
 10
19.18072362341815
 20
454.9586693927401
 30
0.0
 10
19.16897919763841
 20
454.9618355388185
 30
0.0
 10
19.15723477185867
 20
454.9650016848968
 30
0.0
  0
SPLINE
  5
6F
330
24
100
AcDbEntity
  8
0
  6
Continuous
 62
     7
370
    15
100
AcDbSpline
210
0.0
220
0.0
230
1.0
 70
     8
 71
     2
 72
    11
 73
     8
 74
     0
 42
0.000000001
 43
0.000001
 40
0.0
 40
0.0
 40
0.0
 40
1.0
 40
1.0
 40
2.0
 40
3.0
 40
3.0
 40
4.0
 40
4.0
 40
4.0
 10
8.128079473978744
 20
457.5339933959585
 30
0.0
 10
8.123795148229817
 20
457.408411089668
 30
0.0
 10
8.11951082248089
 20
457.2828287833775
 30
0.0
 10
7.546453091760725
 20
438.7804593007352
 30
0.0
 10
5.091965628502578
 20
412.459004493589
 30
0.0
 10
4.332929669960379
 20
404.9435594636752
 30
0.0
 10
4.332860916691573
 20
404.9428708248419
 30
0.0
 10
4.332792163422766
 20
404.9421821860085
 30
0.0
  0
SPLINE
  5
70
330
24
100
AcDbEntity
  8
0
  6
Continuous
 62
     7
370
    15
100
AcDbSpline
210
0.0
220
0.0
230
1.0
 70
     8
 71
     2
 72
    11
 73
     8
 74
     0
 42
0.000000001
 43
0.000001
 40
0.0
 40
0.0
 40
0.0
 40
1.0
 40
1.0
 40
2.0
 40
3.0
 40
3.0
 40
4.0
 40
4.0
 40
4.0
 10
19.15723477185867
 20
454.9650016848968
 30
0.0
 10
19.10027338466006
 20
454.9794900533487
 30
0.0
 10
19.04331199746144
 20
454.9939784218006
 30
0.0
 10
15.52035056486176
 20
455.9113516594869
 30
0.0
 10
10.21425702306811
 20
457.0941363923694
 30
0.0
 10
8.24393061477059
 20
457.5094491247253
 30
0.0
 10
8.186005044374667
 20
457.5217212603419
 30
0.0
 10
8.128079473978744
 20
457.5339933959585
 30
0.0
  0
POLYLINE
  5
71
330
24
100
AcDbEntity
  8
0
  6
Continuous
 62
     7
370
    15
100
AcDb2dPolyline
 66
     1
 10
0.0
 20
0.0
 30
0.0
 75
     5
  0
VERTEX
  5
72
330
71
100
AcDbEntity
  8
0
  6
Continuous
 62
     7
370
    15
100
AcDbVertex
100
AcDb2dVertex
 10
19.15723477187436
 20
454.9650016849387
 30
0.0
  0
VERTEX
  5
73
330
71
100
AcDbEntity
  8
0
  6
Continuous
 62
     7
370
    15
100
AcDbVertex
100
AcDb2dVertex
 10
19.10352054787455
 20
455.2965822371386
 30
0.0
  0
VERTEX
  5
74
330
71
100
AcDbEntity
  8
0
  6
Continuous
 62
     7
370
    15
100
AcDbVertex
100
AcDb2dVertex
 10
19.00639984907463
 20
455.5947722935387
 30
0.0
  0
VERTEX
  5
75
330
71
100
AcDbEntity
  8
0
  6
Continuous
 62
     7
370
    15
100
AcDbVertex
100
AcDb2dVertex
 10
18.86919892067459
 20
455.8493596145386
 30
0.0
  0
VERTEX
  5
76
330
71
100
AcDbEntity
  8
0
  6
Continuous
 62
     7
370
    15
100
AcDbVertex
100
AcDb2dVertex
 10
18.69661691907464
 20
456.0516189023388
 30
0.0
  0
VERTEX
  5
77
330
71
100
AcDbEntity
  8
0
  6
Continuous
 62
     7
370
    15
100
AcDbVertex
100
AcDb2dVertex
 10
18.49456409407463
 20
456.1946306159386
 30
0.0
  0
VERTEX
  5
78
330
71
100
AcDbEntity
  8
0
  6
Continuous
 62
     7
370
    15
100
AcDbVertex
100
AcDb2dVertex
 10
18.26996009267447
 20
456.2734950899387
 30
0.0
  0
VERTEX
  5
79
330
71
100
AcDbEntity
  8
0
  6
Continuous
 62
     7
370
    15
100
AcDbVertex
100
AcDb2dVertex
 10
18.03049784007459
 20
456.2855073493386
 30
0.0
  0
VERTEX
  5
7A
330
71
100
AcDbEntity
  8
0
  6
Continuous
 62
     7
370
    15
100
AcDbVertex
100
AcDb2dVertex
 10
17.78437827547447
 20
456.2302620227388
 30
0.0
  0
SEQEND
  5
7B
330
71
100
AcDbEntity
  8
0
  6
Continuous
 62
     7
370
    15
  0
ARC
  5
7C
330
24
100
AcDbEntity
  8
0
  6
Continuous
 62
     7
370
    15
100
AcDbCircle
 10
17.52796111327444
 20
451.9765961567387
 30
0.0
 40
2.332655408364367
100
AcDbArc
 50
3.009465077600423
 51
71.07540937109748
  0
SPLINE
  5
7D
330
24
100
AcDbEntity
  8
0
  6
Continuous
 62
     7
370
    15
100
AcDbSpline
210
0.0
220
0.0
230
1.0
 70
     8
 71
     2
 72
    18
 73
    15
 74
     0
 42
0.000000001
 43
0.000001
 40
0.0
 40
0.0
 40
0.0
 40
1.0
 40
1.0
 40
2.0
 40
3.0
 40
4.0
 40
5.0
 40
6.0
 40
7.0
 40
8.0
 40
9.0
 40
10.0
 40
10.0
 40
11.0
 40
11.0
 40
11.0
 10
17.78437827546082
 20
456.2302620227174
 30
0.0
 10
17.79154165996039
 20
456.2281257444354
 30
0.0
 10
17.79870504445995
 20
456.2259894661534
 30
0.0
 10
18.01482715309754
 20
456.1621690131531
 30
0.0
 10
18.43182701248071
 20
456.031174172821
 30
0.0
 10
18.96662152067398
 20
455.8211406784767
 30
0.0
 10
19.38888226756609
 20
455.4734404905469
 30
0.0
 10
19.48146753027373
 20
455.0875632193383
 30
0.0
 10
19.31447142212352
 20
454.7995255543283
 30
0.0
 10
19.03180555867203
 20
454.5282118634077
 30
0.0
 10
18.60939851682025
 20
454.3231080246687
 30
0.0
 10
18.3990888474155
 20
454.2315827875727
 30
0.0
 10
18.2916429336895
 20
454.1861914828082
 30
0.0
 10
18.28806943238641
 20
454.1846771382591
 30
0.0
 10
18.28449593108331
 20
454.1831627937099
 30
0.0
  0
SPLINE
  5
7E
330
24
100
AcDbEntity
  8
0
  6
Continuous
 62
     7
370
    15
100
AcDbSpline
210
0.0
220
0.0
230
1.0
 70
     8
 71
     2
 72
    11
 73
     8
 74
     0
 42
0.000000001
 43
0.000001
 40
0.0
 40
0.0
 40
0.0
 40
1.0
 40
1.0
 40
2.0
 40
3.0
 40
3.0
 40
4.0
 40
4.0
 40
4.0
 10
-1.553856444102564
 20
457.0863294340813
 30
0.0
 10
-1.60030580531901
 20
457.0703780157148
 30
0.0
 10
-1.646755166535456
 20
457.0544265973483
 30
0.0
 10
-5.094166741701827
 20
455.8918441310902
 30
0.0
 10
-9.64641001994454
 20
454.1397041760479
 30
0.0
 10
-11.00481523743264
 20
453.6020008037403
 30
0.0
 10
-11.05011165461116
 20
453.5841050663619
 30
0.0
 10
-11.09540807178968
 20
453.5662093289834
 30
0.0
  0
SPLINE
  5
7F
330
24
100
AcDbEntity
  8
0
  6
Continuous
 62
     7
370
    15
100
AcDbSpline
210
0.0
220
0.0
230
1.0
 70
     8
 71
     2
 72
    11
 73
     8
 74
     0
 42
0.000000001
 43
0.000001
 40
0.0
 40
0.0
 40
0.0
 40
1.0
 40
1.0
 40
2.0
 40
3.0
 40
3.0
 40
4.0
 40
4.0
 40
4.0
 10
4.332792163422766
 20
404.9421821860085
 30
0.0
 10
4.332688202570068
 20
404.9428628390539
 30
0.0
 10
4.33258424171737
 20
404.9435434920993
 30
0.0
 10
2.901280016461499
 20
414.1128326329815
 30
0.0
 10
-0.4865272715059632
 20
440.060103695645
 30
0.0
 10
-1.53738904027108
 20
456.8363224143425
 30
0.0
 10
-1.545622742186822
 20
456.9613259242119
 30
0.0
 10
-1.553856444102564
 20
457.0863294340813
 30
0.0
  0
POLYLINE
  5
80
330
24
100
AcDbEntity
  8
0
  6
Continuous
 62
     7
370
    15
100
AcDb2dPolyline
 66
     1
 10
0.0
 20
0.0
 30
0.0
 75
     5
  0
VERTEX
  5
81
330
80
100
AcDbEntity
  8
0
  6
Continuous
 62
     7
370
    15
100
AcDbVertex
100
AcDb2dVertex
 10
8.128079474074468
 20
457.5339933959388
 30
0.0
  0
VERTEX
  5
82
330
80
100
AcDbEntity
  8
0
  6
Continuous
 62
     7
370
    15
100
AcDbVertex
100
AcDb2dVertex
 10
8.075890316074549
 20
457.8652187185387
 30
0.0
  0
VERTEX
  5
83
330
80
100
AcDbEntity
  8
0
  6
Continuous
 62
     7
370
    15
100
AcDbVertex
100
AcDb2dVertex
 10
7.981806371274445
 20
458.1627014321386
 30
0.0
  0
VERTEX
  5
84
330
80
100
AcDbEntity
  8
0
  6
Continuous
 62
     7
370
    15
100
AcDbVertex
100
AcDb2dVertex
 10
7.849048975274457
 20
458.4162537327386
 30
0.0
  0
VERTEX
  5
85
330
80
100
AcDbEntity
  8
0
  6
Continuous
 62
     7
370
    15
100
AcDbVertex
100
AcDb2dVertex
 10
7.682165200474458
 20
458.6171857479387
 30
0.0
  0
VERTEX
  5
86
330
80
100
AcDbEntity
  8
0
  6
Continuous
 62
     7
370
    15
100
AcDbVertex
100
AcDb2dVertex
 10
7.486870966674417
 20
458.7586232009387
 30
0.0
  0
VERTEX
  5
87
330
80
100
AcDbEntity
  8
0
  6
Continuous
 62
     7
370
    15
100
AcDbVertex
100
AcDb2dVertex
 10
7.269853569874442
 20
458.8357205473387
 30
0.0
  0
VERTEX
  5
88
330
80
100
AcDbEntity
  8
0
  6
Continuous
 62
     7
370
    15
100
AcDbVertex
100
AcDb2dVertex
 10
7.038546829274367
 20
458.8458331649388
 30
0.0
  0
VERTEX
  5
89
330
80
100
AcDbEntity
  8
0
  6
Continuous
 62
     7
370
    15
100
AcDbVertex
100
AcDb2dVertex
 10
6.800871455074514
 20
458.7886209557387
 30
0.0
  0
SEQEND
  5
8A
330
80
100
AcDbEntity
  8
0
  6
Continuous
 62
     7
370
    15
  0
SPLINE
  5
8B
330
24
100
AcDbEntity
  8
0
  6
Continuous
 62
     7
370
    15
100
AcDbSpline
210
0.0
220
0.0
230
1.0
 70
     8
 71
     2
 72
    10
 73
     7
 74
     0
 42
0.000000001
 43
0.000001
 40
0.0
 40
0.0
 40
0.0
 40
1.0
 40
1.0
 40
2.0
 40
2.0
 40
3.0
 40
3.0
 40
3.0
 10
6.800871455019262
 20
458.7886209557475
 30
0.0
 10
6.858647175751742
 20
458.7755104949683
 30
0.0
 10
6.916422896484221
 20
458.7624000341891
 30
0.0
 10
12.35682392080713
 20
457.5331424029782
 30
0.0
 10
17.67110683924722
 20
456.2573403124024
 30
0.0
 10
17.72774255735402
 20
456.2438011675599
 30
0.0
 10
17.78437827546082
 20
456.2302620227174
 30
0.0
  0
ARC
  5
8C
330
24
100
AcDbEntity
  8
0
  6
Continuous
 62
     7
370
    15
100
AcDbCircle
 10
-0.3158073445255809
 20
457.2378750153387
 30
0.0
 40
1.247289716231599
100
AcDbArc
 50
80.72589856040086
 51
186.9786742276049
  0
SPLINE
  5
8D
330
24
100
AcDbEntity
  8
0
  6
Continuous
 62
     7
370
    15
100
AcDbSpline
210
0.0
220
0.0
230
1.0
 70
     8
 71
     2
 72
    10
 73
     7
 74
     0
 42
0.000000001
 43
0.000001
 40
0.0
 40
0.0
 40
0.0
 40
1.0
 40
1.0
 40
2.0
 40
2.0
 40
3.0
 40
3.0
 40
3.0
 10
-9.616857144573203
 20
454.9633102775026
 30
0.0
 10
-9.571794867976848
 20
454.9803052283518
 30
0.0
 10
-9.526732591380494
 20
454.9973001792009
 30
0.0
 10
-4.938368911714576
 20
456.7329696302902
 30
0.0
 10
-0.2074045306616767
 20
458.4354364972903
 30
0.0
 10
-0.1611007473781569
 20
458.4521487423026
 30
0.0
 10
-0.1147969640946371
 20
458.4688609873149
 30
0.0
  0
SPLINE
  5
8E
330
24
100
AcDbEntity
  8
0
  6
Continuous
 62
     7
370
    15
100
AcDbSpline
210
0.0
220
0.0
230
1.0
 70
     8
 71
     2
 72
    16
 73
    13
 74
     0
 42
0.000000001
 43
0.000001
 40
0.0
 40
0.0
 40
0.0
 40
1.0
 40
1.0
 40
2.0
 40
3.0
 40
4.0
 40
5.0
 40
6.0
 40
7.0
 40
8.0
 40
8.0
 40
9.0
 40
9.0
 40
9.0
 10
8.128079473978744
 20
457.5339933959585
 30
0.0
 10
8.117758544343417
 20
457.5362966307378
 30
0.0
 10
8.10743761470809
 20
457.538599865517
 30
0.0
 10
7.799004417647723
 20
457.6083594238144
 30
0.0
 10
6.560402042042199
 20
457.864555378369
 30
0.0
 10
4.7415541389949
 20
457.9795329180461
 30
0.0
 10
3.297998473499831
 20
457.9717793684529
 30
0.0
 10
1.856216129009965
 20
457.8692711658775
 30
0.0
 10
0.2373497481985964
 20
457.6299845185215
 30
0.0
 10
-1.021159104103333
 20
457.2621684543128
 30
0.0
 10
-1.520401550599161
 20
457.0972412506549
 30
0.0
 10
-1.537128997350862
 20
457.0917853423681
 30
0.0
 10
-1.553856444102564
 20
457.0863294340813
 30
0.0
  0
SPLINE
  5
8F
330
24
100
AcDbEntity
  8
0
  6
Continuous
 62
     7
370
    15
100
AcDbSpline
210
0.0
220
0.0
230
1.0
 70
     8
 71
     2
 72
    16
 73
    13
 74
     0
 42
0.000000001
 43
0.000001
 40
0.0
 40
0.0
 40
0.0
 40
1.0
 40
1.0
 40
2.0
 40
3.0
 40
4.0
 40
5.0
 40
6.0
 40
7.0
 40
8.0
 40
8.0
 40
9.0
 40
9.0
 40
9.0
 10
-0.1147969640946371
 20
458.4688609873149
 30
0.0
 10
-0.1037000542314104
 20
458.472182556893
 30
0.0
 10
-0.0926031443681836
 20
458.4755041264712
 30
0.0
 10
0.194582327185401
 20
458.5624384836997
 30
0.0
 10
1.104541468793343
 20
458.8209502759125
 30
0.0
 10
2.126380021566149
 20
458.9576838256419
 30
0.0
 10
3.308337075270686
 20
459.0734747722263
 30
0.0
 10
4.743360714805988
 20
459.0533222971235
 30
0.0
 10
5.840560585502828
 20
458.9700910991701
 30
0.0
 10
6.582397664876282
 20
458.832081971035
 30
0.0
 10
6.787189245426873
 20
458.7913234748862
 30
0.0
 10
6.794030350223068
 20
458.7899722153169
 30
0.0
 10
6.800871455019262
 20
458.7886209557475
 30
0.0
  0
LINE
  5
90
330
24
100
AcDbEntity
  8
0
  6
Continuous
 62
     7
370
    15
100
AcDbLine
 10
26.6532046970745
 20
398.4262700763386
 30
0.0
 11
26.57627337447462
 21
403.5517776391387
 31
0.0
  0
SPLINE
  5
91
330
24
100
AcDbEntity
  8
0
  6
Continuous
 62
     7
370
    15
100
AcDbSpline
210
0.0
220
0.0
230
1.0
 70
     8
 71
     2
 72
    11
 73
     8
 74
     0
 42
0.000000001
 43
0.000001
 40
0.0
 40
0.0
 40
0.0
 40
1.0
 40
1.0
 40
2.0
 40
3.0
 40
3.0
 40
4.0
 40
4.0
 40
4.0
 10
-12.67615943379423
 20
452.3215780824462
 30
0.0
 10
-12.68712446402793
 20
452.2153526131779
 30
0.0
 10
-12.69808949426164
 20
452.1091271439095
 30
0.0
 10
-13.32855369731777
 20
446.2181645263697
 30
0.0
 10
-15.11187918415902
 20
421.5822098526528
 30
0.0
 10
-15.09103659786609
 20
402.3418081847067
 30
0.0
 10
-15.09116614424119
 20
402.1985110924248
 30
0.0
 10
-15.09129569061628
 20
402.055214000143
 30
0.0
  0
SPLINE
  5
92
330
24
100
AcDbEntity
  8
0
  6
Continuous
 62
     7
370
    15
100
AcDbSpline
210
0.0
220
0.0
230
1.0
 70
     8
 71
     2
 72
    17
 73
    14
 74
     0
 42
0.000000001
 43
0.000001
 40
0.0
 40
0.0
 40
0.0
 40
1.0
 40
1.0
 40
2.0
 40
3.0
 40
4.0
 40
5.0
 40
6.0
 40
7.0
 40
8.0
 40
9.0
 40
9.0
 40
10.0
 40
10.0
 40
10.0
 10
-10.25852554910642
 20
454.9161008798076
 30
0.0
 10
-10.26003397086146
 20
454.9156235719601
 30
0.0
 10
-10.26154239261649
 20
454.9151462641125
 30
0.0
 10
-10.58452171057951
 20
454.8178240860761
 30
0.0
 10
-11.08240450014745
 20
454.5723237016946
 30
0.0
 10
-11.48999889728628
 20
454.302017804127
 30
0.0
 10
-11.91727133248258
 20
453.9546248894012
 30
0.0
 10
-12.23899129127193
 20
453.5776133592894
 30
0.0
 10
-12.45668626483979
 20
453.2398315029729
 30
0.0
 10
-12.59519105899307
 20
452.8625226358106
 30
0.0
 10
-12.67446947845673
 20
452.5351588770495
 30
0.0
 10
-12.70933496029096
 20
452.3688944146006
 30
0.0
 10
-12.71051385375443
 20
452.3633612907155
 30
0.0
 10
-12.71169274721791
 20
452.3578281668304
 30
0.0
  0
SPLINE
  5
93
330
24
100
AcDbEntity
  8
0
  6
Continuous
 62
     7
370
    15
100
AcDbSpline
210
0.0
220
0.0
230
1.0
 70
     8
 71
     2
 72
    11
 73
     8
 74
     0
 42
0.000000001
 43
0.000001
 40
0.0
 40
0.0
 40
0.0
 40
1.0
 40
1.0
 40
2.0
 40
3.0
 40
3.0
 40
4.0
 40
4.0
 40
4.0
 10
26.63008596929382
 20
402.7498005235811
 30
0.0
 10
26.62607158349527
 20
402.8255238063211
 30
0.0
 10
26.62205719769673
 20
402.9012470890611
 30
0.0
 10
25.65215293344824
 20
421.6488613978154
 30
0.0
 10
22.54645281715926
 20
446.6327224321649
 30
0.0
 10
21.46803991172561
 20
453.3745063012684
 30
0.0
 10
21.44768655711727
 20
453.5039884680098
 30
0.0
 10
21.42733320250892
 20
453.6334706347511
 30
0.0
  0
SPLINE
  5
94
330
24
100
AcDbEntity
  8
0
  6
Continuous
 62
     7
370
    15
100
AcDbSpline
210
0.0
220
0.0
230
1.0
 70
     8
 71
     2
 72
    17
 73
    14
 74
     0
 42
0.000000001
 43
0.000001
 40
0.0
 40
0.0
 40
0.0
 40
1.0
 40
1.0
 40
2.0
 40
3.0
 40
4.0
 40
5.0
 40
6.0
 40
7.0
 40
8.0
 40
9.0
 40
9.0
 40
10.0
 40
10.0
 40
10.0
 10
21.43630339128896
 20
453.6366514912759
 30
0.0
 10
21.43621712996827
 20
453.6387019029644
 30
0.0
 10
21.43613086864758
 20
453.6407523146529
 30
0.0
 10
21.43375862372324
 20
453.702314354153
 30
0.0
 10
21.41887367758346
 20
453.9713788628728
 30
0.0
 10
21.27167503063976
 20
454.3459824303645
 30
0.0
 10
20.84177290336726
 20
455.020797846156
 30
0.0
 10
20.08595835040848
 20
455.593854531942
 30
0.0
 10
19.42042704123884
 20
455.9294674275538
 30
0.0
 10
18.87479630958848
 20
456.1032821331187
 30
0.0
 10
18.49155539838199
 20
456.2019609405841
 30
0.0
 10
18.2971901528918
 20
456.2489102954005
 30
0.0
 10
18.29072093413203
 20
456.2504836427777
 30
0.0
 10
18.28425171537225
 20
456.2520569901549
 30
0.0
  0
LINE
  5
95
330
24
100
AcDbEntity
  8
0
  6
Continuous
 62
     7
370
    15
100
AcDbLine
 10
-15.09763212632555
 20
402.8948651117387
 30
0.0
 11
-14.93241431972541
 21
399.1203497867386
 31
0.0
  0
SPLINE
  5
96
330
24
100
AcDbEntity
  8
0
  6
Continuous
 62
     7
370
    15
100
AcDbSpline
210
0.0
220
0.0
230
1.0
 70
     8
 71
     2
 72
    10
 73
     7
 74
     0
 42
0.000000001
 43
0.000001
 40
0.0
 40
0.0
 40
0.0
 40
1.0
 40
1.0
 40
2.0
 40
2.0
 40
3.0
 40
3.0
 40
3.0
 10
18.2820056858107
 20
456.2581597789369
 30
0.0
 10
18.22685154271397
 20
456.2715372413352
 30
0.0
 10
18.17169739961724
 20
456.2849147037334
 30
0.0
 10
12.87953623670234
 20
457.5754862331805
 30
0.0
 10
7.398430238479079
 20
458.7994716757787
 30
0.0
 10
7.338948618795087
 20
458.812835022522
 30
0.0
 10
7.279466999111094
 20
458.8261983692653
 30
0.0
  0
SPLINE
  5
97
330
24
100
AcDbEntity
  8
0
  6
Continuous
 62
     7
370
    15
100
AcDbSpline
210
0.0
220
0.0
230
1.0
 70
     8
 71
     2
 72
    11
 73
     8
 74
     0
 42
0.000000001
 43
0.000001
 40
0.0
 40
0.0
 40
0.0
 40
1.0
 40
1.0
 40
2.0
 40
3.0
 40
3.0
 40
4.0
 40
4.0
 40
4.0
 10
-0.7147963202027654
 20
458.4366472466202
 30
0.0
 10
-0.7596406308658175
 20
458.4206595802808
 30
0.0
 10
-0.8044849415288695
 20
458.4046719139415
 30
0.0
 10
-4.224286676851705
 20
457.1946816161892
 30
0.0
 10
-8.759889668625135
 20
455.4917504884875
 30
0.0
 10
-10.16542120008029
 20
454.9567074467047
 30
0.0
 10
-10.21229991672755
 20
454.9388793238952
 30
0.0
 10
-10.2591786333748
 20
454.9210512010857
 30
0.0
  0
SPLINE
  5
98
330
24
100
AcDbEntity
  8
0
  6
Continuous
 62
     7
370
    15
100
AcDbSpline
210
0.0
220
0.0
230
1.0
 70
     8
 71
     2
 72
    15
 73
    12
 74
     0
 42
0.000000001
 43
0.000001
 40
0.0
 40
0.0
 40
0.0
 40
1.0
 40
1.0
 40
2.0
 40
3.0
 40
4.0
 40
5.0
 40
6.0
 40
7.0
 40
7.0
 40
8.0
 40
8.0
 40
8.0
 10
7.280573612657747
 20
458.8227774578122
 30
0.0
 10
7.278936188904652
 20
458.8232390062444
 30
0.0
 10
7.277298765151556
 20
458.8237005546766
 30
0.0
 10
6.872060843583597
 20
458.9408136409288
 30
0.0
 10
5.768679905102601
 20
459.0817096017204
 30
0.0
 10
4.268574763932577
 20
459.1731752033941
 30
0.0
 10
2.343756362971646
 20
459.1016743159864
 30
0.0
 10
0.5191999661051909
 20
458.8278967661856
 30
0.0
 10
-0.4385893536593244
 20
458.5327063435118
 30
0.0
 10
-0.7081890192382048
 20
458.443429876555
 30
0.0
 10
-0.717198018015381
 20
458.4404686045173
 30
0.0
 10
-0.7262070167925572
 20
458.4375073324795
 30
0.0
  0
ARC
  5
99
330
24
100
AcDbEntity
  8
0
  6
Continuous
 62
     7
370
    15
100
AcDbCircle
 10
-0.6701287725254019
 20
288.4147012635387
 30
0.0
 40
1.000000000000014
100
AcDbArc
 50
1.552534576393666
 51
76.88804076830398
  0
LINE
  5
9A
330
24
100
AcDbEntity
  8
0
  6
Continuous
 62
     7
370
    15
100
AcDbLine
 10
1.364143779274684
 20
250.2681432919387
 30
0.0
 11
0.329505256874711
 21
288.4417931371386
 31
0.0
  0
LINE
  5
9B
330
24
100
AcDbEntity
  8
0
  6
Continuous
 62
     7
370
    15
100
AcDbLine
 10
-0.4432749345252773
 20
289.3886313703388
 30
0.0
 11
-29.17181994012543
 21
296.0802946933386
 31
0.0
  0
LINE
  5
9C
330
24
100
AcDbEntity
  8
0
  6
Continuous
 62
     7
370
    15
100
AcDbLine
 10
-3.201760387525326
 20
247.8594788455387
 30
0.0
 11
0.7106321242745821
 21
249.3028595531387
 31
0.0
  0
ARC
  5
9D
330
24
100
AcDbEntity
  8
0
  6
Continuous
 62
     7
370
    15
100
AcDbCircle
 10
0.3645099658745608
 20
250.2410434547387
 30
0.0
 40
1.000000000000055
100
AcDbArc
 50
290.2502952888952
 51
1.552534576393612
  0
LINE
  5
9E
330
24
100
AcDbEntity
  8
0
  6
Continuous
 62
     7
370
    15
100
AcDbLine
 10
-29.74479493812527
 20
296.0445533191387
 30
0.0
 11
-33.65755292552529
 21
294.6010377783387
 31
0.0
  0
ARC
  5
9F
330
24
100
AcDbEntity
  8
0
  6
Continuous
 62
     7
370
    15
100
AcDbCircle
 10
-29.39867470192547
 20
295.1063648017387
 30
0.0
 40
1.000000000000222
100
AcDbArc
 50
76.8880407682935
 51
110.2502952889022
  0
SPLINE
  5
A0
330
24
100
AcDbEntity
  8
0
  6
Continuous
 62
     7
370
    15
100
AcDbSpline
210
0.0
220
0.0
230
1.0
 70
     8
 71
     2
 72
    17
 73
    14
 74
     0
 42
0.000000001
 43
0.000001
 40
0.0
 40
0.0
 40
0.0
 40
1.0
 40
1.0
 40
2.0
 40
3.0
 40
4.0
 40
5.0
 40
6.0
 40
7.0
 40
8.0
 40
9.0
 40
9.0
 40
10.0
 40
10.0
 40
10.0
 10
-35.7965472129319
 20
264.8231714300243
 30
0.0
 10
-35.78621732214918
 20
264.7975399688341
 30
0.0
 10
-35.77588743136647
 20
264.771908507644
 30
0.0
 10
-35.51028884822534
 20
264.1038686810709
 30
0.0
 10
-34.6790748345108
 20
262.2202039544927
 30
0.0
 10
-32.56101723243904
 20
258.8813378634275
 30
0.0
 10
-29.7752124795374
 20
256.4162923966724
 30
0.0
 10
-27.46459984090569
 20
255.0095701836337
 30
0.0
 10
-24.72311957727169
 20
254.1184453639121
 30
0.0
 10
-22.51879205126846
 20
254.0845183643198
 30
0.0
 10
-20.84349972233184
 20
254.3185371141305
 30
0.0
 10
-19.99465187270442
 20
254.7054276030281
 30
0.0
 10
-19.98666024504001
 20
254.7089092437548
 30
0.0
 10
-19.9786686173756
 20
254.7123908844815
 30
0.0
  0
SPLINE
  5
A1
330
24
100
AcDbEntity
  8
0
  6
Continuous
 62
     7
370
    15
100
AcDbSpline
210
0.0
220
0.0
230
1.0
 70
     8
 71
     2
 72
    18
 73
    15
 74
     0
 42
0.000000001
 43
0.000001
 40
0.0
 40
0.0
 40
0.0
 40
1.0
 40
1.0
 40
2.0
 40
3.0
 40
4.0
 40
5.0
 40
6.0
 40
7.0
 40
8.0
 40
9.0
 40
10.0
 40
10.0
 40
11.0
 40
11.0
 40
11.0
 10
-29.8609325050258
 20
282.9609544551199
 30
0.0
 10
-29.86259595428663
 20
282.9606303260222
 30
0.0
 10
-29.86425940354746
 20
282.9603061969244
 30
0.0
 10
-30.52438459638068
 20
282.8232994876398
 30
0.0
 10
-31.88186598538158
 20
282.1423506495846
 30
0.0
 10
-33.15935476795079
 20
281.231063158664
 30
0.0
 10
-34.93265728194268
 20
279.4328188127486
 30
0.0
 10
-36.3112590399648
 20
276.4783268959591
 30
0.0
 10
-36.94505186796476
 20
273.6990060506789
 30
0.0
 10
-37.06268044627194
 20
270.8633774756629
 30
0.0
 10
-36.71542288435029
 20
267.7173409794518
 30
0.0
 10
-36.01424090306313
 20
265.4529434610006
 30
0.0
 10
-35.81004549353901
 20
264.8625599758702
 30
0.0
 10
-35.80329635323545
 20
264.8428657029473
 30
0.0
 10
-35.7965472129319
 20
264.8231714300243
 30
0.0
  0
LINE
  5
A2
330
24
100
AcDbEntity
  8
0
  6
Continuous
 62
     7
370
    15
100
AcDbLine
 10
-20.11697501872544
 20
254.6195261113387
 30
0.0
 11
-18.48186719872541
 21
255.2227588071387
 31
0.0
  0
LINE
  5
A3
330
24
100
AcDbEntity
  8
0
  6
Continuous
 62
     7
370
    15
100
AcDbLine
 10
-28.86552366632526
 20
283.3684403205386
 30
0.0
 11
-30.50063148632529
 21
282.7652076247387
 31
0.0
  0
SPLINE
  5
A4
330
24
100
AcDbEntity
  8
0
  6
Continuous
 62
     7
370
    15
100
AcDbSpline
210
0.0
220
0.0
230
1.0
 70
     8
 71
     2
 72
    14
 73
    11
 74
     0
 42
0.000000001
 43
0.000001
 40
0.0
 40
0.0
 40
0.0
 40
1.0
 40
1.0
 40
2.0
 40
3.0
 40
4.0
 40
5.0
 40
6.0
 40
6.0
 40
7.0
 40
7.0
 40
7.0
 10
-7.725587325886352
 20
246.7375023323643
 30
0.0
 10
-7.722804600751999
 20
246.737009709506
 30
0.0
 10
-7.720021875617647
 20
246.7365170866476
 30
0.0
 10
-7.558683476244539
 20
246.7058449971066
 30
0.0
 10
-7.313330997558239
 20
246.6791319599142
 30
0.0
 10
-7.123469859611021
 20
246.6805417101773
 30
0.0
 10
-6.933277105426157
 20
246.7118454663075
 30
0.0
 10
-6.709160277024409
 20
246.7707466642332
 30
0.0
 10
-6.568873327328618
 20
246.8150902723946
 30
0.0
 10
-6.566068028431971
 20
246.815961653228
 30
0.0
 10
-6.563262729535325
 20
246.8168330340613
 30
0.0
  0
LINE
  5
A5
330
24
100
AcDbEntity
  8
0
  6
Continuous
 62
     7
370
    15
100
AcDbLine
 10
-36.19653979052526
 20
253.3685552785387
 30
0.0
 11
-7.663373619725405
 21
246.7224010261386
 31
0.0
  0
LINE
  5
A6
330
24
100
AcDbEntity
  8
0
  6
Continuous
 62
     7
370
    15
100
AcDbLine
 10
-6.681440463325259
 20
246.7659472901387
 30
0.0
 11
-3.237393594325283
 21
247.8468284113387
 31
0.0
  0
SPLINE
  5
A7
330
24
100
AcDbEntity
  8
0
  6
Continuous
 62
     7
370
    15
100
AcDbSpline
210
0.0
220
0.0
230
1.0
 70
     8
 71
     2
 72
    16
 73
    13
 74
     0
 42
0.000000001
 43
0.000001
 40
0.0
 40
0.0
 40
0.0
 40
1.0
 40
1.0
 40
2.0
 40
3.0
 40
4.0
 40
5.0
 40
6.0
 40
7.0
 40
8.0
 40
8.0
 40
9.0
 40
9.0
 40
9.0
 10
-36.99960290206803
 20
293.1645413055844
 30
0.0
 10
-37.00487703558764
 20
293.1613479084
 30
0.0
 10
-37.01015116910725
 20
293.1581545112156
 30
0.0
 10
-37.25458280130937
 20
293.0177872618035
 30
0.0
 10
-37.71931665253891
 20
292.6634279888999
 30
0.0
 10
-38.06361386123666
 20
292.1963257134496
 30
0.0
 10
-38.29938059210821
 20
291.7657532945821
 30
0.0
 10
-38.55195955833591
 20
291.156024167183
 30
0.0
 10
-38.66286980489934
 20
290.5257584596616
 30
0.0
 10
-38.6948094473434
 20
290.0786297852251
 30
0.0
 10
-38.70434932773418
 20
289.8548307965805
 30
0.0
 10
-38.70468985754331
 20
289.8473716387066
 30
0.0
 10
-38.70503038735245
 20
289.8399124808327
 30
0.0
  0
LINE
  5
A8
330
24
100
AcDbEntity
  8
0
  6
Continuous
 62
     7
370
    15
100
AcDbLine
 10
-38.70698161672539
 20
289.8787692645387
 30
0.0
 11
-37.78245608912533
 21
255.7678087729387
 31
0.0
  0
LINE
  5
A9
330
24
100
AcDbEntity
  8
0
  6
Continuous
 62
     7
370
    15
100
AcDbLine
 10
-33.6934648911253
 20
294.5872520699386
 30
0.0
 11
-36.92843271112537
 21
293.2040754775387
 31
0.0
  0
SPLINE
  5
AA
330
24
100
AcDbEntity
  8
0
  6
Continuous
 62
     7
370
    15
100
AcDbSpline
210
0.0
220
0.0
230
1.0
 70
     8
 71
     2
 72
    16
 73
    13
 74
     0
 42
0.000000001
 43
0.000001
 40
0.0
 40
0.0
 40
0.0
 40
1.0
 40
1.0
 40
2.0
 40
3.0
 40
4.0
 40
5.0
 40
6.0
 40
7.0
 40
8.0
 40
8.0
 40
9.0
 40
9.0
 40
9.0
 10
-37.78154529523812
 20
255.7600304758623
 30
0.0
 10
-37.78093906960027
 20
255.7545225380391
 30
0.0
 10
-37.78033284396241
 20
255.7490146002158
 30
0.0
 10
-37.76272899745362
 20
255.5834963565605
 30
0.0
 10
-37.72033152983335
 20
255.2559955997585
 30
0.0
 10
-37.60108018998579
 20
254.7168189282231
 30
0.0
 10
-37.31501137245567
 20
254.1944112396909
 30
0.0
 10
-36.95740564049873
 20
253.7393656619365
 30
0.0
 10
-36.55348404314708
 20
253.509985057065
 30
0.0
 10
-36.29626945208446
 20
253.4083906289993
 30
0.0
 10
-36.16567642916897
 20
253.3626360324777
 30
0.0
 10
-36.16133024126674
 20
253.361093278159
 30
0.0
 10
-36.15698405336451
 20
253.3595505238404
 30
0.0
  0
SPLINE
  5
AB
330
24
100
AcDbEntity
  8
0
  6
Continuous
 62
     7
370
    15
100
AcDbSpline
210
0.0
220
0.0
230
1.0
 70
     8
 71
     2
 72
    17
 73
    14
 74
     0
 42
0.000000001
 43
0.000001
 40
0.0
 40
0.0
 40
0.0
 40
1.0
 40
1.0
 40
2.0
 40
3.0
 40
4.0
 40
5.0
 40
6.0
 40
7.0
 40
8.0
 40
9.0
 40
9.0
 40
10.0
 40
10.0
 40
10.0
 10
-33.35704504699123
 20
276.6006940112052
 30
0.0
 10
-33.36244990838924
 20
276.5939223858896
 30
0.0
 10
-33.36785476978724
 20
276.5871507605741
 30
0.0
 10
-34.0509341772019
 20
275.752747110301
 30
0.0
 10
-35.49951346508141
 20
272.7356294020117
 30
0.0
 10
-35.85834815540437
 20
268.9010949233325
 30
0.0
 10
-35.33517965865207
 20
265.7704159246109
 30
0.0
 10
-33.85442757973209
 20
262.487887126922
 30
0.0
 10
-31.66572548940911
 20
260.1277711215812
 30
0.0
 10
-29.27694681409019
 20
258.4216590666492
 30
0.0
 10
-26.96597708548796
 20
257.5449047401805
 30
0.0
 10
-26.23055582967453
 20
257.4083252066405
 30
0.0
 10
-26.22874136261106
 20
257.4079900081185
 30
0.0
 10
-26.22692689554759
 20
257.4076548095966
 30
0.0
  0
SPLINE
  5
AC
330
24
100
AcDbEntity
  8
0
  6
Continuous
 62
     7
370
    15
100
AcDbSpline
210
0.0
220
0.0
230
1.0
 70
     8
 71
     2
 72
    13
 73
    10
 74
     0
 42
0.000000001
 43
0.000001
 40
0.0
 40
0.0
 40
0.0
 40
1.0
 40
1.0
 40
2.0
 40
3.0
 40
4.0
 40
5.0
 40
5.0
 40
6.0
 40
6.0
 40
6.0
 10
-27.42771790237924
 20
257.7873120714585
 30
0.0
 10
-27.42711759587979
 20
257.7870144140389
 30
0.0
 10
-27.42651728938034
 20
257.7867167566194
 30
0.0
 10
-27.35822699820773
 20
257.7519100223255
 30
0.0
 10
-27.25439783040787
 20
257.7073263437824
 30
0.0
 10
-27.16566478319731
 20
257.6776886067764
 30
0.0
 10
-27.06633541299192
 20
257.6526895145284
 30
0.0
 10
-27.01815796010891
 20
257.6416230147768
 30
0.0
 10
-27.01732766613503
 20
257.6414300881405
 30
0.0
 10
-27.01649737216115
 20
257.6412371615043
 30
0.0
  0
SPLINE
  5
AD
330
24
100
AcDbEntity
  8
0
  6
Continuous
 62
     7
370
    15
100
AcDbSpline
210
0.0
220
0.0
230
1.0
 70
     8
 71
     2
 72
    13
 73
    10
 74
     0
 42
0.000000001
 43
0.000001
 40
0.0
 40
0.0
 40
0.0
 40
1.0
 40
1.0
 40
2.0
 40
3.0
 40
4.0
 40
5.0
 40
5.0
 40
6.0
 40
6.0
 40
6.0
 10
-24.94439735992472
 20
257.2407012222918
 30
0.0
 10
-24.94245205597116
 20
257.2404753516583
 30
0.0
 10
-24.9405067520176
 20
257.2402494810249
 30
0.0
 10
-24.8199065738101
 20
257.2256391070969
 30
0.0
 10
-24.37757643656659
 20
257.1848955456483
 30
0.0
 10
-23.57204036415391
 20
257.2412121028408
 30
0.0
 10
-22.8208414383443
 20
257.4524384929859
 30
0.0
 10
-22.52363170477491
 20
257.5516771900225
 30
0.0
 10
-22.51882864323164
 20
257.5532496305264
 30
0.0
 10
-22.51402558168837
 20
257.5548220710302
 30
0.0
  0
SPLINE
  5
AE
330
24
100
AcDbEntity
  8
0
  6
Continuous
 62
     7
370
    15
100
AcDbSpline
210
0.0
220
0.0
230
1.0
 70
     8
 71
     2
 72
    14
 73
    11
 74
     0
 42
0.000000001
 43
0.000001
 40
0.0
 40
0.0
 40
0.0
 40
1.0
 40
1.0
 40
2.0
 40
3.0
 40
4.0
 40
5.0
 40
6.0
 40
6.0
 40
7.0
 40
7.0
 40
7.0
 10
-30.41192871372772
 20
279.0139848590882
 30
0.0
 10
-30.42012937221369
 20
279.0101241827131
 30
0.0
 10
-30.42833003069967
 20
279.006263506338
 30
0.0
 10
-30.57603736118057
 20
278.9369289824037
 30
0.0
 10
-30.96853639340469
 20
278.7497464322946
 30
0.0
 10
-31.60523173448922
 20
278.39361216373
 30
0.0
 10
-32.08396067725215
 20
277.9830465107864
 30
0.0
 10
-32.2878377086451
 20
277.7940143916617
 30
0.0
 10
-32.36404217343551
 20
277.7227155066757
 30
0.0
 10
-32.36827699133704
 20
277.7187564992328
 30
0.0
 10
-32.37251180923857
 20
277.7147974917898
 30
0.0
  0
LINE
  5
AF
330
24
100
AcDbEntity
  8
0
  6
Continuous
 62
     7
370
    15
100
AcDbLine
 10
-29.18029912812534
 20
279.5080602549388
 30
0.0
 11
-30.2947987965253
 21
279.0648922971386
 31
0.0
  0
LINE
  5
B0
330
24
100
AcDbEntity
  8
0
  6
Continuous
 62
     7
370
    15
100
AcDbLine
 10
-22.36365217912538
 20
257.5669180763387
 30
0.0
 11
-21.22836728172541
 21
257.9537440917386
 31
0.0
  0
LINE
  5
B1
330
24
100
AcDbEntity
  8
0
  6
Continuous
 62
     7
370
    15
100
AcDbLine
 10
-43.32373340052544
 20
394.3266826015388
 30
0.0
 11
-19.37830850552535
 21
-489.1550797864613
 31
0.0
  0
LINE
  5
B2
330
24
100
AcDbEntity
  8
0
  6
Continuous
 62
     7
370
    15
100
AcDbLine
 10
79.0795041526747
 20
-484.6141587722614
 30
0.0
 11
55.13463419107467
 21
398.8471290029386
 31
0.0
  0
LINE
  5
B3
330
24
100
AcDbEntity
  8
0
  6
Continuous
 62
     7
370
    15
100
AcDbLine
 10
-40.46315400792531
 20
399.4459235073386
 30
0.0
 11
8.2997700668746
 21
388.0877057315386
 31
0.0
  0
ARC
  5
B4
330
24
100
AcDbEntity
  8
0
  6
Continuous
 62
     7
370
    15
100
AcDbCircle
 10
8.980335091474728
 20
391.0094912809386
 30
0.0
 40
3.000000000000121
100
AcDbArc
 50
256.8880407683
 51
290.2502952888991
  0
LINE
  5
B5
330
24
100
AcDbEntity
  8
0
  6
Continuous
 62
     7
370
    15
100
AcDbLine
 10
10.0187029726747
 20
388.1949227745388
 30
0.0
 11
52.20452273947473
 21
403.7583403511387
 31
0.0
  0
LINE
  5
B6
330
24
100
AcDbEntity
  8
0
  6
Continuous
 62
     7
370
    15
100
AcDbLine
 10
50.17836449587463
 20
471.0497218077387
 30
0.0
 11
1.41544042107472
 21
482.4079395833387
 31
0.0
  0
ARC
  5
B7
330
24
100
AcDbEntity
  8
0
  6
Continuous
 62
     7
370
    15
100
AcDbCircle
 10
-41.45094651752532
 20
463.9227328715388
 30
0.0
 40
3.00000000000003
100
AcDbArc
 50
110.2502952889008
 51
181.552534576398
  0
LINE
  5
B8
330
24
100
AcDbEntity
  8
0
  6
Continuous
 62
     7
370
    15
100
AcDbLine
 10
-44.4498443699253
 20
463.8414519801386
 30
0.0
 11
-42.78148941992544
 21
402.2864293395387
 31
0.0
  0
LINE
  5
B9
330
24
100
AcDbEntity
  8
0
  6
Continuous
 62
     7
370
    15
100
AcDbLine
 10
-0.303492454525383
 20
482.3007214295387
 30
0.0
 11
-42.48931222152527
 21
466.7373038527387
 31
0.0
  0
ARC
  5
BA
330
24
100
AcDbEntity
  8
0
  6
Continuous
 62
     7
370
    15
100
AcDbCircle
 10
49.49780211487456
 20
468.1279328939386
 30
0.0
 40
3.000000000000049
100
AcDbArc
 50
1.552534576398007
 51
76.8880407682997
  0
LINE
  5
BB
330
24
100
AcDbEntity
  8
0
  6
Continuous
 62
     7
370
    15
100
AcDbLine
 10
54.16505495427469
 20
406.6541897797388
 30
0.0
 11
52.4967000042746
 21
468.2092124201386
 31
0.0
  0
ARC
  5
BC
330
24
100
AcDbEntity
  8
0
  6
Continuous
 62
     7
370
    15
100
AcDbCircle
 10
-39.78259155192535
 20
402.3677096549386
 30
0.0
 40
3.000000000000049
100
AcDbArc
 50
181.552534576398
 51
256.8880407682997
  0
ARC
  5
BD
330
24
100
AcDbEntity
  8
0
  6
Continuous
 62
     7
370
    15
100
AcDbCircle
 10
51.16615708047453
 20
406.5729096775387
 30
0.0
 40
3.00000000000003
100
AcDbArc
 50
290.2502952889009
 51
1.552534576398045
  0
ARC
  5
BE
330
24
100
AcDbEntity
  8
0
  6
Continuous
 62
     7
370
    15
100
AcDbCircle
 10
0.7348754714747088
 20
479.4861512679386
 30
0.0
 40
2.9999999999999
100
AcDbArc
 50
76.88804076829899
 51
110.2502952889006
  0
SPLINE
  5
BF
330
24
100
AcDbEntity
  8
0
  6
Continuous
 62
     7
370
    15
100
AcDbSpline
210
0.0
220
0.0
230
1.0
 70
     8
 71
     2
 72
    16
 73
    13
 74
     0
 42
0.000000001
 43
0.000001
 40
0.0
 40
0.0
 40
0.0
 40
1.0
 40
1.0
 40
2.0
 40
3.0
 40
4.0
 40
5.0
 40
6.0
 40
7.0
 40
8.0
 40
8.0
 40
9.0
 40
9.0
 40
9.0
 10
-43.38064809429505
 20
397.4969169299125
 30
0.0
 10
-43.38130434710507
 20
397.4965421971755
 30
0.0
 10
-43.38196059991509
 20
397.4961674644385
 30
0.0
 10
-43.42287358611446
 20
397.4731050377031
 30
0.0
 10
-43.52719131837983
 20
397.4105090662156
 30
0.0
 10
-43.63970651904714
 20
397.3046992103248
 30
0.0
 10
-43.70838657167059
 20
397.2020595902986
 30
0.0
 10
-43.7459297143152
 20
397.1181229956846
 30
0.0
 10
-43.75895127715097
 20
397.0521803301381
 30
0.0
 10
-43.766060572914
 20
396.9904861776381
 30
0.0
 10
-43.76845031379293
 20
396.9486526390938
 30
0.0
 10
-43.76849361299315
 20
396.9479784135926
 30
0.0
 10
-43.76853691219338
 20
396.9473041880915
 30
0.0
  0
LINE
  5
C0
330
24
100
AcDbEntity
  8
0
  6
Continuous
 62
     7
370
    15
100
AcDbLine
 10
-43.76907262892536
 20
396.9561072193387
 30
0.0
 11
-43.74795840732526
 21
394.5608106201387
 31
0.0
  0
LINE
  5
C1
330
24
100
AcDbEntity
  8
0
  6
Continuous
 62
     7
370
    15
100
AcDbLine
 10
-39.02372133072544
 20
399.1106401613388
 30
0.0
 11
-43.33097836652536
 21
397.5215839281386
 31
0.0
  0
SPLINE
  5
C2
330
24
100
AcDbEntity
  8
0
  6
Continuous
 62
     7
370
    15
100
AcDbSpline
210
0.0
220
0.0
230
1.0
 70
     8
 71
     2
 72
    16
 73
    13
 74
     0
 42
0.000000001
 43
0.000001
 40
0.0
 40
0.0
 40
0.0
 40
1.0
 40
1.0
 40
2.0
 40
3.0
 40
4.0
 40
5.0
 40
6.0
 40
7.0
 40
8.0
 40
8.0
 40
9.0
 40
9.0
 40
9.0
 10
55.43596633584099
 20
401.5139237287462
 30
0.0
 10
55.43582864825868
 20
401.5146467270802
 30
0.0
 10
55.43569096067637
 20
401.5153697254141
 30
0.0
 10
55.4276775770407
 20
401.5602907801231
 30
0.0
 10
55.41108216802792
 20
401.6260920692753
 30
0.0
 10
55.38082731687433
 20
401.7123873716789
 30
0.0
 10
55.30595046639934
 20
401.8118453713296
 30
0.0
 10
55.2313923405805
 20
401.8860638577396
 30
0.0
 10
55.12078513494458
 20
401.9686835466014
 30
0.0
 10
54.99483166892816
 20
402.0265892200271
 30
0.0
 10
54.94695149281989
 20
402.0468092772815
 30
0.0
 10
54.94618178500485
 20
402.0471380743768
 30
0.0
 10
54.94541207718981
 20
402.0474668714721
 30
0.0
  0
LINE
  5
C3
330
24
100
AcDbEntity
  8
0
  6
Continuous
 62
     7
370
    15
100
AcDbLine
 10
55.54528989987472
 20
399.1135822433387
 30
0.0
 11
55.43662834307457
 21
401.5065063721386
 31
0.0
  0
LINE
  5
C4
330
24
100
AcDbEntity
  8
0
  6
Continuous
 62
     7
370
    15
100
AcDbLine
 10
54.89290751347454
 20
402.0677876833386
 30
0.0
 11
50.43605781627463
 21
403.1059097897387
 31
0.0
  0
ARC
  5
C5
330
24
100
AcDbEntity
  8
0
  6
Continuous
 62
     7
370
    15
100
AcDbCircle
 10
-33.48251225452526
 20
294.0810993963387
 30
0.0
 40
0.5483971924322691
100
AcDbArc
 50
75.88792161811378
 51
109.8869611285005
  0
LINE
  5
C6
330
24
100
AcDbEntity
  8
0
  6
Continuous
 62
     7
370
    15
100
AcDbLine
 10
-33.34880234572546
 20
294.6129463113386
 30
0.0
 11
-4.620257339925445
 21
287.9212829883386
 31
0.0
  0
ARC
  5
C7
330
24
100
AcDbEntity
  8
0
  6
Continuous
 62
     7
370
    15
100
AcDbCircle
 10
-5.024679326925423
 20
286.8059424741386
 30
0.0
 40
1.186398586571797
100
AcDbArc
 50
359.2707765440999
 51
70.06937734019755
  0
LINE
  5
C8
330
24
100
AcDbEntity
  8
0
  6
Continuous
 62
     7
370
    15
100
AcDbLine
 10
-3.838376828725302
 20
286.7908431713386
 30
0.0
 11
-2.803738306125467
 21
248.6171933263386
 31
0.0
  0
ARC
  5
C9
330
24
100
AcDbEntity
  8
0
  6
Continuous
 62
     7
370
    15
100
AcDbCircle
 10
-3.540775026525296
 20
248.5223315721387
 30
0.0
 40
0.7431163298508279
100
AcDbArc
 50
296.1187197035989
 51
7.334045506001529
  0
LINE
  5
CA
330
24
100
AcDbEntity
  8
0
  6
Continuous
 62
     7
370
    15
100
AcDbLine
 10
-4.620257339925445
 20
287.9212829883386
 30
0.0
 11
-0.6959941861254606
 21
289.3690430765387
 31
0.0
  0
ARC
  5
CB
330
24
100
AcDbEntity
  8
0
  6
Continuous
 62
     7
370
    15
100
AcDbCircle
 10
-1.100416173125438
 20
288.2537025621386
 30
0.0
 40
1.186398586572706
100
AcDbArc
 50
359.2707765441004
 51
70.0693773402013
  0
LINE
  5
CC
330
24
100
AcDbEntity
  8
0
  6
Continuous
 62
     7
370
    15
100
AcDbLine
 10
0.0858863252745437
 20
288.2386032595386
 30
0.0
 11
-3.838376828725302
 21
286.7908431713386
 31
0.0
  0
LINE
  5
CD
330
24
100
AcDbEntity
  8
0
  6
Continuous
 62
     7
370
    15
100
AcDbLine
 10
-2.803738306125467
 20
248.6171933263386
 30
0.0
 11
1.120524847674744
 21
250.0649534143386
 31
0.0
  0
LINE
  5
CE
330
24
100
AcDbEntity
  8
0
  6
Continuous
 62
     7
370
    15
100
AcDbLine
 10
1.120524847674744
 20
250.0649534143386
 30
0.0
 11
0.0858863252745437
 21
288.2386032595386
 31
0.0
  0
LINE
  5
CF
330
24
100
AcDbEntity
  8
0
  6
Continuous
 62
     7
370
    15
100
AcDbLine
 10
-29.42453919192548
 20
296.0607063995387
 30
0.0
 11
-33.34880234572546
 21
294.6129463113386
 31
0.0
  0
LINE
  5
D0
330
24
100
AcDbEntity
  8
0
  6
Continuous
 62
     7
370
    15
100
AcDbLine
 10
-0.6959941861254606
 20
289.3690430765387
 30
0.0
 11
-29.42453919192548
 21
296.0607063995387
 31
0.0
  0
SPLINE
  5
D1
330
24
100
AcDbEntity
  8
0
  6
Continuous
 62
     7
370
    15
100
AcDbSpline
210
0.0
220
0.0
230
1.0
 70
     8
 71
     2
 72
    17
 73
    14
 74
     0
 42
0.000000001
 43
0.000001
 40
0.0
 40
0.0
 40
0.0
 40
1.0
 40
1.0
 40
2.0
 40
3.0
 40
4.0
 40
5.0
 40
6.0
 40
7.0
 40
8.0
 40
9.0
 40
9.0
 40
10.0
 40
10.0
 40
10.0
 10
-7.257066772986889
 20
285.4622592713613
 30
0.0
 10
-7.260462308134549
 20
285.4603869350329
 30
0.0
 10
-7.26385784328221
 20
285.4585145987046
 30
0.0
 10
-7.3659498154895
 20
285.4030779791301
 30
0.0
 10
-7.567268828883414
 20
285.2832143169617
 30
0.0
 10
-7.797488347141041
 20
285.0999363350202
 30
0.0
 10
-8.003262970903222
 20
284.844632667847
 30
0.0
 10
-8.248919026710325
 20
284.4445601353193
 30
0.0
 10
-8.429435097979592
 20
283.9261380205971
 30
0.0
 10
-8.488414917630905
 20
283.551215145302
 30
0.0
 10
-8.509988044879435
 20
283.2528308167614
 30
0.0
 10
-8.517246757459532
 20
283.1032316095113
 30
0.0
 10
-8.517501036331794
 20
283.0982463841017
 30
0.0
 10
-8.517755315204056
 20
283.093261158692
 30
0.0
  0
SPLINE
  5
D2
330
24
100
AcDbEntity
  8
0
  6
Continuous
 62
     7
370
    15
100
AcDbSpline
210
0.0
220
0.0
230
1.0
 70
     8
 71
     2
 72
    15
 73
    12
 74
     0
 42
0.000000001
 43
0.000001
 40
0.0
 40
0.0
 40
0.0
 40
1.0
 40
1.0
 40
2.0
 40
3.0
 40
4.0
 40
5.0
 40
6.0
 40
7.0
 40
7.0
 40
8.0
 40
8.0
 40
8.0
 10
-8.517755315204056
 20
283.093261158692
 30
0.0
 10
-8.519279131786618
 20
283.0928261876883
 30
0.0
 10
-8.52080294836918
 20
283.0923912166845
 30
0.0
 10
-8.60240592446138
 20
283.068556306458
 30
0.0
 10
-8.780110367401619
 20
283.0233347216251
 30
0.0
 10
-9.010528926998802
 20
282.9902015096163
 30
0.0
 10
-9.271112271644995
 20
282.9750261924041
 30
0.0
 10
-9.56006981660147
 20
282.9798658520381
 30
0.0
 10
-9.804100021518195
 20
283.0147437664345
 30
0.0
 10
-9.907093408290109
 20
283.033720384997
 30
0.0
 10
-9.908763939704215
 20
283.0340201571781
 30
0.0
 10
-9.910434471118322
 20
283.0343199293593
 30
0.0
  0
SPLINE
  5
D3
330
24
100
AcDbEntity
  8
0
  6
Continuous
 62
     7
370
    15
100
AcDbSpline
210
0.0
220
0.0
230
1.0
 70
     8
 71
     2
 72
    16
 73
    13
 74
     0
 42
0.000000001
 43
0.000001
 40
0.0
 40
0.0
 40
0.0
 40
1.0
 40
1.0
 40
2.0
 40
3.0
 40
4.0
 40
5.0
 40
6.0
 40
7.0
 40
8.0
 40
8.0
 40
9.0
 40
9.0
 40
9.0
 10
-8.038679313076443
 20
286.5923116571266
 30
0.0
 10
-8.042134903729504
 20
286.5906038936739
 30
0.0
 10
-8.045590494382566
 20
286.5888961302212
 30
0.0
 10
-8.204934543496108
 20
286.5132258151402
 30
0.0
 10
-8.54365990175637
 20
286.3143688982923
 30
0.0
 10
-9.008886238612547
 20
285.8714531567318
 30
0.0
 10
-9.421306201233563
 20
285.2173151492939
 30
0.0
 10
-9.667467785555516
 20
284.6405704358035
 30
0.0
 10
-9.852424045186297
 20
283.9498997211429
 30
0.0
 10
-9.898539171202799
 20
283.2944688269854
 30
0.0
 10
-9.909645538965549
 20
283.0505759039306
 30
0.0
 10
-9.910040005041935
 20
283.042447916645
 30
0.0
 10
-9.910434471118322
 20
283.0343199293593
 30
0.0
  0
SPLINE
  5
D4
330
24
100
AcDbEntity
  8
0
  6
Continuous
 62
     7
370
    15
100
AcDbSpline
210
0.0
220
0.0
230
1.0
 70
     8
 71
     2
 72
    17
 73
    14
 74
     0
 42
0.000000001
 43
0.000001
 40
0.0
 40
0.0
 40
0.0
 40
1.0
 40
1.0
 40
2.0
 40
3.0
 40
4.0
 40
5.0
 40
6.0
 40
7.0
 40
8.0
 40
9.0
 40
9.0
 40
10.0
 40
10.0
 40
10.0
 10
-8.038679313076443
 20
286.5923116571266
 30
0.0
 10
-8.037157517573803
 20
286.5917147258383
 30
0.0
 10
-8.035635722071163
 20
286.59111779455
 30
0.0
 10
-7.953176509292405
 20
286.5600999015855
 30
0.0
 10
-7.827687498887542
 20
286.4998638146144
 30
0.0
 10
-7.706250664190009
 20
286.420506849405
 30
0.0
 10
-7.595152855840922
 20
286.3058994191701
 30
0.0
 10
-7.47700991133928
 20
286.1559361835127
 30
0.0
 10
-7.330825889114237
 20
285.8798329985066
 30
0.0
 10
-7.28281152241442
 20
285.6443522578049
 30
0.0
 10
-7.26536060052598
 20
285.5257201541285
 30
0.0
 10
-7.25759142055125
 20
285.4662243957539
 30
0.0
 10
-7.25732909676907
 20
285.4642418335576
 30
0.0
 10
-7.257066772986889
 20
285.4622592713613
 30
0.0
  0
SPLINE
  5
D5
330
24
100
AcDbEntity
  8
0
  6
Continuous
 62
     7
370
    15
100
AcDbSpline
210
0.0
220
0.0
230
1.0
 70
     8
 71
     2
 72
    18
 73
    15
 74
     0
 42
0.000000001
 43
0.000001
 40
0.0
 40
0.0
 40
0.0
 40
1.0
 40
1.0
 40
2.0
 40
3.0
 40
4.0
 40
5.0
 40
6.0
 40
7.0
 40
8.0
 40
9.0
 40
10.0
 40
10.0
 40
11.0
 40
11.0
 40
11.0
 10
-38.361304815035
 20
289.6613052343962
 30
0.0
 10
-38.36093568823134
 20
289.6694393029738
 30
0.0
 10
-38.36056656142767
 20
289.6775733715515
 30
0.0
 10
-38.350592491638
 20
289.9216691470779
 30
0.0
 10
-38.31720827884732
 20
290.4087666099422
 30
0.0
 10
-38.23264331219588
 20
290.9031001036446
 30
0.0
 10
-38.08241836846008
 20
291.4024031000258
 30
0.0
 10
-37.8826377204345
 20
291.8537073185753
 30
0.0
 10
-37.58425849988356
 20
292.3813722401505
 30
0.0
 10
-37.16887501992454
 20
292.85701305098
 30
0.0
 10
-36.87090025877268
 20
293.0708996405174
 30
0.0
 10
-36.67295961572876
 20
293.181995152323
 30
0.0
 10
-36.57330371682082
 20
293.2337804679905
 30
0.0
 10
-36.56998424126158
 20
293.2355198233179
 30
0.0
 10
-36.56666476570234
 20
293.2372591786452
 30
0.0
  0
LINE
  5
D6
330
24
100
AcDbEntity
  8
0
  6
Continuous
 62
     7
370
    15
100
AcDbLine
 10
-36.56666476572531
 20
293.2372591787387
 30
0.0
 11
-8.038679313125328
 21
286.5923116571387
 31
0.0
  0
LINE
  5
D7
330
24
100
AcDbEntity
  8
0
  6
Continuous
 62
     7
370
    15
100
AcDbLine
 10
-9.91043447112537
 20
283.0343199293386
 30
0.0
 11
-38.36130481512527
 21
289.6613052343387
 31
0.0
  0
LINE
  5
D8
330
24
100
AcDbEntity
  8
0
  6
Continuous
 62
     7
370
    15
100
AcDbLine
 10
-2.803729441125313
 20
248.6168662479386
 30
0.0
 11
-6.229289920725421
 21
247.5417751419386
 31
0.0
  0
SPLINE
  5
D9
330
24
100
AcDbEntity
  8
0
  6
Continuous
 62
     7
370
    15
100
AcDbSpline
210
0.0
220
0.0
230
1.0
 70
     8
 71
     2
 72
    17
 73
    14
 74
     0
 42
0.000000001
 43
0.000001
 40
0.0
 40
0.0
 40
0.0
 40
1.0
 40
1.0
 40
2.0
 40
3.0
 40
4.0
 40
5.0
 40
6.0
 40
7.0
 40
8.0
 40
9.0
 40
9.0
 40
10.0
 40
10.0
 40
10.0
 10
-7.593406893995223
 20
248.9888351226411
 30
0.0
 10
-7.592938983082547
 20
248.9845697896831
 30
0.0
 10
-7.592471072169872
 20
248.980304456725
 30
0.0
 10
-7.578852934841677
 20
248.8519968407938
 30
0.0
 10
-7.546382805731071
 20
248.5997174458939
 30
0.0
 10
-7.475531657046702
 20
248.266609875368
 30
0.0
 10
-7.336325770584779
 20
247.993522330064
 30
0.0
 10
-7.145870180432382
 20
247.737632770677
 30
0.0
 10
-6.812966603250231
 20
247.5151097770308
 30
0.0
 10
-6.513588443326796
 20
247.5046351957176
 30
0.0
 10
-6.32874135745891
 20
247.5261386252548
 30
0.0
 10
-6.235500262893936
 20
247.5408237056229
 30
0.0
 10
-6.232395091853562
 20
247.5412994237773
 30
0.0
 10
-6.229289920813187
 20
247.5417751419318
 30
0.0
  0
LINE
  5
DA
330
24
100
AcDbEntity
  8
0
  6
Continuous
 62
     7
370
    15
100
AcDbLine
 10
-8.517755315125385
 20
283.0932611587386
 30
0.0
 11
-7.593406893925419
 21
248.9888351227387
 31
0.0
  0
LINE
  5
DB
330
24
100
AcDbEntity
  8
0
  6
Continuous
 62
     7
370
    15
100
AcDbLine
 10
-3.838385693525368
 20
286.7911702495387
 30
0.0
 11
-7.25706677292527
 21
285.4622592713388
 31
0.0
  0
LINE
  5
DC
330
24
100
AcDbEntity
  8
0
  6
Continuous
 62
     7
370
    15
100
AcDbLine
 10
-2.803729441125313
 20
248.6168662479386
 30
0.0
 11
-3.838385693525368
 21
286.7911702495387
 31
0.0
  0
SPLINE
  5
DD
330
24
100
AcDbEntity
  8
0
  6
Continuous
 62
     7
370
    15
100
AcDbSpline
210
0.0
220
0.0
230
1.0
 70
     8
 71
     2
 72
    15
 73
    12
 74
     0
 42
0.000000001
 43
0.000001
 40
0.0
 40
0.0
 40
0.0
 40
1.0
 40
1.0
 40
2.0
 40
3.0
 40
4.0
 40
5.0
 40
6.0
 40
7.0
 40
7.0
 40
8.0
 40
8.0
 40
8.0
 10
-7.593406893995223
 20
248.9888351226411
 30
0.0
 10
-7.594930710577785
 20
248.9884001516373
 30
0.0
 10
-7.596454527160347
 20
248.9879651806334
 30
0.0
 10
-7.678057503252091
 20
248.9641302704067
 30
0.0
 10
-7.855761946192558
 20
248.9189086855745
 30
0.0
 10
-8.086180505790196
 20
248.8857754735654
 30
0.0
 10
-8.346763850435934
 20
248.8706001563523
 30
0.0
 10
-8.635721395393091
 20
248.8754398159874
 30
0.0
 10
-8.87975160030959
 20
248.9103177303828
 30
0.0
 10
-8.982744987081276
 20
248.9292943489459
 30
0.0
 10
-8.984415518495382
 20
248.929594121127
 30
0.0
 10
-8.986086049909488
 20
248.9298938933082
 30
0.0
  0
LINE
  5
DE
330
24
100
AcDbEntity
  8
0
  6
Continuous
 62
     7
370
    15
100
AcDbLine
 10
-8.986086049925404
 20
248.9298938933387
 30
0.0
 11
-9.91043447112537
 21
283.0343199293386
 31
0.0
  0
LINE
  5
DF
330
24
100
AcDbEntity
  8
0
  6
Continuous
 62
     7
370
    15
100
AcDbLine
 10
-38.36130481512527
 20
289.6613052343387
 30
0.0
 11
-37.4369563939253
 21
255.5568791983387
 31
0.0
  0
LINE
  5
E0
330
24
100
AcDbEntity
  8
0
  6
Continuous
 62
     7
370
    15
100
AcDbLine
 10
-8.986086049925404
 20
248.9298938933387
 30
0.0
 11
-37.4369563939253
 21
255.5568791983387
 31
0.0
  0
POLYLINE
  5
E1
330
24
100
AcDbEntity
  8
0
  6
Continuous
 62
     7
370
    15
100
AcDb2dPolyline
 66
     1
 10
0.0
 20
0.0
 30
0.0
 75
     5
  0
VERTEX
  5
E2
330
E1
100
AcDbEntity
  8
0
  6
Continuous
 62
     7
370
    15
100
AcDbVertex
100
AcDb2dVertex
 10
-18.48186719872541
 20
255.2227588071387
 30
0.0
  0
VERTEX
  5
E3
330
E1
100
AcDbEntity
  8
0
  6
Continuous
 62
     7
370
    15
100
AcDbVertex
100
AcDb2dVertex
 10
-18.2941140731254
 20
255.2948155327388
 30
0.0
  0
VERTEX
  5
E4
330
E1
100
AcDbEntity
  8
0
  6
Continuous
 62
     7
370
    15
100
AcDbVertex
100
AcDb2dVertex
 10
-16.83210941432543
 20
256.0671629989386
 30
0.0
  0
VERTEX
  5
E5
330
E1
100
AcDbEntity
  8
0
  6
Continuous
 62
     7
370
    15
100
AcDbVertex
100
AcDb2dVertex
 10
-15.53046664652533
 20
257.1495776455386
 30
0.0
  0
VERTEX
  5
E6
330
E1
100
AcDbEntity
  8
0
  6
Continuous
 62
     7
370
    15
100
AcDbVertex
100
AcDb2dVertex
 10
-14.41969376932542
 20
258.5166784097387
 30
0.0
  0
VERTEX
  5
E7
330
E1
100
AcDbEntity
  8
0
  6
Continuous
 62
     7
370
    15
100
AcDbVertex
100
AcDb2dVertex
 10
-13.52582685692545
 20
260.1364325805387
 30
0.0
  0
VERTEX
  5
E8
330
E1
100
AcDbEntity
  8
0
  6
Continuous
 62
     7
370
    15
100
AcDbVertex
100
AcDb2dVertex
 10
-12.86981777412547
 20
261.9708751739386
 30
0.0
  0
VERTEX
  5
E9
330
E1
100
AcDbEntity
  8
0
  6
Continuous
 62
     7
370
    15
100
AcDbVertex
100
AcDb2dVertex
 10
-12.46704192112537
 20
263.9769975749387
 30
0.0
  0
VERTEX
  5
EA
330
E1
100
AcDbEntity
  8
0
  6
Continuous
 62
     7
370
    15
100
AcDbVertex
100
AcDb2dVertex
 10
-12.32694072672547
 20
266.1077806155386
 30
0.0
  0
VERTEX
  5
EB
330
E1
100
AcDbEntity
  8
0
  6
Continuous
 62
     7
370
    15
100
AcDbVertex
100
AcDb2dVertex
 10
-12.45279728372537
 20
268.3132869253386
 30
0.0
  0
VERTEX
  5
EC
330
E1
100
AcDbEntity
  8
0
  6
Continuous
 62
     7
370
    15
100
AcDbVertex
100
AcDb2dVertex
 10
-12.84166272452529
 20
270.5418166585387
 30
0.0
  0
VERTEX
  5
ED
330
E1
100
AcDbEntity
  8
0
  6
Continuous
 62
     7
370
    15
100
AcDbVertex
100
AcDb2dVertex
 10
-13.48442246212534
 20
272.7411381889387
 30
0.0
  0
VERTEX
  5
EE
330
E1
100
AcDbEntity
  8
0
  6
Continuous
 62
     7
370
    15
100
AcDbVertex
100
AcDb2dVertex
 10
-14.36600945052527
 20
274.8596965295387
 30
0.0
  0
VERTEX
  5
EF
330
E1
100
AcDbEntity
  8
0
  6
Continuous
 62
     7
370
    15
100
AcDbVertex
100
AcDb2dVertex
 10
-15.46576050332527
 20
276.8478338743387
 30
0.0
  0
VERTEX
  5
F0
330
E1
100
AcDbEntity
  8
0
  6
Continuous
 62
     7
370
    15
100
AcDbVertex
100
AcDb2dVertex
 10
-16.75789863832546
 20
278.6589617759387
 30
0.0
  0
VERTEX
  5
F1
330
E1
100
AcDbEntity
  8
0
  6
Continuous
 62
     7
370
    15
100
AcDbVertex
100
AcDb2dVertex
 10
-18.21213740512547
 20
280.2506133621387
 30
0.0
  0
VERTEX
  5
F2
330
E1
100
AcDbEntity
  8
0
  6
Continuous
 62
     7
370
    15
100
AcDbVertex
100
AcDb2dVertex
 10
-19.79439041072527
 20
281.5854917907386
 30
0.0
  0
VERTEX
  5
F3
330
E1
100
AcDbEntity
  8
0
  6
Continuous
 62
     7
370
    15
100
AcDbVertex
100
AcDb2dVertex
 10
-21.46757112052541
 20
282.6323065721388
 30
0.0
  0
VERTEX
  5
F4
330
E1
100
AcDbEntity
  8
0
  6
Continuous
 62
     7
370
    15
100
AcDbVertex
100
AcDb2dVertex
 10
-23.19246139332535
 20
283.3665128549387
 30
0.0
  0
VERTEX
  5
F5
330
E1
100
AcDbEntity
  8
0
  6
Continuous
 62
     7
370
    15
100
AcDbVertex
100
AcDb2dVertex
 10
-24.92863141832544
 20
283.7709143057386
 30
0.0
  0
VERTEX
  5
F6
330
E1
100
AcDbEntity
  8
0
  6
Continuous
 62
     7
370
    15
100
AcDbVertex
100
AcDb2dVertex
 10
-26.63538707012543
 20
283.8360321505386
 30
0.0
  0
VERTEX
  5
F7
330
E1
100
AcDbEntity
  8
0
  6
Continuous
 62
     7
370
    15
100
AcDbVertex
100
AcDb2dVertex
 10
-28.27272289952538
 20
283.5603271519387
 30
0.0
  0
VERTEX
  5
F8
330
E1
100
AcDbEntity
  8
0
  6
Continuous
 62
     7
370
    15
100
AcDbVertex
100
AcDb2dVertex
 10
-28.86552366632526
 20
283.3684403205386
 30
0.0
  0
SEQEND
  5
F9
330
E1
100
AcDbEntity
  8
0
  6
Continuous
 62
     7
370
    15
  0
SPLINE
  5
FA
330
24
100
AcDbEntity
  8
0
  6
Continuous
 62
     7
370
    15
100
AcDbSpline
210
0.0
220
0.0
230
1.0
 70
     8
 71
     2
 72
    20
 73
    17
 74
     0
 42
0.000000001
 43
0.000001
 40
0.0
 40
0.0
 40
0.0
 40
1.0
 40
1.0
 40
2.0
 40
3.0
 40
4.0
 40
5.0
 40
6.0
 40
7.0
 40
8.0
 40
9.0
 40
10.0
 40
11.0
 40
12.0
 40
12.0
 40
13.0
 40
13.0
 40
13.0
 10
-26.63906137935618
 20
281.2140333499792
 30
0.0
 10
-26.66495135054805
 20
281.2183331959836
 30
0.0
 10
-26.69084132173992
 20
281.222633041988
 30
0.0
 10
-27.46895129722924
 20
281.3673780870886
 30
0.0
 10
-29.15313130546173
 20
281.4751629273767
 30
0.0
 10
-31.91084847504152
 20
280.8415867091919
 30
0.0
 10
-34.70497667564058
 20
278.2702496112227
 30
0.0
 10
-36.27834408816642
 20
274.5564520890839
 30
0.0
 10
-36.61514233286965
 20
270.3304985437071
 30
0.0
 10
-35.82488221235229
 20
265.8498572058168
 30
0.0
 10
-33.9267690542992
 20
261.6981855837332
 30
0.0
 10
-31.17434194003289
 20
258.2144996095062
 30
0.0
 10
-28.47059311887841
 20
256.3557989016349
 30
0.0
 10
-26.77266388259312
 20
255.6883816443365
 30
0.0
 10
-25.99264894160905
 20
255.4623780339043
 30
0.0
 10
-25.96666455313101
 20
255.4545949585214
 30
0.0
 10
-25.94068016465297
 20
255.4468118831385
 30
0.0
  0
SPLINE
  5
FB
330
24
100
AcDbEntity
  8
0
  6
Continuous
 62
     7
370
    15
100
AcDbSpline
210
0.0
220
0.0
230
1.0
 70
     8
 71
     2
 72
    20
 73
    17
 74
     0
 42
0.000000001
 43
0.000001
 40
0.0
 40
0.0
 40
0.0
 40
1.0
 40
1.0
 40
2.0
 40
3.0
 40
4.0
 40
5.0
 40
6.0
 40
7.0
 40
8.0
 40
9.0
 40
10.0
 40
11.0
 40
12.0
 40
12.0
 40
13.0
 40
13.0
 40
13.0
 10
-25.94068016465297
 20
255.4468118831385
 30
0.0
 10
-25.91479018278159
 20
255.4425119998682
 30
0.0
 10
-25.8889002009102
 20
255.4382121165979
 30
0.0
 10
-25.11078961647462
 20
255.2934650253746
 30
0.0
 10
-23.42661076888288
 20
255.1856858919141
 30
0.0
 10
-20.66889140070879
 20
255.8192602579784
 30
0.0
 10
-17.87476446544082
 20
258.3905983814311
 30
0.0
 10
-16.30139768398811
 20
262.1043968323663
 30
0.0
 10
-15.96459886559859
 20
266.3303535502732
 30
0.0
 10
-16.75486249964382
 20
270.810989377637
 30
0.0
 10
-18.65296906228122
 20
274.9626662803153
 30
0.0
 10
-21.40540068847298
 20
278.4463519146188
 30
0.0
 10
-24.10914854372976
 20
280.3050483364716
 30
0.0
 10
-25.80707802565092
 20
280.9724622514507
 30
0.0
 10
-26.58709261996495
 20
281.198467133748
 30
0.0
 10
-26.61307699966056
 20
281.2062502418636
 30
0.0
 10
-26.63906137935618
 20
281.2140333499792
 30
0.0
  0
POLYLINE
  5
FC
330
24
100
AcDbEntity
  8
0
  6
Continuous
 62
     7
370
    15
100
AcDb2dPolyline
 66
     1
 10
0.0
 20
0.0
 30
0.0
 75
     5
  0
VERTEX
  5
FD
330
FC
100
AcDbEntity
  8
0
  6
Continuous
 62
     7
370
    15
100
AcDbVertex
100
AcDb2dVertex
 10
-20.11697501872544
 20
254.6195261113387
 30
0.0
  0
VERTEX
  5
FE
330
FC
100
AcDbEntity
  8
0
  6
Continuous
 62
     7
370
    15
100
AcDbVertex
100
AcDb2dVertex
 10
-19.99467467912535
 20
254.6658203659388
 30
0.0
  0
VERTEX
  5
FF
330
FC
100
AcDbEntity
  8
0
  6
Continuous
 62
     7
370
    15
100
AcDbVertex
100
AcDb2dVertex
 10
-19.97820447712542
 20
254.6722431247388
 30
0.0
  0
SEQEND
  5
100
330
FC
100
AcDbEntity
  8
0
  6
Continuous
 62
     7
370
    15
  0
LINE
  5
101
330
24
100
AcDbEntity
  8
0
  6
Continuous
 62
     7
370
    15
100
AcDbLine
 10
-29.9195027513253
 20
282.9538216397386
 30
0.0
 11
-30.50063148632529
 21
282.7652076247387
 31
0.0
  0
LINE
  5
102
330
24
100
AcDbEntity
  8
0
  6
Continuous
 62
     7
370
    15
100
AcDbLine
 10
-8.038679313125328
 20
286.5923116571387
 30
0.0
 11
-4.619998233725426
 21
287.9212226353386
 31
0.0
  0
SPLINE
  5
103
330
24
100
AcDbEntity
  8
0
  6
Continuous
 62
     7
370
    15
100
AcDbSpline
210
0.0
220
0.0
230
1.0
 70
     8
 71
     2
 72
    15
 73
    12
 74
     0
 42
0.000000001
 43
0.000001
 40
0.0
 40
0.0
 40
0.0
 40
1.0
 40
1.0
 40
2.0
 40
3.0
 40
4.0
 40
5.0
 40
6.0
 40
7.0
 40
7.0
 40
8.0
 40
8.0
 40
8.0
 10
-3.83838578023159
 20
286.7911720327543
 30
0.0
 10
-3.838576301038017
 20
286.7982014197236
 30
0.0
 10
-3.838766821844445
 20
286.8052308066929
 30
0.0
 10
-3.844767048390338
 20
286.934834687969
 30
0.0
 10
-3.897241067542552
 20
287.1548749652661
 30
0.0
 10
-3.984953467702042
 20
287.3756909782887
 30
0.0
 10
-4.133910631165179
 20
287.6034444004654
 30
0.0
 10
-4.315321418451447
 20
287.7800608322191
 30
0.0
 10
-4.506817171947375
 20
287.8914952615455
 30
0.0
 10
-4.608861043548302
 20
287.9186283695708
 30
0.0
 10
-4.614429613962272
 20
287.9199254418171
 30
0.0
 10
-4.619998184376243
 20
287.9212225140634
 30
0.0
  0
LINE
  5
104
330
24
100
AcDbEntity
  8
0
  6
Continuous
 62
     7
370
    15
100
AcDbLine
 10
-33.34906145192525
 20
294.6130066643386
 30
0.0
 11
-36.56666476572531
 21
293.2372591787387
 31
0.0
  0
LINE
  5
105
330
24
100
AcDbEntity
  8
0
  6
Continuous
 62
     7
370
    15
100
AcDbLine
 10
-4.619998233725426
 20
287.9212226353386
 30
0.0
 11
-33.34906145192525
 21
294.6130066643386
 31
0.0
  0
LINE
  5
106
330
24
100
AcDbEntity
  8
0
  6
Continuous
 62
     7
370
    15
100
AcDbLine
 10
-26.39495231352538
 20
257.3661567187387
 30
0.0
 11
-26.54028523872529
 21
257.4099287035388
 31
0.0
  0
POLYLINE
  5
107
330
24
100
AcDbEntity
  8
0
  6
Continuous
 62
     7
370
    15
100
AcDb2dPolyline
 66
     1
 10
0.0
 20
0.0
 30
0.0
 75
     5
  0
VERTEX
  5
108
330
107
100
AcDbEntity
  8
0
  6
Continuous
 62
     7
370
    15
100
AcDbVertex
100
AcDb2dVertex
 10
-34.10269823732546
 20
275.4902387283387
 30
0.0
  0
VERTEX
  5
109
330
107
100
AcDbEntity
  8
0
  6
Continuous
 62
     7
370
    15
100
AcDbVertex
100
AcDb2dVertex
 10
-34.03473402732533
 20
275.6346537487386
 30
0.0
  0
VERTEX
  5
10A
330
107
100
AcDbEntity
  8
0
  6
Continuous
 62
     7
370
    15
100
AcDbVertex
100
AcDb2dVertex
 10
-33.87969611892544
 20
275.9411406443387
 30
0.0
  0
SEQEND
  5
10B
330
107
100
AcDbEntity
  8
0
  6
Continuous
 62
     7
370
    15
  0
POLYLINE
  5
10C
330
24
100
AcDbEntity
  8
0
  6
Continuous
 62
     7
370
    15
100
AcDb2dPolyline
 66
     1
 10
0.0
 20
0.0
 30
0.0
 75
     5
  0
VERTEX
  5
10D
330
10C
100
AcDbEntity
  8
0
  6
Continuous
 62
     7
370
    15
100
AcDbVertex
100
AcDb2dVertex
 10
-32.74535853052538
 20
277.5574288121386
 30
0.0
  0
VERTEX
  5
10E
330
10C
100
AcDbEntity
  8
0
  6
Continuous
 62
     7
370
    15
100
AcDbVertex
100
AcDb2dVertex
 10
-32.15681607352548
 20
278.1238468457386
 30
0.0
  0
VERTEX
  5
10F
330
10C
100
AcDbEntity
  8
0
  6
Continuous
 62
     7
370
    15
100
AcDbVertex
100
AcDb2dVertex
 10
-30.93460090292541
 20
278.9389978423387
 30
0.0
  0
VERTEX
  5
110
330
10C
100
AcDbEntity
  8
0
  6
Continuous
 62
     7
370
    15
100
AcDbVertex
100
AcDb2dVertex
 10
-29.57125793412541
 20
279.4318094827386
 30
0.0
  0
VERTEX
  5
111
330
10C
100
AcDbEntity
  8
0
  6
Continuous
 62
     7
370
    15
100
AcDbVertex
100
AcDb2dVertex
 10
-28.10821171792526
 20
279.5873144439386
 30
0.0
  0
VERTEX
  5
112
330
10C
100
AcDbEntity
  8
0
  6
Continuous
 62
     7
370
    15
100
AcDbVertex
100
AcDb2dVertex
 10
-26.58991597832545
 20
279.4007823515387
 30
0.0
  0
VERTEX
  5
113
330
10C
100
AcDbEntity
  8
0
  6
Continuous
 62
     7
370
    15
100
AcDbVertex
100
AcDb2dVertex
 10
-25.06250359272548
 20
278.8778857781388
 30
0.0
  0
VERTEX
  5
114
330
10C
100
AcDbEntity
  8
0
  6
Continuous
 62
     7
370
    15
100
AcDbVertex
100
AcDb2dVertex
 10
-23.57238417952539
 20
278.0345078277387
 30
0.0
  0
VERTEX
  5
115
330
10C
100
AcDbEntity
  8
0
  6
Continuous
 62
     7
370
    15
100
AcDbVertex
100
AcDb2dVertex
 10
-22.16483436232528
 20
276.8962795251387
 30
0.0
  0
VERTEX
  5
116
330
10C
100
AcDbEntity
  8
0
  6
Continuous
 62
     7
370
    15
100
AcDbVertex
100
AcDb2dVertex
 10
-20.88262153992531
 20
275.4977787993387
 30
0.0
  0
VERTEX
  5
117
330
10C
100
AcDbEntity
  8
0
  6
Continuous
 62
     7
370
    15
100
AcDbVertex
100
AcDb2dVertex
 10
-19.76470505232527
 20
273.8815002027386
 30
0.0
  0
VERTEX
  5
118
330
10C
100
AcDbEntity
  8
0
  6
Continuous
 62
     7
370
    15
100
AcDbVertex
100
AcDb2dVertex
 10
-18.84505301192547
 20
272.0965618849386
 30
0.0
  0
VERTEX
  5
119
330
10C
100
AcDbEntity
  8
0
  6
Continuous
 62
     7
370
    15
100
AcDbVertex
100
AcDb2dVertex
 10
-18.15160760912539
 20
270.1971857277388
 30
0.0
  0
VERTEX
  5
11A
330
10C
100
AcDbEntity
  8
0
  6
Continuous
 62
     7
370
    15
100
AcDbVertex
100
AcDb2dVertex
 10
-17.70543862232529
 20
268.2410870719386
 30
0.0
  0
VERTEX
  5
11B
330
10C
100
AcDbEntity
  8
0
  6
Continuous
 62
     7
370
    15
100
AcDbVertex
100
AcDb2dVertex
 10
-17.52010432772539
 20
266.2877078545387
 30
0.0
  0
VERTEX
  5
11C
330
10C
100
AcDbEntity
  8
0
  6
Continuous
 62
     7
370
    15
100
AcDbVertex
100
AcDb2dVertex
 10
-17.60123392952545
 20
264.3963882959388
 30
0.0
  0
VERTEX
  5
11D
330
10C
100
AcDbEntity
  8
0
  6
Continuous
 62
     7
370
    15
100
AcDbVertex
100
AcDb2dVertex
 10
-17.94636455492531
 20
262.6246120125386
 30
0.0
  0
VERTEX
  5
11E
330
10C
100
AcDbEntity
  8
0
  6
Continuous
 62
     7
370
    15
100
AcDbVertex
100
AcDb2dVertex
 10
-18.54500751652535
 20
261.0261914845387
 30
0.0
  0
VERTEX
  5
11F
330
10C
100
AcDbEntity
  8
0
  6
Continuous
 62
     7
370
    15
100
AcDbVertex
100
AcDb2dVertex
 10
-19.37897453272529
 20
259.6497260393387
 30
0.0
  0
VERTEX
  5
120
330
10C
100
AcDbEntity
  8
0
  6
Continuous
 62
     7
370
    15
100
AcDbVertex
100
AcDb2dVertex
 10
-20.42292566332543
 20
258.5370054977386
 30
0.0
  0
VERTEX
  5
121
330
10C
100
AcDbEntity
  8
0
  6
Continuous
 62
     7
370
    15
100
AcDbVertex
100
AcDb2dVertex
 10
-21.64514064112535
 20
257.7218473907387
 30
0.0
  0
VERTEX
  5
122
330
10C
100
AcDbEntity
  8
0
  6
Continuous
 62
     7
370
    15
100
AcDbVertex
100
AcDb2dVertex
 10
-23.00848360992535
 20
257.2290357503387
 30
0.0
  0
VERTEX
  5
123
330
10C
100
AcDbEntity
  8
0
  6
Continuous
 62
     7
370
    15
100
AcDbVertex
100
AcDb2dVertex
 10
-24.47153001892542
 20
257.0735378995387
 30
0.0
  0
VERTEX
  5
124
330
10C
100
AcDbEntity
  8
0
  6
Continuous
 62
     7
370
    15
100
AcDbVertex
100
AcDb2dVertex
 10
-25.98982556572531
 20
257.2600628815387
 30
0.0
  0
VERTEX
  5
125
330
10C
100
AcDbEntity
  8
0
  6
Continuous
 62
     7
370
    15
100
AcDbVertex
100
AcDb2dVertex
 10
-25.98982556572531
 20
257.2600628815387
 30
0.0
  0
SEQEND
  5
126
330
10C
100
AcDbEntity
  8
0
  6
Continuous
 62
     7
370
    15
  0
POLYLINE
  5
127
330
24
100
AcDbEntity
  8
0
  6
Continuous
 62
     7
370
    15
100
AcDb2dPolyline
 66
     1
 10
0.0
 20
0.0
 30
0.0
 75
     5
  0
VERTEX
  5
128
330
127
100
AcDbEntity
  8
0
  6
Continuous
 62
     7
370
    15
100
AcDbVertex
100
AcDb2dVertex
 10
-22.89853108232541
 20
257.4564625153387
 30
0.0
  0
VERTEX
  5
129
330
127
100
AcDbEntity
  8
0
  6
Continuous
 62
     7
370
    15
100
AcDbVertex
100
AcDb2dVertex
 10
-22.02741599412542
 20
257.5909764465387
 30
0.0
  0
VERTEX
  5
12A
330
127
100
AcDbEntity
  8
0
  6
Continuous
 62
     7
370
    15
100
AcDbVertex
100
AcDb2dVertex
 10
-21.79226477372544
 20
257.6499297317387
 30
0.0
  0
SEQEND
  5
12B
330
127
100
AcDbEntity
  8
0
  6
Continuous
 62
     7
370
    15
  0
SPLINE
  5
12C
330
24
100
AcDbEntity
  8
0
  6
Continuous
 62
     7
370
    15
100
AcDbSpline
210
0.0
220
0.0
230
1.0
 70
     8
 71
     2
 72
    15
 73
    12
 74
     0
 42
0.000000001
 43
0.000001
 40
0.0
 40
0.0
 40
0.0
 40
1.0
 40
1.0
 40
2.0
 40
3.0
 40
4.0
 40
5.0
 40
6.0
 40
7.0
 40
7.0
 40
8.0
 40
8.0
 40
8.0
 10
-3.23739375645772
 20
247.8468329606339
 30
0.0
 10
-3.234032760508342
 20
247.847887780683
 30
0.0
 10
-3.230671764558963
 20
247.848942600732
 30
0.0
 10
-3.128891648656634
 20
247.8833809108773
 30
0.0
 10
-2.99935482291238
 20
247.996738050058
 30
0.0
 10
-2.920348111023884
 20
248.1037054222893
 30
0.0
 10
-2.859964851124403
 20
248.2311019646613
 30
0.0
 10
-2.820516651570131
 20
248.3730612206148
 30
0.0
 10
-2.802433913728862
 20
248.5227679506352
 30
0.0
 10
-2.803475220770849
 20
248.6074852177981
 30
0.0
 10
-2.803602267603594
 20
248.6121726919273
 30
0.0
 10
-2.803729314436339
 20
248.6168601660565
 30
0.0
  0
SPLINE
  5
12D
330
24
100
AcDbEntity
  8
0
  6
Continuous
 62
     7
370
    15
100
AcDbSpline
210
0.0
220
0.0
230
1.0
 70
     8
 71
     2
 72
    12
 73
     9
 74
     0
 42
0.000000001
 43
0.000001
 40
0.0
 40
0.0
 40
0.0
 40
1.0
 40
1.0
 40
2.0
 40
3.0
 40
4.0
 40
4.0
 40
5.0
 40
5.0
 40
5.0
 10
-33.34906224813261
 20
294.6130067398035
 30
0.0
 10
-33.35023816716529
 20
294.6132806434857
 30
0.0
 10
-33.35141408619796
 20
294.613554547168
 30
0.0
 10
-33.41994326166849
 20
294.6290153303548
 30
0.0
 10
-33.52271184323735
 20
294.6291514048646
 30
0.0
 10
-33.6273402243425
 20
294.6148977595817
 30
0.0
 10
-33.69141423338573
 20
294.5881266037711
 30
0.0
 10
-33.69243993513027
 20
294.587688045194
 30
0.0
 10
-33.69346563687481
 20
294.5872494866169
 30
0.0
  0
LINE
  5
12E
330
24
100
AcDbEntity
  8
0
  6
Continuous
 62
     7
370
    15
100
AcDbLine
 10
-29.28920494932544
 20
279.4815414961386
 30
0.0
 11
-29.84318657692546
 21
279.2444725481387
 31
0.0
  0
POLYLINE
  5
12F
330
24
100
AcDbEntity
  8
0
  6
Continuous
 62
     7
370
    15
100
AcDb2dPolyline
 66
     1
 10
0.0
 20
0.0
 30
0.0
 75
     5
  0
VERTEX
  5
130
330
12F
100
AcDbEntity
  8
0
  6
Continuous
 62
     7
370
    15
100
AcDbVertex
100
AcDb2dVertex
 10
-33.36254176372535
 20
276.6516691501386
 30
0.0
  0
VERTEX
  5
131
330
12F
100
AcDbEntity
  8
0
  6
Continuous
 62
     7
370
    15
100
AcDbVertex
100
AcDb2dVertex
 10
-33.53713153212533
 20
276.4036321191386
 30
0.0
  0
VERTEX
  5
132
330
12F
100
AcDbEntity
  8
0
  6
Continuous
 62
     7
370
    15
100
AcDbVertex
100
AcDb2dVertex
 10
-33.86293575572535
 20
275.8766562789388
 30
0.0
  0
SEQEND
  5
133
330
12F
100
AcDbEntity
  8
0
  6
Continuous
 62
     7
370
    15
  0
POLYLINE
  5
134
330
24
100
AcDbEntity
  8
0
  6
Continuous
 62
     7
370
    15
100
AcDb2dPolyline
 66
     1
 10
0.0
 20
0.0
 30
0.0
 75
     5
  0
VERTEX
  5
135
330
134
100
AcDbEntity
  8
0
  6
Continuous
 62
     7
370
    15
100
AcDbVertex
100
AcDb2dVertex
 10
-27.35102018692527
 20
257.7509896105387
 30
0.0
  0
VERTEX
  5
136
330
134
100
AcDbEntity
  8
0
  6
Continuous
 62
     7
370
    15
100
AcDbVertex
100
AcDb2dVertex
 10
-26.85146578352527
 20
257.5726510921386
 30
0.0
  0
VERTEX
  5
137
330
134
100
AcDbEntity
  8
0
  6
Continuous
 62
     7
370
    15
100
AcDbVertex
100
AcDb2dVertex
 10
-25.31490149372547
 20
257.2533209513388
 30
0.0
  0
VERTEX
  5
138
330
134
100
AcDbEntity
  8
0
  6
Continuous
 62
     7
370
    15
100
AcDbVertex
100
AcDb2dVertex
 10
-23.81791491952544
 20
257.2869748131386
 30
0.0
  0
VERTEX
  5
139
330
134
100
AcDbEntity
  8
0
  6
Continuous
 62
     7
370
    15
100
AcDbVertex
100
AcDb2dVertex
 10
-22.40862091992534
 20
257.6725400887387
 30
0.0
  0
VERTEX
  5
13A
330
134
100
AcDbEntity
  8
0
  6
Continuous
 62
     7
370
    15
100
AcDbVertex
100
AcDb2dVertex
 10
-21.13231430412537
 20
258.3976042729387
 30
0.0
  0
VERTEX
  5
13B
330
134
100
AcDbEntity
  8
0
  6
Continuous
 62
     7
370
    15
100
AcDbVertex
100
AcDb2dVertex
 10
-20.03001734092544
 20
259.4388820885388
 30
0.0
  0
VERTEX
  5
13C
330
134
100
AcDbEntity
  8
0
  6
Continuous
 62
     7
370
    15
100
AcDbVertex
100
AcDb2dVertex
 10
-19.13715931512542
 20
260.7629112189386
 30
0.0
  0
VERTEX
  5
13D
330
134
100
AcDbEntity
  8
0
  6
Continuous
 62
     7
370
    15
100
AcDbVertex
100
AcDb2dVertex
 10
-18.48243639372544
 20
262.3271150581386
 30
0.0
  0
VERTEX
  5
13E
330
134
100
AcDbEntity
  8
0
  6
Continuous
 62
     7
370
    15
100
AcDbVertex
100
AcDb2dVertex
 10
-18.08689172872545
 20
264.0812276371387
 30
0.0
  0
VERTEX
  5
13F
330
134
100
AcDbEntity
  8
0
  6
Continuous
 62
     7
370
    15
100
AcDbVertex
100
AcDb2dVertex
 10
-17.96324030572526
 20
265.9688815459388
 30
0.0
  0
VERTEX
  5
140
330
134
100
AcDbEntity
  8
0
  6
Continuous
 62
     7
370
    15
100
AcDbVertex
100
AcDb2dVertex
 10
-18.11545429052529
 20
267.9293978375388
 30
0.0
  0
VERTEX
  5
141
330
134
100
AcDbEntity
  8
0
  6
Continuous
 62
     7
370
    15
100
AcDbVertex
100
AcDb2dVertex
 10
-18.53864224772536
 20
269.8997574363386
 30
0.0
  0
VERTEX
  5
142
330
134
100
AcDbEntity
  8
0
  6
Continuous
 62
     7
370
    15
100
AcDbVertex
100
AcDb2dVertex
 10
-19.21920295752528
 20
271.8166365033387
 30
0.0
  0
VERTEX
  5
143
330
134
100
AcDbEntity
  8
0
  6
Continuous
 62
     7
370
    15
100
AcDbVertex
100
AcDb2dVertex
 10
-20.13526137152547
 20
273.6184227361387
 30
0.0
  0
VERTEX
  5
144
330
134
100
AcDbEntity
  8
0
  6
Continuous
 62
     7
370
    15
100
AcDbVertex
100
AcDb2dVertex
 10
-21.25737634332535
 20
275.2472172505386
 30
0.0
  0
VERTEX
  5
145
330
134
100
AcDbEntity
  8
0
  6
Continuous
 62
     7
370
    15
100
AcDbVertex
100
AcDb2dVertex
 10
-22.54948084472534
 20
276.6506503879386
 30
0.0
  0
VERTEX
  5
146
330
134
100
AcDbEntity
  8
0
  6
Continuous
 62
     7
370
    15
100
AcDbVertex
100
AcDb2dVertex
 10
-23.97004615192526
 20
277.7836295775387
 30
0.0
  0
VERTEX
  5
147
330
134
100
AcDbEntity
  8
0
  6
Continuous
 62
     7
370
    15
100
AcDbVertex
100
AcDb2dVertex
 10
-25.47341399232545
 20
278.6097306519387
 30
0.0
  0
VERTEX
  5
148
330
134
100
AcDbEntity
  8
0
  6
Continuous
 62
     7
370
    15
100
AcDbVertex
100
AcDb2dVertex
 10
-27.01126492632528
 20
279.1024089317386
 30
0.0
  0
VERTEX
  5
149
330
134
100
AcDbEntity
  8
0
  6
Continuous
 62
     7
370
    15
100
AcDbVertex
100
AcDb2dVertex
 10
-27.01126492632528
 20
279.1024089317386
 30
0.0
  0
SEQEND
  5
14A
330
134
100
AcDbEntity
  8
0
  6
Continuous
 62
     7
370
    15
  0
LINE
  5
14B
330
24
100
AcDbEntity
  8
0
  6
Continuous
 62
     7
370
    15
100
AcDbLine
 10
-22.4858076649254
 20
257.5267794671386
 30
0.0
 11
-22.36365217912538
 21
257.5669180763387
 31
0.0
  0
ARC
  5
14C
330
24
100
AcDbEntity
  8
0
  6
Continuous
 62
     7
370
    15
100
AcDbCircle
 10
33.36644860827465
 20
-500.6125815738613
 30
0.0
 40
0.8458722299540424
100
AcDbArc
 50
258.151068917904
 51
287.1435335427935
  0
LINE
  5
14D
330
24
100
AcDbEntity
  8
0
  6
Continuous
 62
     7
370
    15
100
AcDbLine
 10
33.19276402387464
 20
-501.4404302886613
 30
0.0
 11
-19.2746311953253
 21
-489.2193399350613
 31
0.0
  0
POLYLINE
  5
14E
330
24
100
AcDbEntity
  8
0
  6
Continuous
 62
     7
370
    15
100
AcDb2dPolyline
 66
     1
 10
0.0
 20
0.0
 30
0.0
 75
     5
  0
VERTEX
  5
14F
330
14E
100
AcDbEntity
  8
0
  6
Continuous
 62
     7
370
    15
100
AcDbVertex
100
AcDb2dVertex
 10
3.467160918874526
 20
-366.4937991088614
 30
0.0
  0
VERTEX
  5
150
330
14E
100
AcDbEntity
  8
0
  6
Continuous
 62
     7
370
    15
100
AcDbVertex
100
AcDb2dVertex
 10
5.193688544274721
 20
-366.7292085706614
 30
0.0
  0
VERTEX
  5
151
330
14E
100
AcDbEntity
  8
0
  6
Continuous
 62
     7
370
    15
100
AcDbVertex
100
AcDb2dVertex
 10
6.870654633074594
 20
-366.6235949842613
 30
0.0
  0
VERTEX
  5
152
330
14E
100
AcDbEntity
  8
0
  6
Continuous
 62
     7
370
    15
100
AcDbVertex
100
AcDb2dVertex
 10
8.458752350474526
 20
-366.1794466720613
 30
0.0
  0
VERTEX
  5
153
330
14E
100
AcDbEntity
  8
0
  6
Continuous
 62
     7
370
    15
100
AcDbVertex
100
AcDb2dVertex
 10
9.920756623874524
 20
-365.4070849850614
 30
0.0
  0
VERTEX
  5
154
330
14E
100
AcDbEntity
  8
0
  6
Continuous
 62
     7
370
    15
100
AcDbVertex
100
AcDb2dVertex
 10
11.2223986206746
 20
-364.3246418968614
 30
0.0
  0
VERTEX
  5
155
330
14E
100
AcDbEntity
  8
0
  6
Continuous
 62
     7
370
    15
100
AcDbVertex
100
AcDb2dVertex
 10
12.33317226887453
 20
-362.9575695742614
 30
0.0
  0
VERTEX
  5
156
330
14E
100
AcDbEntity
  8
0
  6
Continuous
 62
     7
370
    15
100
AcDbVertex
100
AcDb2dVertex
 10
13.22703841047456
 20
-361.3377869618614
 30
0.0
  0
VERTEX
  5
157
330
14E
100
AcDbEntity
  8
0
  6
Continuous
 62
     7
370
    15
100
AcDbVertex
100
AcDb2dVertex
 10
13.88304826407472
 20
-359.5033728100614
 30
0.0
  0
VERTEX
  5
158
330
14E
100
AcDbEntity
  8
0
  6
Continuous
 62
     7
370
    15
100
AcDbVertex
100
AcDb2dVertex
 10
14.28582450267464
 20
-357.4972646298613
 30
0.0
  0
VERTEX
  5
159
330
14E
100
AcDbEntity
  8
0
  6
Continuous
 62
     7
370
    15
100
AcDbVertex
100
AcDb2dVertex
 10
14.42592454067454
 20
-355.3664389268614
 30
0.0
  0
VERTEX
  5
15A
330
14E
100
AcDbEntity
  8
0
  6
Continuous
 62
     7
370
    15
100
AcDbVertex
100
AcDb2dVertex
 10
14.30006836907461
 20
-353.1609468378614
 30
0.0
  0
VERTEX
  5
15B
330
14E
100
AcDbEntity
  8
0
  6
Continuous
 62
     7
370
    15
100
AcDbVertex
100
AcDb2dVertex
 10
13.91120254267463
 20
-350.9324028838614
 30
0.0
  0
VERTEX
  5
15C
330
14E
100
AcDbEntity
  8
0
  6
Continuous
 62
     7
370
    15
100
AcDbVertex
100
AcDb2dVertex
 10
13.26844396147459
 20
-348.7331240158613
 30
0.0
  0
VERTEX
  5
15D
330
14E
100
AcDbEntity
  8
0
  6
Continuous
 62
     7
370
    15
100
AcDbVertex
100
AcDb2dVertex
 10
12.38685658767469
 20
-346.6145514544613
 30
0.0
  0
VERTEX
  5
15E
330
14E
100
AcDbEntity
  8
0
  6
Continuous
 62
     7
370
    15
100
AcDbVertex
100
AcDb2dVertex
 10
11.28710611307457
 20
-344.6264354408613
 30
0.0
  0
VERTEX
  5
15F
330
14E
100
AcDbEntity
  8
0
  6
Continuous
 62
     7
370
    15
100
AcDbVertex
100
AcDb2dVertex
 10
9.994967978074612
 20
-342.8153075392613
 30
0.0
  0
VERTEX
  5
160
330
14E
100
AcDbEntity
  8
0
  6
Continuous
 62
     7
370
    15
100
AcDbVertex
100
AcDb2dVertex
 10
8.540727862274537
 20
-341.2236061802614
 30
0.0
  0
VERTEX
  5
161
330
14E
100
AcDbEntity
  8
0
  6
Continuous
 62
     7
370
    15
100
AcDbVertex
100
AcDb2dVertex
 10
6.95847620547471
 20
-339.8887775244614
 30
0.0
  0
VERTEX
  5
162
330
14E
100
AcDbEntity
  8
0
  6
Continuous
 62
     7
370
    15
100
AcDbVertex
100
AcDb2dVertex
 10
5.285295303274609
 20
-338.8419556326613
 30
0.0
  0
VERTEX
  5
163
330
14E
100
AcDbEntity
  8
0
  6
Continuous
 62
     7
370
    15
100
AcDbVertex
100
AcDb2dVertex
 10
3.560403874074666
 20
-338.1077066874614
 30
0.0
  0
VERTEX
  5
164
330
14E
100
AcDbEntity
  8
0
  6
Continuous
 62
     7
370
    15
100
AcDbVertex
100
AcDb2dVertex
 10
1.824233849074574
 20
-337.7033052366613
 30
0.0
  0
VERTEX
  5
165
330
14E
100
AcDbEntity
  8
0
  6
Continuous
 62
     7
370
    15
100
AcDbVertex
100
AcDb2dVertex
 10
0.1174793534747209
 20
-337.6382300542614
 30
0.0
  0
VERTEX
  5
166
330
14E
100
AcDbEntity
  8
0
  6
Continuous
 62
     7
370
    15
100
AcDbVertex
100
AcDb2dVertex
 10
-1.519856283125307
 20
-337.9139421632614
 30
0.0
  0
VERTEX
  5
167
330
14E
100
AcDbEntity
  8
0
  6
Continuous
 62
     7
370
    15
100
AcDbVertex
100
AcDb2dVertex
 10
-3.049396127325451
 20
-338.5239495288614
 30
0.0
  0
VERTEX
  5
168
330
14E
100
AcDbEntity
  8
0
  6
Continuous
 62
     7
370
    15
100
AcDbVertex
100
AcDb2dVertex
 10
-4.435285102925434
 20
-339.4541071976614
 30
0.0
  0
VERTEX
  5
169
330
14E
100
AcDbEntity
  8
0
  6
Continuous
 62
     7
370
    15
100
AcDbVertex
100
AcDb2dVertex
 10
-5.645042337525354
 20
-340.6824752876613
 30
0.0
  0
VERTEX
  5
16A
330
14E
100
AcDbEntity
  8
0
  6
Continuous
 62
     7
370
    15
100
AcDbVertex
100
AcDb2dVertex
 10
-6.65031240032539
 20
-342.1802744846614
 30
0.0
  0
VERTEX
  5
16B
330
14E
100
AcDbEntity
  8
0
  6
Continuous
 62
     7
370
    15
100
AcDbVertex
100
AcDb2dVertex
 10
-7.427530693925462
 20
-343.9124658686613
 30
0.0
  0
VERTEX
  5
16C
330
14E
100
AcDbEntity
  8
0
  6
Continuous
 62
     7
370
    15
100
AcDbVertex
100
AcDb2dVertex
 10
-7.958482880525423
 20
-345.8383554198614
 30
0.0
  0
VERTEX
  5
16D
330
14E
100
AcDbEntity
  8
0
  6
Continuous
 62
     7
370
    15
100
AcDbVertex
100
AcDb2dVertex
 10
-8.230719775125351
 20
-347.9129104812614
 30
0.0
  0
VERTEX
  5
16E
330
14E
100
AcDbEntity
  8
0
  6
Continuous
 62
     7
370
    15
100
AcDbVertex
100
AcDb2dVertex
 10
-8.237862593125271
 20
-350.0874234704613
 30
0.0
  0
VERTEX
  5
16F
330
14E
100
AcDbEntity
  8
0
  6
Continuous
 62
     7
370
    15
100
AcDbVertex
100
AcDb2dVertex
 10
-7.979742981125298
 20
-352.3110054138614
 30
0.0
  0
VERTEX
  5
170
330
14E
100
AcDbEntity
  8
0
  6
Continuous
 62
     7
370
    15
100
AcDbVertex
100
AcDb2dVertex
 10
-7.462412981725436
 20
-354.5314314846613
 30
0.0
  0
VERTEX
  5
171
330
14E
100
AcDbEntity
  8
0
  6
Continuous
 62
     7
370
    15
100
AcDbVertex
100
AcDb2dVertex
 10
-6.697997793925367
 20
-356.6967014508614
 30
0.0
  0
VERTEX
  5
172
330
14E
100
AcDbEntity
  8
0
  6
Continuous
 62
     7
370
    15
100
AcDbVertex
100
AcDb2dVertex
 10
-5.70441243572526
 20
-358.7561231042614
 30
0.0
  0
VERTEX
  5
173
330
14E
100
AcDbEntity
  8
0
  6
Continuous
 62
     7
370
    15
100
AcDbVertex
100
AcDb2dVertex
 10
-4.504949120525396
 20
-360.6613127576613
 30
0.0
  0
VERTEX
  5
174
330
14E
100
AcDbEntity
  8
0
  6
Continuous
 62
     7
370
    15
100
AcDbVertex
100
AcDb2dVertex
 10
-3.12771909392535
 20
-362.3677383574613
 30
0.0
  0
VERTEX
  5
175
330
14E
100
AcDbEntity
  8
0
  6
Continuous
 62
     7
370
    15
100
AcDbVertex
100
AcDb2dVertex
 10
-1.605004503325461
 20
-363.8353226442614
 30
0.0
  0
VERTEX
  5
176
330
14E
100
AcDbEntity
  8
0
  6
Continuous
 62
     7
370
    15
100
AcDbVertex
100
AcDb2dVertex
 10
0.0275012586747039
 20
-365.0296375304614
 30
0.0
  0
VERTEX
  5
177
330
14E
100
AcDbEntity
  8
0
  6
Continuous
 62
     7
370
    15
100
AcDbVertex
100
AcDb2dVertex
 10
1.73153707567468
 20
-365.9227788682614
 30
0.0
  0
VERTEX
  5
178
330
14E
100
AcDbEntity
  8
0
  6
Continuous
 62
     7
370
    15
100
AcDbVertex
100
AcDb2dVertex
 10
3.467160918874526
 20
-366.4937991088614
 30
0.0
  0
SEQEND
  5
179
330
14E
100
AcDbEntity
  8
0
  6
Continuous
 62
     7
370
    15
  0
POLYLINE
  5
17A
330
24
100
AcDbEntity
  8
0
  6
Continuous
 62
     7
370
    15
100
AcDb2dPolyline
 66
     1
 10
0.0
 20
0.0
 30
0.0
 75
     5
  0
VERTEX
  5
17B
330
17A
100
AcDbEntity
  8
0
  6
Continuous
 62
     7
370
    15
100
AcDbVertex
100
AcDb2dVertex
 10
5.833896625874615
 20
-453.8160263290614
 30
0.0
  0
VERTEX
  5
17C
330
17A
100
AcDbEntity
  8
0
  6
Continuous
 62
     7
370
    15
100
AcDbVertex
100
AcDb2dVertex
 10
6.962631850074615
 20
-453.9127588428613
 30
0.0
  0
VERTEX
  5
17D
330
17A
100
AcDbEntity
  8
0
  6
Continuous
 62
     7
370
    15
100
AcDbVertex
100
AcDb2dVertex
 10
8.021453669074674
 20
-453.6698889256613
 30
0.0
  0
VERTEX
  5
17E
330
17A
100
AcDbEntity
  8
0
  6
Continuous
 62
     7
370
    15
100
AcDbVertex
100
AcDb2dVertex
 10
8.953279138874734
 20
-453.1004606170613
 30
0.0
  0
VERTEX
  5
17F
330
17A
100
AcDbEntity
  8
0
  6
Continuous
 62
     7
370
    15
100
AcDbVertex
100
AcDb2dVertex
 10
9.707875126074725
 20
-452.2352228246614
 30
0.0
  0
VERTEX
  5
180
330
17A
100
AcDbEntity
  8
0
  6
Continuous
 62
     7
370
    15
100
AcDbVertex
100
AcDb2dVertex
 10
10.24455923067472
 20
-451.1207713842614
 30
0.0
  0
VERTEX
  5
181
330
17A
100
AcDbEntity
  8
0
  6
Continuous
 62
     7
370
    15
100
AcDbVertex
100
AcDb2dVertex
 10
10.53440088027475
 20
-449.8172355516614
 30
0.0
  0
VERTEX
  5
182
330
17A
100
AcDbEntity
  8
0
  6
Continuous
 62
     7
370
    15
100
AcDbVertex
100
AcDb2dVertex
 10
10.56177111227458
 20
-448.3947953512613
 30
0.0
  0
VERTEX
  5
183
330
17A
100
AcDbEntity
  8
0
  6
Continuous
 62
     7
370
    15
100
AcDbVertex
100
AcDb2dVertex
 10
10.32519675927466
 20
-446.9302064752613
 30
0.0
  0
VERTEX
  5
184
330
17A
100
AcDbEntity
  8
0
  6
Continuous
 62
     7
370
    15
100
AcDbVertex
100
AcDb2dVertex
 10
9.837432897274596
 20
-445.5024648058613
 30
0.0
  0
VERTEX
  5
185
330
17A
100
AcDbEntity
  8
0
  6
Continuous
 62
     7
370
    15
100
AcDbVertex
100
AcDb2dVertex
 10
9.124772809274702
 20
-444.1884629042613
 30
0.0
  0
VERTEX
  5
186
330
17A
100
AcDbEntity
  8
0
  6
Continuous
 62
     7
370
    15
100
AcDbVertex
100
AcDb2dVertex
 10
8.225635827874669
 20
-443.0590435414614
 30
0.0
  0
VERTEX
  5
187
330
17A
100
AcDbEntity
  8
0
  6
Continuous
 62
     7
370
    15
100
AcDbVertex
100
AcDb2dVertex
 10
7.188497695674698
 20
-442.1751827012614
 30
0.0
  0
VERTEX
  5
188
330
17A
100
AcDbEntity
  8
0
  6
Continuous
 62
     7
370
    15
100
AcDbVertex
100
AcDb2dVertex
 10
6.069266417074743
 20
-441.5843825696613
 30
0.0
  0
VERTEX
  5
189
330
17A
100
AcDbEntity
  8
0
  6
Continuous
 62
     7
370
    15
100
AcDbVertex
100
AcDb2dVertex
 10
4.928283575474609
 20
-441.3186164812614
 30
0.0
  0
VERTEX
  5
18A
330
17A
100
AcDbEntity
  8
0
  6
Continuous
 62
     7
370
    15
100
AcDbVertex
100
AcDb2dVertex
 10
3.827059725074662
 20
-441.3922119250614
 30
0.0
  0
VERTEX
  5
18B
330
17A
100
AcDbEntity
  8
0
  6
Continuous
 62
     7
370
    15
100
AcDbVertex
100
AcDb2dVertex
 10
2.824958991274627
 20
-441.8010782980614
 30
0.0
  0
VERTEX
  5
18C
330
17A
100
AcDbEntity
  8
0
  6
Continuous
 62
     7
370
    15
100
AcDbVertex
100
AcDb2dVertex
 10
1.976008465474536
 20
-442.5233203028614
 30
0.0
  0
VERTEX
  5
18D
330
17A
100
AcDbEntity
  8
0
  6
Continuous
 62
     7
370
    15
100
AcDbVertex
100
AcDb2dVertex
 10
1.325973525474694
 20
-443.5199132880614
 30
0.0
  0
VERTEX
  5
18E
330
17A
100
AcDbEntity
  8
0
  6
Continuous
 62
     7
370
    15
100
AcDbVertex
100
AcDb2dVertex
 10
0.9098971116746384
 20
-444.7371258542613
 30
0.0
  0
VERTEX
  5
18F
330
17A
100
AcDbEntity
  8
0
  6
Continuous
 62
     7
370
    15
100
AcDbVertex
100
AcDb2dVertex
 10
0.750212010274538
 20
-446.1094150726614
 30
0.0
  0
VERTEX
  5
190
330
17A
100
AcDbEntity
  8
0
  6
Continuous
 62
     7
370
    15
100
AcDbVertex
100
AcDb2dVertex
 10
0.8555260382746042
 20
-447.5627610638613
 30
0.0
  0
VERTEX
  5
191
330
17A
100
AcDbEntity
  8
0
  6
Continuous
 62
     7
370
    15
100
AcDbVertex
100
AcDb2dVertex
 10
1.220160183874725
 20
-449.0187421968614
 30
0.0
  0
VERTEX
  5
192
330
17A
100
AcDbEntity
  8
0
  6
Continuous
 62
     7
370
    15
100
AcDbVertex
100
AcDb2dVertex
 10
1.824458480874739
 20
-450.3989596230614
 30
0.0
  0
VERTEX
  5
193
330
17A
100
AcDbEntity
  8
0
  6
Continuous
 62
     7
370
    15
100
AcDbVertex
100
AcDb2dVertex
 10
2.635842619674634
 20
-451.6289569872614
 30
0.0
  0
VERTEX
  5
194
330
17A
100
AcDbEntity
  8
0
  6
Continuous
 62
     7
370
    15
100
AcDbVertex
100
AcDb2dVertex
 10
3.610571403674669
 20
-452.6424738904614
 30
0.0
  0
VERTEX
  5
195
330
17A
100
AcDbEntity
  8
0
  6
Continuous
 62
     7
370
    15
100
AcDbVertex
100
AcDb2dVertex
 10
4.696096018274659
 20
-453.3848207000614
 30
0.0
  0
VERTEX
  5
196
330
17A
100
AcDbEntity
  8
0
  6
Continuous
 62
     7
370
    15
100
AcDbVertex
100
AcDb2dVertex
 10
5.833896625874615
 20
-453.8160263290614
 30
0.0
  0
SEQEND
  5
197
330
17A
100
AcDbEntity
  8
0
  6
Continuous
 62
     7
370
    15
  0
LINE
  5
198
330
24
100
AcDbEntity
  8
0
  6
Continuous
 62
     7
370
    15
100
AcDbLine
 10
79.0064181646747
 20
-484.6751161036614
 30
0.0
 11
33.61578336707458
 21
-501.4208711304615
 31
0.0
  0
POLYLINE
  5
199
330
24
100
AcDbEntity
  8
0
  6
Continuous
 62
     7
370
    15
100
AcDb2dPolyline
 66
     1
 10
0.0
 20
0.0
 30
0.0
 75
     5
  0
VERTEX
  5
19A
330
199
100
AcDbEntity
  8
0
  6
Continuous
 62
     7
370
    15
100
AcDbVertex
100
AcDb2dVertex
 10
-19.2746311953253
 20
-489.2193399350613
 30
0.0
  0
VERTEX
  5
19B
330
199
100
AcDbEntity
  8
0
  6
Continuous
 62
     7
370
    15
100
AcDbVertex
100
AcDb2dVertex
 10
-19.31510996132528
 20
-489.2076427790613
 30
0.0
  0
VERTEX
  5
19C
330
199
100
AcDbEntity
  8
0
  6
Continuous
 62
     7
370
    15
100
AcDbVertex
100
AcDb2dVertex
 10
-19.34649041552547
 20
-489.1936128302614
 30
0.0
  0
VERTEX
  5
19D
330
199
100
AcDbEntity
  8
0
  6
Continuous
 62
     7
370
    15
100
AcDbVertex
100
AcDb2dVertex
 10
-19.36757032232543
 20
-489.1777896780613
 30
0.0
  0
VERTEX
  5
19E
330
199
100
AcDbEntity
  8
0
  6
Continuous
 62
     7
370
    15
100
AcDbVertex
100
AcDb2dVertex
 10
-19.37753694592533
 20
-489.1607820254613
 30
0.0
  0
VERTEX
  5
19F
330
199
100
AcDbEntity
  8
0
  6
Continuous
 62
     7
370
    15
100
AcDbVertex
100
AcDb2dVertex
 10
-19.37830850552535
 20
-489.1550797864613
 30
0.0
  0
SEQEND
  5
1A0
330
199
100
AcDbEntity
  8
0
  6
Continuous
 62
     7
370
    15
  0
POLYLINE
  5
1A1
330
24
100
AcDbEntity
  8
0
  6
Continuous
 62
     7
370
    15
100
AcDb2dPolyline
 66
     1
 10
0.0
 20
0.0
 30
0.0
 75
     5
  0
VERTEX
  5
1A2
330
1A1
100
AcDbEntity
  8
0
  6
Continuous
 62
     7
370
    15
100
AcDbVertex
100
AcDb2dVertex
 10
79.0795041526747
 20
-484.6141587722614
 30
0.0
  0
VERTEX
  5
1A3
330
1A1
100
AcDbEntity
  8
0
  6
Continuous
 62
     7
370
    15
100
AcDbVertex
100
AcDb2dVertex
 10
79.07720592427455
 20
-484.6259956014613
 30
0.0
  0
VERTEX
  5
1A4
330
1A1
100
AcDbEntity
  8
0
  6
Continuous
 62
     7
370
    15
100
AcDbVertex
100
AcDb2dVertex
 10
79.0642419430747
 20
-484.6433928420613
 30
0.0
  0
VERTEX
  5
1A5
330
1A1
100
AcDbEntity
  8
0
  6
Continuous
 62
     7
370
    15
100
AcDbVertex
100
AcDb2dVertex
 10
79.04034113187464
 20
-484.6599788322613
 30
0.0
  0
VERTEX
  5
1A6
330
1A1
100
AcDbEntity
  8
0
  6
Continuous
 62
     7
370
    15
100
AcDbVertex
100
AcDb2dVertex
 10
79.0064181646747
 20
-484.6751161036614
 30
0.0
  0
SEQEND
  5
1A7
330
1A1
100
AcDbEntity
  8
0
  6
Continuous
 62
     7
370
    15
  0
LINE
  5
1A8
330
24
100
AcDbEntity
  8
0
  6
Continuous
 62
     7
370
    15
100
AcDbLine
 10
-6.544593774925431
 20
-352.4907452658614
 30
0.0
 11
-6.442701741925418
 21
-353.0720830882614
 31
0.0
  0
SPLINE
  5
1A9
330
24
100
AcDbEntity
  8
0
  6
Continuous
 62
     7
370
    15
100
AcDbSpline
210
0.0
220
0.0
230
1.0
 70
     8
 71
     2
 72
    10
 73
     7
 74
     0
 42
0.000000001
 43
0.000001
 40
0.0
 40
0.0
 40
0.0
 40
1.0
 40
1.0
 40
2.0
 40
2.0
 40
3.0
 40
3.0
 40
3.0
 10
-6.442702282458356
 20
-353.0720639199893
 30
0.0
 10
-6.439761489747355
 20
-353.0951042662242
 30
0.0
 10
-6.436820697036353
 20
-353.118144612459
 30
0.0
 10
-6.22584793281311
 20
-354.741777388919
 30
0.0
 10
-5.901237722128769
 20
-356.3399196198468
 30
0.0
 10
-5.896575193120896
 20
-356.3626167093306
 30
0.0
 10
-5.891912664113022
 20
-356.3853137988143
 30
0.0
  0
LINE
  5
1AA
330
24
100
AcDbEntity
  8
0
  6
Continuous
 62
     7
370
    15
100
AcDbLine
 10
-5.89191200532531
 20
-356.3853078002613
 30
0.0
 11
-5.797819593725478
 21
-356.6788736008614
 31
0.0
  0
POLYLINE
  5
1AB
330
24
100
AcDbEntity
  8
0
  6
Continuous
 62
     7
370
    15
100
AcDb2dPolyline
 66
     1
 10
0.0
 20
0.0
 30
0.0
 75
     5
  0
VERTEX
  5
1AC
330
1AB
100
AcDbEntity
  8
0
  6
Continuous
 62
     7
370
    15
100
AcDbVertex
100
AcDb2dVertex
 10
-5.797819593725478
 20
-356.6788736008614
 30
0.0
  0
VERTEX
  5
1AD
330
1AB
100
AcDbEntity
  8
0
  6
Continuous
 62
     7
370
    15
100
AcDbVertex
100
AcDb2dVertex
 10
-4.711615161925408
 20
-358.8334065846614
 30
0.0
  0
VERTEX
  5
1AE
330
1AB
100
AcDbEntity
  8
0
  6
Continuous
 62
     7
370
    15
100
AcDbVertex
100
AcDb2dVertex
 10
-3.400826672525397
 20
-360.8060721062614
 30
0.0
  0
VERTEX
  5
1AF
330
1AB
100
AcDbEntity
  8
0
  6
Continuous
 62
     7
370
    15
100
AcDbVertex
100
AcDb2dVertex
 10
-1.899783328925366
 20
-362.5451808484613
 30
0.0
  0
VERTEX
  5
1B0
330
1AB
100
AcDbEntity
  8
0
  6
Continuous
 62
     7
370
    15
100
AcDbVertex
100
AcDb2dVertex
 10
-0.2477932191254126
 20
-364.0052319054614
 30
0.0
  0
VERTEX
  5
1B1
330
1AB
100
AcDbEntity
  8
0
  6
Continuous
 62
     7
370
    15
100
AcDbVertex
100
AcDb2dVertex
 10
1.511880502474526
 20
-365.1479991186613
 30
0.0
  0
VERTEX
  5
1B2
330
1AB
100
AcDbEntity
  8
0
  6
Continuous
 62
     7
370
    15
100
AcDbVertex
100
AcDb2dVertex
 10
3.333153269474735
 20
-365.9435299486613
 30
0.0
  0
VERTEX
  5
1B3
330
1AB
100
AcDbEntity
  8
0
  6
Continuous
 62
     7
370
    15
100
AcDbVertex
100
AcDb2dVertex
 10
5.168328838074615
 20
-366.3709924966614
 30
0.0
  0
VERTEX
  5
1B4
330
1AB
100
AcDbEntity
  8
0
  6
Continuous
 62
     7
370
    15
100
AcDbVertex
100
AcDb2dVertex
 10
6.969346331874533
 20
-366.4191920704613
 30
0.0
  0
VERTEX
  5
1B5
330
1AB
100
AcDbEntity
  8
0
  6
Continuous
 62
     7
370
    15
100
AcDbVertex
100
AcDb2dVertex
 10
8.659498613874632
 20
-366.0960929824614
 30
0.0
  0
SEQEND
  5
1B6
330
1AB
100
AcDbEntity
  8
0
  6
Continuous
 62
     7
370
    15
  0
LINE
  5
1B7
330
24
100
AcDbEntity
  8
0
  6
Continuous
 62
     7
370
    15
100
AcDbLine
 10
-6.654512573725412
 20
-345.2571870142614
 30
0.0
 11
-6.726851148725416
 21
-345.7662429236614
 31
0.0
  0
LINE
  5
1B8
330
24
100
AcDbEntity
  8
0
  6
Continuous
 62
     7
370
    15
100
AcDbLine
 10
-6.181875792725293
 20
-342.5088745740613
 30
0.0
 11
-6.262013989125478
 21
-342.7301584612613
 31
0.0
  0
SPLINE
  5
1B9
330
24
100
AcDbEntity
  8
0
  6
Continuous
 62
     7
370
    15
100
AcDbSpline
210
0.0
220
0.0
230
1.0
 70
     8
 71
     2
 72
    11
 73
     8
 74
     0
 42
0.000000001
 43
0.000001
 40
0.0
 40
0.0
 40
0.0
 40
1.0
 40
1.0
 40
2.0
 40
3.0
 40
3.0
 40
4.0
 40
4.0
 40
4.0
 10
-6.262014140963572
 20
-342.7301831550893
 30
0.0
 10
-6.265271499119137
 20
-342.744397752748
 30
0.0
 10
-6.268528857274703
 20
-342.7586123504067
 30
0.0
 10
-6.365185659797305
 20
-343.1880035584734
 30
0.0
 10
-6.568072516942891
 20
-344.3655090015239
 30
0.0
 10
-6.651274733668686
 20
-345.222818218043
 30
0.0
 10
-6.652893764053204
 20
-345.2399989298953
 30
0.0
 10
-6.654512794437721
 20
-345.2571796417476
 30
0.0
  0
ARC
  5
1BA
330
24
100
AcDbEntity
  8
0
  6
Continuous
 62
     7
370
    15
100
AcDbCircle
 10
1.97505718947474
 20
-346.0709199170614
 30
0.0
 40
8.900770904857987
100
AcDbArc
 50
114.5019032934003
 51
156.4096212173996
  0
ARC
  5
1BB
330
24
100
AcDbEntity
  8
0
  6
Continuous
 62
     7
370
    15
100
AcDbCircle
 10
11.12550775207461
 20
-348.6471030550614
 30
0.0
 40
18.08330924974553
100
AcDbArc
 50
170.8331254572001
 51
192.2719436955998
  0
POLYLINE
  5
1BC
330
24
100
AcDbEntity
  8
0
  6
Continuous
 62
     7
370
    15
100
AcDb2dPolyline
 66
     1
 10
0.0
 20
0.0
 30
0.0
 75
     5
  0
VERTEX
  5
1BD
330
1BC
100
AcDbEntity
  8
0
  6
Continuous
 62
     7
370
    15
100
AcDbVertex
100
AcDb2dVertex
 10
6.618750231274646
 20
-453.5264739518614
 30
0.0
  0
VERTEX
  5
1BE
330
1BC
100
AcDbEntity
  8
0
  6
Continuous
 62
     7
370
    15
100
AcDbVertex
100
AcDb2dVertex
 10
7.747485455474646
 20
-453.6232064656614
 30
0.0
  0
VERTEX
  5
1BF
330
1BC
100
AcDbEntity
  8
0
  6
Continuous
 62
     7
370
    15
100
AcDbVertex
100
AcDb2dVertex
 10
8.298906819474553
 20
-453.5416606474614
 30
0.0
  0
SEQEND
  5
1C0
330
1BC
100
AcDbEntity
  8
0
  6
Continuous
 62
     7
370
    15
  0
POLYLINE
  5
1C1
330
24
100
AcDbEntity
  8
0
  6
Continuous
 62
     7
370
    15
100
AcDb2dPolyline
 66
     1
 10
0.0
 20
0.0
 30
0.0
 75
     5
  0
VERTEX
  5
1C2
330
1C1
100
AcDbEntity
  8
0
  6
Continuous
 62
     7
370
    15
100
AcDbVertex
100
AcDb2dVertex
 10
3.817483418474524
 20
-441.3943956502613
 30
0.0
  0
VERTEX
  5
1C3
330
1C1
100
AcDbEntity
  8
0
  6
Continuous
 62
     7
370
    15
100
AcDbVertex
100
AcDb2dVertex
 10
3.609812596674658
 20
-441.5115259208613
 30
0.0
  0
VERTEX
  5
1C4
330
1C1
100
AcDbEntity
  8
0
  6
Continuous
 62
     7
370
    15
100
AcDbVertex
100
AcDb2dVertex
 10
2.760862070874566
 20
-442.2337679256614
 30
0.0
  0
VERTEX
  5
1C5
330
1C1
100
AcDbEntity
  8
0
  6
Continuous
 62
     7
370
    15
100
AcDbVertex
100
AcDb2dVertex
 10
2.110827130874725
 20
-443.2303609108614
 30
0.0
  0
VERTEX
  5
1C6
330
1C1
100
AcDbEntity
  8
0
  6
Continuous
 62
     7
370
    15
100
AcDbVertex
100
AcDb2dVertex
 10
1.694750717074669
 20
-444.4475734770614
 30
0.0
  0
VERTEX
  5
1C7
330
1C1
100
AcDbEntity
  8
0
  6
Continuous
 62
     7
370
    15
100
AcDbVertex
100
AcDb2dVertex
 10
1.535065615674569
 20
-445.8198626956614
 30
0.0
  0
VERTEX
  5
1C8
330
1C1
100
AcDbEntity
  8
0
  6
Continuous
 62
     7
370
    15
100
AcDbVertex
100
AcDb2dVertex
 10
1.640379643674635
 20
-447.2732086866614
 30
0.0
  0
VERTEX
  5
1C9
330
1C1
100
AcDbEntity
  8
0
  6
Continuous
 62
     7
370
    15
100
AcDbVertex
100
AcDb2dVertex
 10
2.005013789274528
 20
-448.7291898196613
 30
0.0
  0
VERTEX
  5
1CA
330
1C1
100
AcDbEntity
  8
0
  6
Continuous
 62
     7
370
    15
100
AcDbVertex
100
AcDb2dVertex
 10
2.609312086274542
 20
-450.1094072458613
 30
0.0
  0
VERTEX
  5
1CB
330
1C1
100
AcDbEntity
  8
0
  6
Continuous
 62
     7
370
    15
100
AcDbVertex
100
AcDb2dVertex
 10
3.420696224874575
 20
-451.3394046100614
 30
0.0
  0
VERTEX
  5
1CC
330
1C1
100
AcDbEntity
  8
0
  6
Continuous
 62
     7
370
    15
100
AcDbVertex
100
AcDb2dVertex
 10
4.3954250090747
 20
-452.3529215134614
 30
0.0
  0
VERTEX
  5
1CD
330
1C1
100
AcDbEntity
  8
0
  6
Continuous
 62
     7
370
    15
100
AcDbVertex
100
AcDb2dVertex
 10
5.48094962367469
 20
-453.0952683228613
 30
0.0
  0
VERTEX
  5
1CE
330
1C1
100
AcDbEntity
  8
0
  6
Continuous
 62
     7
370
    15
100
AcDbVertex
100
AcDb2dVertex
 10
6.618750231274646
 20
-453.5264739518614
 30
0.0
  0
SEQEND
  5
1CF
330
1C1
100
AcDbEntity
  8
0
  6
Continuous
 62
     7
370
    15
  0
LINE
  5
1D0
330
24
100
AcDbEntity
  8
0
  6
Continuous
 62
     7
370
    15
100
AcDbLine
 10
-41.52854197352548
 20
466.7857553269387
 30
0.0
 11
7.234382101274662
 21
455.4275375513387
 31
0.0
  0
ARC
  5
1D1
330
24
100
AcDbEntity
  8
0
  6
Continuous
 62
     7
370
    15
100
AcDbCircle
 10
9.094669072674662
 20
452.1616425873387
 30
0.0
 40
3.758555245197452
100
AcDbArc
 50
119.6662788243988
 51
184.8994542863987
  0
LINE
  5
1D2
330
24
100
AcDbEntity
  8
0
  6
Continuous
 62
     7
370
    15
100
AcDbLine
 10
5.349847175874686
 20
451.8406340305387
 30
0.0
 11
-43.41307689892545
 21
463.1988518061387
 31
0.0
  0
ARC
  5
1D3
330
24
100
AcDbEntity
  8
0
  6
Continuous
 62
     7
370
    15
100
AcDbCircle
 10
-39.66825500212548
 20
463.5198603631386
 30
0.0
 40
3.75855524519858
100
AcDbArc
 50
119.666278824401
 51
184.8994542864008
  0
LINE
  5
1D4
330
24
100
AcDbEntity
  8
0
  6
Continuous
 62
     7
370
    15
100
AcDbLine
 10
7.018202126074641
 20
390.2856113899386
 30
0.0
 11
5.349847175874686
 21
451.8406340305387
 31
0.0
  0
LINE
  5
1D5
330
24
100
AcDbEntity
  8
0
  6
Continuous
 62
     7
370
    15
100
AcDbLine
 10
-41.74472194892536
 20
401.6438291655386
 30
0.0
 11
7.018202126074641
 21
390.2856113899386
 31
0.0
  0
LINE
  5
1D6
330
24
100
AcDbEntity
  8
0
  6
Continuous
 62
     7
370
    15
100
AcDbLine
 10
-43.41307689892545
 20
463.1988518061387
 30
0.0
 11
-41.74472194892536
 21
401.6438291655386
 31
0.0
  0
LINE
  5
1D7
330
24
100
AcDbEntity
  8
0
  6
Continuous
 62
     7
370
    15
100
AcDbLine
 10
49.42020186807468
 20
470.9909551279386
 30
0.0
 11
0.6572777932745453
 21
482.3491729037387
 31
0.0
  0
LINE
  5
1D8
330
24
100
AcDbEntity
  8
0
  6
Continuous
 62
     7
370
    15
100
AcDbLine
 10
7.234382101274662
 20
455.4275375513387
 30
0.0
 11
49.42020186807468
 21
470.9909551279386
 31
0.0
  0
LINE
  5
1D9
330
24
100
AcDbEntity
  8
0
  6
Continuous
 62
     7
370
    15
100
AcDbLine
 10
0.6572777932745453
 20
482.3491729037387
 30
0.0
 11
-41.52854197352548
 21
466.7857553269387
 31
0.0
  0
ARC
  5
1DA
330
24
100
AcDbEntity
  8
0
  6
Continuous
 62
     7
370
    15
100
AcDbCircle
 10
6.021129409874732
 20
452.0815240013387
 30
0.0
 40
3.559183722266714
100
AcDbArc
 50
359.2707545889998
 51
70.06953429430115
  0
ARC
  5
1DB
330
24
100
AcDbEntity
  8
0
  6
Continuous
 62
     7
370
    15
100
AcDbCircle
 10
7.086685831074703
 20
460.1191058955387
 30
0.0
 40
8.458705866505115
100
AcDbArc
 50
258.1510953239006
 51
287.1435071367997
  0
LINE
  5
1DC
330
24
100
AcDbEntity
  8
0
  6
Continuous
 62
     7
370
    15
100
AcDbLine
 10
9.580024850674647
 20
452.0362248827387
 30
0.0
 11
11.2483798008746
 21
390.4812022421386
 31
0.0
  0
ARC
  5
1DD
330
24
100
AcDbEntity
  8
0
  6
Continuous
 62
     7
370
    15
100
AcDbCircle
 10
8.75504078107457
 20
398.5640832549386
 30
0.0
 40
8.45870586650351
100
AcDbArc
 50
258.1510953238998
 51
287.1435071367994
  0
ARC
  5
1DE
330
24
100
AcDbEntity
  8
0
  6
Continuous
 62
     7
370
    15
100
AcDbCircle
 10
48.20694917687462
 20
467.6449415781387
 30
0.0
 40
3.559183722267396
100
AcDbArc
 50
359.270754589
 51
70.06953429429987
  0
LINE
  5
1DF
330
24
100
AcDbEntity
  8
0
  6
Continuous
 62
     7
370
    15
100
AcDbLine
 10
51.76584461767453
 20
467.5996424593386
 30
0.0
 11
9.580024850674647
 21
452.0362248827387
 31
0.0
  0
LINE
  5
1E0
330
24
100
AcDbEntity
  8
0
  6
Continuous
 62
     7
370
    15
100
AcDbLine
 10
53.43419956767463
 20
406.0446198187387
 30
0.0
 11
51.76584461767453
 21
467.5996424593386
 31
0.0
  0
LINE
  5
1E1
330
24
100
AcDbEntity
  8
0
  6
Continuous
 62
     7
370
    15
100
AcDbLine
 10
11.2483798008746
 20
390.4812022421386
 30
0.0
 11
53.43419956767463
 21
406.0446198187387
 31
0.0
  0
ARC
  5
1E2
330
24
100
AcDbEntity
  8
0
  6
Continuous
 62
     7
370
    15
100
AcDbCircle
 10
9.27999609727459
 20
387.2377489797386
 30
0.0
 40
2.696108742181795
100
AcDbArc
 50
258.1511373682004
 51
287.1434650925019
  0
ARC
  5
1E3
330
24
100
AcDbEntity
  8
0
  6
Continuous
 62
     7
370
    15
100
AcDbCircle
 10
9.34882656167457
 20
384.6457617663386
 30
0.0
 40
0.6241721153759947
100
AcDbArc
 50
119.5847677881971
 51
184.2884866506924
  0
ARC
  5
1E4
330
24
100
AcDbEntity
  8
0
  6
Continuous
 62
     7
370
    15
100
AcDbCircle
 10
9.304831592674702
 20
386.4476980453387
 30
0.0
 40
1.286552194575338
100
AcDbArc
 50
258.1512863270048
 51
287.1433161336012
  0
ARC
  5
1E5
330
24
100
AcDbEntity
  8
0
  6
Continuous
 62
     7
370
    15
100
AcDbCircle
 10
9.48285334487474
 20
384.6616947679386
 30
0.0
 40
0.5918621510208981
100
AcDbArc
 50
359.9742930503076
 51
70.12591745181135
  0
ARC
  5
1E6
330
24
100
AcDbEntity
  8
0
  6
Continuous
 62
     7
370
    15
100
AcDbCircle
 10
9.341597534074538
 20
384.9538542269386
 30
0.0
 40
2.819592268212813
100
AcDbArc
 50
258.1512011611994
 51
287.1434012994993
  0
LINE
  5
1E7
330
24
100
AcDbEntity
  8
0
  6
Continuous
 62
     7
370
    15
100
AcDbLine
 10
8.762651557874563
 20
382.1943393935387
 30
0.0
 11
8.726402015874612
 21
384.5990872085388
 31
0.0
  0
LINE
  5
1E8
330
24
100
AcDbEntity
  8
0
  6
Continuous
 62
     7
370
    15
100
AcDbLine
 10
10.07471543647472
 20
384.6614292167387
 30
0.0
 11
10.17271253367454
 21
382.2595364253386
 31
0.0
  0
LINE
  5
1E9
330
24
100
AcDbEntity
  8
0
  6
Continuous
 62
     7
370
    15
100
AcDbLine
 10
8.726402015874612
 20
384.5990872085388
 30
0.0
 11
-43.43858797032539
 21
396.7497391181387
 31
0.0
  0
ARC
  5
1EA
330
24
100
AcDbEntity
  8
0
  6
Continuous
 62
     7
370
    15
100
AcDbCircle
 10
-42.81616342432534
 20
396.7964136761386
 30
0.0
 40
0.6241721153763047
100
AcDbArc
 50
119.584767788205
 51
184.2884866506904
  0
LINE
  5
1EB
330
24
100
AcDbEntity
  8
0
  6
Continuous
 62
     7
370
    15
100
AcDbLine
 10
-43.12432387132543
 20
397.3392101097386
 30
0.0
 11
9.040666114674707
 21
385.1885582001387
 31
0.0
  0
ARC
  5
1EC
330
24
100
AcDbEntity
  8
0
  6
Continuous
 62
     7
370
    15
100
AcDbCircle
 10
16.07823941027465
 20
425.6282204631386
 30
0.0
 40
33.15532166894631
100
AcDbArc
 50
285.1140280583001
 51
295.3865625195002
  0
ARC
  5
1ED
330
24
100
AcDbEntity
  8
0
  6
Continuous
 62
     7
370
    15
100
AcDbCircle
 10
-2.32020845552546
 20
436.6574273005388
 30
0.0
 40
45.26319299482287
100
AcDbArc
 50
249.4845103960999
 51
264.2085137705
  0
POLYLINE
  5
1EE
330
24
100
AcDbEntity
  8
0
  6
Continuous
 62
     7
370
    15
100
AcDb2dPolyline
 66
     1
 10
0.0
 20
0.0
 30
0.0
 75
     5
  0
VERTEX
  5
1EF
330
1EE
100
AcDbEntity
  8
0
  6
Continuous
 62
     7
370
    15
100
AcDbVertex
100
AcDb2dVertex
 10
54.81307709907475
 20
401.8675446603386
 30
0.0
  0
VERTEX
  5
1F0
330
1EE
100
AcDbEntity
  8
0
  6
Continuous
 62
     7
370
    15
100
AcDbVertex
100
AcDb2dVertex
 10
54.86467002907472
 20
401.8905687271388
 30
0.0
  0
VERTEX
  5
1F1
330
1EE
100
AcDbEntity
  8
0
  6
Continuous
 62
     7
370
    15
100
AcDbVertex
100
AcDb2dVertex
 10
54.90102343507471
 20
401.9157948593386
 30
0.0
  0
VERTEX
  5
1F2
330
1EE
100
AcDbEntity
  8
0
  6
Continuous
 62
     7
370
    15
100
AcDbVertex
100
AcDb2dVertex
 10
54.92073785707458
 20
401.9422541847387
 30
0.0
  0
VERTEX
  5
1F3
330
1EE
100
AcDbEntity
  8
0
  6
Continuous
 62
     7
370
    15
100
AcDbVertex
100
AcDb2dVertex
 10
54.92306279287465
 20
401.9689307859387
 30
0.0
  0
VERTEX
  5
1F4
330
1EE
100
AcDbEntity
  8
0
  6
Continuous
 62
     7
370
    15
100
AcDbVertex
100
AcDb2dVertex
 10
54.90790090527463
 20
401.9947988483386
 30
0.0
  0
VERTEX
  5
1F5
330
1EE
100
AcDbEntity
  8
0
  6
Continuous
 62
     7
370
    15
100
AcDbVertex
100
AcDb2dVertex
 10
54.87584298307462
 20
402.0188643741387
 30
0.0
  0
VERTEX
  5
1F6
330
1EE
100
AcDbEntity
  8
0
  6
Continuous
 62
     7
370
    15
100
AcDbVertex
100
AcDb2dVertex
 10
54.82811360567467
 20
402.0402027683388
 30
0.0
  0
VERTEX
  5
1F7
330
1EE
100
AcDbEntity
  8
0
  6
Continuous
 62
     7
370
    15
100
AcDbVertex
100
AcDb2dVertex
 10
54.76654908447455
 20
402.0579947705387
 30
0.0
  0
SEQEND
  5
1F8
330
1EE
100
AcDbEntity
  8
0
  6
Continuous
 62
     7
370
    15
  0
LINE
  5
1F9
330
24
100
AcDbEntity
  8
0
  6
Continuous
 62
     7
370
    15
100
AcDbLine
 10
9.684059357674698
 20
385.2183067929386
 30
0.0
 11
54.81307709907475
 21
401.8675446603386
 31
0.0
  0
POLYLINE
  5
1FA
330
24
100
AcDbEntity
  8
0
  6
Continuous
 62
     7
370
    15
100
AcDb2dPolyline
 66
     1
 10
0.0
 20
0.0
 30
0.0
 75
     5
  0
VERTEX
  5
1FB
330
1FA
100
AcDbEntity
  8
0
  6
Continuous
 62
     7
370
    15
100
AcDbVertex
100
AcDb2dVertex
 10
-43.1708518859254
 20
397.5296602199387
 30
0.0
  0
VERTEX
  5
1FC
330
1FA
100
AcDbEntity
  8
0
  6
Continuous
 62
     7
370
    15
100
AcDbVertex
100
AcDb2dVertex
 10
-43.22244481572528
 20
397.5066361531387
 30
0.0
  0
VERTEX
  5
1FD
330
1FA
100
AcDbEntity
  8
0
  6
Continuous
 62
     7
370
    15
100
AcDbVertex
100
AcDb2dVertex
 10
-43.25879822192536
 20
397.4814100209387
 30
0.0
  0
VERTEX
  5
1FE
330
1FA
100
AcDbEntity
  8
0
  6
Continuous
 62
     7
370
    15
100
AcDbVertex
100
AcDb2dVertex
 10
-43.27851264372538
 20
397.4549506955386
 30
0.0
  0
VERTEX
  5
1FF
330
1FA
100
AcDbEntity
  8
0
  6
Continuous
 62
     7
370
    15
100
AcDbVertex
100
AcDb2dVertex
 10
-43.2808375797253
 20
397.4282740943386
 30
0.0
  0
VERTEX
  5
200
330
1FA
100
AcDbEntity
  8
0
  6
Continuous
 62
     7
370
    15
100
AcDbVertex
100
AcDb2dVertex
 10
-43.26567569212528
 20
397.4024060321387
 30
0.0
  0
VERTEX
  5
201
330
1FA
100
AcDbEntity
  8
0
  6
Continuous
 62
     7
370
    15
100
AcDbVertex
100
AcDb2dVertex
 10
-43.23361776972541
 20
397.3783405061386
 30
0.0
  0
VERTEX
  5
202
330
1FA
100
AcDbEntity
  8
0
  6
Continuous
 62
     7
370
    15
100
AcDbVertex
100
AcDb2dVertex
 10
-43.18588839252533
 20
397.3570021121386
 30
0.0
  0
VERTEX
  5
203
330
1FA
100
AcDbEntity
  8
0
  6
Continuous
 62
     7
370
    15
100
AcDbVertex
100
AcDb2dVertex
 10
-43.12432387132543
 20
397.3392101097386
 30
0.0
  0
SEQEND
  5
204
330
1FA
100
AcDbEntity
  8
0
  6
Continuous
 62
     7
370
    15
  0
LINE
  5
205
330
24
100
AcDbEntity
  8
0
  6
Continuous
 62
     7
370
    15
100
AcDbLine
 10
55.20373317767468
 20
401.3106670841387
 30
0.0
 11
10.07471543647472
 21
384.6614292167387
 31
0.0
  0
ARC
  5
206
330
24
100
AcDbEntity
  8
0
  6
Continuous
 62
     7
370
    15
100
AcDbCircle
 10
54.61187108627456
 20
401.3109326355386
 30
0.0
 40
0.5918621510213529
100
AcDbArc
 50
359.9742930503076
 51
70.12591745170971
  0
LINE
  5
207
330
24
100
AcDbEntity
  8
0
  6
Continuous
 62
     7
370
    15
100
AcDbLine
 10
-43.40233842832544
 20
394.3449913031386
 30
0.0
 11
8.762651557874563
 21
382.1943393935387
 31
0.0
  0
LINE
  5
208
330
24
100
AcDbEntity
  8
0
  6
Continuous
 62
     7
370
    15
100
AcDbLine
 10
-43.43858797032539
 20
396.7497391181387
 30
0.0
 11
-43.40233842832544
 21
394.3449913031386
 31
0.0
  0
LINE
  5
209
330
24
100
AcDbEntity
  8
0
  6
Continuous
 62
     7
370
    15
100
AcDbLine
 10
10.17271253367454
 20
382.2595364253386
 30
0.0
 11
55.30173027507459
 21
398.9087742927386
 31
0.0
  0
LINE
  5
20A
330
24
100
AcDbEntity
  8
0
  6
Continuous
 62
     7
370
    15
100
AcDbLine
 10
55.30173027507459
 20
398.9087742927386
 30
0.0
 11
55.20373317767468
 21
401.3106670841387
 31
0.0
  0
LINE
  5
20B
330
24
100
AcDbEntity
  8
0
  6
Continuous
 62
     7
370
    15
100
AcDbLine
 10
-43.76852962932543
 20
396.9472526335387
 30
0.0
 11
-43.76907262892536
 21
396.9561072193387
 31
0.0
  0
POLYLINE
  5
20C
330
24
100
AcDbEntity
  8
0
  6
Continuous
 62
     7
370
    15
100
AcDb2dPolyline
 66
     1
 10
0.0
 20
0.0
 30
0.0
 75
     5
  0
VERTEX
  5
20D
330
20C
100
AcDbEntity
  8
0
  6
Continuous
 62
     7
370
    15
100
AcDbVertex
100
AcDb2dVertex
 10
-43.33097836652536
 20
397.5215839281386
 30
0.0
  0
VERTEX
  5
20E
330
20C
100
AcDbEntity
  8
0
  6
Continuous
 62
     7
370
    15
100
AcDbVertex
100
AcDb2dVertex
 10
-43.37666598072536
 20
397.4994055465386
 30
0.0
  0
VERTEX
  5
20F
330
20C
100
AcDbEntity
  8
0
  6
Continuous
 62
     7
370
    15
100
AcDbVertex
100
AcDb2dVertex
 10
-43.38123131432548
 20
397.4965449581387
 30
0.0
  0
SEQEND
  5
210
330
20C
100
AcDbEntity
  8
0
  6
Continuous
 62
     7
370
    15
  0
POLYLINE
  5
211
330
24
100
AcDbEntity
  8
0
  6
Continuous
 62
     7
370
    15
100
AcDb2dPolyline
 66
     1
 10
0.0
 20
0.0
 30
0.0
 75
     5
  0
VERTEX
  5
212
330
211
100
AcDbEntity
  8
0
  6
Continuous
 62
     7
370
    15
100
AcDbVertex
100
AcDb2dVertex
 10
-43.40233842832544
 20
394.3449913031386
 30
0.0
  0
VERTEX
  5
213
330
211
100
AcDbEntity
  8
0
  6
Continuous
 62
     7
370
    15
100
AcDbVertex
100
AcDb2dVertex
 10
-43.53726158352532
 20
394.3839823659387
 30
0.0
  0
VERTEX
  5
214
330
211
100
AcDbEntity
  8
0
  6
Continuous
 62
     7
370
    15
100
AcDbVertex
100
AcDb2dVertex
 10
-43.6418656605253
 20
394.4307484811386
 30
0.0
  0
VERTEX
  5
215
330
211
100
AcDbEntity
  8
0
  6
Continuous
 62
     7
370
    15
100
AcDbVertex
100
AcDb2dVertex
 10
-43.7121308249254
 20
394.4834910669388
 30
0.0
  0
VERTEX
  5
216
330
211
100
AcDbEntity
  8
0
  6
Continuous
 62
     7
370
    15
100
AcDbVertex
100
AcDb2dVertex
 10
-43.74535747072531
 20
394.5401838169387
 30
0.0
  0
VERTEX
  5
217
330
211
100
AcDbEntity
  8
0
  6
Continuous
 62
     7
370
    15
100
AcDbVertex
100
AcDb2dVertex
 10
-43.74795840732526
 20
394.5608106201387
 30
0.0
  0
SEQEND
  5
218
330
211
100
AcDbEntity
  8
0
  6
Continuous
 62
     7
370
    15
  0
LINE
  5
219
330
24
100
AcDbEntity
  8
0
  6
Continuous
 62
     7
370
    15
100
AcDbLine
 10
54.89290751347454
 20
402.0677876833386
 30
0.0
 11
54.94580188127458
 21
402.0472488561386
 31
0.0
  0
LINE
  5
21A
330
24
100
AcDbEntity
  8
0
  6
Continuous
 62
     7
370
    15
100
AcDbLine
 10
55.43587811667459
 20
401.5145675041388
 30
0.0
 11
55.43662834307457
 21
401.5065063721386
 31
0.0
  0
POLYLINE
  5
21B
330
24
100
AcDbEntity
  8
0
  6
Continuous
 62
     7
370
    15
100
AcDb2dPolyline
 66
     1
 10
0.0
 20
0.0
 30
0.0
 75
     5
  0
VERTEX
  5
21C
330
21B
100
AcDbEntity
  8
0
  6
Continuous
 62
     7
370
    15
100
AcDbVertex
100
AcDb2dVertex
 10
55.54528989987472
 20
399.1135822433387
 30
0.0
  0
VERTEX
  5
21D
330
21B
100
AcDbEntity
  8
0
  6
Continuous
 62
     7
370
    15
100
AcDbVertex
100
AcDb2dVertex
 10
55.53768541267465
 20
399.0725078015387
 30
0.0
  0
VERTEX
  5
21E
330
21B
100
AcDbEntity
  8
0
  6
Continuous
 62
     7
370
    15
100
AcDbVertex
100
AcDb2dVertex
 10
55.49447270047455
 20
399.0145183359386
 30
0.0
  0
VERTEX
  5
21F
330
21B
100
AcDbEntity
  8
0
  6
Continuous
 62
     7
370
    15
100
AcDbVertex
100
AcDb2dVertex
 10
55.41480064067474
 20
398.9592318395387
 30
0.0
  0
VERTEX
  5
220
330
21B
100
AcDbEntity
  8
0
  6
Continuous
 62
     7
370
    15
100
AcDbVertex
100
AcDb2dVertex
 10
55.30173027507459
 20
398.9087742927386
 30
0.0
  0
SEQEND
  5
221
330
21B
100
AcDbEntity
  8
0
  6
Continuous
 62
     7
370
    15
  0
ARC
  5
222
330
24
100
AcDbEntity
  8
0
  6
Continuous
 62
     7
370
    15
100
AcDbCircle
 10
-0.5375111267252919
 20
288.9643953059388
 30
0.0
 40
0.4345764584918534
100
AcDbArc
 50
77.47614592921005
 51
111.3881337487079
  0
POLYLINE
  5
223
330
24
100
AcDbEntity
  8
0
  6
Continuous
 62
     7
370
    15
100
AcDb2dPolyline
 66
     1
 10
0.0
 20
0.0
 30
0.0
 75
     5
  0
VERTEX
  5
224
330
223
100
AcDbEntity
  8
0
  6
Continuous
 62
     7
370
    15
100
AcDbVertex
100
AcDb2dVertex
 10
0.0858863252745437
 20
288.2386032595386
 30
0.0
  0
VERTEX
  5
225
330
223
100
AcDbEntity
  8
0
  6
Continuous
 62
     7
370
    15
100
AcDbVertex
100
AcDb2dVertex
 10
0.1989566906746063
 20
288.2890608061387
 30
0.0
  0
VERTEX
  5
226
330
223
100
AcDbEntity
  8
0
  6
Continuous
 62
     7
370
    15
100
AcDbVertex
100
AcDb2dVertex
 10
0.2786277222747344
 20
288.3443460757387
 30
0.0
  0
VERTEX
  5
227
330
223
100
AcDbEntity
  8
0
  6
Continuous
 62
     7
370
    15
100
AcDbVertex
100
AcDb2dVertex
 10
0.3218404344746091
 20
288.4023355413387
 30
0.0
  0
VERTEX
  5
228
330
223
100
AcDbEntity
  8
0
  6
Continuous
 62
     7
370
    15
100
AcDbVertex
100
AcDb2dVertex
 10
0.329505256874711
 20
288.4417931371386
 30
0.0
  0
SEQEND
  5
229
330
223
100
AcDbEntity
  8
0
  6
Continuous
 62
     7
370
    15
  0
POLYLINE
  5
22A
330
24
100
AcDbEntity
  8
0
  6
Continuous
 62
     7
370
    15
100
AcDb2dPolyline
 66
     1
 10
0.0
 20
0.0
 30
0.0
 75
     5
  0
VERTEX
  5
22B
330
22A
100
AcDbEntity
  8
0
  6
Continuous
 62
     7
370
    15
100
AcDbVertex
100
AcDb2dVertex
 10
1.364143779274684
 20
250.2681432919387
 30
0.0
  0
VERTEX
  5
22C
330
22A
100
AcDbEntity
  8
0
  6
Continuous
 62
     7
370
    15
100
AcDbVertex
100
AcDb2dVertex
 10
1.356478957074671
 20
250.2286856963387
 30
0.0
  0
VERTEX
  5
22D
330
22A
100
AcDbEntity
  8
0
  6
Continuous
 62
     7
370
    15
100
AcDbVertex
100
AcDb2dVertex
 10
1.313266244874569
 20
250.1706962305386
 30
0.0
  0
VERTEX
  5
22E
330
22A
100
AcDbEntity
  8
0
  6
Continuous
 62
     7
370
    15
100
AcDbVertex
100
AcDb2dVertex
 10
1.233595213274668
 20
250.1154109611387
 30
0.0
  0
VERTEX
  5
22F
330
22A
100
AcDbEntity
  8
0
  6
Continuous
 62
     7
370
    15
100
AcDbVertex
100
AcDb2dVertex
 10
1.120524847674744
 20
250.0649534143386
 30
0.0
  0
SEQEND
  5
230
330
22A
100
AcDbEntity
  8
0
  6
Continuous
 62
     7
370
    15
  0
ARC
  5
231
330
24
100
AcDbEntity
  8
0
  6
Continuous
 62
     7
370
    15
100
AcDbCircle
 10
-29.26605613232545
 20
295.6560586291387
 30
0.0
 40
0.4345764584155961
100
AcDbArc
 50
77.47614592608619
 51
111.3881337518084
  0
ARC
  5
232
330
24
100
AcDbEntity
  8
0
  6
Continuous
 62
     7
370
    15
100
AcDbCircle
 10
0.3834881272746884
 20
249.9700916603388
 30
0.0
 40
0.7431163298503194
100
AcDbArc
 50
296.1187197035986
 51
7.33404550609515
  0
ARC
  5
233
330
24
100
AcDbEntity
  8
0
  6
Continuous
 62
     7
370
    15
100
AcDbCircle
 10
-29.55824910072528
 20
295.5288594845388
 30
0.0
 40
0.5483971924304508
100
AcDbArc
 50
75.88792161799252
 51
109.8869611285935
  0
POLYLINE
  5
234
330
24
100
AcDbEntity
  8
0
  6
Continuous
 62
     7
370
    15
100
AcDb2dPolyline
 66
     1
 10
0.0
 20
0.0
 30
0.0
 75
     5
  0
VERTEX
  5
235
330
234
100
AcDbEntity
  8
0
  6
Continuous
 62
     7
370
    15
100
AcDbVertex
100
AcDb2dVertex
 10
-19.97820447712542
 20
254.6722431247388
 30
0.0
  0
VERTEX
  5
236
330
234
100
AcDbEntity
  8
0
  6
Continuous
 62
     7
370
    15
100
AcDbVertex
100
AcDb2dVertex
 10
-18.52656542032531
 20
255.4244801803386
 30
0.0
  0
VERTEX
  5
237
330
234
100
AcDbEntity
  8
0
  6
Continuous
 62
     7
370
    15
100
AcDbVertex
100
AcDb2dVertex
 10
-17.21742618192542
 20
256.4941265001387
 30
0.0
  0
VERTEX
  5
238
330
234
100
AcDbEntity
  8
0
  6
Continuous
 62
     7
370
    15
100
AcDbVertex
100
AcDb2dVertex
 10
-16.09794165432544
 20
257.8497020389386
 30
0.0
  0
VERTEX
  5
239
330
234
100
AcDbEntity
  8
0
  6
Continuous
 62
     7
370
    15
100
AcDbVertex
100
AcDb2dVertex
 10
-15.19435218072539
 20
259.4594053687388
 30
0.0
  0
VERTEX
  5
23A
330
234
100
AcDbEntity
  8
0
  6
Continuous
 62
     7
370
    15
100
AcDbVertex
100
AcDb2dVertex
 10
-14.52783681172531
 20
261.2855222575386
 30
0.0
  0
VERTEX
  5
23B
330
234
100
AcDbEntity
  8
0
  6
Continuous
 62
     7
370
    15
100
AcDbVertex
100
AcDb2dVertex
 10
-14.1140180991253
 20
263.2852570999387
 30
0.0
  0
VERTEX
  5
23C
330
234
100
AcDbEntity
  8
0
  6
Continuous
 62
     7
370
    15
100
AcDbVertex
100
AcDb2dVertex
 10
-13.96259588172546
 20
265.4117286391386
 30
0.0
  0
VERTEX
  5
23D
330
234
100
AcDbEntity
  8
0
  6
Continuous
 62
     7
370
    15
100
AcDbVertex
100
AcDb2dVertex
 10
-14.07711946612534
 20
267.6150897755388
 30
0.0
  0
VERTEX
  5
23E
330
234
100
AcDbEntity
  8
0
  6
Continuous
 62
     7
370
    15
100
AcDbVertex
100
AcDb2dVertex
 10
-14.45490350872541
 20
269.8437091103388
 30
0.0
  0
VERTEX
  5
23F
330
234
100
AcDbEntity
  8
0
  6
Continuous
 62
     7
370
    15
100
AcDbVertex
100
AcDb2dVertex
 10
-15.08709373612527
 20
272.0453308661386
 30
0.0
  0
VERTEX
  5
240
330
234
100
AcDbEntity
  8
0
  6
Continuous
 62
     7
370
    15
100
AcDbVertex
100
AcDb2dVertex
 10
-15.95887285552539
 20
274.1683734435387
 30
0.0
  0
VERTEX
  5
241
330
234
100
AcDbEntity
  8
0
  6
Continuous
 62
     7
370
    15
100
AcDbVertex
100
AcDb2dVertex
 10
-17.04980591752536
 20
276.1630555615386
 30
0.0
  0
VERTEX
  5
242
330
234
100
AcDbEntity
  8
0
  6
Continuous
 62
     7
370
    15
100
AcDbVertex
100
AcDb2dVertex
 10
-18.33432298692532
 20
277.9826321001387
 30
0.0
  0
VERTEX
  5
243
330
234
100
AcDbEntity
  8
0
  6
Continuous
 62
     7
370
    15
100
AcDbVertex
100
AcDb2dVertex
 10
-19.78231556732538
 20
279.5844515409387
 30
0.0
  0
VERTEX
  5
244
330
234
100
AcDbEntity
  8
0
  6
Continuous
 62
     7
370
    15
100
AcDbVertex
100
AcDb2dVertex
 10
-21.35984500172543
 20
280.9309758987388
 30
0.0
  0
VERTEX
  5
245
330
234
100
AcDbEntity
  8
0
  6
Continuous
 62
     7
370
    15
100
AcDbVertex
100
AcDb2dVertex
 10
-23.02993440472545
 20
281.9906364075387
 30
0.0
  0
VERTEX
  5
246
330
234
100
AcDbEntity
  8
0
  6
Continuous
 62
     7
370
    15
100
AcDbVertex
100
AcDb2dVertex
 10
-24.75343828572539
 20
282.7385871901386
 30
0.0
  0
VERTEX
  5
247
330
234
100
AcDbEntity
  8
0
  6
Continuous
 62
     7
370
    15
100
AcDbVertex
100
AcDb2dVertex
 10
-26.48995977412545
 20
283.1573145723387
 30
0.0
  0
VERTEX
  5
248
330
234
100
AcDbEntity
  8
0
  6
Continuous
 62
     7
370
    15
100
AcDbVertex
100
AcDb2dVertex
 10
-28.19879593472541
 20
283.2369985835387
 30
0.0
  0
VERTEX
  5
249
330
234
100
AcDbEntity
  8
0
  6
Continuous
 62
     7
370
    15
100
AcDbVertex
100
AcDb2dVertex
 10
-29.83989293552526
 20
282.9757637037387
 30
0.0
  0
VERTEX
  5
24A
330
234
100
AcDbEntity
  8
0
  6
Continuous
 62
     7
370
    15
100
AcDbVertex
100
AcDb2dVertex
 10
-29.9195027513253
 20
282.9538216397386
 30
0.0
  0
SEQEND
  5
24B
330
234
100
AcDbEntity
  8
0
  6
Continuous
 62
     7
370
    15
  0
SPLINE
  5
24C
330
24
100
AcDbEntity
  8
0
  6
Continuous
 62
     7
370
    15
100
AcDbSpline
210
0.0
220
0.0
230
1.0
 70
     8
 71
     2
 72
    16
 73
    13
 74
     0
 42
0.000000001
 43
0.000001
 40
0.0
 40
0.0
 40
0.0
 40
1.0
 40
1.0
 40
2.0
 40
3.0
 40
4.0
 40
5.0
 40
6.0
 40
7.0
 40
8.0
 40
8.0
 40
9.0
 40
9.0
 40
9.0
 10
-6.229289920813187
 20
247.5417751419318
 30
0.0
 10
-6.229426532679383
 20
247.5402024443521
 30
0.0
 10
-6.22956314454558
 20
247.5386297467724
 30
0.0
 10
-6.235042392553112
 20
247.4724403260261
 30
0.0
 10
-6.24718424406791
 20
247.3604319844371
 30
0.0
 10
-6.270045729469246
 20
247.2144549961179
 30
0.0
 10
-6.31928322074117
 20
247.0834324589459
 30
0.0
 10
-6.361718930132554
 20
247.0051611259896
 30
0.0
 10
-6.43651833398161
 20
246.9104711255004
 30
0.0
 10
-6.533747844015977
 20
246.8528898077911
 30
0.0
 10
-6.570875053922407
 20
246.8339674578517
 30
0.0
 10
-6.571471247541751
 20
246.8336572889804
 30
0.0
 10
-6.572067441161096
 20
246.833347120109
 30
0.0
  0
SPLINE
  5
24D
330
24
100
AcDbEntity
  8
0
  6
Continuous
 62
     7
370
    15
100
AcDbSpline
210
0.0
220
0.0
230
1.0
 70
     8
 71
     2
 72
    16
 73
    13
 74
     0
 42
0.000000001
 43
0.000001
 40
0.0
 40
0.0
 40
0.0
 40
1.0
 40
1.0
 40
2.0
 40
3.0
 40
4.0
 40
5.0
 40
6.0
 40
7.0
 40
8.0
 40
8.0
 40
9.0
 40
9.0
 40
9.0
 10
-7.682923523758916
 20
246.7420751994666
 30
0.0
 10
-7.683795354123106
 20
246.7422111860658
 30
0.0
 10
-7.684667184487296
 20
246.7423471726649
 30
0.0
 10
-7.873970708373406
 20
246.76448493116
 30
0.0
 10
-8.151995848785361
 20
246.9278648517482
 30
0.0
 10
-8.410065542942618
 20
247.1687257024932
 30
0.0
 10
-8.643021664636251
 20
247.5053207829476
 30
0.0
 10
-8.800209593803345
 20
247.8489431720513
 30
0.0
 10
-8.908794753454629
 20
248.2804994693449
 30
0.0
 10
-8.964264129535593
 20
248.7196246111023
 30
0.0
 10
-8.984694580385565
 20
248.9167753370793
 30
0.0
 10
-8.985390315147527
 20
248.9233346151938
 30
0.0
 10
-8.986086049909488
 20
248.9298938933082
 30
0.0
  0
SPLINE
  5
24E
330
24
100
AcDbEntity
  8
0
  6
Continuous
 62
     7
370
    15
100
AcDbSpline
210
0.0
220
0.0
230
1.0
 70
     8
 71
     2
 72
    17
 73
    14
 74
     0
 42
0.000000001
 43
0.000001
 40
0.0
 40
0.0
 40
0.0
 40
1.0
 40
1.0
 40
2.0
 40
3.0
 40
4.0
 40
5.0
 40
6.0
 40
7.0
 40
8.0
 40
9.0
 40
9.0
 40
10.0
 40
10.0
 40
10.0
 10
-37.43695639382594
 20
255.5568791983453
 30
0.0
 10
-37.4362819876946
 20
255.5503253644209
 30
0.0
 10
-37.43560758156326
 20
255.5437715304965
 30
0.0
 10
-37.42101539918207
 20
255.3993702661974
 30
0.0
 10
-37.38320029281152
 20
255.0609970639002
 30
0.0
 10
-37.28832092882425
 20
254.5335485580533
 30
0.0
 10
-37.08306485930706
 20
254.0955747419141
 30
0.0
 10
-36.86638791949025
 20
253.7858714449153
 30
0.0
 10
-36.63354023401797
 20
253.561741616986
 30
0.0
 10
-36.41159971685096
 20
253.4251969953662
 30
0.0
 10
-36.23299480667418
 20
253.3874854430062
 30
0.0
 10
-36.17859558546041
 20
253.3796308075439
 30
0.0
 10
-36.17771973137604
 20
253.3794980488826
 30
0.0
 10
-36.17684387729167
 20
253.3793652902214
 30
0.0
  0
SPLINE
  5
24F
330
24
100
AcDbEntity
  8
0
  6
Continuous
 62
     7
370
    15
100
AcDbSpline
210
0.0
220
0.0
230
1.0
 70
     8
 71
     2
 72
    16
 73
    13
 74
     0
 42
0.000000001
 43
0.000001
 40
0.0
 40
0.0
 40
0.0
 40
1.0
 40
1.0
 40
2.0
 40
3.0
 40
4.0
 40
5.0
 40
6.0
 40
7.0
 40
8.0
 40
8.0
 40
9.0
 40
9.0
 40
9.0
 10
-36.99106510974406
 20
293.1475609416318
 30
0.0
 10
-36.99061117503192
 20
293.1479042440218
 30
0.0
 10
-36.99015724031977
 20
293.1482475464118
 30
0.0
 10
-36.96212739714969
 20
293.1698522391932
 30
0.0
 10
-36.91951134621962
 20
293.1990414092129
 30
0.0
 10
-36.8701899438949
 20
293.2281625563671
 30
0.0
 10
-36.80183608566671
 20
293.2467373229626
 30
0.0
 10
-36.73624061362142
 20
293.2518813051533
 30
0.0
 10
-36.66776258482258
 20
293.2489430272826
 30
0.0
 10
-36.60198566643516
 20
293.2417617658209
 30
0.0
 10
-36.56887084144836
 20
293.2375364391025
 30
0.0
 10
-36.56776780357535
 20
293.2373978088739
 30
0.0
 10
-36.56666476570234
 20
293.2372591786452
 30
0.0
  0
SPLINE
  5
250
330
24
100
AcDbEntity
  8
0
  6
Continuous
 62
     7
370
    15
100
AcDbSpline
210
0.0
220
0.0
230
1.0
 70
     8
 71
     2
 72
    16
 73
    13
 74
     0
 42
0.000000001
 43
0.000001
 40
0.0
 40
0.0
 40
0.0
 40
1.0
 40
1.0
 40
2.0
 40
3.0
 40
4.0
 40
5.0
 40
6.0
 40
7.0
 40
8.0
 40
8.0
 40
9.0
 40
9.0
 40
9.0
 10
-38.69911285433153
 20
289.864245229669
 30
0.0
 10
-38.69912944270169
 20
289.8642048991323
 30
0.0
 10
-38.69914603107185
 20
289.8641645685957
 30
0.0
 10
-38.70849846239156
 20
289.8447646718087
 30
0.0
 10
-38.69572817033753
 20
289.8133009870082
 30
0.0
 10
-38.67202858252466
 20
289.7890064780925
 30
0.0
 10
-38.63780614149545
 20
289.7657524774747
 30
0.0
 10
-38.5957543565043
 20
289.7438785896338
 30
0.0
 10
-38.52424999670296
 20
289.713584843797
 30
0.0
 10
-38.41818711584409
 20
289.6786697433267
 30
0.0
 10
-38.36307414252536
 20
289.661850404811
 30
0.0
 10
-38.36218947878018
 20
289.6615778196036
 30
0.0
 10
-38.361304815035
 20
289.6613052343962
 30
0.0
  0
SPLINE
  5
251
330
24
100
AcDbEntity
  8
0
  6
Continuous
 62
     7
370
    15
100
AcDbSpline
210
0.0
220
0.0
230
1.0
 70
     8
 71
     2
 72
    18
 73
    15
 74
     0
 42
0.000000001
 43
0.000001
 40
0.0
 40
0.0
 40
0.0
 40
1.0
 40
1.0
 40
2.0
 40
3.0
 40
4.0
 40
5.0
 40
6.0
 40
7.0
 40
8.0
 40
9.0
 40
10.0
 40
10.0
 40
11.0
 40
11.0
 40
11.0
 10
-37.43695639382594
 20
255.5568791983453
 30
0.0
 10
-37.43784565321374
 20
255.557151720177
 30
0.0
 10
-37.43873491260155
 20
255.5574242420087
 30
0.0
 10
-37.48700811909447
 20
255.5720678162845
 30
0.0
 10
-37.5595680754497
 20
255.5955729343827
 30
0.0
 10
-37.63518807115673
 20
255.6224021527314
 30
0.0
 10
-37.69814546333981
 20
255.6529543869083
 30
0.0
 10
-37.73482993536885
 20
255.6757441611517
 30
0.0
 10
-37.76227649482365
 20
255.6996913406292
 30
0.0
 10
-37.78298178770063
 20
255.7313265541238
 30
0.0
 10
-37.77707403095832
 20
255.7561079361558
 30
0.0
 10
-37.77306037459761
 20
255.7659217565658
 30
0.0
 10
-37.77081330682853
 20
255.7708320250026
 30
0.0
 10
-37.7707775537927
 20
255.7709112161255
 30
0.0
 10
-37.77074180075687
 20
255.7709904072483
 30
0.0
  0
ARC
  5
252
330
24
100
AcDbEntity
  8
0
  6
Continuous
 62
     7
370
    15
100
AcDbCircle
 10
-28.34382663992545
 20
273.1005668615387
 30
0.0
 40
6.147993896897478
100
AcDbArc
 50
77.48193615729967
 51
144.7178442327996
  0
ARC
  5
253
330
24
100
AcDbEntity
  8
0
  6
Continuous
 62
     7
370
    15
100
AcDbCircle
 10
-28.02469930592537
 20
273.2557200481388
 30
0.0
 40
6.236252700021733
100
AcDbArc
 50
77.36360652240101
 51
112.3670696700998
  0
POLYLINE
  5
254
330
24
100
AcDbEntity
  8
0
  6
Continuous
 62
     7
370
    15
100
AcDb2dPolyline
 66
     1
 10
0.0
 20
0.0
 30
0.0
 75
     5
  0
VERTEX
  5
255
330
254
100
AcDbEntity
  8
0
  6
Continuous
 62
     7
370
    15
100
AcDbVertex
100
AcDb2dVertex
 10
-22.36365217912538
 20
257.5669180763387
 30
0.0
  0
VERTEX
  5
256
330
254
100
AcDbEntity
  8
0
  6
Continuous
 62
     7
370
    15
100
AcDbVertex
100
AcDb2dVertex
 10
-22.01231053252531
 20
257.6992789725387
 30
0.0
  0
VERTEX
  5
257
330
254
100
AcDbEntity
  8
0
  6
Continuous
 62
     7
370
    15
100
AcDbVertex
100
AcDb2dVertex
 10
-20.72339177832527
 20
258.4315091229387
 30
0.0
  0
VERTEX
  5
258
330
254
100
AcDbEntity
  8
0
  6
Continuous
 62
     7
370
    15
100
AcDbVertex
100
AcDb2dVertex
 10
-19.61020253132546
 20
259.4830807921387
 30
0.0
  0
VERTEX
  5
259
330
254
100
AcDbEntity
  8
0
  6
Continuous
 62
     7
370
    15
100
AcDbVertex
100
AcDb2dVertex
 10
-18.70852100912538
 20
260.8201890091386
 30
0.0
  0
VERTEX
  5
25A
330
254
100
AcDbEntity
  8
0
  6
Continuous
 62
     7
370
    15
100
AcDbVertex
100
AcDb2dVertex
 10
-18.04732849072542
 20
262.3998572547387
 30
0.0
  0
VERTEX
  5
25B
330
254
100
AcDbEntity
  8
0
  6
Continuous
 62
     7
370
    15
100
AcDbVertex
100
AcDb2dVertex
 10
-17.64787520392537
 20
264.1713025531387
 30
0.0
  0
VERTEX
  5
25C
330
254
100
AcDbEntity
  8
0
  6
Continuous
 62
     7
370
    15
100
AcDbVertex
100
AcDb2dVertex
 10
-17.52300115092538
 20
266.0776072417386
 30
0.0
  0
VERTEX
  5
25D
330
254
100
AcDbEntity
  8
0
  6
Continuous
 62
     7
370
    15
100
AcDbVertex
100
AcDb2dVertex
 10
-17.67671965892526
 20
268.0574943279387
 30
0.0
  0
VERTEX
  5
25E
330
254
100
AcDbEntity
  8
0
  6
Continuous
 62
     7
370
    15
100
AcDbVertex
100
AcDb2dVertex
 10
-18.10408962712535
 20
270.0473255337386
 30
0.0
  0
VERTEX
  5
25F
330
254
100
AcDbEntity
  8
0
  6
Continuous
 62
     7
370
    15
100
AcDbVertex
100
AcDb2dVertex
 10
-18.79137516632539
 20
271.9831450837387
 30
0.0
  0
VERTEX
  5
260
330
254
100
AcDbEntity
  8
0
  6
Continuous
 62
     7
370
    15
100
AcDbVertex
100
AcDb2dVertex
 10
-19.71648623452546
 20
273.8027394879387
 30
0.0
  0
VERTEX
  5
261
330
254
100
AcDbEntity
  8
0
  6
Continuous
 62
     7
370
    15
100
AcDbVertex
100
AcDb2dVertex
 10
-20.84968950012529
 20
275.4476260221386
 30
0.0
  0
VERTEX
  5
262
330
254
100
AcDbEntity
  8
0
  6
Continuous
 62
     7
370
    15
100
AcDbVertex
100
AcDb2dVertex
 10
-22.15456242192539
 20
276.8649282883387
 30
0.0
  0
VERTEX
  5
263
330
254
100
AcDbEntity
  8
0
  6
Continuous
 62
     7
370
    15
100
AcDbVertex
100
AcDb2dVertex
 10
-23.58916583552531
 20
278.0091048375386
 30
0.0
  0
VERTEX
  5
264
330
254
100
AcDbEntity
  8
0
  6
Continuous
 62
     7
370
    15
100
AcDbVertex
100
AcDb2dVertex
 10
-25.10738971952532
 20
278.8433719195386
 30
0.0
  0
VERTEX
  5
265
330
254
100
AcDbEntity
  8
0
  6
Continuous
 62
     7
370
    15
100
AcDbVertex
100
AcDb2dVertex
 10
-26.66043741992547
 20
279.3409182573387
 30
0.0
  0
SEQEND
  5
266
330
254
100
AcDbEntity
  8
0
  6
Continuous
 62
     7
370
    15
  0
LINE
  5
267
330
24
100
AcDbEntity
  8
0
  6
Continuous
 62
     7
370
    15
100
AcDbLine
 10
9.244715631274687
 20
382.1381277229386
 30
0.0
 11
33.19276402387464
 21
-501.4404302886613
 31
0.0
  0
LINE
  5
268
330
24
100
AcDbEntity
  8
0
  6
Continuous
 62
     7
370
    15
100
AcDbLine
 10
9.667843329474692
 20
382.1536890597388
 30
0.0
 11
33.61578336707458
 21
-501.4208711304615
 31
0.0
  0
LINE
  5
269
330
24
100
AcDbEntity
  8
0
  6
Continuous
 62
     7
370
    15
100
AcDbLine
 10
-43.22115013552542
 20
394.3027879593387
 30
0.0
 11
-19.2746311953253
 21
-489.2193399350613
 31
0.0
  0
LINE
  5
26A
330
24
100
AcDbEntity
  8
0
  6
Continuous
 62
     7
370
    15
100
AcDbLine
 10
55.06063597347458
 20
398.8198289619386
 30
0.0
 11
79.0064181646747
 21
-484.6751161036614
 31
0.0
  0
LINE
  5
26B
330
24
100
AcDbEntity
  8
0
  6
Continuous
 62
     7
370
    15
100
AcDbLine
 10
9.137145175074522
 20
-341.8286656078614
 30
0.0
 11
9.778727638874727
 21
-365.5002608462613
 31
0.0
  0
LINE
  5
26C
330
24
100
AcDbEntity
  8
0
  6
Continuous
 62
     7
370
    15
100
AcDbLine
 10
9.270321200674573
 20
-341.9723604770613
 30
0.0
 11
9.90575523787453
 21
-365.4171055822613
 31
0.0
  0
LINE
  5
26D
330
24
100
AcDbEntity
  8
0
  6
Continuous
 62
     7
370
    15
100
AcDbLine
 10
10.68170058167453
 20
-343.7218363090614
 30
0.0
 11
11.23963330007456
 21
-364.3071206962613
 31
0.0
  0
LINE
  5
26E
330
24
100
AcDbEntity
  8
0
  6
Continuous
 62
     7
370
    15
100
AcDbLine
 10
10.81617474567457
 20
-343.9134268182613
 30
0.0
 11
11.36536430247457
 21
-364.1761266754613
 31
0.0
  0
LINE
  5
26F
330
24
100
AcDbEntity
  8
0
  6
Continuous
 62
     7
370
    15
100
AcDbLine
 10
14.25349968587471
 20
-352.7908108372613
 30
0.0
 11
14.36209156947467
 21
-356.7973778204614
 31
0.0
  0
LINE
  5
270
330
24
100
AcDbEntity
  8
0
  6
Continuous
 62
     7
370
    15
100
AcDbLine
 10
14.3436610736747
 20
-353.5755310420614
 30
0.0
 11
14.41059073727462
 21
-356.0449437754613
 31
0.0
  0
ARC
  5
271
330
24
100
AcDbEntity
  8
0
  6
Continuous
 62
     7
370
    15
100
AcDbCircle
 10
-39.62411686772538
 20
401.4077392561387
 30
0.0
 40
2.133706717272084
100
AcDbArc
 50
173.6473414702008
 51
246.8443809552991
  0
ARC
  5
272
330
24
100
AcDbEntity
  8
0
  6
Continuous
 62
     7
370
    15
100
AcDbCircle
 10
9.138807207074535
 20
390.0495214803386
 30
0.0
 40
2.133706717271858
100
AcDbArc
 50
173.6473414702001
 51
246.8443809552967
  0
ARC
  5
273
330
24
100
AcDbEntity
  8
0
  6
Continuous
 62
     7
370
    15
100
AcDbCircle
 10
9.037238660074593
 20
390.1966349187387
 30
0.0
 40
2.22937742550562
100
AcDbArc
 50
296.1192865248973
 51
7.333486605301232
  0
ARC
  5
274
330
24
100
AcDbEntity
  8
0
  6
Continuous
 62
     7
370
    15
100
AcDbCircle
 10
51.2230584270747
 20
405.7600524955387
 30
0.0
 40
2.229377425505924
100
AcDbArc
 50
296.1192865249001
 51
7.33348660530021
  0
ARC
  5
275
330
24
100
AcDbEntity
  8
0
  6
Continuous
 62
     7
370
    15
100
AcDbCircle
 10
49.89467299907466
 20
469.7896922127386
 30
0.0
 40
1.291570921561769
100
AcDbArc
 50
77.31161683829862
 51
111.5528761922016
  0
ARC
  5
276
330
24
100
AcDbEntity
  8
0
  6
Continuous
 62
     7
370
    15
100
AcDbCircle
 10
1.131748924074657
 20
481.1479099885387
 30
0.0
 40
1.291570921485946
100
AcDbArc
 50
77.3116168373035
 51
111.5528761932062
  0
POLYLINE
  5
277
330
24
100
AcDbEntity
  8
0
  6
Continuous
 62
     7
370
    15
100
AcDb2dPolyline
 66
     1
 10
0.0
 20
0.0
 30
0.0
 75
     5
  0
VERTEX
  5
278
330
277
100
AcDbEntity
  8
0
  6
Continuous
 62
     7
370
    15
100
AcDbVertex
100
AcDb2dVertex
 10
-44.4498443699253
 20
463.8414519801386
 30
0.0
  0
VERTEX
  5
279
330
277
100
AcDbEntity
  8
0
  6
Continuous
 62
     7
370
    15
100
AcDbVertex
100
AcDb2dVertex
 10
-44.44213120972535
 20
463.7844286915388
 30
0.0
  0
VERTEX
  5
27A
330
277
100
AcDbEntity
  8
0
  6
Continuous
 62
     7
370
    15
100
AcDbVertex
100
AcDb2dVertex
 10
-44.34245652492535
 20
463.6143501983386
 30
0.0
  0
VERTEX
  5
27B
330
277
100
AcDbEntity
  8
0
  6
Continuous
 62
     7
370
    15
100
AcDbVertex
100
AcDb2dVertex
 10
-44.13166346852535
 20
463.4561215421386
 30
0.0
  0
VERTEX
  5
27C
330
277
100
AcDbEntity
  8
0
  6
Continuous
 62
     7
370
    15
100
AcDbVertex
100
AcDb2dVertex
 10
-43.81784918092529
 20
463.3158256505387
 30
0.0
  0
VERTEX
  5
27D
330
277
100
AcDbEntity
  8
0
  6
Continuous
 62
     7
370
    15
100
AcDbVertex
100
AcDb2dVertex
 10
-43.41307689892545
 20
463.1988518061387
 30
0.0
  0
SEQEND
  5
27E
330
277
100
AcDbEntity
  8
0
  6
Continuous
 62
     7
370
    15
  0
ARC
  5
27F
330
24
100
AcDbEntity
  8
0
  6
Continuous
 62
     7
370
    15
100
AcDbCircle
 10
-41.92968256872535
 20
465.1901473611388
 30
0.0
 40
1.645259419636294
100
AcDbArc
 50
75.88812531099657
 51
109.8858154262029
  0
POLYLINE
  5
280
330
24
100
AcDbEntity
  8
0
  6
Continuous
 62
     7
370
    15
100
AcDb2dPolyline
 66
     1
 10
0.0
 20
0.0
 30
0.0
 75
     5
  0
VERTEX
  5
281
330
280
100
AcDbEntity
  8
0
  6
Continuous
 62
     7
370
    15
100
AcDbVertex
100
AcDb2dVertex
 10
-42.78148941992544
 20
402.2864293395387
 30
0.0
  0
VERTEX
  5
282
330
280
100
AcDbEntity
  8
0
  6
Continuous
 62
     7
370
    15
100
AcDbVertex
100
AcDb2dVertex
 10
-42.77377625972525
 20
402.2294060509387
 30
0.0
  0
VERTEX
  5
283
330
280
100
AcDbEntity
  8
0
  6
Continuous
 62
     7
370
    15
100
AcDbVertex
100
AcDb2dVertex
 10
-42.67410157492526
 20
402.0593275577387
 30
0.0
  0
VERTEX
  5
284
330
280
100
AcDbEntity
  8
0
  6
Continuous
 62
     7
370
    15
100
AcDbVertex
100
AcDb2dVertex
 10
-42.46330851832539
 20
401.9010989015387
 30
0.0
  0
VERTEX
  5
285
330
280
100
AcDbEntity
  8
0
  6
Continuous
 62
     7
370
    15
100
AcDbVertex
100
AcDb2dVertex
 10
-42.14949423072534
 20
401.7608030099386
 30
0.0
  0
VERTEX
  5
286
330
280
100
AcDbEntity
  8
0
  6
Continuous
 62
     7
370
    15
100
AcDbVertex
100
AcDb2dVertex
 10
-41.74472194892536
 20
401.6438291655386
 30
0.0
  0
SEQEND
  5
287
330
280
100
AcDbEntity
  8
0
  6
Continuous
 62
     7
370
    15
  0
ARC
  5
288
330
24
100
AcDbEntity
  8
0
  6
Continuous
 62
     7
370
    15
100
AcDbCircle
 10
0.2561371980746685
 20
480.7535649377387
 30
0.0
 40
1.645259419639327
100
AcDbArc
 50
75.88812531099862
 51
109.8858154262002
  0
POLYLINE
  5
289
330
24
100
AcDbEntity
  8
0
  6
Continuous
 62
     7
370
    15
100
AcDb2dPolyline
 66
     1
 10
0.0
 20
0.0
 30
0.0
 75
     5
  0
VERTEX
  5
28A
330
289
100
AcDbEntity
  8
0
  6
Continuous
 62
     7
370
    15
100
AcDbVertex
100
AcDb2dVertex
 10
52.4967000042746
 20
468.2092124201386
 30
0.0
  0
VERTEX
  5
28B
330
289
100
AcDbEntity
  8
0
  6
Continuous
 62
     7
370
    15
100
AcDbVertex
100
AcDb2dVertex
 10
52.47371284707452
 20
468.0908423297387
 30
0.0
  0
VERTEX
  5
28C
330
289
100
AcDbEntity
  8
0
  6
Continuous
 62
     7
370
    15
100
AcDbVertex
100
AcDb2dVertex
 10
52.34407752687463
 20
467.9168732765386
 30
0.0
  0
VERTEX
  5
28D
330
289
100
AcDbEntity
  8
0
  6
Continuous
 62
     7
370
    15
100
AcDbVertex
100
AcDb2dVertex
 10
52.10505815067455
 20
467.7510159983387
 30
0.0
  0
VERTEX
  5
28E
330
289
100
AcDbEntity
  8
0
  6
Continuous
 62
     7
370
    15
100
AcDbVertex
100
AcDb2dVertex
 10
51.76584461767453
 20
467.5996424593386
 30
0.0
  0
SEQEND
  5
28F
330
289
100
AcDbEntity
  8
0
  6
Continuous
 62
     7
370
    15
  0
POLYLINE
  5
290
330
24
100
AcDbEntity
  8
0
  6
Continuous
 62
     7
370
    15
100
AcDb2dPolyline
 66
     1
 10
0.0
 20
0.0
 30
0.0
 75
     5
  0
VERTEX
  5
291
330
290
100
AcDbEntity
  8
0
  6
Continuous
 62
     7
370
    15
100
AcDbVertex
100
AcDb2dVertex
 10
53.43419956767463
 20
406.0446198187387
 30
0.0
  0
VERTEX
  5
292
330
290
100
AcDbEntity
  8
0
  6
Continuous
 62
     7
370
    15
100
AcDbVertex
100
AcDb2dVertex
 10
53.77341310087473
 20
406.1959933577386
 30
0.0
  0
VERTEX
  5
293
330
290
100
AcDbEntity
  8
0
  6
Continuous
 62
     7
370
    15
100
AcDbVertex
100
AcDb2dVertex
 10
54.01243247687472
 20
406.3618506359387
 30
0.0
  0
VERTEX
  5
294
330
290
100
AcDbEntity
  8
0
  6
Continuous
 62
     7
370
    15
100
AcDbVertex
100
AcDb2dVertex
 10
54.14206779707462
 20
406.5358196891386
 30
0.0
  0
VERTEX
  5
295
330
290
100
AcDbEntity
  8
0
  6
Continuous
 62
     7
370
    15
100
AcDbVertex
100
AcDb2dVertex
 10
54.16505495427469
 20
406.6541897797388
 30
0.0
  0
SEQEND
  5
296
330
290
100
AcDbEntity
  8
0
  6
Continuous
 62
     7
370
    15
  0
LINE
  5
297
330
24
100
AcDbEntity
  8
0
  6
Continuous
 62
     7
370
    15
100
AcDbLine
 10
54.76654908447455
 20
402.0579947705387
 30
0.0
 11
50.37088368227461
 21
403.0818653823387
 31
0.0
  0
LINE
  5
298
330
24
100
AcDbEntity
  8
0
  6
Continuous
 62
     7
370
    15
100
AcDbLine
 10
-38.93898512112531
 20
399.0909030725386
 30
0.0
 11
-43.1708518859254
 21
397.5296602199387
 31
0.0
  0
POLYLINE
  5
299
330
24
100
AcDbEntity
  8
0
  6
Continuous
 62
     7
370
    15
100
AcDb2dPolyline
 66
     1
 10
0.0
 20
0.0
 30
0.0
 75
     5
  0
VERTEX
  5
29A
330
299
100
AcDbEntity
  8
0
  6
Continuous
 62
     7
370
    15
100
AcDbVertex
100
AcDb2dVertex
 10
-43.43858797032539
 20
396.7497391181387
 30
0.0
  0
VERTEX
  5
29B
330
299
100
AcDbEntity
  8
0
  6
Continuous
 62
     7
370
    15
100
AcDbVertex
100
AcDb2dVertex
 10
-43.5676038319254
 20
396.7870228009388
 30
0.0
  0
VERTEX
  5
29C
330
299
100
AcDbEntity
  8
0
  6
Continuous
 62
     7
370
    15
100
AcDbVertex
100
AcDb2dVertex
 10
-43.66762782672544
 20
396.8317410577388
 30
0.0
  0
VERTEX
  5
29D
330
299
100
AcDbEntity
  8
0
  6
Continuous
 62
     7
370
    15
100
AcDbVertex
100
AcDb2dVertex
 10
-43.73481334692536
 20
396.8821737825388
 30
0.0
  0
VERTEX
  5
29E
330
299
100
AcDbEntity
  8
0
  6
Continuous
 62
     7
370
    15
100
AcDbVertex
100
AcDb2dVertex
 10
-43.7665861997254
 20
396.9363840047386
 30
0.0
  0
VERTEX
  5
29F
330
299
100
AcDbEntity
  8
0
  6
Continuous
 62
     7
370
    15
100
AcDbVertex
100
AcDb2dVertex
 10
-43.76852962932543
 20
396.9472526335387
 30
0.0
  0
SEQEND
  5
2A0
330
299
100
AcDbEntity
  8
0
  6
Continuous
 62
     7
370
    15
  0
ARC
  5
2A1
330
24
100
AcDbEntity
  8
0
  6
Continuous
 62
     7
370
    15
100
AcDbCircle
 10
-43.2377004223253
 20
397.2636176679387
 30
0.0
 40
0.2743125338432229
100
AcDbArc
 50
75.89528678310842
 51
109.8794688417942
  0
ARC
  5
2A2
330
24
100
AcDbEntity
  8
0
  6
Continuous
 62
     7
370
    15
100
AcDbCircle
 10
54.84556071427465
 20
401.8586048079387
 30
0.0
 40
0.2144742287897415
100
AcDbArc
 50
77.24647022749663
 51
111.6167806041083
  0
POLYLINE
  5
2A3
330
24
100
AcDbEntity
  8
0
  6
Continuous
 62
     7
370
    15
100
AcDb2dPolyline
 66
     1
 10
0.0
 20
0.0
 30
0.0
 75
     5
  0
VERTEX
  5
2A4
330
2A3
100
AcDbEntity
  8
0
  6
Continuous
 62
     7
370
    15
100
AcDbVertex
100
AcDb2dVertex
 10
55.43662834307457
 20
401.5065063721386
 30
0.0
  0
VERTEX
  5
2A5
330
2A3
100
AcDbEntity
  8
0
  6
Continuous
 62
     7
370
    15
100
AcDbVertex
100
AcDb2dVertex
 10
55.42935475027463
 20
401.4672304017386
 30
0.0
  0
VERTEX
  5
2A6
330
2A3
100
AcDbEntity
  8
0
  6
Continuous
 62
     7
370
    15
100
AcDbVertex
100
AcDb2dVertex
 10
55.38803686727471
 20
401.4117808015387
 30
0.0
  0
VERTEX
  5
2A7
330
2A3
100
AcDbEntity
  8
0
  6
Continuous
 62
     7
370
    15
100
AcDbVertex
100
AcDb2dVertex
 10
55.3118531424746
 20
401.3589152233387
 30
0.0
  0
VERTEX
  5
2A8
330
2A3
100
AcDbEntity
  8
0
  6
Continuous
 62
     7
370
    15
100
AcDbVertex
100
AcDb2dVertex
 10
55.20373317767468
 20
401.3106670841387
 30
0.0
  0
SEQEND
  5
2A9
330
2A3
100
AcDbEntity
  8
0
  6
Continuous
 62
     7
370
    15
  0
ENDBLK
  5
2AA
330
24
100
AcDbEntity
  8
一般
100
AcDbBlockEnd
  0
ENDSEC
  0
SECTION
  2
ENTITIES
  0
MTEXT
  5
2AB
330
A
100
AcDbEntity
  8
0
 62
     7
100
AcDbMText
 10
247.5408331160579
 20
79.43610640634225
 30
0.0
 40
3.031684027777777
 41
0.0
 46
3.083222656249999
 71
     1
 72
     1
  1
{HBC-D90P/B/E}
  7
Arial
 73
     1
 44
0.9673603504928806
  0
INSERT
  5
2AC
330
A
100
AcDbEntity
  8
一般
 62
     7
100
AcDbBlockReference
  2
*U0
 10
212.600331255712
 20
148.8886616838677
 30
0.0
 41
0.2
 42
0.2
 43
0.2
 50
358.4659858017758
  0
ENDSEC
  0
SECTION
  2
OBJECTS
  0
DICTIONARY
  5
19
330
0
100
AcDbDictionary
281
     1
  3
ACAD_DETAILVIEWSTYLE
350
2F6
  3
ACAD_GROUP
350
1A
  3
ACAD_LAYOUT
350
1E
  3
ACAD_MATERIAL
350
2E8
  3
ACAD_MLEADERSTYLE
350
2EE
  3
ACAD_MLINESTYLE
350
1B
  3
ACAD_PLOTSETTINGS
350
22
  3
ACAD_PLOTSTYLENAME
350
1F
  3
ACAD_SCALELIST
350
2AD
  3
ACAD_SECTIONVIEWSTYLE
350
2F7
  3
ACAD_TABLESTYLE
350
2EC
  3
ACAD_VISUALSTYLE
350
2CF
  3
ACAD_WIPEOUT_VARS
350
23
  3
ACDB_RECOMPOSE_DATA
350
30C
  3
AcDbVariableDictionary
350
2F1
  3
APPDATA
350
2F0
  0
SUN
  5
2F8
330
15
100
AcDbSun
 90
        1
290
     0
 63
     7
421
 16777215
 40
1.0
291
     1
 91
  2455826
 92
 54000000
292
     0
 70
     2
 71
   256
280
     1
  0
DICTIONARY
  5
2F6
102
{ACAD_REACTORS
330
19
102
}
330
19
100
AcDbDictionary
281
     1
  0
DICTIONARY
  5
1A
102
{ACAD_REACTORS
330
19
102
}
330
19
100
AcDbDictionary
281
     1
  0
DICTIONARY
  5
1E
102
{ACAD_REACTORS
330
19
102
}
330
19
100
AcDbDictionary
281
     1
  3
Layout1
350
21
  3
Model
350
20
  0
DICTIONARY
  5
2E8
102
{ACAD_REACTORS
330
19
102
}
330
19
100
AcDbDictionary
281
     1
  3
ByBlock
350
2EA
  3
ByLayer
350
2E9
  3
Global
350
2EB
  0
DICTIONARY
  5
2EE
102
{ACAD_REACTORS
330
19
102
}
330
19
100
AcDbDictionary
281
     1
  3
Standard
350
2EF
  0
DICTIONARY
  5
1B
102
{ACAD_REACTORS
330
19
102
}
330
19
100
AcDbDictionary
281
     1
  3
Standard
350
1C
  0
DICTIONARY
  5
22
102
{ACAD_REACTORS
330
19
102
}
330
19
100
AcDbDictionary
281
     1
  0
ACDBDICTIONARYWDFLT
  5
1F
102
{ACAD_REACTORS
330
19
102
}
330
19
100
AcDbDictionary
281
     1
  3
Normal
350
1D
100
AcDbDictionaryWithDefault
340
1D
  0
DICTIONARY
  5
2AD
102
{ACAD_REACTORS
330
19
102
}
330
19
100
AcDbDictionary
281
     1
  3
A0
350
2AE
  3
A1
350
2AF
  3
A2
350
2B0
  3
A3
350
2B1
  3
A4
350
2B2
  3
A5
350
2B3
  3
A6
350
2B4
  3
A7
350
2B5
  3
A8
350
2B6
  3
A9
350
2B7
  3
B0
350
2B8
  3
B1
350
2B9
  3
B2
350
2BA
  3
B3
350
2BB
  3
B4
350
2BC
  3
B5
350
2BD
  3
B6
350
2BE
  3
B7
350
2BF
  3
B8
350
2C0
  3
B9
350
2C1
  3
C0
350
2C2
  3
C1
350
2C3
  3
C2
350
2C4
  3
C3
350
2C5
  3
C4
350
2C6
  3
C5
350
2C7
  3
C6
350
2C8
  3
C7
350
2C9
  3
C8
350
2CA
  3
C9
350
2CB
  3
D0
350
2CC
  3
D1
350
2CD
  3
D2
350
2CE
  0
DICTIONARY
  5
2F7
102
{ACAD_REACTORS
330
19
102
}
330
19
100
AcDbDictionary
281
     1
  0
DICTIONARY
  5
2EC
102
{ACAD_REACTORS
330
19
102
}
330
19
100
AcDbDictionary
281
     1
  3
Standard
350
2ED
  0
DICTIONARY
  5
2CF
102
{ACAD_REACTORS
330
19
102
}
330
19
100
AcDbDictionary
281
     1
  3
2dWireframe
350
2D4
  3
Basic
350
2D7
  3
Brighten
350
2DB
  3
ColorChange
350
2DF
  3
Conceptual
350
2D9
  3
Dim
350
2DA
  3
EdgeColorOff
350
2E2
  3
Facepattern
350
2DE
  3
Flat
350
2D0
  3
FlatWithEdges
350
2D1
  3
Gouraud
350
2D2
  3
GouraudWithEdges
350
2D3
  3
Hidden
350
2D6
  3
JitterOff
350
2E0
  3
Linepattern
350
2DD
  3
OverhangOff
350
2E1
  3
Realistic
350
2D8
  3
Shaded
350
2E7
  3
Shaded with edges
350
2E6
  3
Shades of Gray
350
2E3
  3
Sketchy
350
2E4
  3
Thicken
350
2DC
  3
Wireframe
350
2D5
  3
X-Ray
350
2E5
  0
WIPEOUTVARIABLES
  5
23
330
19
100
AcDbWipeoutVariables
 70
     1
  0
XRECORD
  5
30C
102
{ACAD_REACTORS
330
19
102
}
330
19
100
AcDbXrecord
280
     1
 90
        1
330
2ED
  0
DICTIONARY
  5
2F1
102
{ACAD_REACTORS
330
19
102
}
330
19
100
AcDbDictionary
281
     1
  3
CANNOSCALE
350
2F2
  3
CMLEADERSTYLE
350
2F4
  3
CTABLESTYLE
350
2F3
  3
MSLTSCALE
350
2F5
  0
DICTIONARY
  5
2F0
102
{ACAD_REACTORS
330
19
102
}
330
19
100
AcDbDictionary
281
     1
  0
LAYOUT
  5
21
102
{ACAD_REACTORS
330
1E
102
}
330
1E
100
AcDbPlotSettings
  1

  2

  4

  6

 40
0.0
 41
0.0
 42
0.0
 43
0.0
 44
0.0
 45
0.0
 46
0.0
 47
0.0
 48
0.0
 49
0.0
140
0.0
141
0.0
142
1.0
143
1.0
 70
     0
 72
     0
 73
     0
 74
     0
  7

 75
     0
 76
     0
 77
     2
 78
   300
147
1.0
148
0.0
149
0.0
100
AcDbLayout
  1
Layout1
 70
     0
 71
     0
 10
0.0
 20
0.0
 11
0.0
 21
0.0
 12
0.0
 22
0.0
 32
0.0
 14
0.0
 24
0.0
 34
0.0
 15
0.0
 25
0.0
 35
0.0
146
0.0
 13
0.0
 23
0.0
 33
0.0
 16
0.0
 26
0.0
 36
0.0
 17
0.0
 27
0.0
 37
0.0
 76
     0
330
B
  0
LAYOUT
  5
20
102
{ACAD_REACTORS
330
1E
102
}
330
1E
100
AcDbPlotSettings
  1

  2

  4

  6

 40
0.0
 41
0.0
 42
0.0
 43
0.0
 44
0.0
 45
0.0
 46
0.0
 47
0.0
 48
0.0
 49
0.0
140
0.0
141
0.0
142
1.0
143
1.0
 70
  1024
 72
     0
 73
     0
 74
     0
  7

 75
     0
 76
     0
 77
     2
 78
   300
147
1.0
148
0.0
149
0.0
100
AcDbLayout
  1
Model
 70
     0
 71
     1
 10
0.0
 20
0.0
 11
0.0
 21
0.0
 12
0.0
 22
0.0
 32
0.0
 14
201.0284794431527
 24
48.20951660926426
 34
0.0
 15
275.8992055118912
 25
245.5893020855125
 35
0.0
146
0.0
 13
0.0
 23
0.0
 33
0.0
 16
0.0
 26
0.0
 36
0.0
 17
0.0
 27
0.0
 37
0.0
 76
     0
330
A
331
15
  0
MATERIAL
  5
2EA
102
{ACAD_REACTORS
330
2E8
102
}
330
2E8
100
AcDbMaterial
  1
ByBlock
 72
     1
 94
      127
  0
MATERIAL
  5
2E9
102
{ACAD_REACTORS
330
2E8
102
}
330
2E8
100
AcDbMaterial
  1
ByLayer
 72
     1
 94
      127
  0
MATERIAL
  5
2EB
102
{ACAD_REACTORS
330
2E8
102
}
330
2E8
100
AcDbMaterial
  1
Global
 72
     1
 94
      127
  0
MLEADERSTYLE
  5
2EF
102
{ACAD_REACTORS
330
2EE
102
}
330
2EE
100
AcDbMLeaderStyle
179
     2
170
     2
171
     1
172
     0
 90
        2
 40
0.0
 41
0.0
173
     1
 91
-1056964608
340
11
 92
       -2
290
     1
 42
2.0
291
     1
 43
8.0
  3
Standard
341
0
 44
4.0
300

342
17
174
     1
178
     1
175
     1
176
     0
 93
-1056964608
 45
4.0
292
     0
297
     0
 46
4.0
343
0
 94
-1056964608
 47
1.0
 49
1.0
140
1.0
293
     1
141
0.0
294
     1
177
     0
142
1.0
295
     0
296
     0
143
3.75
271
     0
272
     9
273
     9
298
     0
  0
MLINESTYLE
  5
1C
102
{ACAD_REACTORS
330
1B
102
}
330
1B
100
AcDbMlineStyle
  2
Standard
 70
     0
  3

 62
     0
 51
90.0
 52
90.0
 71
     2
 49
0.5
 62
   256
  6
BYLAYER
 49
-0.5
 62
   256
  6
BYLAYER
  0
ACDBPLACEHOLDER
  5
1D
102
{ACAD_REACTORS
330
1F
102
}
330
1F
  0
SCALE
  5
2AE
102
{ACAD_REACTORS
330
2AD
102
}
330
2AD
100
AcDbScale
 70
     0
300
1:1
140
1.0
141
1.0
290
     1
  0
SCALE
  5
2AF
102
{ACAD_REACTORS
330
2AD
102
}
330
2AD
100
AcDbScale
 70
     0
300
1:2
140
1.0
141
2.0
290
     0
  0
SCALE
  5
2B0
102
{ACAD_REACTORS
330
2AD
102
}
330
2AD
100
AcDbScale
 70
     0
300
1:4
140
1.0
141
4.0
290
     0
  0
SCALE
  5
2B1
102
{ACAD_REACTORS
330
2AD
102
}
330
2AD
100
AcDbScale
 70
     0
300
1:5
140
1.0
141
5.0
290
     0
  0
SCALE
  5
2B2
102
{ACAD_REACTORS
330
2AD
102
}
330
2AD
100
AcDbScale
 70
     0
300
1:8
140
1.0
141
8.0
290
     0
  0
SCALE
  5
2B3
102
{ACAD_REACTORS
330
2AD
102
}
330
2AD
100
AcDbScale
 70
     0
300
1:10
140
1.0
141
10.0
290
     0
  0
SCALE
  5
2B4
102
{ACAD_REACTORS
330
2AD
102
}
330
2AD
100
AcDbScale
 70
     0
300
1:16
140
1.0
141
16.0
290
     0
  0
SCALE
  5
2B5
102
{ACAD_REACTORS
330
2AD
102
}
330
2AD
100
AcDbScale
 70
     0
300
1:20
140
1.0
141
20.0
290
     0
  0
SCALE
  5
2B6
102
{ACAD_REACTORS
330
2AD
102
}
330
2AD
100
AcDbScale
 70
     0
300
1:30
140
1.0
141
30.0
290
     0
  0
SCALE
  5
2B7
102
{ACAD_REACTORS
330
2AD
102
}
330
2AD
100
AcDbScale
 70
     0
300
1:40
140
1.0
141
40.0
290
     0
  0
SCALE
  5
2B8
102
{ACAD_REACTORS
330
2AD
102
}
330
2AD
100
AcDbScale
 70
     0
300
1:50
140
1.0
141
50.0
290
     0
  0
SCALE
  5
2B9
102
{ACAD_REACTORS
330
2AD
102
}
330
2AD
100
AcDbScale
 70
     0
300
1:100
140
1.0
141
100.0
290
     0
  0
SCALE
  5
2BA
102
{ACAD_REACTORS
330
2AD
102
}
330
2AD
100
AcDbScale
 70
     0
300
2:1
140
2.0
141
1.0
290
     0
  0
SCALE
  5
2BB
102
{ACAD_REACTORS
330
2AD
102
}
330
2AD
100
AcDbScale
 70
     0
300
4:1
140
4.0
141
1.0
290
     0
  0
SCALE
  5
2BC
102
{ACAD_REACTORS
330
2AD
102
}
330
2AD
100
AcDbScale
 70
     0
300
8:1
140
8.0
141
1.0
290
     0
  0
SCALE
  5
2BD
102
{ACAD_REACTORS
330
2AD
102
}
330
2AD
100
AcDbScale
 70
     0
300
10:1
140
10.0
141
1.0
290
     0
  0
SCALE
  5
2BE
102
{ACAD_REACTORS
330
2AD
102
}
330
2AD
100
AcDbScale
 70
     0
300
100:1
140
100.0
141
1.0
290
     0
  0
SCALE
  5
2BF
102
{ACAD_REACTORS
330
2AD
102
}
330
2AD
100
AcDbScale
 70
     0
300
1/128" = 1'-0"
140
0.0078125
141
12.0
290
     0
  0
SCALE
  5
2C0
102
{ACAD_REACTORS
330
2AD
102
}
330
2AD
100
AcDbScale
 70
     0
300
1/64" = 1'-0"
140
0.015625
141
12.0
290
     0
  0
SCALE
  5
2C1
102
{ACAD_REACTORS
330
2AD
102
}
330
2AD
100
AcDbScale
 70
     0
300
1/32" = 1'-0"
140
0.03125
141
12.0
290
     0
  0
SCALE
  5
2C2
102
{ACAD_REACTORS
330
2AD
102
}
330
2AD
100
AcDbScale
 70
     0
300
1/16" = 1'-0"
140
0.0625
141
12.0
290
     0
  0
SCALE
  5
2C3
102
{ACAD_REACTORS
330
2AD
102
}
330
2AD
100
AcDbScale
 70
     0
300
3/32" = 1'-0"
140
0.09375
141
12.0
290
     0
  0
SCALE
  5
2C4
102
{ACAD_REACTORS
330
2AD
102
}
330
2AD
100
AcDbScale
 70
     0
300
1/8" = 1'-0"
140
0.125
141
12.0
290
     0
  0
SCALE
  5
2C5
102
{ACAD_REACTORS
330
2AD
102
}
330
2AD
100
AcDbScale
 70
     0
300
3/16" = 1'-0"
140
0.1875
141
12.0
290
     0
  0
SCALE
  5
2C6
102
{ACAD_REACTORS
330
2AD
102
}
330
2AD
100
AcDbScale
 70
     0
300
1/4" = 1'-0"
140
0.25
141
12.0
290
     0
  0
SCALE
  5
2C7
102
{ACAD_REACTORS
330
2AD
102
}
330
2AD
100
AcDbScale
 70
     0
300
3/8" = 1'-0"
140
0.375
141
12.0
290
     0
  0
SCALE
  5
2C8
102
{ACAD_REACTORS
330
2AD
102
}
330
2AD
100
AcDbScale
 70
     0
300
1/2" = 1'-0"
140
0.5
141
12.0
290
     0
  0
SCALE
  5
2C9
102
{ACAD_REACTORS
330
2AD
102
}
330
2AD
100
AcDbScale
 70
     0
300
3/4" = 1'-0"
140
0.75
141
12.0
290
     0
  0
SCALE
  5
2CA
102
{ACAD_REACTORS
330
2AD
102
}
330
2AD
100
AcDbScale
 70
     0
300
1" = 1'-0"
140
1.0
141
12.0
290
     0
  0
SCALE
  5
2CB
102
{ACAD_REACTORS
330
2AD
102
}
330
2AD
100
AcDbScale
 70
     0
300
1-1/2" = 1'-0"
140
1.5
141
12.0
290
     0
  0
SCALE
  5
2CC
102
{ACAD_REACTORS
330
2AD
102
}
330
2AD
100
AcDbScale
 70
     0
300
3" = 1'-0"
140
3.0
141
12.0
290
     0
  0
SCALE
  5
2CD
102
{ACAD_REACTORS
330
2AD
102
}
330
2AD
100
AcDbScale
 70
     0
300
6" = 1'-0"
140
6.0
141
12.0
290
     0
  0
SCALE
  5
2CE
102
{ACAD_REACTORS
330
2AD
102
}
330
2AD
100
AcDbScale
 70
     0
300
1'-0" = 1'-0"
140
12.0
141
12.0
290
     0
  0
TABLESTYLE
  5
2ED
102
{ACAD_REACTORS
330
2EC
102
}
102
{ACAD_XDICTIONARY
360
30A
102
}
330
2EC
100
AcDbTableStyle
  3
Standard
 70
     0
 71
     0
 40
1.5
 41
1.5
280
     0
281
     0
  7
Standard
140
4.5
170
     2
 62
     0
 63
   257
283
     0
 90
        4
 91
        0
  1

274
    -2
284
     1
 64
     0
275
    -2
285
     1
 65
     0
276
    -2
286
     1
 66
     0
277
    -2
287
     1
 67
     0
278
    -2
288
     1
 68
     0
279
    -2
289
     1
 69
     0
  7
Standard
140
6.0
170
     5
 62
     0
 63
   257
283
     0
 90
        4
 91
        0
  1

274
    -2
284
     1
 64
     0
275
    -2
285
     1
 65
     0
276
    -2
286
     1
 66
     0
277
    -2
287
     1
 67
     0
278
    -2
288
     1
 68
     0
279
    -2
289
     1
 69
     0
  7
Standard
140
4.5
170
     5
 62
     0
 63
   257
283
     0
 90
        4
 91
        0
  1

274
    -2
284
     1
 64
     0
275
    -2
285
     1
 65
     0
276
    -2
286
     1
 66
     0
277
    -2
287
     1
 67
     0
278
    -2
288
     1
 68
     0
279
    -2
289
     1
 69
     0
  0
VISUALSTYLE
  5
2D4
102
{ACAD_REACTORS
330
2CF
102
}
330
2CF
100
AcDbVisualStyle
  2
2dWireframe
 70
     4
177
     3
291
     0
 70
    58
 90
        0
176
     1
 90
        2
176
     1
 90
        0
176
     1
 90
        0
176
     1
 40
0.6
176
     1
 40
30.0
176
     1
 62
     7
420
 16777215
176
     1
 90
        1
176
     1
 90
        4
176
     1
 62
     7
176
     1
 62
   257
176
     1
 90
        1
176
     1
 90
        1
176
     1
 40
1.0
176
     1
 90
        0
176
     1
 62
   257
176
     1
 40
1.0
176
     1
 90
        1
176
     1
 90
        6
176
     1
 90
        2
176
     1
 62
     7
176
     1
 90
        5
176
     1
 90
        0
176
     1
 90
        0
176
     1
290
     0
176
     1
 90
        1
176
     1
 40
0.0
176
     1
 90
        0
176
     1
290
     1
176
     1
290
     1
176
     1
290
     0
176
     1
290
     0
176
     1
290
     0
176
     1
290
     0
176
     1
290
     0
176
     1
290
     0
176
     1
290
     0
176
     1
 90
       50
176
     1
 40
0.0
176
     1
 40
1.0
176
     1
 90
        0
176
     1
 62
    18
420
        0
176
     1
 90
       50
176
     1
 90
        3
176
     1
 62
     5
420
      255
176
     1
290
     0
176
     1
 90
       50
176
     1
 90
       50
176
     1
 90
       50
176
     1
290
     0
176
     1
 90
       50
176
     1
 62
   256
176
     0
 40
1.0
176
     0
 90
        2
176
     1
  1
strokes_ogs.tif
176
     1
290
     0
176
     1
 40
1.0
176
     1
 40
1.0
176
     1
  0
VISUALSTYLE
  5
2D7
102
{ACAD_REACTORS
330
2CF
102
}
330
2CF
100
AcDbVisualStyle
  2
Basic
 70
     7
177
     3
291
     1
 70
    58
 90
        1
176
     1
 90
        0
176
     1
 90
        1
176
     1
 90
        0
176
     1
 40
0.6
176
     1
 40
30.0
176
     1
 62
     7
420
 16777215
176
     1
 90
        0
176
     1
 90
        4
176
     1
 62
     7
176
     1
 62
   257
176
     1
 90
        1
176
     1
 90
        1
176
     1
 40
1.0
176
     1
 90
        8
176
     1
 62
     7
176
     1
 40
1.0
176
     1
 90
        1
176
     1
 90
        6
176
     1
 90
        2
176
     1
 62
     7
176
     1
 90
        5
176
     1
 90
        0
176
     1
 90
        0
176
     1
290
     0
176
     1
 90
        1
176
     1
 40
0.0
176
     1
 90
        0
176
     1
290
     0
176
     1
290
     1
176
     1
290
     1
176
     1
290
     0
176
     1
290
     0
176
     1
290
     0
176
     1
290
     0
176
     1
290
     0
176
     1
290
     0
176
     1
 90
       50
176
     1
 40
0.0
176
     1
 40
1.0
176
     1
 90
        0
176
     1
 62
    18
420
        0
176
     1
 90
       50
176
     1
 90
        3
176
     1
 62
     5
420
      255
176
     1
290
     0
176
     1
 90
       50
176
     1
 90
       50
176
     1
 90
       50
176
     1
290
     0
176
     1
 90
       50
176
     1
 62
   256
176
     0
 40
1.0
176
     0
 90
        2
176
     1
  1
strokes_ogs.tif
176
     1
290
     0
176
     1
 40
1.0
176
     1
 40
1.0
176
     1
  0
VISUALSTYLE
  5
2DB
102
{ACAD_REACTORS
330
2CF
102
}
330
2CF
100
AcDbVisualStyle
  2
Brighten
 70
    12
177
     3
291
     1
 70
    58
 90
        2
176
     1
 90
        2
176
     1
 90
        0
176
     1
 90
        0
176
     1
 40
0.6
176
     1
 40
30.0
176
     1
 62
     7
420
 16777215
176
     1
 90
        1
176
     1
 90
        4
176
     1
 62
     7
176
     1
 62
   257
176
     1
 90
        1
176
     1
 90
        1
176
     1
 40
1.0
176
     1
 90
        8
176
     1
 62
     7
176
     1
 40
1.0
176
     1
 90
        1
176
     1
 90
        6
176
     1
 90
        2
176
     1
 62
     7
176
     1
 90
        5
176
     1
 90
        0
176
     1
 90
        0
176
     1
290
     0
176
     1
 90
        1
176
     1
 40
50.0
176
     1
 90
        0
176
     1
290
     0
176
     1
290
     1
176
     1
290
     1
176
     1
290
     0
176
     1
290
     0
176
     1
290
     0
176
     1
290
     0
176
     1
290
     0
176
     1
290
     0
176
     1
 90
       50
176
     1
 40
0.0
176
     1
 40
1.0
176
     1
 90
        0
176
     1
 62
    18
420
        0
176
     1
 90
       50
176
     1
 90
        3
176
     1
 62
     5
420
      255
176
     1
290
     0
176
     1
 90
       50
176
     1
 90
       50
176
     1
 90
       50
176
     1
290
     0
176
     1
 90
       50
176
     1
 62
   256
176
     0
 40
1.0
176
     0
 90
        2
176
     1
  1
strokes_ogs.tif
176
     1
290
     0
176
     1
 40
1.0
176
     1
 40
1.0
176
     1
  0
VISUALSTYLE
  5
2DF
102
{ACAD_REACTORS
330
2CF
102
}
330
2CF
100
AcDbVisualStyle
  2
ColorChange
 70
    16
177
     3
291
     1
 70
    58
 90
        2
176
     1
 90
        2
176
     1
 90
        3
176
     1
 90
        0
176
     1
 40
0.6
176
     1
 40
30.0
176
     1
 62
     8
420
  8421504
176
     1
 90
        1
176
     1
 90
        4
176
     1
 62
     7
176
     1
 62
   257
176
     1
 90
        1
176
     1
 90
        1
176
     1
 40
1.0
176
     1
 90
        8
176
     1
 62
     8
420
  8421504
176
     1
 40
1.0
176
     1
 90
        1
176
     1
 90
        6
176
     1
 90
        2
176
     1
 62
     7
176
     1
 90
        5
176
     1
 90
        0
176
     1
 90
        0
176
     1
290
     0
176
     1
 90
        1
176
     1
 40
0.0
176
     1
 90
        0
176
     1
290
     0
176
     1
290
     1
176
     1
290
     1
176
     1
290
     0
176
     1
290
     0
176
     1
290
     0
176
     1
290
     0
176
     1
290
     0
176
     1
290
     0
176
     1
 90
       50
176
     1
 40
0.0
176
     1
 40
1.0
176
     1
 90
        0
176
     1
 62
    18
420
        0
176
     1
 90
       50
176
     1
 90
        3
176
     1
 62
     5
420
      255
176
     1
290
     0
176
     1
 90
       50
176
     1
 90
       50
176
     1
 90
       50
176
     1
290
     0
176
     1
 90
       50
176
     1
 62
   256
176
     0
 40
1.0
176
     0
 90
        2
176
     1
  1
strokes_ogs.tif
176
     1
290
     0
176
     1
 40
1.0
176
     1
 40
1.0
176
     1
  0
VISUALSTYLE
  5
2D9
102
{ACAD_REACTORS
330
2CF
102
}
330
2CF
100
AcDbVisualStyle
  2
Conceptual
 70
     9
177
     3
291
     0
 70
    58
 90
        3
176
     1
 90
        2
176
     1
 90
        0
176
     1
 90
        0
176
     1
 40
0.6
176
     1
 40
30.0
176
     1
 62
     7
420
 16777215
176
     1
 90
        2
176
     1
 90
        2
176
     1
 62
     7
176
     1
 62
   257
176
     1
 90
        1
176
     1
 90
        1
176
     1
 40
179.0
176
     1
 90
        8
176
     1
 62
     7
176
     1
 40
1.0
176
     1
 90
        1
176
     1
 90
        6
176
     1
 90
        2
176
     1
 62
     7
176
     1
 90
        3
176
     1
 90
        0
176
     1
 90
        0
176
     1
290
     0
176
     1
 90
        1
176
     1
 40
0.0
176
     1
 90
        0
176
     1
290
     0
176
     1
290
     1
176
     1
290
     1
176
     1
290
     0
176
     1
290
     0
176
     1
290
     0
176
     1
290
     0
176
     1
290
     0
176
     1
290
     0
176
     1
 90
       50
176
     1
 40
0.0
176
     1
 40
1.0
176
     1
 90
        0
176
     1
 62
    18
420
        0
176
     1
 90
       50
176
     1
 90
        3
176
     1
 62
     5
420
      255
176
     1
290
     0
176
     1
 90
       50
176
     1
 90
       50
176
     1
 90
       50
176
     1
290
     0
176
     1
 90
       50
176
     1
 62
   256
176
     0
 40
1.0
176
     0
 90
        2
176
     1
  1
strokes_ogs.tif
176
     1
290
     0
176
     1
 40
1.0
176
     1
 40
1.0
176
     1
  0
VISUALSTYLE
  5
2DA
102
{ACAD_REACTORS
330
2CF
102
}
330
2CF
100
AcDbVisualStyle
  2
Dim
 70
    11
177
     3
291
     1
 70
    58
 90
        2
176
     1
 90
        2
176
     1
 90
        0
176
     1
 90
        0
176
     1
 40
0.6
176
     1
 40
30.0
176
     1
 62
     7
420
 16777215
176
     1
 90
        1
176
     1
 90
        4
176
     1
 62
     7
176
     1
 62
   257
176
     1
 90
        1
176
     1
 90
        1
176
     1
 40
1.0
176
     1
 90
        8
176
     1
 62
     7
176
     1
 40
1.0
176
     1
 90
        1
176
     1
 90
        6
176
     1
 90
        2
176
     1
 62
     7
176
     1
 90
        5
176
     1
 90
        0
176
     1
 90
        0
176
     1
290
     0
176
     1
 90
        1
176
     1
 40
-50.0
176
     1
 90
        0
176
     1
290
     0
176
     1
290
     1
176
     1
290
     1
176
     1
290
     0
176
     1
290
     0
176
     1
290
     0
176
     1
290
     0
176
     1
290
     0
176
     1
290
     0
176
     1
 90
       50
176
     1
 40
0.0
176
     1
 40
1.0
176
     1
 90
        0
176
     1
 62
    18
420
        0
176
     1
 90
       50
176
     1
 90
        3
176
     1
 62
     5
420
      255
176
     1
290
     0
176
     1
 90
       50
176
     1
 90
       50
176
     1
 90
       50
176
     1
290
     0
176
     1
 90
       50
176
     1
 62
   256
176
     0
 40
1.0
176
     0
 90
        2
176
     1
  1
strokes_ogs.tif
176
     1
290
     0
176
     1
 40
1.0
176
     1
 40
1.0
176
     1
  0
VISUALSTYLE
  5
2E2
102
{ACAD_REACTORS
330
2CF
102
}
330
2CF
100
AcDbVisualStyle
  2
EdgeColorOff
 70
    22
177
     3
291
     1
 70
    58
 90
        2
176
     0
 90
        2
176
     0
 90
        0
176
     0
 90
        0
176
     0
 40
0.6
176
     0
 40
30.0
176
     0
 62
     7
420
 16777215
176
     0
 90
        1
176
     0
 90
        4
176
     0
 62
     7
176
     0
 62
   257
176
     0
 90
        1
176
     0
 90
        1
176
     0
 40
1.0
176
     0
 90
        8
176
     2
 62
     7
176
     0
 40
1.0
176
     0
 90
        1
176
     0
 90
        6
176
     0
 90
        2
176
     0
 62
     7
176
     0
 90
        5
176
     0
 90
        0
176
     0
 90
        0
176
     0
290
     0
176
     0
 90
        1
176
     0
 40
0.0
176
     0
 90
        0
176
     0
290
     0
176
     0
290
     1
176
     0
290
     1
176
     0
290
     0
176
     0
290
     0
176
     0
290
     0
176
     0
290
     0
176
     0
290
     0
176
     0
290
     0
176
     0
 90
       50
176
     0
 40
0.0
176
     0
 40
1.0
176
     0
 90
        0
176
     0
 62
    18
420
        0
176
     0
 90
       50
176
     0
 90
        3
176
     0
 62
     5
420
      255
176
     0
290
     0
176
     0
 90
       50
176
     0
 90
       50
176
     0
 90
       50
176
     0
290
     0
176
     0
 90
       50
176
     0
 62
   256
176
     0
 40
1.0
176
     0
 90
        2
176
     0
  1
strokes_ogs.tif
176
     0
290
     0
176
     0
 40
1.0
176
     0
 40
1.0
176
     0
  0
VISUALSTYLE
  5
2DE
102
{ACAD_REACTORS
330
2CF
102
}
330
2CF
100
AcDbVisualStyle
  2
Facepattern
 70
    15
177
     3
291
     1
 70
    58
 90
        2
176
     1
 90
        2
176
     1
 90
        0
176
     1
 90
        0
176
     1
 40
0.6
176
     1
 40
30.0
176
     1
 62
     7
420
 16777215
176
     1
 90
        1
176
     1
 90
        4
176
     1
 62
     7
176
     1
 62
   257
176
     1
 90
        1
176
     1
 90
        1
176
     1
 40
1.0
176
     1
 90
        8
176
     1
 62
     7
176
     1
 40
1.0
176
     1
 90
        1
176
     1
 90
        6
176
     1
 90
        2
176
     1
 62
     7
176
     1
 90
        5
176
     1
 90
        0
176
     1
 90
        0
176
     1
290
     0
176
     1
 90
        1
176
     1
 40
0.0
176
     1
 90
        0
176
     1
290
     0
176
     1
290
     1
176
     1
290
     1
176
     1
290
     0
176
     1
290
     0
176
     1
290
     0
176
     1
290
     0
176
     1
290
     0
176
     1
290
     0
176
     1
 90
       50
176
     1
 40
0.0
176
     1
 40
1.0
176
     1
 90
        0
176
     1
 62
    18
420
        0
176
     1
 90
       50
176
     1
 90
        3
176
     1
 62
     5
420
      255
176
     1
290
     0
176
     1
 90
       50
176
     1
 90
       50
176
     1
 90
       50
176
     1
290
     0
176
     1
 90
       50
176
     1
 62
   256
176
     0
 40
1.0
176
     0
 90
        2
176
     1
  1
strokes_ogs.tif
176
     1
290
     0
176
     1
 40
1.0
176
     1
 40
1.0
176
     1
  0
VISUALSTYLE
  5
2D0
102
{ACAD_REACTORS
330
2CF
102
}
330
2CF
100
AcDbVisualStyle
  2
Flat
 70
     0
177
     3
291
     1
 70
    58
 90
        2
176
     1
 90
        1
176
     1
 90
        1
176
     1
 90
        2
176
     1
 40
0.6
176
     1
 40
30.0
176
     1
 62
     7
420
 16777215
176
     1
 90
        0
176
     1
 90
        0
176
     1
 62
     7
176
     1
 62
   257
176
     1
 90
        1
176
     1
 90
        1
176
     1
 40
1.0
176
     1
 90
        8
176
     1
 62
     7
176
     1
 40
1.0
176
     1
 90
        1
176
     1
 90
        6
176
     1
 90
        2
176
     1
 62
     7
176
     1
 90
        5
176
     1
 90
        0
176
     1
 90
        0
176
     1
290
     0
176
     1
 90
       13
176
     1
 40
0.0
176
     1
 90
        0
176
     1
290
     0
176
     1
290
     1
176
     1
290
     1
176
     1
290
     0
176
     1
290
     0
176
     1
290
     0
176
     1
290
     0
176
     1
290
     0
176
     1
290
     0
176
     1
 90
       50
176
     1
 40
0.0
176
     1
 40
1.0
176
     1
 90
        0
176
     1
 62
    18
420
        0
176
     1
 90
       50
176
     1
 90
        3
176
     1
 62
     5
420
      255
176
     1
290
     0
176
     1
 90
       50
176
     1
 90
       50
176
     1
 90
       50
176
     1
290
     0
176
     1
 90
       50
176
     1
 62
   256
176
     0
 40
1.0
176
     0
 90
        2
176
     1
  1
strokes_ogs.tif
176
     1
290
     0
176
     1
 40
1.0
176
     1
 40
1.0
176
     1
  0
VISUALSTYLE
  5
2D1
102
{ACAD_REACTORS
330
2CF
102
}
330
2CF
100
AcDbVisualStyle
  2
FlatWithEdges
 70
     1
177
     3
291
     1
 70
    58
 90
        2
176
     1
 90
        1
176
     1
 90
        1
176
     1
 90
        2
176
     1
 40
0.6
176
     1
 40
30.0
176
     1
 62
     7
420
 16777215
176
     1
 90
        1
176
     1
 90
        0
176
     1
 62
     7
176
     1
 62
   257
176
     1
 90
        1
176
     1
 90
        1
176
     1
 40
1.0
176
     1
 90
        0
176
     1
 62
   257
176
     1
 40
1.0
176
     1
 90
        1
176
     1
 90
        6
176
     1
 90
        2
176
     1
 62
     7
176
     1
 90
        5
176
     1
 90
        0
176
     1
 90
        0
176
     1
290
     0
176
     1
 90
       13
176
     1
 40
0.0
176
     1
 90
        0
176
     1
290
     0
176
     1
290
     1
176
     1
290
     1
176
     1
290
     0
176
     1
290
     0
176
     1
290
     0
176
     1
290
     0
176
     1
290
     0
176
     1
290
     0
176
     1
 90
       50
176
     1
 40
0.0
176
     1
 40
1.0
176
     1
 90
        0
176
     1
 62
    18
420
        0
176
     1
 90
       50
176
     1
 90
        3
176
     1
 62
     5
420
      255
176
     1
290
     0
176
     1
 90
       50
176
     1
 90
       50
176
     1
 90
       50
176
     1
290
     0
176
     1
 90
       50
176
     1
 62
   256
176
     0
 40
1.0
176
     0
 90
        2
176
     1
  1
strokes_ogs.tif
176
     1
290
     0
176
     1
 40
1.0
176
     1
 40
1.0
176
     1
  0
VISUALSTYLE
  5
2D2
102
{ACAD_REACTORS
330
2CF
102
}
330
2CF
100
AcDbVisualStyle
  2
Gouraud
 70
     2
177
     3
291
     1
 70
    58
 90
        2
176
     1
 90
        2
176
     1
 90
        1
176
     1
 90
        2
176
     1
 40
0.6
176
     1
 40
30.0
176
     1
 62
     7
420
 16777215
176
     1
 90
        0
176
     1
 90
        0
176
     1
 62
     7
176
     1
 62
   257
176
     1
 90
        1
176
     1
 90
        1
176
     1
 40
1.0
176
     1
 90
        0
176
     1
 62
     7
176
     1
 40
1.0
176
     1
 90
        1
176
     1
 90
        6
176
     1
 90
        2
176
     1
 62
     7
176
     1
 90
        5
176
     1
 90
        0
176
     1
 90
        0
176
     1
290
     0
176
     1
 90
       13
176
     1
 40
0.0
176
     1
 90
        0
176
     1
290
     0
176
     1
290
     1
176
     1
290
     1
176
     1
290
     0
176
     1
290
     0
176
     1
290
     0
176
     1
290
     0
176
     1
290
     0
176
     1
290
     0
176
     1
 90
       50
176
     1
 40
0.0
176
     1
 40
1.0
176
     1
 90
        0
176
     1
 62
    18
420
        0
176
     1
 90
       50
176
     1
 90
        3
176
     1
 62
     5
420
      255
176
     1
290
     0
176
     1
 90
       50
176
     1
 90
       50
176
     1
 90
       50
176
     1
290
     0
176
     1
 90
       50
176
     1
 62
   256
176
     0
 40
1.0
176
     0
 90
        2
176
     1
  1
strokes_ogs.tif
176
     1
290
     0
176
     1
 40
1.0
176
     1
 40
1.0
176
     1
  0
VISUALSTYLE
  5
2D3
102
{ACAD_REACTORS
330
2CF
102
}
330
2CF
100
AcDbVisualStyle
  2
GouraudWithEdges
 70
     3
177
     3
291
     1
 70
    58
 90
        2
176
     1
 90
        2
176
     1
 90
        1
176
     1
 90
        2
176
     1
 40
0.6
176
     1
 40
30.0
176
     1
 62
     7
420
 16777215
176
     1
 90
        1
176
     1
 90
        0
176
     1
 62
     7
176
     1
 62
   257
176
     1
 90
        1
176
     1
 90
        1
176
     1
 40
1.0
176
     1
 90
        0
176
     1
 62
   257
176
     1
 40
1.0
176
     1
 90
        1
176
     1
 90
        6
176
     1
 90
        2
176
     1
 62
     7
176
     1
 90
        5
176
     1
 90
        0
176
     1
 90
        0
176
     1
290
     0
176
     1
 90
       13
176
     1
 40
0.0
176
     1
 90
        0
176
     1
290
     0
176
     1
290
     1
176
     1
290
     1
176
     1
290
     0
176
     1
290
     0
176
     1
290
     0
176
     1
290
     0
176
     1
290
     0
176
     1
290
     0
176
     1
 90
       50
176
     1
 40
0.0
176
     1
 40
1.0
176
     1
 90
        0
176
     1
 62
    18
420
        0
176
     1
 90
       50
176
     1
 90
        3
176
     1
 62
     5
420
      255
176
     1
290
     0
176
     1
 90
       50
176
     1
 90
       50
176
     1
 90
       50
176
     1
290
     0
176
     1
 90
       50
176
     1
 62
   256
176
     0
 40
1.0
176
     0
 90
        2
176
     1
  1
strokes_ogs.tif
176
     1
290
     0
176
     1
 40
1.0
176
     1
 40
1.0
176
     1
  0
VISUALSTYLE
  5
2D6
102
{ACAD_REACTORS
330
2CF
102
}
330
2CF
100
AcDbVisualStyle
  2
Hidden
 70
     6
177
     3
291
     0
 70
    58
 90
        1
176
     1
 90
        2
176
     1
 90
        2
176
     1
 90
        0
176
     1
 40
0.6
176
     1
 40
30.0
176
     1
 62
     7
420
 16777215
176
     1
 90
        2
176
     1
 90
        2
176
     1
 62
     7
176
     1
 62
   257
176
     1
 90
        2
176
     1
 90
        1
176
     1
 40
40.0
176
     1
 90
        0
176
     1
 62
   257
176
     1
 40
1.0
176
     1
 90
        1
176
     1
 90
        6
176
     1
 90
        2
176
     1
 62
     7
176
     1
 90
        3
176
     1
 90
        0
176
     1
 90
        0
176
     1
290
     0
176
     1
 90
        1
176
     1
 40
0.0
176
     1
 90
        0
176
     1
290
     0
176
     1
290
     1
176
     1
290
     1
176
     1
290
     0
176
     1
290
     0
176
     1
290
     0
176
     1
290
     0
176
     1
290
     0
176
     1
290
     0
176
     1
 90
       50
176
     1
 40
0.0
176
     1
 40
1.0
176
     1
 90
        0
176
     1
 62
    18
420
        0
176
     1
 90
       50
176
     1
 90
        3
176
     1
 62
     5
420
      255
176
     1
290
     0
176
     1
 90
       50
176
     1
 90
       50
176
     1
 90
       50
176
     1
290
     0
176
     1
 90
       50
176
     1
 62
   256
176
     0
 40
1.0
176
     0
 90
        2
176
     1
  1
strokes_ogs.tif
176
     1
290
     0
176
     1
 40
1.0
176
     1
 40
1.0
176
     1
  0
VISUALSTYLE
  5
2E0
102
{ACAD_REACTORS
330
2CF
102
}
330
2CF
100
AcDbVisualStyle
  2
JitterOff
 70
    20
177
     3
291
     1
 70
    58
 90
        2
176
     0
 90
        2
176
     0
 90
        0
176
     0
 90
        0
176
     0
 40
0.6
176
     0
 40
30.0
176
     0
 62
     7
420
 16777215
176
     0
 90
        1
176
     0
 90
        4
176
     0
 62
     7
176
     0
 62
   257
176
     0
 90
        1
176
     0
 90
        1
176
     0
 40
1.0
176
     0
 90
       10
176
     2
 62
     7
176
     0
 40
1.0
176
     0
 90
        1
176
     0
 90
        6
176
     0
 90
        2
176
     0
 62
     7
176
     0
 90
        5
176
     0
 90
        0
176
     0
 90
        0
176
     0
290
     0
176
     0
 90
        1
176
     0
 40
0.0
176
     0
 90
        0
176
     0
290
     0
176
     0
290
     1
176
     0
290
     1
176
     0
290
     0
176
     0
290
     0
176
     0
290
     0
176
     0
290
     0
176
     0
290
     0
176
     0
290
     0
176
     0
 90
       50
176
     0
 40
0.0
176
     0
 40
1.0
176
     0
 90
        0
176
     0
 62
    18
420
        0
176
     0
 90
       50
176
     0
 90
        3
176
     0
 62
     5
420
      255
176
     0
290
     0
176
     0
 90
       50
176
     0
 90
       50
176
     0
 90
       50
176
     0
290
     0
176
     0
 90
       50
176
     0
 62
   256
176
     0
 40
1.0
176
     0
 90
        2
176
     0
  1
strokes_ogs.tif
176
     0
290
     0
176
     0
 40
1.0
176
     0
 40
1.0
176
     0
  0
VISUALSTYLE
  5
2DD
102
{ACAD_REACTORS
330
2CF
102
}
330
2CF
100
AcDbVisualStyle
  2
Linepattern
 70
    14
177
     3
291
     1
 70
    58
 90
        2
176
     1
 90
        2
176
     1
 90
        0
176
     1
 90
        0
176
     1
 40
0.6
176
     1
 40
30.0
176
     1
 62
     7
420
 16777215
176
     1
 90
        1
176
     1
 90
        4
176
     1
 62
     7
176
     1
 62
   257
176
     1
 90
        7
176
     1
 90
        7
176
     1
 40
1.0
176
     1
 90
        8
176
     1
 62
     7
176
     1
 40
1.0
176
     1
 90
        1
176
     1
 90
        6
176
     1
 90
        2
176
     1
 62
     7
176
     1
 90
        5
176
     1
 90
        0
176
     1
 90
        0
176
     1
290
     0
176
     1
 90
        1
176
     1
 40
0.0
176
     1
 90
        0
176
     1
290
     0
176
     1
290
     1
176
     1
290
     1
176
     1
290
     0
176
     1
290
     0
176
     1
290
     0
176
     1
290
     0
176
     1
290
     0
176
     1
290
     0
176
     1
 90
       50
176
     1
 40
0.0
176
     1
 40
1.0
176
     1
 90
        0
176
     1
 62
    18
420
        0
176
     1
 90
       50
176
     1
 90
        3
176
     1
 62
     5
420
      255
176
     1
290
     0
176
     1
 90
       50
176
     1
 90
       50
176
     1
 90
       50
176
     1
290
     0
176
     1
 90
       50
176
     1
 62
   256
176
     0
 40
1.0
176
     0
 90
        2
176
     1
  1
strokes_ogs.tif
176
     1
290
     0
176
     1
 40
1.0
176
     1
 40
1.0
176
     1
  0
VISUALSTYLE
  5
2E1
102
{ACAD_REACTORS
330
2CF
102
}
330
2CF
100
AcDbVisualStyle
  2
OverhangOff
 70
    21
177
     3
291
     1
 70
    58
 90
        2
176
     0
 90
        2
176
     0
 90
        0
176
     0
 90
        0
176
     0
 40
0.6
176
     0
 40
30.0
176
     0
 62
     7
420
 16777215
176
     0
 90
        1
176
     0
 90
        4
176
     0
 62
     7
176
     0
 62
   257
176
     0
 90
        1
176
     0
 90
        1
176
     0
 40
1.0
176
     0
 90
        9
176
     2
 62
     7
176
     0
 40
1.0
176
     0
 90
        1
176
     0
 90
        6
176
     0
 90
        2
176
     0
 62
     7
176
     0
 90
        5
176
     0
 90
        0
176
     0
 90
        0
176
     0
290
     0
176
     0
 90
        1
176
     0
 40
0.0
176
     0
 90
        0
176
     0
290
     0
176
     0
290
     1
176
     0
290
     1
176
     0
290
     0
176
     0
290
     0
176
     0
290
     0
176
     0
290
     0
176
     0
290
     0
176
     0
290
     0
176
     0
 90
       50
176
     0
 40
0.0
176
     0
 40
1.0
176
     0
 90
        0
176
     0
 62
    18
420
        0
176
     0
 90
       50
176
     0
 90
        3
176
     0
 62
     5
420
      255
176
     0
290
     0
176
     0
 90
       50
176
     0
 90
       50
176
     0
 90
       50
176
     0
290
     0
176
     0
 90
       50
176
     0
 62
   256
176
     0
 40
1.0
176
     0
 90
        2
176
     0
  1
strokes_ogs.tif
176
     0
290
     0
176
     0
 40
1.0
176
     0
 40
1.0
176
     0
  0
VISUALSTYLE
  5
2D8
102
{ACAD_REACTORS
330
2CF
102
}
330
2CF
100
AcDbVisualStyle
  2
Realistic
 70
     8
177
     3
291
     0
 70
    58
 90
        2
176
     1
 90
        3
176
     1
 90
        0
176
     1
 90
        2
176
     1
 40
0.6
176
     1
 40
30.0
176
     1
 62
     7
420
 16777215
176
     1
 90
        0
176
     1
 90
        0
176
     1
 62
     7
176
     1
 62
   257
176
     1
 90
        1
176
     1
 90
        1
176
     1
 40
1.0
176
     1
 90
        8
176
     1
 62
   257
176
     1
 40
1.0
176
     1
 90
        1
176
     1
 90
        6
176
     1
 90
        2
176
     1
 62
     7
176
     1
 90
        3
176
     1
 90
        0
176
     1
 90
        0
176
     1
290
     0
176
     1
 90
       13
176
     1
 40
0.0
176
     1
 90
        0
176
     1
290
     0
176
     1
290
     1
176
     1
290
     1
176
     1
290
     0
176
     1
290
     0
176
     1
290
     0
176
     1
290
     0
176
     1
290
     0
176
     1
290
     0
176
     1
 90
       50
176
     1
 40
0.0
176
     1
 40
1.0
176
     1
 90
        0
176
     1
 62
    18
420
        0
176
     1
 90
       50
176
     1
 90
        3
176
     1
 62
     5
420
      255
176
     1
290
     0
176
     1
 90
       50
176
     1
 90
       50
176
     1
 90
       50
176
     1
290
     0
176
     1
 90
       50
176
     1
 62
   256
176
     0
 40
1.0
176
     0
 90
        2
176
     1
  1
strokes_ogs.tif
176
     1
290
     0
176
     1
 40
1.0
176
     1
 40
1.0
176
     1
  0
VISUALSTYLE
  5
2E7
102
{ACAD_REACTORS
330
2CF
102
}
330
2CF
100
AcDbVisualStyle
  2
Shaded
 70
    27
177
     3
291
     0
 70
    58
 90
        2
176
     1
 90
        2
176
     1
 90
        1
176
     1
 90
        2
176
     1
 40
0.6
176
     1
 40
30.0
176
     1
 62
     7
420
 16777215
176
     1
 90
        0
176
     1
 90
        4
176
     1
 62
     7
176
     1
 62
   257
176
     1
 90
        1
176
     1
 90
        1
176
     1
 40
1.0
176
     1
 90
        8
176
     1
 62
   257
176
     1
 40
1.0
176
     1
 90
        1
176
     1
 90
        6
176
     1
 90
        2
176
     1
 62
     8
420
  7895160
176
     1
 90
        3
176
     1
 90
        0
176
     1
 90
        0
176
     1
290
     0
176
     1
 90
        5
176
     1
 40
0.0
176
     1
 90
        0
176
     1
290
     0
176
     1
290
     1
176
     1
290
     1
176
     1
290
     0
176
     1
290
     0
176
     1
290
     0
176
     1
290
     0
176
     1
290
     0
176
     1
290
     0
176
     1
 90
       50
176
     1
 40
0.0
176
     1
 40
1.0
176
     1
 90
        0
176
     1
 62
    18
420
        0
176
     1
 90
       50
176
     1
 90
        3
176
     1
 62
     5
420
      255
176
     1
290
     0
176
     1
 90
       50
176
     1
 90
       50
176
     1
 90
       50
176
     1
290
     0
176
     1
 90
       50
176
     1
 62
   256
176
     0
 40
1.0
176
     0
 90
        2
176
     1
  1
strokes_ogs.tif
176
     1
290
     0
176
     1
 40
1.0
176
     1
 40
1.0
176
     1
  0
VISUALSTYLE
  5
2E6
102
{ACAD_REACTORS
330
2CF
102
}
330
2CF
100
AcDbVisualStyle
  2
Shaded with edges
 70
    26
177
     3
291
     0
 70
    58
 90
        2
176
     1
 90
        2
176
     1
 90
        1
176
     1
 90
        2
176
     1
 40
0.6
176
     1
 40
30.0
176
     1
 62
     7
420
 16777215
176
     1
 90
        1
176
     1
 90
       10
176
     1
 62
     7
176
     1
 62
   257
176
     1
 90
        2
176
     1
 90
        1
176
     1
 40
1.0
176
     1
 90
        8
176
     1
 62
   257
176
     1
 40
1.0
176
     1
 90
        1
176
     1
 90
        6
176
     1
 90
        2
176
     1
 62
     7
176
     1
 90
        3
176
     1
 90
        0
176
     1
 90
        0
176
     1
290
     0
176
     1
 90
        5
176
     1
 40
0.0
176
     1
 90
        0
176
     1
290
     0
176
     1
290
     1
176
     1
290
     1
176
     1
290
     0
176
     1
290
     0
176
     1
290
     0
176
     1
290
     0
176
     1
290
     0
176
     1
290
     0
176
     1
 90
       50
176
     1
 40
0.0
176
     1
 40
1.0
176
     1
 90
        0
176
     1
 62
    18
420
        0
176
     1
 90
       50
176
     1
 90
        3
176
     1
 62
     5
420
      255
176
     1
290
     0
176
     1
 90
       50
176
     1
 90
       50
176
     1
 90
       50
176
     1
290
     0
176
     1
 90
       50
176
     1
 62
   256
176
     0
 40
1.0
176
     0
 90
        2
176
     1
  1
strokes_ogs.tif
176
     1
290
     0
176
     1
 40
1.0
176
     1
 40
1.0
176
     1
  0
VISUALSTYLE
  5
2E3
102
{ACAD_REACTORS
330
2CF
102
}
330
2CF
100
AcDbVisualStyle
  2
Shades of Gray
 70
    23
177
     3
291
     0
 70
    58
 90
        2
176
     1
 90
        2
176
     1
 90
        3
176
     1
 90
        0
176
     1
 40
0.6
176
     1
 40
30.0
176
     1
 62
     7
420
 16777215
176
     1
 90
        2
176
     1
 90
        2
176
     1
 62
     7
176
     1
 62
     7
176
     1
 90
        1
176
     1
 90
        1
176
     1
 40
40.0
176
     1
 90
        8
176
     1
 62
     7
176
     1
 40
1.0
176
     1
 90
        1
176
     1
 90
        6
176
     1
 90
        2
176
     1
 62
     7
176
     1
 90
        3
176
     1
 90
        0
176
     1
 90
        0
176
     1
290
     0
176
     1
 90
        1
176
     1
 40
0.0
176
     1
 90
        0
176
     1
290
     0
176
     1
290
     1
176
     1
290
     1
176
     1
290
     0
176
     1
290
     0
176
     1
290
     0
176
     1
290
     0
176
     1
290
     0
176
     1
290
     0
176
     1
 90
       50
176
     1
 40
0.0
176
     1
 40
1.0
176
     1
 90
        0
176
     1
 62
    18
420
        0
176
     1
 90
       50
176
     1
 90
        3
176
     1
 62
     5
420
      255
176
     1
290
     0
176
     1
 90
       50
176
     1
 90
       50
176
     1
 90
       50
176
     1
290
     0
176
     1
 90
       50
176
     1
 62
   256
176
     0
 40
1.0
176
     0
 90
        2
176
     1
  1
strokes_ogs.tif
176
     1
290
     0
176
     1
 40
1.0
176
     1
 40
1.0
176
     1
  0
VISUALSTYLE
  5
2E4
102
{ACAD_REACTORS
330
2CF
102
}
330
2CF
100
AcDbVisualStyle
  2
Sketchy
 70
    24
177
     3
291
     0
 70
    58
 90
        1
176
     1
 90
        2
176
     1
 90
        2
176
     1
 90
        0
176
     1
 40
0.6
176
     1
 40
30.0
176
     1
 62
     7
420
 16777215
176
     1
 90
        2
176
     1
 90
        2
176
     1
 62
     7
176
     1
 62
     7
176
     1
 90
        1
176
     1
 90
        1
176
     1
 40
40.0
176
     1
 90
       11
176
     1
 62
     7
176
     1
 40
1.0
176
     1
 90
        1
176
     1
 90
        6
176
     1
 90
        2
176
     1
 62
     7
176
     1
 90
        6
176
     1
 90
        0
176
     1
 90
        0
176
     1
290
     0
176
     1
 90
        1
176
     1
 40
0.0
176
     1
 90
        0
176
     1
290
     0
176
     1
290
     1
176
     1
290
     1
176
     1
290
     0
176
     1
290
     0
176
     1
290
     0
176
     1
290
     0
176
     1
290
     0
176
     1
290
     0
176
     1
 90
       50
176
     1
 40
0.0
176
     1
 40
1.0
176
     1
 90
        0
176
     1
 62
    18
420
        0
176
     1
 90
       50
176
     1
 90
        3
176
     1
 62
     5
420
      255
176
     1
290
     0
176
     1
 90
       50
176
     1
 90
       50
176
     1
 90
       50
176
     1
290
     0
176
     1
 90
       50
176
     1
 62
   256
176
     0
 40
1.0
176
     0
 90
        2
176
     1
  1
strokes_ogs.tif
176
     1
290
     0
176
     1
 40
1.0
176
     1
 40
1.0
176
     1
  0
VISUALSTYLE
  5
2DC
102
{ACAD_REACTORS
330
2CF
102
}
330
2CF
100
AcDbVisualStyle
  2
Thicken
 70
    13
177
     3
291
     1
 70
    58
 90
        2
176
     1
 90
        2
176
     1
 90
        0
176
     1
 90
        0
176
     1
 40
0.6
176
     1
 40
30.0
176
     1
 62
     7
420
 16777215
176
     1
 90
        1
176
     1
 90
        4
176
     1
 62
     7
176
     1
 62
   257
176
     1
 90
        1
176
     1
 90
        1
176
     1
 40
1.0
176
     1
 90
       12
176
     1
 62
     7
176
     1
 40
1.0
176
     1
 90
        1
176
     1
 90
        6
176
     1
 90
        2
176
     1
 62
     7
176
     1
 90
        5
176
     1
 90
        0
176
     1
 90
        0
176
     1
290
     0
176
     1
 90
        1
176
     1
 40
0.0
176
     1
 90
        0
176
     1
290
     0
176
     1
290
     1
176
     1
290
     1
176
     1
290
     0
176
     1
290
     0
176
     1
290
     0
176
     1
290
     0
176
     1
290
     0
176
     1
290
     0
176
     1
 90
       50
176
     1
 40
0.0
176
     1
 40
1.0
176
     1
 90
        0
176
     1
 62
    18
420
        0
176
     1
 90
       50
176
     1
 90
        3
176
     1
 62
     5
420
      255
176
     1
290
     0
176
     1
 90
       50
176
     1
 90
       50
176
     1
 90
       50
176
     1
290
     0
176
     1
 90
       50
176
     1
 62
   256
176
     0
 40
1.0
176
     0
 90
        2
176
     1
  1
strokes_ogs.tif
176
     1
290
     0
176
     1
 40
1.0
176
     1
 40
1.0
176
     1
  0
VISUALSTYLE
  5
2D5
102
{ACAD_REACTORS
330
2CF
102
}
330
2CF
100
AcDbVisualStyle
  2
Wireframe
 70
     5
177
     3
291
     0
 70
    58
 90
        0
176
     1
 90
        2
176
     1
 90
        0
176
     1
 90
        0
176
     1
 40
0.6
176
     1
 40
30.0
176
     1
 62
     7
420
 16777215
176
     1
 90
        1
176
     1
 90
        4
176
     1
 62
     7
176
     1
 62
   257
176
     1
 90
        1
176
     1
 90
        1
176
     1
 40
1.0
176
     1
 90
        0
176
     1
 62
   257
176
     1
 40
1.0
176
     1
 90
        1
176
     1
 90
        6
176
     1
 90
        2
176
     1
 62
     7
176
     1
 90
        3
176
     1
 90
        0
176
     1
 90
        0
176
     1
290
     0
176
     1
 90
        1
176
     1
 40
0.0
176
     1
 90
        0
176
     1
290
     0
176
     1
290
     1
176
     1
290
     1
176
     1
290
     0
176
     1
290
     0
176
     1
290
     0
176
     1
290
     0
176
     1
290
     0
176
     1
290
     0
176
     1
 90
       50
176
     1
 40
0.0
176
     1
 40
1.0
176
     1
 90
        0
176
     1
 62
    18
420
        0
176
     1
 90
       50
176
     1
 90
        3
176
     1
 62
     5
420
      255
176
     1
290
     0
176
     1
 90
       50
176
     1
 90
       50
176
     1
 90
       50
176
     1
290
     0
176
     1
 90
       50
176
     1
 62
   256
176
     0
 40
1.0
176
     0
 90
        2
176
     1
  1
strokes_ogs.tif
176
     1
290
     0
176
     1
 40
1.0
176
     1
 40
1.0
176
     1
  0
VISUALSTYLE
  5
2E5
102
{ACAD_REACTORS
330
2CF
102
}
330
2CF
100
AcDbVisualStyle
  2
X-Ray
 70
    25
177
     3
291
     0
 70
    58
 90
        2
176
     1
 90
        2
176
     1
 90
        1
176
     1
 90
        1
176
     1
 40
0.5
176
     1
 40
30.0
176
     1
 62
     7
420
 16777215
176
     1
 90
        1
176
     1
 90
        0
176
     1
 62
     7
176
     1
 62
   257
176
     1
 90
        1
176
     1
 90
        1
176
     1
 40
1.0
176
     1
 90
        8
176
     1
 62
     7
176
     1
 40
1.0
176
     1
 90
        1
176
     1
 90
        6
176
     1
 90
        2
176
     1
 62
     7
176
     1
 90
        3
176
     1
 90
        0
176
     1
 90
        0
176
     1
290
     0
176
     1
 90
       13
176
     1
 40
0.0
176
     1
 90
        0
176
     1
290
     0
176
     1
290
     1
176
     1
290
     1
176
     1
290
     0
176
     1
290
     0
176
     1
290
     0
176
     1
290
     0
176
     1
290
     0
176
     1
290
     0
176
     1
 90
       50
176
     1
 40
0.0
176
     1
 40
1.0
176
     1
 90
        0
176
     1
 62
    18
420
        0
176
     1
 90
       50
176
     1
 90
        3
176
     1
 62
     5
420
      255
176
     1
290
     0
176
     1
 90
       50
176
     1
 90
       50
176
     1
 90
       50
176
     1
290
     0
176
     1
 90
       50
176
     1
 62
   256
176
     0
 40
1.0
176
     0
 90
        2
176
     1
  1
strokes_ogs.tif
176
     1
290
     0
176
     1
 40
1.0
176
     1
 40
1.0
176
     1
  0
DICTIONARYVAR
  5
2F2
102
{ACAD_REACTORS
330
2F1
102
}
330
2F1
100
DictionaryVariables
280
     0
  1
1:1
  0
DICTIONARYVAR
  5
2F4
102
{ACAD_REACTORS
330
2F1
102
}
330
2F1
100
DictionaryVariables
280
     0
  1
Standard
  0
DICTIONARYVAR
  5
2F3
102
{ACAD_REACTORS
330
2F1
102
}
330
2F1
100
DictionaryVariables
280
     0
  1
Standard
  0
DICTIONARYVAR
  5
2F5
102
{ACAD_REACTORS
330
2F1
102
}
330
2F1
100
DictionaryVariables
280
     0
  1
0
  0
DICTIONARY
  5
30A
330
2ED
100
AcDbDictionary
280
     1
281
     1
  3
ACAD_ROUNDTRIP_2008_TABLESTYLE_CELLSTYLEMAP
360
30B
  0
CELLSTYLEMAP
  5
30B
102
{ACAD_REACTORS
330
30A
102
}
330
30A
100
AcDbCellStyleMap
 90
        3
300
CELLSTYLE
  1
TABLEFORMAT_BEGIN
 90
        5
170
     1
 91
        0
 92
    32768
 62
   257
 93
        1
300
CONTENTFORMAT
  1
CONTENTFORMAT_BEGIN
 90
        0
 91
        0
 92
        4
 93
        0
300

 40
0.0
140
1.0
 94
        5
 62
     0
340
17
144
6.0
309
CONTENTFORMAT_END
171
     1
301
MARGIN
  1
CELLMARGIN_BEGIN
 40
1.5
 40
1.5
 40
1.5
 40
1.5
 40
1.5
 40
1.5
309
CELLMARGIN_END
 94
        6
 95
        1
302
GRIDFORMAT
  1
GRIDFORMAT_BEGIN
 90
        0
 91
        1
 62
     0
 92
       -2
340
11
 93
        0
 40
0.045
309
GRIDFORMAT_END
 95
        2
302
GRIDFORMAT
  1
GRIDFORMAT_BEGIN
 90
        0
 91
        1
 62
     0
 92
       -2
340
11
 93
        0
 40
0.045
309
GRIDFORMAT_END
 95
        4
302
GRIDFORMAT
  1
GRIDFORMAT_BEGIN
 90
        0
 91
        1
 62
     0
 92
       -2
340
11
 93
        0
 40
0.045
309
GRIDFORMAT_END
 95
        8
302
GRIDFORMAT
  1
GRIDFORMAT_BEGIN
 90
        0
 91
        1
 62
     0
 92
       -2
340
11
 93
        0
 40
0.045
309
GRIDFORMAT_END
 95
       16
302
GRIDFORMAT
  1
GRIDFORMAT_BEGIN
 90
        0
 91
        1
 62
     0
 92
       -2
340
11
 93
        0
 40
0.045
309
GRIDFORMAT_END
 95
       32
302
GRIDFORMAT
  1
GRIDFORMAT_BEGIN
 90
        0
 91
        1
 62
     0
 92
       -2
340
11
 93
        0
 40
0.045
309
GRIDFORMAT_END
309
TABLEFORMAT_END
  1
CELLSTYLE_BEGIN
 90
        1
 91
        1
300
_TITLE
309
CELLSTYLE_END
300
CELLSTYLE
  1
TABLEFORMAT_BEGIN
 90
        5
170
     1
 91
        0
 92
        0
 62
   257
 93
        1
300
CONTENTFORMAT
  1
CONTENTFORMAT_BEGIN
 90
        0
 91
        0
 92
        4
 93
        0
300

 40
0.0
140
1.0
 94
        5
 62
     0
340
17
144
4.5
309
CONTENTFORMAT_END
171
     1
301
MARGIN
  1
CELLMARGIN_BEGIN
 40
1.5
 40
1.5
 40
1.5
 40
1.5
 40
1.5
 40
1.5
309
CELLMARGIN_END
 94
        6
 95
        1
302
GRIDFORMAT
  1
GRIDFORMAT_BEGIN
 90
        0
 91
        1
 62
     0
 92
       -2
340
11
 93
        0
 40
0.045
309
GRIDFORMAT_END
 95
        2
302
GRIDFORMAT
  1
GRIDFORMAT_BEGIN
 90
        0
 91
        1
 62
     0
 92
       -2
340
11
 93
        0
 40
0.045
309
GRIDFORMAT_END
 95
        4
302
GRIDFORMAT
  1
GRIDFORMAT_BEGIN
 90
        0
 91
        1
 62
     0
 92
       -2
340
11
 93
        0
 40
0.045
309
GRIDFORMAT_END
 95
        8
302
GRIDFORMAT
  1
GRIDFORMAT_BEGIN
 90
        0
 91
        1
 62
     0
 92
       -2
340
11
 93
        0
 40
0.045
309
GRIDFORMAT_END
 95
       16
302
GRIDFORMAT
  1
GRIDFORMAT_BEGIN
 90
        0
 91
        1
 62
     0
 92
       -2
340
11
 93
        0
 40
0.045
309
GRIDFORMAT_END
 95
       32
302
GRIDFORMAT
  1
GRIDFORMAT_BEGIN
 90
        0
 91
        1
 62
     0
 92
       -2
340
11
 93
        0
 40
0.045
309
GRIDFORMAT_END
309
TABLEFORMAT_END
  1
CELLSTYLE_BEGIN
 90
        2
 91
        1
300
_HEADER
309
CELLSTYLE_END
300
CELLSTYLE
  1
TABLEFORMAT_BEGIN
 90
        5
170
     1
 91
        0
 92
        0
 62
   257
 93
        1
300
CONTENTFORMAT
  1
CONTENTFORMAT_BEGIN
 90
        0
 91
        0
 92
        4
 93
        0
300

 40
0.0
140
1.0
 94
        2
 62
     0
340
17
144
4.5
309
CONTENTFORMAT_END
171
     1
301
MARGIN
  1
CELLMARGIN_BEGIN
 40
1.5
 40
1.5
 40
1.5
 40
1.5
 40
1.5
 40
1.5
309
CELLMARGIN_END
 94
        6
 95
        1
302
GRIDFORMAT
  1
GRIDFORMAT_BEGIN
 90
        0
 91
        1
 62
     0
 92
       -2
340
11
 93
        0
 40
0.045
309
GRIDFORMAT_END
 95
        2
302
GRIDFORMAT
  1
GRIDFORMAT_BEGIN
 90
        0
 91
        1
 62
     0
 92
       -2
340
11
 93
        0
 40
0.045
309
GRIDFORMAT_END
 95
        4
302
GRIDFORMAT
  1
GRIDFORMAT_BEGIN
 90
        0
 91
        1
 62
     0
 92
       -2
340
11
 93
        0
 40
0.045
309
GRIDFORMAT_END
 95
        8
302
GRIDFORMAT
  1
GRIDFORMAT_BEGIN
 90
        0
 91
        1
 62
     0
 92
       -2
340
11
 93
        0
 40
0.045
309
GRIDFORMAT_END
 95
       16
302
GRIDFORMAT
  1
GRIDFORMAT_BEGIN
 90
        0
 91
        1
 62
     0
 92
       -2
340
11
 93
        0
 40
0.045
309
GRIDFORMAT_END
 95
       32
302
GRIDFORMAT
  1
GRIDFORMAT_BEGIN
 90
        0
 91
        1
 62
     0
 92
       -2
340
11
 93
        0
 40
0.045
309
GRIDFORMAT_END
309
TABLEFORMAT_END
  1
CELLSTYLE_BEGIN
 90
        3
 91
        2
300
_DATA
309
CELLSTYLE_END
  0
ENDSEC
  0
EOF
