  0
SECTION
  2
HEADER
  9
$ACADVER
  1
AC1015
  9
$ACADMAINTVER
 70
     6
  9
$DWGCODEPAGE
  3
DOS932
  9
$INSBASE
 10
0.0
 20
0.0
 30
0.0
  9
$EXTMIN
 10
0.0
 20
0.0
 30
0.0
  9
$EXTMAX
 10
1050.0
 20
1485.0
 30
0.0
  9
$LIMMIN
 10
0.0
 20
0.0
  9
$LIMMAX
 10
1050.0
 20
1485.0
  9
$ORTHOMODE
 70
     0
  9
$REGENMODE
 70
     1
  9
$FILLMODE
 70
     1
  9
$QTEXTMODE
 70
     0
  9
$MIRRTEXT
 70
     1
  9
$LTSCALE
 40
5.0
  9
$ATTMODE
 70
     1
  9
$TEXTSIZE
 40
17.5
  9
$TRACEWID
 40
1.0
  9
$TEXTSTYLE
  7
STANDARD
  9
$CLAYER
  8
0
  9
$CELTYPE
  6
ByLayer
  9
$CECOLOR
 62
   256
  9
$CELTSCALE
 40
1.0
  9
$DISPSILH
 70
     0
  9
$DIMSCALE
 40
1.0
  9
$DIMASZ
 40
16.51
  9
$DIMEXO
 40
5.0
  9
$DIMDLI
 40
3.75
  9
$DIMRND
 40
0.0
  9
$DIMDLE
 40
0.0
  9
$DIMEXE
 40
5.0
  9
$DIMTP
 40
0.0
  9
$DIMTM
 40
0.0
  9
$DIMTXT
 40
17.5
  9
$DIMCEN
 40
2.5
  9
$DIMTSZ
 40
0.0
  9
$DIMTOL
 70
     0
  9
$DIMLIM
 70
     0
  9
$DIMTIH
 70
     1
  9
$DIMTOH
 70
     1
  9
$DIMSE1
 70
     0
  9
$DIMSE2
 70
     0
  9
$DIMTAD
 70
     1
  9
$DIMZIN
 70
     1
  9
$DIMBLK
  1

  9
$DIMASO
 70
     1
  9
$DIMSHO
 70
     1
  9
$DIMPOST
  1

  9
$DIMAPOST
  1

  9
$DIMALT
 70
     0
  9
$DIMALTD
 70
     3
  9
$DIMALTF
 40
0.0393700787
  9
$DIMLFAC
 40
1.0
  9
$DIMTOFL
 70
     1
  9
$DIMTVP
 40
0.0
  9
$DIMTIX
 70
     0
  9
$DIMSOXD
 70
     0
  9
$DIMSAH
 70
     0
  9
$DIMBLK1
  1

  9
$DIMBLK2
  1

  9
$DIMSTYLE
  2
ISO-25
  9
$DIMCLRD
 70
     0
  9
$DIMCLRE
 70
     0
  9
$DIMCLRT
 70
     0
  9
$DIMTFAC
 40
1.0
  9
$DIMGAP
 40
7.62
  9
$DIMJUST
 70
     0
  9
$DIMSD1
 70
     0
  9
$DIMSD2
 70
     0
  9
$DIMTOLJ
 70
     0
  9
$DIMTZIN
 70
     1
  9
$DIMALTZ
 70
     0
  9
$DIMALTTZ
 70
     0
  9
$DIMUPT
 70
     0
  9
$DIMDEC
 70
     2
  9
$DIMTDEC
 70
     2
  9
$DIMALTU
 70
     2
  9
$DIMALTTD
 70
     3
  9
$DIMTXSTY
  7
STANDARD
  9
$DIMAUNIT
 70
     0
  9
$DIMADEC
 70
     2
  9
$DIMALTRND
 40
0.0
  9
$DIMAZIN
 70
     0
  9
$DIMDSEP
 70
    44
  9
$DIMATFIT
 70
     3
  9
$DIMFRAC
 70
     0
  9
$DIMLDRBLK
  1

  9
$DIMLUNIT
 70
     2
  9
$DIMLWD
 70
    -2
  9
$DIMLWE
 70
    -2
  9
$DIMTMOVE
 70
     0
  9
$LUNITS
 70
     2
  9
$LUPREC
 70
     4
  9
$SKETCHINC
 40
1.0
  9
$FILLETRAD
 40
10.0
  9
$AUNITS
 70
     0
  9
$AUPREC
 70
     2
  9
$MENU
  1
.
  9
$ELEVATION
 40
0.0
  9
$PELEVATION
 40
0.0
  9
$THICKNESS
 40
0.0
  9
$LIMCHECK
 70
     0
  9
$CHAMFERA
 40
0.0
  9
$CHAMFERB
 40
0.0
  9
$CHAMFERC
 40
0.0
  9
$CHAMFERD
 40
0.0
  9
$SKPOLY
 70
     0
  9
$TDCREATE
 40
2458871.567115996
  9
$TDUCREATE
 40
2458871.192115996
  9
$TDUPDATE
 40
2458871.567117245
  9
$TDUUPDATE
 40
2458871.192117245
  9
$TDINDWG
 40
0.0000000116
  9
$TDUSRTIMER
 40
0.0000000116
  9
$USRTIMER
 70
     1
  9
$ANGBASE
 50
0.0
  9
$ANGDIR
 70
     0
  9
$PDMODE
 70
     0
  9
$PDSIZE
 40
-1.0
  9
$PLINEWID
 40
0.0
  9
$SPLFRAME
 70
     0
  9
$SPLINETYPE
 70
     6
  9
$SPLINESEGS
 70
     8
  9
$HANDSEED
  5
194
  9
$SURFTAB1
 70
     6
  9
$SURFTAB2
 70
     6
  9
$SURFTYPE
 70
     6
  9
$SURFU
 70
     6
  9
$SURFV
 70
     6
  9
$UCSBASE
  2

  9
$UCSNAME
  2

  9
$UCSORG
 10
0.0
 20
0.0
 30
0.0
  9
$UCSXDIR
 10
1.0
 20
0.0
 30
0.0
  9
$UCSYDIR
 10
0.0
 20
1.0
 30
0.0
  9
$UCSORTHOREF
  2

  9
$UCSORTHOVIEW
 70
     0
  9
$UCSORGTOP
 10
0.0
 20
0.0
 30
0.0
  9
$UCSORGBOTTOM
 10
0.0
 20
0.0
 30
0.0
  9
$UCSORGLEFT
 10
0.0
 20
0.0
 30
0.0
  9
$UCSORGRIGHT
 10
0.0
 20
0.0
 30
0.0
  9
$UCSORGFRONT
 10
0.0
 20
0.0
 30
0.0
  9
$UCSORGBACK
 10
0.0
 20
0.0
 30
0.0
  9
$PUCSBASE
  2

  9
$PUCSNAME
  2

  9
$PUCSORG
 10
0.0
 20
0.0
 30
0.0
  9
$PUCSXDIR
 10
1.0
 20
0.0
 30
0.0
  9
$PUCSYDIR
 10
0.0
 20
1.0
 30
0.0
  9
$PUCSORTHOREF
  2

  9
$PUCSORTHOVIEW
 70
     0
  9
$PUCSORGTOP
 10
0.0
 20
0.0
 30
0.0
  9
$PUCSORGBOTTOM
 10
0.0
 20
0.0
 30
0.0
  9
$PUCSORGLEFT
 10
0.0
 20
0.0
 30
0.0
  9
$PUCSORGRIGHT
 10
0.0
 20
0.0
 30
0.0
  9
$PUCSORGFRONT
 10
0.0
 20
0.0
 30
0.0
  9
$PUCSORGBACK
 10
0.0
 20
0.0
 30
0.0
  9
$USERI1
 70
     0
  9
$USERI2
 70
     0
  9
$USERI3
 70
     0
  9
$USERI4
 70
     0
  9
$USERI5
 70
     0
  9
$USERR1
 40
0.0
  9
$USERR2
 40
0.0
  9
$USERR3
 40
0.0
  9
$USERR4
 40
0.0
  9
$USERR5
 40
0.0
  9
$WORLDVIEW
 70
     1
  9
$SHADEDGE
 70
     3
  9
$SHADEDIF
 70
    70
  9
$TILEMODE
 70
     1
  9
$MAXACTVP
 70
    64
  9
$PINSBASE
 10
0.0
 20
0.0
 30
0.0
  9
$PLIMCHECK
 70
     0
  9
$PEXTMIN
 10
1.0000000000E+20
 20
1.0000000000E+20
 30
1.0000000000E+20
  9
$PEXTMAX
 10
-1.0000000000E+20
 20
-1.0000000000E+20
 30
-1.0000000000E+20
  9
$PLIMMIN
 10
0.0
 20
0.0
  9
$PLIMMAX
 10
420.0
 20
297.0
  9
$UNITMODE
 70
     0
  9
$VISRETAIN
 70
     1
  9
$PLINEGEN
 70
     0
  9
$PSLTSCALE
 70
     1
  9
$TREEDEPTH
 70
  3020
  9
$CMLSTYLE
  2
Standard
  9
$CMLJUST
 70
     0
  9
$CMLSCALE
 40
20.0
  9
$PROXYGRAPHICS
 70
     1
  9
$MEASUREMENT
 70
     1
  9
$CELWEIGHT
370
    -1
  9
$ENDCAPS
280
     0
  9
$JOINSTYLE
280
     0
  9
$LWDISPLAY
290
     1
  9
$INSUNITS
 70
     4
  9
$HYPERLINKBASE
  1

  9
$STYLESHEET
  1

  9
$XEDIT
290
     1
  9
$CEPSNTYPE
380
     0
  9
$PSTYLEMODE
290
     1
  9
$FINGERPRINTGUID
  2
{1D4001AE-C9CE-4229-BE5F-5BFD8683AE62}
  9
$VERSIONGUID
  2
{FAEB1C32-E019-11D5-929B-00C0DF256EC4}
  9
$EXTNAMES
290
     1
  9
$PSVPSCALE
 40
0.0
  9
$OLESTARTUP
290
     0
  0
ENDSEC
  0
SECTION
  2
CLASSES
  0
CLASS
  1
ACDBDICTIONARYWDFLT
  2
AcDbDictionaryWithDefault
  3
ObjectDBX Classes
 90
        0
280
     0
281
     0
  0
CLASS
  1
VISUALSTYLE
  2
AcDbVisualStyle
  3
ObjectDBX Classes
 90
     4095
280
     0
281
     0
  0
CLASS
  1
MATERIAL
  2
AcDbMaterial
  3
ObjectDBX Classes
 90
     1153
280
     0
281
     0
  0
CLASS
  1
SCALE
  2
AcDbScale
  3
ObjectDBX Classes
 90
     1153
280
     0
281
     0
  0
CLASS
  1
TABLESTYLE
  2
AcDbTableStyle
  3
ObjectDBX Classes
 90
     4095
280
     0
281
     0
  0
CLASS
  1
MLEADERSTYLE
  2
AcDbMLeaderStyle
  3
ACDB_MLEADERSTYLE_CLASS
 90
     4095
280
     0
281
     0
  0
CLASS
  1
SUN
  2
AcDbSun
  3
SCENEOE
 90
     1153
280
     0
281
     0
  0
CLASS
  1
ACDBPLACEHOLDER
  2
AcDbPlaceHolder
  3
ObjectDBX Classes
 90
        0
280
     0
281
     0
  0
CLASS
  1
LAYOUT
  2
AcDbLayout
  3
ObjectDBX Classes
 90
        0
280
     0
281
     0
  0
ENDSEC
  0
SECTION
  2
TABLES
  0
TABLE
  2
VPORT
  5
8
330
0
100
AcDbSymbolTable
 70
     1
  0
VPORT
  5
29
330
8
100
AcDbSymbolTableRecord
100
AcDbViewportTableRecord
  2
*Active
 70
     0
 10
0.0
 20
0.0
 11
1.0
 21
1.0
 12
525.0
 22
742.5
 13
0.0
 23
0.0
 14
10.0
 24
10.0
 15
10.0
 25
10.0
 16
0.0
 26
0.0
 36
1.0
 17
0.0
 27
0.0
 37
0.0
 40
1485.0
 41
0.7070707071
 42
50.0
 43
0.0
 44
0.0
 50
0.0
 51
0.0
 71
     0
 72
  2000
 73
     1
 74
     3
 75
     0
 76
     0
 77
     0
 78
     0
281
     0
 65
     1
110
0.0
120
0.0
130
0.0
111
1.0
121
0.0
131
0.0
112
0.0
122
1.0
132
0.0
 79
     0
146
0.0
  0
ENDTAB
  0
TABLE
  2
LTYPE
  5
5
330
0
100
AcDbSymbolTable
 70
     8
  0
LTYPE
  5
14
330
5
100
AcDbSymbolTableRecord
100
AcDbLinetypeTableRecord
  2
ByBlock
 70
     0
  3

 72
    65
 73
     0
 40
0.0
  0
LTYPE
  5
15
330
5
100
AcDbSymbolTableRecord
100
AcDbLinetypeTableRecord
  2
ByLayer
 70
     0
  3

 72
    65
 73
     0
 40
0.0
  0
LTYPE
  5
16
330
5
100
AcDbSymbolTableRecord
100
AcDbLinetypeTableRecord
  2
Continuous
 70
     0
  3
Solid line
 72
    65
 73
     0
 40
0.0
  0
LTYPE
  5
6E
330
5
100
AcDbSymbolTableRecord
100
AcDbLinetypeTableRecord
  2
SLD-実線
 70
     0
  3
SolidWorks Line Style
 72
    65
 73
     0
 40
0.0
  0
LTYPE
  5
6F
330
5
100
AcDbSymbolTableRecord
100
AcDbLinetypeTableRecord
  2
SLD-破線
 70
     0
  3
SolidWorks Line Style
 72
    65
 73
     2
 40
1.905
 49
1.27
 74
     0
 49
-0.635
 74
     0
  0
LTYPE
  5
70
330
5
100
AcDbSymbolTableRecord
100
AcDbLinetypeTableRecord
  2
SLD-2点鎖線
 70
     0
  3
SolidWorks Line Style
 72
    65
 73
     6
 40
12.7
 49
6.35
 74
     0
 49
-1.27
 74
     0
 49
1.27
 74
     0
 49
-1.27
 74
     0
 49
1.27
 74
     0
 49
-1.27
 74
     0
  0
LTYPE
  5
71
330
5
100
AcDbSymbolTableRecord
100
AcDbLinetypeTableRecord
  2
SLD-鎖線
 70
     0
  3
SolidWorks Line Style
 72
    65
 73
     4
 40
10.16
 49
6.35
 74
     0
 49
-1.27
 74
     0
 49
1.27
 74
     0
 49
-1.27
 74
     0
  0
LTYPE
  5
72
330
5
100
AcDbSymbolTableRecord
100
AcDbLinetypeTableRecord
  2
SLD-1点鎖線(中心線)
 70
     0
  3
SolidWorks Line Style
 72
    65
 73
     4
 40
34.29
 49
30.48
 74
     0
 49
-1.27
 74
     0
 49
1.27
 74
     0
 49
-1.27
 74
     0
  0
LTYPE
  5
73
330
5
100
AcDbSymbolTableRecord
100
AcDbLinetypeTableRecord
  2
SLD-点線
 70
     0
  3
SolidWorks Line Style
 72
    65
 73
     2
 40
0.635
 49
0.0
 74
     0
 49
-0.635
 74
     0
  0
LTYPE
  5
74
330
5
100
AcDbSymbolTableRecord
100
AcDbLinetypeTableRecord
  2
SLD-細-太鎖線(切断面)
 70
     0
  3
SolidWorks Line Style
 72
    65
 73
     4
 40
10.16
 49
6.35
 74
     0
 49
-1.27
 74
     0
 49
1.27
 74
     0
 49
-1.27
 74
     0
  0
ENDTAB
  0
TABLE
  2
LAYER
  5
2
330
0
100
AcDbSymbolTable
 70
     1
  0
LAYER
  5
10
330
2
100
AcDbSymbolTableRecord
100
AcDbLayerTableRecord
  2
0
 70
     0
 62
     7
  6
Continuous
370
    -3
390
F
  0
ENDTAB
  0
TABLE
  2
STYLE
  5
3
330
0
100
AcDbSymbolTable
 70
     2
  0
STYLE
  5
11
330
3
100
AcDbSymbolTableRecord
100
AcDbTextStyleTableRecord
  2
STANDARD
 70
     0
 40
0.0
 41
1.0
 50
0.0
 71
     0
 42
17.5
  3
MSGOTHIC.TTC
  4

1001
ACAD
1000
ＭＳ Ｐゴシック
1071
    32818
  0
STYLE
  5
78
330
3
100
AcDbSymbolTableRecord
100
AcDbTextStyleTableRecord
  2
SLDTEXTSTYLE0
 70
     0
 40
0.0
 41
1.0
 50
0.0
 71
     0
 42
17.5
  3
MSGOTHIC.TTC
  4

1001
ACAD
1000
ＭＳ Ｐゴシック
1071
      306
  0
ENDTAB
  0
TABLE
  2
VIEW
  5
6
330
0
100
AcDbSymbolTable
 70
     0
  0
ENDTAB
  0
TABLE
  2
UCS
  5
7
330
0
100
AcDbSymbolTable
 70
     0
  0
ENDTAB
  0
TABLE
  2
APPID
  5
9
330
0
100
AcDbSymbolTable
 70
     1
  0
APPID
  5
12
330
9
100
AcDbSymbolTableRecord
100
AcDbRegAppTableRecord
  2
ACAD
 70
     0
  0
ENDTAB
  0
TABLE
  2
DIMSTYLE
  5
A
330
0
100
AcDbSymbolTable
 70
     1
100
AcDbDimStyleTable
  0
DIMSTYLE
105
27
330
A
100
AcDbSymbolTableRecord
100
AcDbDimStyleTableRecord
  2
ISO-25
 70
     0
 41
2.5
 42
0.625
 43
3.75
 44
1.25
 73
     0
 74
     0
 77
     1
 78
     8
140
2.5
141
2.5
143
0.0393700787
147
0.625
171
     3
172
     1
178
     0
271
     2
272
     2
274
     3
278
    44
283
     0
284
     8
340
11
  0
ENDTAB
  0
TABLE
  2
BLOCK_RECORD
  5
1
330
0
100
AcDbSymbolTable
 70
     2
  0
BLOCK_RECORD
  5
1F
330
1
100
AcDbSymbolTableRecord
100
AcDbBlockTableRecord
  2
*Model_Space
340
22
  0
BLOCK_RECORD
  5
1B
330
1
100
AcDbSymbolTableRecord
100
AcDbBlockTableRecord
  2
*Paper_Space
340
1E
  0
BLOCK_RECORD
  5
23
330
1
100
AcDbSymbolTableRecord
100
AcDbBlockTableRecord
  2
*Paper_Space0
340
26
  0
BLOCK_RECORD
  5
75
330
1
100
AcDbSymbolTableRecord
100
AcDbBlockTableRecord
  2
SW_NOTE_0
340
0
102
{BLKREFS
331
7C
102
}
  0
ENDTAB
  0
ENDSEC
  0
SECTION
  2
BLOCKS
  0
BLOCK
  5
20
330
1F
100
AcDbEntity
  8
0
100
AcDbBlockBegin
  2
*Model_Space
 70
     0
 10
0.0
 20
0.0
 30
0.0
  3
*Model_Space
  1

  0
ENDBLK
  5
21
330
1F
100
AcDbEntity
  8
0
100
AcDbBlockEnd
  0
BLOCK
  5
1C
330
1B
100
AcDbEntity
 67
     1
  8
0
100
AcDbBlockBegin
  2
*Paper_Space
 70
     0
 10
0.0
 20
0.0
 30
0.0
  3
*Paper_Space
  1

  0
ENDBLK
  5
1D
330
1B
100
AcDbEntity
 67
     1
  8
0
100
AcDbBlockEnd
  0
BLOCK
  5
24
330
23
100
AcDbEntity
  8
0
100
AcDbBlockBegin
  2
*Paper_Space0
 70
     0
 10
0.0
 20
0.0
 30
0.0
  3
*Paper_Space0
  1

  0
ENDBLK
  5
25
330
23
100
AcDbEntity
  8
0
100
AcDbBlockEnd
  0
BLOCK
  5
76
330
75
100
AcDbEntity
  8
0
100
AcDbBlockBegin
  2
SW_NOTE_0
 70
     0
 10
0.0
 20
0.0
 30
0.0
  3
SW_NOTE_0
  1

  0
MTEXT
  5
79
330
75
100
AcDbEntity
  8
0
  6
Continuous
 62
     0
370
     0
100
AcDbMText
 10
0.0
 20
20.3636363636
 30
0.0
 40
17.5
 41
0.0
 71
     1
 72
     1
  1
HBD-B23S
  7
SLDTEXTSTYLE0
 73
     1
 44
1.0
  0
MTEXT
  5
7A
330
75
100
AcDbEntity
  8
0
  6
Continuous
 62
     0
370
     0
100
AcDbMText
 10
0.0
 20
-2.1363626678
 30
0.0
 40
17.5
 41
0.0
 71
     1
 72
     1
  1
HBD-D23S
  7
SLDTEXTSTYLE0
 73
     1
 44
1.0
  0
MTEXT
  5
7B
330
75
100
AcDbEntity
  8
0
  6
Continuous
 62
     0
370
     0
100
AcDbMText
 10
0.0
 20
-24.6363616992
 30
0.0
 40
17.5
 41
0.0
 71
     1
 72
     1
  1
HBD-W23S
  7
SLDTEXTSTYLE0
 73
     1
 44
1.0
  0
ENDBLK
  5
77
330
75
100
AcDbEntity
  8
0
100
AcDbBlockEnd
  0
ENDSEC
  0
SECTION
  2
ENTITIES
  0
INSERT
  5
7C
330
1F
100
AcDbEntity
  8
0
  6
Continuous
 62
     7
370
     0
100
AcDbBlockReference
  2
SW_NOTE_0
 10
800.268357718
 20
345.1448593955
 30
0.0
  0
LINE
  5
7D
330
1F
100
AcDbEntity
  8
0
  6
SLD-実線
 62
     7
370
    25
100
AcDbLine
 10
456.9492124641
 20
612.0459761933
 30
0.0
 11
456.5171483311
 21
611.624268354
 31
0.0
  0
LINE
  5
7E
330
1F
100
AcDbEntity
  8
0
  6
SLD-実線
 62
     7
370
    25
100
AcDbLine
 10
740.9866939616
 20
556.4326493634
 30
0.0
 11
734.7032581447
 21
864.9768745673
 31
0.0
  0
LINE
  5
7F
330
1F
100
AcDbEntity
  8
0
  6
SLD-実線
 62
     7
370
    25
100
AcDbLine
 10
734.1865149436
 20
890.3512295018
 30
0.0
 11
734.0264888713
 21
898.2092106971
 31
0.0
  0
LINE
  5
80
330
1F
100
AcDbEntity
  8
0
  6
SLD-実線
 62
     7
370
    25
100
AcDbLine
 10
444.2969389083
 20
979.0451296303
 30
0.0
 11
442.939109789
 21
1045.7204877902
 31
0.0
  0
LINE
  5
81
330
1F
100
AcDbEntity
  8
0
  6
SLD-実線
 62
     7
370
    25
100
AcDbLine
 10
287.2153459637
 20
1045.7204877902
 30
0.0
 11
278.8544380322
 21
635.1632807311
 31
0.0
  0
SPLINE
  5
82
330
1F
100
AcDbEntity
  8
0
  6
SLD-実線
 62
     7
370
    25
100
AcDbSpline
210
0.0
220
0.0
230
1.0
 70
     8
 71
     3
 72
    15
 73
    11
 74
     0
 42
0.000000001
 43
0.00000001
 40
0.0
 40
0.0
 40
0.0
 40
0.0
 40
0.0345746448625045
 40
0.1712728227725357
 40
0.3083263803796545
 40
0.4455457853771979
 40
0.5827965041627959
 40
0.7200032002555623
 40
0.8571427747645772
 40
1.0
 40
1.0
 40
1.0
 40
1.0
 10
726.4749074141265
 20
915.4240306428612
 30
0.0
 10
726.2373688113653
 20
915.7111719307603
 30
0.0
 10
725.0606710557081
 20
917.1335870881283
 30
0.0
 10
722.3832157024892
 20
919.538873709138
 30
0.0
 10
718.4525706958866
 20
922.6074726335279
 30
0.0
 10
713.9695122499758
 20
925.463706967062
 30
0.0
 10
709.031531456852
 20
928.1019012115125
 30
0.0
 10
703.65699662404
 20
930.4904115728971
 30
0.0
 10
697.8399967722046
 20
932.6696831697723
 30
0.0
 10
693.6432140907517
 20
933.8856729264965
 30
0.0
 10
691.5019727289373
 20
934.5060833123255
 30
0.0
  0
LINE
  5
83
330
1F
100
AcDbEntity
  8
0
  6
SLD-実線
 62
     7
370
    25
100
AcDbLine
 10
691.5019727289
 20
934.5060833123
 30
0.0
 11
568.7690876628
 21
967.8622516257
 31
0.0
  0
LINE
  5
84
330
1F
100
AcDbEntity
  8
0
  6
SLD-実線
 62
     7
370
    25
100
AcDbLine
 10
563.0930639668
 20
969.4048732438
 30
0.0
 11
530.0757948394
 21
978.3782595181
 31
0.0
  0
LINE
  5
85
330
1F
100
AcDbEntity
  8
0
  6
SLD-実線
 62
     7
370
    25
100
AcDbLine
 10
734.4897306499
 20
595.6907121449
 30
0.0
 11
731.1440017934
 21
596.5434090701
 31
0.0
  0
LINE
  5
86
330
1F
100
AcDbEntity
  8
0
  6
SLD-実線
 62
     7
370
    25
100
AcDbLine
 10
524.3997711434
 20
979.9208811362
 30
0.0
 11
443.8331916601
 21
1001.8171511068
 31
0.0
  0
LINE
  5
87
330
1F
100
AcDbEntity
  8
0
  6
SLD-実線
 62
     7
370
    25
100
AcDbLine
 10
280.0772278763
 20
1065.4240696908
 30
0.0
 11
280.0772278763
 21
1063.2811514391
 31
0.0
  0
LINE
  5
88
330
1F
100
AcDbEntity
  8
0
  6
SLD-実線
 62
     7
370
    25
100
AcDbLine
 10
450.0772278763
 20
1063.2811514391
 30
0.0
 11
450.0772278763
 21
1065.4240696908
 31
0.0
  0
LINE
  5
89
330
1F
100
AcDbEntity
  8
0
  6
SLD-実線
 62
     7
370
    25
100
AcDbLine
 10
408.8272278763
 20
1069.7448226166
 30
0.0
 11
408.8272278763
 21
1072.924283572
 31
0.0
  0
LINE
  5
8A
330
1F
100
AcDbEntity
  8
0
  6
SLD-実線
 62
     7
370
    25
100
AcDbLine
 10
321.3272278763
 20
1072.924283572
 30
0.0
 11
321.3272278763
 21
1069.7448226166
 31
0.0
  0
LINE
  5
8B
330
1F
100
AcDbEntity
  8
0
  6
SLD-実線
 62
     7
370
    25
100
AcDbLine
 10
492.6944979621
 20
561.390916735
 30
0.0
 11
490.0844322327
 21
560.7122598836
 31
0.0
  0
LINE
  5
8C
330
1F
100
AcDbEntity
  8
0
  6
SLD-実線
 62
     7
370
    25
100
AcDbLine
 10
490.0844322327
 20
560.7122598836
 30
0.0
 11
489.9926019587
 21
566.0580353347
 31
0.0
  0
LINE
  5
8D
330
1F
100
AcDbEntity
  8
0
  6
SLD-実線
 62
     7
370
    25
100
AcDbLine
 10
489.9926019587
 20
566.0580353347
 30
0.0
 11
492.6472234703
 21
564.1429374634
 31
0.0
  0
LINE
  5
8E
330
1F
100
AcDbEntity
  8
0
  6
SLD-実線
 62
     7
370
    25
100
AcDbLine
 10
492.318418581
 20
583.2838702682
 30
0.0
 11
489.7083528516
 21
582.6052134168
 31
0.0
  0
LINE
  5
8F
330
1F
100
AcDbEntity
  8
0
  6
SLD-実線
 62
     7
370
    25
100
AcDbLine
 10
489.7083528516
 20
582.6052134168
 30
0.0
 11
489.6199713769
 21
587.7502216705
 31
0.0
  0
LINE
  5
90
330
1F
100
AcDbEntity
  8
0
  6
SLD-実線
 62
     7
370
    25
100
AcDbLine
 10
489.6199713769
 20
587.7502216705
 30
0.0
 11
492.2745928885
 21
585.8351237992
 31
0.0
  0
LINE
  5
91
330
1F
100
AcDbEntity
  8
0
  6
SLD-実線
 62
     7
370
    25
100
AcDbLine
 10
485.7041102656
 20
608.3672504429
 30
0.0
 11
485.1869064587
 21
606.7017310825
 31
0.0
  0
ELLIPSE
  5
92
330
1F
100
AcDbEntity
  8
0
  6
SLD-実線
 62
     7
370
    25
100
AcDbEllipse
 10
471.8158929285
 20
598.8563031044
 30
0.0
 11
-13.72679437384795
 21
14.54959721231432
 31
0.0
210
0.0
220
0.0
230
1.0
 40
0.7669934716
 41
4.538074353946616
 42
4.84584890265882
  0
LINE
  5
93
330
1F
100
AcDbEntity
  8
0
  6
SLD-実線
 62
     7
370
    25
100
AcDbLine
 10
481.0495595516
 20
611.2270695087
 30
0.0
 11
482.8190207044
 21
611.5092114863
 31
0.0
  0
LINE
  5
94
330
1F
100
AcDbEntity
  8
0
  6
SLD-実線
 62
     7
370
    25
100
AcDbLine
 10
459.0707434011
 20
618.8485825624
 30
0.0
 11
462.8617448211
 21
616.1701278347
 31
0.0
  0
ELLIPSE
  5
95
330
1F
100
AcDbEntity
  8
0
  6
SLD-実線
 62
     7
370
    25
100
AcDbEllipse
 10
471.8158929285
 20
598.8563031044
 30
0.0
 11
-13.72679437384795
 21
14.54959721231432
 31
0.0
210
0.0
220
0.0
230
1.0
 40
0.7669934716
 41
5.925704894577026
 42
6.233479443290804
  0
LINE
  5
96
330
1F
100
AcDbEntity
  8
0
  6
SLD-実線
 62
     7
370
    25
100
AcDbLine
 10
458.6605137995
 20
613.9110362154
 30
0.0
 11
457.561760281
 21
618.3158697627
 31
0.0
  0
ELLIPSE
  5
97
330
1F
100
AcDbEntity
  8
0
  6
SLD-実線
 62
     7
370
    25
100
AcDbEllipse
 10
471.8196228123
 20
599.2524130946
 30
0.0
 11
-16.84280253279945
 21
17.85238316424818
 31
0.0
210
0.0
220
0.0
230
1.0
 40
0.7669934716
 41
0.0347129838895363
 42
0.6380454244415052
  0
LINE
  5
98
330
1F
100
AcDbEntity
  8
0
  6
SLD-実線
 62
     7
370
    25
100
AcDbLine
 10
450.134735614
 20
605.8980509099
 30
0.0
 11
449.7129582182
 21
596.7318292347
 31
0.0
  0
LINE
  5
99
330
1F
100
AcDbEntity
  8
0
  6
SLD-実線
 62
     7
370
    25
100
AcDbLine
 10
449.7129582182
 20
596.7318292347
 30
0.0
 11
452.5440652946
 21
597.224716956
 31
0.0
  0
LINE
  5
9A
330
1F
100
AcDbEntity
  8
0
  6
SLD-実線
 62
     7
370
    25
100
AcDbLine
 10
452.0696083201
 20
593.7155065933
 30
0.0
 11
449.6637180353
 21
595.6617234492
 31
0.0
  0
LINE
  5
9B
330
1F
100
AcDbEntity
  8
0
  6
SLD-実線
 62
     7
370
    25
100
AcDbLine
 10
449.6637180353
 20
595.6617234492
 30
0.0
 11
448.7275391855
 21
575.3163399593
 31
0.0
  0
LINE
  5
9C
330
1F
100
AcDbEntity
  8
0
  6
SLD-実線
 62
     7
370
    25
100
AcDbLine
 10
448.7275391855
 20
575.3163399593
 30
0.0
 11
451.5586462619
 21
575.8092276806
 31
0.0
  0
LINE
  5
9D
330
1F
100
AcDbEntity
  8
0
  6
SLD-実線
 62
     7
370
    25
100
AcDbLine
 10
451.2842008517
 20
572.1382202982
 30
0.0
 11
448.6782990026
 21
574.2462341738
 31
0.0
  0
LINE
  5
9E
330
1F
100
AcDbEntity
  8
0
  6
SLD-実線
 62
     7
370
    25
100
AcDbLine
 10
448.6782990026
 20
574.2462341738
 30
0.0
 11
448.4106533883
 21
568.42966113
 31
0.0
  0
LINE
  5
9F
330
1F
100
AcDbEntity
  8
0
  6
SLD-実線
 62
     7
370
    25
100
AcDbLine
 10
448.3719688121
 20
568.4408453462
 30
0.0
 11
448.4106533883
 21
568.42966113
 31
0.0
  0
LINE
  5
A0
330
1F
100
AcDbEntity
  8
0
  6
SLD-実線
 62
     7
370
    25
100
AcDbLine
 10
451.2473341999
 20
569.043679317
 30
0.0
 11
451.1737277375
 21
569.1032224054
 31
0.0
  0
LINE
  5
A1
330
1F
100
AcDbEntity
  8
0
  6
SLD-実線
 62
     7
370
    25
100
AcDbLine
 10
451.365506885
 20
574.3719188927
 30
0.0
 11
451.1737277375
 21
569.1032224054
 31
0.0
  0
LINE
  5
A2
330
1F
100
AcDbEntity
  8
0
  6
SLD-実線
 62
     7
370
    25
100
AcDbLine
 10
451.365506885
 20
574.3719188927
 30
0.0
 11
451.4935351142
 21
574.3942082447
 31
0.0
  0
LINE
  5
A3
330
1F
100
AcDbEntity
  8
0
  6
SLD-実線
 62
     7
370
    25
100
AcDbLine
 10
451.4935351142
 20
574.3942082447
 30
0.0
 11
452.2327532326
 21
590.4591685924
 31
0.0
  0
LINE
  5
A4
330
1F
100
AcDbEntity
  8
0
  6
SLD-実線
 62
     7
370
    25
100
AcDbLine
 10
452.2327532326
 20
590.4591685924
 30
0.0
 11
451.9591352059
 21
590.6805087005
 31
0.0
  0
LINE
  5
A5
330
1F
100
AcDbEntity
  8
0
  6
SLD-実線
 62
     7
370
    25
100
AcDbLine
 10
452.1437118507
 20
595.7513327861
 30
0.0
 11
451.9591352059
 21
590.6805087005
 31
0.0
  0
LINE
  5
A6
330
1F
100
AcDbEntity
  8
0
  6
SLD-実線
 62
     7
370
    25
100
AcDbLine
 10
452.1437118507
 20
595.7513327861
 30
0.0
 11
452.478954147
 21
595.8096975201
 31
0.0
  0
LINE
  5
A7
330
1F
100
AcDbEntity
  8
0
  6
SLD-実線
 62
     7
370
    25
100
AcDbLine
 10
452.478954147
 20
595.8096975201
 30
0.0
 11
452.802251177
 21
602.8357076242
 31
0.0
  0
ELLIPSE
  5
A8
330
1F
100
AcDbEntity
  8
0
  6
SLD-実線
 62
     7
370
    25
100
AcDbEllipse
 10
470.0692485134
 20
597.5439941186
 30
0.0
 11
-13.41139678571272
 21
14.21529426115728
 31
0.0
210
0.0
220
0.0
230
1.0
 40
0.7669934716
 41
6.256501390440944
 42
6.92123073162138
  0
LINE
  5
A9
330
1F
100
AcDbEntity
  8
0
  6
SLD-実線
 62
     7
370
    25
100
AcDbLine
 10
456.953527343
 20
612.028678116
 30
0.0
 11
456.9101395006
 21
612.2026172394
 31
0.0
  0
ELLIPSE
  5
AA
330
1F
100
AcDbEntity
  8
0
  6
SLD-実線
 62
     7
370
    25
100
AcDbEllipse
 10
470.0655186296
 20
597.1478841284
 30
0.0
 11
-13.7267943738479
 21
14.54959721231421
 31
0.0
210
0.0
220
0.0
230
1.0
 40
0.7669934716
 41
5.925704894577019
 42
6.233479443290793
  0
LINE
  5
AB
330
1F
100
AcDbEntity
  8
0
  6
SLD-実線
 62
     7
370
    25
100
AcDbLine
 10
461.1113705221
 20
614.4617088587
 30
0.0
 11
461.1782034288
 21
614.4144894317
 31
0.0
  0
ELLIPSE
  5
AC
330
1F
100
AcDbEntity
  8
0
  6
SLD-実線
 62
     7
370
    25
100
AcDbEllipse
 10
470.0692485134
 20
597.5439941186
 30
0.0
 11
-13.41139678571272
 21
14.21529426115728
 31
0.0
210
0.0
220
0.0
230
1.0
 40
0.7669934716
 41
4.83625319762411
 42
5.935300599610557
  0
LINE
  5
AD
330
1F
100
AcDbEntity
  8
0
  6
SLD-実線
 62
     7
370
    25
100
AcDbLine
 10
479.2318065498
 20
609.5079069454
 30
0.0
 11
479.2991852526
 21
609.5186505327
 31
0.0
  0
ELLIPSE
  5
AE
330
1F
100
AcDbEntity
  8
0
  6
SLD-実線
 62
     7
370
    25
100
AcDbEllipse
 10
470.0655186296
 20
597.1478841284
 30
0.0
 11
-13.7267943738479
 21
14.54959721231421
 31
0.0
210
0.0
220
0.0
230
1.0
 40
0.7669934716
 41
4.538074353946612
 42
4.845848902658814
  0
LINE
  5
AF
330
1F
100
AcDbEntity
  8
0
  6
SLD-実線
 62
     7
370
    25
100
AcDbLine
 10
483.4365321598
 20
604.9933121065
 30
0.0
 11
483.3900984635
 21
604.8437845526
 31
0.0
  0
ELLIPSE
  5
B0
330
1F
100
AcDbEntity
  8
0
  6
SLD-実線
 62
     7
370
    25
100
AcDbEllipse
 10
470.0692485134
 20
597.5439941186
 30
0.0
 11
-13.41139678571272
 21
14.21529426115728
 31
0.0
210
0.0
220
0.0
230
1.0
 40
0.7669934716
 41
3.850323065613862
 42
4.515052406793727
  0
LINE
  5
B1
330
1F
100
AcDbEntity
  8
0
  6
SLD-実線
 62
     7
370
    25
100
AcDbLine
 10
487.347496139
 20
593.4470502586
 30
0.0
 11
487.5371626203
 21
586.2816276636
 31
0.0
  0
LINE
  5
B2
330
1F
100
AcDbEntity
  8
0
  6
SLD-実線
 62
     7
370
    25
100
AcDbLine
 10
487.5371626203
 20
586.2816276636
 30
0.0
 11
487.8695970779
 21
586.0418026945
 31
0.0
  0
LINE
  5
B3
330
1F
100
AcDbEntity
  8
0
  6
SLD-実線
 62
     7
370
    25
100
AcDbLine
 10
487.9579785527
 20
580.8967944408
 30
0.0
 11
487.8695970779
 21
586.0418026945
 31
0.0
  0
LINE
  5
B4
330
1F
100
AcDbEntity
  8
0
  6
SLD-実線
 62
     7
370
    25
100
AcDbLine
 10
487.9579785527
 20
580.8967944408
 30
0.0
 11
487.6815996451
 21
580.8249317144
 31
0.0
  0
LINE
  5
B5
330
1F
100
AcDbEntity
  8
0
  6
SLD-実線
 62
     7
370
    25
100
AcDbLine
 10
487.6815996451
 20
580.8249317144
 30
0.0
 11
488.1152717373
 21
564.4412049395
 31
0.0
  0
LINE
  5
B6
330
1F
100
AcDbEntity
  8
0
  6
SLD-実線
 62
     7
370
    25
100
AcDbLine
 10
488.1152717373
 20
564.4412049395
 30
0.0
 11
488.2422276597
 21
564.3496163587
 31
0.0
  0
LINE
  5
B7
330
1F
100
AcDbEntity
  8
0
  6
SLD-実線
 62
     7
370
    25
100
AcDbLine
 10
488.3340579338
 20
559.0038409076
 30
0.0
 11
488.2422276597
 21
564.3496163587
 31
0.0
  0
LINE
  5
B8
330
1F
100
AcDbEntity
  8
0
  6
SLD-実線
 62
     7
370
    25
100
AcDbLine
 10
488.3340579338
 20
559.0038409076
 30
0.0
 11
488.259708762
 21
558.9845089903
 31
0.0
  0
LINE
  5
B9
330
1F
100
AcDbEntity
  8
0
  6
SLD-実線
 62
     7
370
    25
100
AcDbLine
 10
488.259708762
 20
558.9845089903
 30
0.0
 11
488.4724592952
 21
550.9469924668
 31
0.0
  0
LINE
  5
BA
330
1F
100
AcDbEntity
  8
0
  6
SLD-実線
 62
     7
370
    25
100
AcDbLine
 10
488.4724592952
 20
550.9469924668
 30
0.0
 11
450.8846891239
 21
561.1625429909
 31
0.0
  0
LINE
  5
BB
330
1F
100
AcDbEntity
  8
0
  6
SLD-実線
 62
     7
370
    25
100
AcDbLine
 10
450.8846891239
 20
561.1625429909
 30
0.0
 11
451.2473341999
 21
569.043679317
 31
0.0
  0
LINE
  5
BC
330
1F
100
AcDbEntity
  8
0
  6
SLD-実線
 62
     7
370
    25
100
AcDbLine
 10
483.3900984635
 20
604.8437845526
 30
0.0
 11
486.2647195837
 21
607.6495028916
 31
0.0
  0
LINE
  5
BD
330
1F
100
AcDbEntity
  8
0
  6
SLD-実線
 62
     7
370
    25
100
AcDbLine
 10
483.4365321598
 20
604.9933121065
 30
0.0
 11
485.1869064587
 21
606.7017310825
 31
0.0
  0
LINE
  5
BE
330
1F
100
AcDbEntity
  8
0
  6
SLD-実線
 62
     7
370
    25
100
AcDbLine
 10
481.0495595516
 20
611.2270695087
 30
0.0
 11
479.2991852526
 21
609.5186505327
 31
0.0
  0
LINE
  5
BF
330
1F
100
AcDbEntity
  8
0
  6
SLD-実線
 62
     7
370
    25
100
AcDbLine
 10
479.2318065498
 20
609.5079069454
 30
0.0
 11
482.0295749622
 21
612.2386146854
 31
0.0
  0
LINE
  5
C0
330
1F
100
AcDbEntity
  8
0
  6
SLD-実線
 62
     7
370
    25
100
AcDbLine
 10
487.347496139
 20
593.4470502586
 30
0.0
 11
490.8482447369
 21
596.8638882106
 31
0.0
  0
ELLIPSE
  5
C1
330
1F
100
AcDbEntity
  8
0
  6
SLD-実線
 62
     7
370
    25
100
AcDbEllipse
 10
473.5699971113
 20
600.9608320706
 30
0.0
 11
-13.41139678571273
 21
14.2152942611574
 31
0.0
210
0.0
220
0.0
230
1.0
 40
0.7669934716
 41
3.850323065613878
 42
4.043792613532705
  0
LINE
  5
C2
330
1F
100
AcDbEntity
  8
0
  6
SLD-実線
 62
     7
370
    25
100
AcDbLine
 10
461.1782034288
 20
614.4144894317
 30
0.0
 11
464.6789520267
 21
617.8313273837
 31
0.0
  0
ELLIPSE
  5
C3
330
1F
100
AcDbEntity
  8
0
  6
SLD-実線
 62
     7
370
    25
100
AcDbEllipse
 10
473.5699971113
 20
600.9608320706
 30
0.0
 11
-13.41139678571273
 21
14.2152942611574
 31
0.0
210
0.0
220
0.0
230
1.0
 40
0.7669934716
 41
5.490313326482672
 42
5.935300599610562
  0
LINE
  5
C4
330
1F
100
AcDbEntity
  8
0
  6
SLD-実線
 62
     7
370
    25
100
AcDbLine
 10
487.5371626203
 20
586.2816276636
 30
0.0
 11
491.0379112183
 21
589.6984656156
 31
0.0
  0
LINE
  5
C5
330
1F
100
AcDbEntity
  8
0
  6
SLD-実線
 62
     7
370
    25
100
AcDbLine
 10
490.8482447369
 20
596.8638882106
 30
0.0
 11
491.0379112183
 21
589.6984656156
 31
0.0
  0
LINE
  5
C6
330
1F
100
AcDbEntity
  8
0
  6
SLD-実線
 62
     7
370
    25
100
AcDbLine
 10
489.6199713769
 20
587.7502216705
 30
0.0
 11
487.8695970779
 21
586.0418026945
 31
0.0
  0
LINE
  5
C7
330
1F
100
AcDbEntity
  8
0
  6
SLD-実線
 62
     7
370
    25
100
AcDbLine
 10
491.0379112183
 20
589.6984656156
 30
0.0
 11
492.2229133042
 21
588.8435810446
 31
0.0
  0
LINE
  5
C8
330
1F
100
AcDbEntity
  8
0
  6
SLD-実線
 62
     7
370
    25
100
AcDbLine
 10
461.1113705221
 20
614.4617088587
 30
0.0
 11
462.8617448211
 21
616.1701278347
 31
0.0
  0
LINE
  5
C9
330
1F
100
AcDbEntity
  8
0
  6
SLD-実線
 62
     7
370
    25
100
AcDbLine
 10
462.3279368768
 20
619.492389184
 30
0.0
 11
464.6789520267
 21
617.8313273837
 31
0.0
  0
LINE
  5
CA
330
1F
100
AcDbEntity
  8
0
  6
SLD-実線
 62
     7
370
    25
100
AcDbLine
 10
487.9579785527
 20
580.8967944408
 30
0.0
 11
489.7083528516
 21
582.6052134168
 31
0.0
  0
LINE
  5
CB
330
1F
100
AcDbEntity
  8
0
  6
SLD-実線
 62
     7
370
    25
100
AcDbLine
 10
458.6605137995
 20
613.9110362154
 30
0.0
 11
456.9101395006
 21
612.2026172394
 31
0.0
  0
LINE
  5
CC
330
1F
100
AcDbEntity
  8
0
  6
SLD-実線
 62
     7
370
    25
100
AcDbLine
 10
488.1152717373
 20
564.4412049395
 30
0.0
 11
491.6160203353
 21
567.8580428915
 31
0.0
  0
LINE
  5
CD
330
1F
100
AcDbEntity
  8
0
  6
SLD-実線
 62
     7
370
    25
100
AcDbLine
 10
491.2152958048
 20
582.9970415414
 30
0.0
 11
491.6160203353
 21
567.8580428915
 31
0.0
  0
LINE
  5
CE
330
1F
100
AcDbEntity
  8
0
  6
SLD-実線
 62
     7
370
    25
100
AcDbLine
 10
450.134735614
 20
605.8980509099
 30
0.0
 11
451.885109913
 21
607.6064698859
 31
0.0
  0
ELLIPSE
  5
CF
330
1F
100
AcDbEntity
  8
0
  6
SLD-実線
 62
     7
370
    25
100
AcDbEllipse
 10
473.5699971113
 20
600.9608320706
 30
0.0
 11
-16.84280253279951
 21
17.85238316424829
 31
0.0
210
0.0
220
0.0
230
1.0
 40
0.7669934716
 41
0.123608333799599
 42
0.6380454244415046
  0
LINE
  5
D0
330
1F
100
AcDbEntity
  8
0
  6
SLD-実線
 62
     7
370
    25
100
AcDbLine
 10
489.9926019587
 20
566.0580353347
 30
0.0
 11
488.2422276597
 21
564.3496163587
 31
0.0
  0
LINE
  5
D1
330
1F
100
AcDbEntity
  8
0
  6
SLD-実線
 62
     7
370
    25
100
AcDbLine
 10
491.6160203353
 20
567.8580428915
 30
0.0
 11
492.5955438859
 21
567.1513947088
 31
0.0
  0
LINE
  5
D2
330
1F
100
AcDbEntity
  8
0
  6
SLD-実線
 62
     7
370
    25
100
AcDbLine
 10
488.3340579338
 20
559.0038409076
 30
0.0
 11
490.0844322327
 21
560.7122598836
 31
0.0
  0
LINE
  5
D3
330
1F
100
AcDbEntity
  8
0
  6
SLD-実線
 62
     7
370
    25
100
AcDbLine
 10
488.4724592952
 20
550.9469924668
 30
0.0
 11
491.9732078933
 21
554.363830419
 31
0.0
  0
LINE
  5
D4
330
1F
100
AcDbEntity
  8
0
  6
SLD-実線
 62
     7
370
    25
100
AcDbLine
 10
491.7934049218
 20
561.1566188172
 30
0.0
 11
491.9732078933
 21
554.363830419
 31
0.0
  0
LINE
  5
D5
330
1F
100
AcDbEntity
  8
0
  6
SLD-実線
 62
     7
370
    25
100
AcDbLine
 10
452.1437118507
 20
595.7513327861
 30
0.0
 11
452.4919064331
 21
596.091181373
 31
0.0
  0
LINE
  5
D6
330
1F
100
AcDbEntity
  8
0
  6
SLD-実線
 62
     7
370
    25
100
AcDbLine
 10
449.7129582182
 20
596.7318292347
 30
0.0
 11
451.4633325172
 21
598.4402482107
 31
0.0
  0
LINE
  5
D7
330
1F
100
AcDbEntity
  8
0
  6
SLD-実線
 62
     7
370
    25
100
AcDbLine
 10
451.4633325172
 20
598.4402482107
 30
0.0
 11
452.6091764422
 21
598.6397363918
 31
0.0
  0
LINE
  5
D8
330
1F
100
AcDbEntity
  8
0
  6
SLD-実線
 62
     7
370
    25
100
AcDbLine
 10
451.885109913
 20
607.6064698859
 30
0.0
 11
451.4633325172
 21
598.4402482107
 31
0.0
  0
LINE
  5
D9
330
1F
100
AcDbEntity
  8
0
  6
SLD-実線
 62
     7
370
    25
100
AcDbLine
 10
448.7275391855
 20
575.3163399593
 30
0.0
 11
450.4779134845
 21
577.0247589353
 31
0.0
  0
LINE
  5
DA
330
1F
100
AcDbEntity
  8
0
  6
SLD-実線
 62
     7
370
    25
100
AcDbLine
 10
451.2754861793
 20
594.3579024273
 30
0.0
 11
450.4779134845
 21
577.0247589353
 31
0.0
  0
LINE
  5
DB
330
1F
100
AcDbEntity
  8
0
  6
SLD-実線
 62
     7
370
    25
100
AcDbLine
 10
451.365506885
 20
574.3719188927
 30
0.0
 11
451.4984815613
 21
574.5017062533
 31
0.0
  0
LINE
  5
DC
330
1F
100
AcDbEntity
  8
0
  6
SLD-実線
 62
     7
370
    25
100
AcDbLine
 10
450.4779134845
 20
577.0247589353
 30
0.0
 11
451.6237574095
 21
577.2242471164
 31
0.0
  0
LINE
  5
DD
330
1F
100
AcDbEntity
  8
0
  6
SLD-実線
 62
     7
370
    25
100
AcDbLine
 10
448.4106533883
 20
568.42966113
 30
0.0
 11
450.1610276873
 21
570.138080106
 31
0.0
  0
LINE
  5
DE
330
1F
100
AcDbEntity
  8
0
  6
SLD-実線
 62
     7
370
    25
100
AcDbLine
 10
450.2900671466
 20
572.9424131519
 30
0.0
 11
450.1610276873
 21
570.138080106
 31
0.0
  0
ARC
  5
DF
330
1F
100
AcDbEntity
  8
0
  6
SLD-実線
 62
     7
370
    25
100
AcDbCircle
 10
710.0917282273
 20
897.833519495
 30
0.0
 40
23.83093651561092
100
AcDbArc
 50
342.6283591323
 51
45.7113052476
  0
LWPOLYLINE
  5
E0
330
1F
100
AcDbEntity
  8
0
  6
SLD-実線
 62
     7
370
    25
100
AcDbPolyline
 90
        3
 70
   128
 43
0.0
 10
740.9866939616
 20
556.4326493634
 10
740.9698901328
 20
554.9741239819
 10
740.4252851435
 20
550.8860992375
  0
ELLIPSE
  5
E1
330
1F
100
AcDbEntity
  8
0
  6
SLD-実線
 62
     7
370
    25
100
AcDbEllipse
 10
655.437984514
 20
581.2884338448
 30
0.0
 11
85.47245416693124
 21
-34.40550632511429
 31
0.0
210
0.0
220
0.0
230
1.0
 40
0.1875841428
 41
0.205832331507748
 42
0.2695292186235544
  0
ELLIPSE
  5
E2
330
1F
100
AcDbEntity
  8
0
  6
SLD-実線
 62
     7
370
    25
100
AcDbEllipse
 10
677.0842552543
 20
54.7503695985
 30
0.0
 11
-45.9128586058448
 21
2304.573773468085
 31
0.0
210
0.0
220
0.0
230
1.0
 40
0.0321456507
 41
4.929400450561113
 42
4.931977415748292
  0
ELLIPSE
  5
E3
330
1F
100
AcDbEntity
  8
0
  6
SLD-実線
 62
     7
370
    25
100
AcDbEllipse
 10
654.3808818903
 20
553.3208494735
 30
0.0
 11
72.62765202053777
 21
59.05464849087718
 31
0.0
210
0.0
220
0.0
230
1.0
 40
0.7884282109
 41
5.541510607876641
 42
5.541619663579601
  0
ELLIPSE
  5
E4
330
1F
100
AcDbEntity
  8
0
  6
SLD-実線
 62
     7
370
    25
100
AcDbEllipse
 10
676.7846501297
 20
71.7501052098
 30
0.0
 11
-45.70310054882191
 21
2275.932165785077
 31
0.0
210
0.0
220
0.0
230
1.0
 40
0.0325314639
 41
4.927126097780349
 42
4.927603084024886
  0
ELLIPSE
  5
E5
330
1F
100
AcDbEntity
  8
0
  6
SLD-実線
 62
     7
370
    25
100
AcDbEllipse
 10
655.0830156816
 20
577.3534795287
 30
0.0
 11
85.7558997283942
 21
-16.10683528187258
 31
0.0
210
0.0
220
0.0
230
1.0
 40
0.1633147212
 41
6.12512148241051
 42
6.125239362152365
  0
ELLIPSE
  5
E6
330
1F
100
AcDbEntity
  8
0
  6
SLD-実線
 62
     7
370
    25
100
AcDbEllipse
 10
677.0842552543
 20
54.7503695986
 30
0.0
 11
-45.9128586058522
 21
2304.573773468279
 31
0.0
210
0.0
220
0.0
230
1.0
 40
0.0321456507
 41
4.932445588769345
 42
4.941356606033247
  0
ELLIPSE
  5
E7
330
1F
100
AcDbEntity
  8
0
  6
SLD-実線
 62
     7
370
    25
100
AcDbEllipse
 10
654.3828567434
 20
575.1668637099
 30
0.0
 11
72.25318564224278
 21
58.7501641832207
 31
0.0
210
0.0
220
0.0
230
1.0
 40
0.7884282109
 41
5.532233279174702
 42
5.532436451403318
  0
ELLIPSE
  5
E8
330
1F
100
AcDbEntity
  8
0
  6
SLD-実線
 62
     7
370
    25
100
AcDbEllipse
 10
676.7846501297
 20
71.7501052098
 30
0.0
 11
-45.70310054882191
 21
2275.932165785077
 31
0.0
210
0.0
220
0.0
230
1.0
 40
0.0325314639
 41
4.936609597027444
 42
4.937090612684977
  0
ELLIPSE
  5
E9
330
1F
100
AcDbEntity
  8
0
  6
SLD-実線
 62
     7
370
    25
100
AcDbEllipse
 10
655.0814187566
 20
598.4365093535
 30
0.0
 11
85.32675281153115
 21
-16.02623209627836
 31
0.0
210
0.0
220
0.0
230
1.0
 40
0.1633147212
 41
6.115789618284616
 42
6.116005059555731
  0
ELLIPSE
  5
EA
330
1F
100
AcDbEntity
  8
0
  6
SLD-実線
 62
     7
370
    25
100
AcDbEllipse
 10
677.0842552548
 20
54.7503695601
 30
0.0
 11
-45.91285860619904
 21
2304.573773527291
 31
0.0
210
0.0
220
0.0
230
1.0
 40
0.0321456507
 41
4.941825826712264
 42
4.945847246781013
  0
SPLINE
  5
EB
330
1F
100
AcDbEntity
  8
0
  6
SLD-実線
 62
     7
370
    25
100
AcDbSpline
210
0.0
220
0.0
230
1.0
 70
     8
 71
     3
 72
    11
 73
     7
 74
     0
 42
0.000000001
 43
0.00000001
 40
0.0
 40
0.0
 40
0.0
 40
0.0
 40
0.2022757524076093
 40
0.4105762994672439
 40
0.819276923722597
 40
1.0
 40
1.0
 40
1.0
 40
1.0
 10
738.5349595250708
 20
589.3340505192488
 30
0.0
 10
738.4917618483021
 20
590.4183372787759
 30
0.0
 10
738.4040798495348
 20
592.6192063398926
 30
0.0
 10
737.9956201874749
 20
596.255264689126
 30
0.0
 10
737.3313734227164
 20
598.8830597356289
 30
0.0
 10
736.516284559776
 20
599.8234726381017
 30
0.0
 10
736.2663703357349
 20
600.1118124394234
 30
0.0
  0
ELLIPSE
  5
EC
330
1F
100
AcDbEntity
  8
0
  6
SLD-実線
 62
     7
370
    25
100
AcDbEllipse
 10
652.1700631525
 20
540.63177539
 30
0.0
 11
37.55059399266315
 21
312.8769735043444
 31
0.0
210
0.0
220
0.0
230
1.0
 40
0.248519692
 41
4.933109954929121
 42
4.933391602701416
  0
LINE
  5
ED
330
1F
100
AcDbEntity
  8
0
  6
SLD-実線
 62
     7
370
    25
100
AcDbLine
 10
736.2608488051
 20
600.0252560902
 30
0.0
 11
735.9469812683
 21
600.2649726394
 31
0.0
  0
ELLIPSE
  5
EE
330
1F
100
AcDbEntity
  8
0
  6
SLD-実線
 62
     7
370
    25
100
AcDbEllipse
 10
654.4575298819
 20
606.9493676812
 30
0.0
 11
78.93326849332709
 21
41.15367615695061
 31
0.0
210
0.0
220
0.0
230
1.0
 40
0.7781003356
 41
5.602300366100193
 42
5.603298085254296
  0
SPLINE
  5
EF
330
1F
100
AcDbEntity
  8
0
  6
SLD-実線
 62
     7
370
    25
100
AcDbSpline
210
0.0
220
0.0
230
1.0
 70
     8
 71
     3
 72
    15
 73
    11
 74
     0
 42
0.000000001
 43
0.00000001
 40
0.0
 40
0.0
 40
0.0
 40
0.0
 40
0.0616472230618273
 40
0.192223981396467
 40
0.322983694861499
 40
0.4537285839785499
 40
0.5815059567001496
 40
0.7092946787097024
 40
0.9631235525101259
 40
1.0
 40
1.0
 40
1.0
 40
1.0
 10
735.3820117117401
 20
600.5078453430643
 30
0.0
 10
735.211480460374
 20
600.5721866680866
 30
0.0
 10
734.6797420549431
 20
600.7728112063846
 30
0.0
 10
733.5307129194713
 20
600.4310718884541
 30
0.0
 10
731.93501411698
 20
599.5056919297587
 30
0.0
 10
730.1278213603582
 20
597.9668611470823
 30
0.0
 10
728.1615732561813
 20
595.8965623341351
 30
0.0
 10
725.4422691904036
 20
592.553618095367
 30
0.0
 10
723.1297198107548
 20
589.1225224099579
 30
0.0
 10
721.6700766870082
 20
586.5280203028549
 30
0.0
 10
721.4849185592935
 20
586.1989034490928
 30
0.0
  0
ELLIPSE
  5
F0
330
1F
100
AcDbEntity
  8
0
  6
SLD-実線
 62
     7
370
    25
100
AcDbEllipse
 10
655.070278353
 20
607.5474289736
 30
0.0
 11
85.13807572223322
 21
-15.52593761823061
 31
0.0
210
0.0
220
0.0
230
1.0
 40
0.1747060097
 41
5.638401994587268
 42
5.639399713741348
  0
SPLINE
  5
F1
330
1F
100
AcDbEntity
  8
0
  6
SLD-実線
 62
     7
370
    25
100
AcDbSpline
210
0.0
220
0.0
230
1.0
 70
     8
 71
     3
 72
     9
 73
     5
 74
     0
 42
0.000000001
 43
0.00000001
 40
0.0
 40
0.0
 40
0.0
 40
0.0
 40
0.0754131301360623
 40
1.0
 40
1.0
 40
1.0
 40
1.0
 10
721.5381018646841
 20
586.2014646167653
 30
0.0
 10
721.5221165850891
 20
586.1726633658338
 30
0.0
 10
721.3101471367178
 20
585.7907504167315
 30
0.0
 10
721.1029352280747
 20
585.402575733525
 30
0.0
 10
720.9113498180637
 20
585.0436745182188
 30
0.0
  0
ELLIPSE
  5
F2
330
1F
100
AcDbEntity
  8
0
  6
SLD-実線
 62
     7
370
    25
100
AcDbEllipse
 10
657.3577450824
 20
545.6951119894
 30
0.0
 11
-51.57869521217925
 21
233.957554171513
 31
0.0
210
0.0
220
0.0
230
1.0
 40
0.2959979419
 41
4.815852970364573
 42
4.816134618136866
  0
SPLINE
  5
F3
330
1F
100
AcDbEntity
  8
0
  6
SLD-実線
 62
     7
370
    25
100
AcDbSpline
210
0.0
220
0.0
230
1.0
 70
     8
 71
     3
 72
    12
 73
     8
 74
     0
 42
0.000000001
 43
0.00000001
 40
0.0
 40
0.0
 40
0.0
 40
0.0
 40
0.2078782267364913
 40
0.4216586076779841
 40
0.6295911620856193
 40
0.8438566184159403
 40
1.0
 40
1.0
 40
1.0
 40
1.0
 10
720.8948835558375
 20
585.1087701075311
 30
0.0
 10
720.2846198696784
 20
583.8952591107226
 30
0.0
 10
719.0467656688704
 20
581.4337826716109
 30
0.0
 10
717.5454513552597
 20
577.5584373928504
 30
0.0
 10
716.4098657039544
 20
573.616789666597
 30
0.0
 10
715.7696351805118
 20
570.06046971698
 30
0.0
 10
715.6797539504521
 20
567.9002955892026
 30
0.0
 10
715.6418651158294
 20
566.9896885555779
 30
0.0
  0
ELLIPSE
  5
F4
330
1F
100
AcDbEntity
  8
0
  6
SLD-実線
 62
     7
370
    25
100
AcDbEllipse
 10
632.4435529801
 20
11.1796756152
 30
0.0
 11
44.62388131794876
 21
2392.827946229334
 31
0.0
210
0.0
220
0.0
230
1.0
 40
0.0312874646
 41
4.943373835015615
 42
4.947395255084373
  0
ELLIPSE
  5
F5
330
1F
100
AcDbEntity
  8
0
  6
SLD-実線
 62
     7
370
    25
100
AcDbEllipse
 10
654.4463894784
 20
597.8167013103
 30
0.0
 11
78.23874119923141
 21
43.70066345441865
 31
0.0
210
0.0
220
0.0
230
1.0
 40
0.7814466305
 41
5.098347646776124
 42
5.09856308804721
  0
ELLIPSE
  5
F6
330
1F
100
AcDbEntity
  8
0
  6
SLD-実線
 62
     7
370
    25
100
AcDbEllipse
 10
632.6911374043
 20
28.7134850405
 30
0.0
 11
44.50664428801292
 21
2363.866478803844
 31
0.0
210
0.0
220
0.0
230
1.0
 40
0.0316346433
 41
4.938168606060799
 42
4.938649621718332
  0
ELLIPSE
  5
F7
330
1F
100
AcDbEntity
  8
0
  6
SLD-実線
 62
     7
370
    25
100
AcDbEllipse
 10
655.1449514915
 20
575.9106915471
 30
0.0
 11
85.8062807046806
 21
-18.89399760694243
 31
0.0
210
0.0
220
0.0
230
1.0
 40
0.0972184454
 41
5.514118132555057
 42
5.514321304783623
  0
ELLIPSE
  5
F8
330
1F
100
AcDbEntity
  8
0
  6
SLD-実線
 62
     7
370
    25
100
AcDbEllipse
 10
632.4435529807
 20
11.1796756556
 30
0.0
 11
44.62388131756666
 21
2392.827946168343
 31
0.0
210
0.0
220
0.0
230
1.0
 40
0.0312874646
 41
4.933993597072556
 42
4.942904614336423
  0
ELLIPSE
  5
F9
330
1F
100
AcDbEntity
  8
0
  6
SLD-実線
 62
     7
370
    25
100
AcDbEllipse
 10
654.4447925533
 20
576.7305541899
 30
0.0
 11
78.63223929283811
 21
43.92045389959708
 31
0.0
210
0.0
220
0.0
230
1.0
 40
0.7814466305
 41
5.089113344179493
 42
5.089231223921368
  0
ELLIPSE
  5
FA
330
1F
100
AcDbEntity
  8
0
  6
SLD-実線
 62
     7
370
    25
100
AcDbEllipse
 10
632.6911374043
 20
28.7134850405
 30
0.0
 11
44.50664428801292
 21
2363.866478803844
 31
0.0
210
0.0
220
0.0
230
1.0
 40
0.0316346433
 41
4.928685106813704
 42
4.929162093058243
  0
ELLIPSE
  5
FB
330
1F
100
AcDbEntity
  8
0
  6
SLD-実線
 62
     7
370
    25
100
AcDbEllipse
 10
655.1469263447
 20
554.0685323451
 30
0.0
 11
86.25098866994176
 21
-18.99191947422855
 31
0.0
210
0.0
220
0.0
230
1.0
 40
0.0972184454
 41
5.504934920378723
 42
5.505043976081658
  0
ELLIPSE
  5
FC
330
1F
100
AcDbEntity
  8
0
  6
SLD-実線
 62
     7
370
    25
100
AcDbEllipse
 10
632.4435529807
 20
11.1796756566
 30
0.0
 11
44.62388131755278
 21
2392.827946166675
 31
0.0
210
0.0
220
0.0
230
1.0
 40
0.0312874646
 41
4.930948458863998
 42
4.933525424051183
  0
ELLIPSE
  5
FD
330
1F
100
AcDbEntity
  8
0
  6
SLD-実線
 62
     7
370
    25
100
AcDbEllipse
 10
654.0898237209
 20
579.9725875809
 30
0.0
 11
47.41546757819948
 21
107.3536104714466
 31
0.0
210
0.0
220
0.0
230
1.0
 40
0.6651574307
 41
4.457802777155189
 42
4.521499664270978
  0
ARC
  5
FE
330
1F
100
AcDbEntity
  8
0
  6
SLD-実線
 62
     7
370
    25
100
AcDbCircle
 10
654.3367446388
 20
664.0486826447
 30
0.0
 40
152.6432563682524
100
AcDbArc
 50
254.8803361695
 51
291.8931603065
  0
LINE
  5
FF
330
1F
100
AcDbEntity
  8
0
  6
SLD-実線
 62
     7
370
    25
100
AcDbLine
 10
614.5219123177
 20
516.6894520484
 30
0.0
 11
617.7703866094
 21
861.6742232388
 31
0.0
  0
LWPOLYLINE
  5
100
330
1F
100
AcDbEntity
  8
0
  6
SLD-実線
 62
     7
370
    25
100
AcDbPolyline
 90
       14
 70
   128
 43
0.0
 10
711.4848446497
 20
869.262690859
 10
705.7530302814
 20
866.523024219
 10
699.5249850111
 20
864.0875633926
 10
692.8613207527
 20
861.9800105103
 10
685.8268889044
 20
860.220876472
 10
678.4901492089
 20
858.8272813334
 10
670.922503497
 20
857.8127876914
 10
663.1976007983
 20
857.1872686923
 10
655.3906205817
 20
856.9568119449
 10
647.5775411024
 20
857.1236602755
 10
639.834399974
 20
857.6861899009
 10
632.2365541638
 20
858.6389262306
 10
624.8579466114
 20
859.9725971462
 10
617.7703866094
 20
861.6742232388
  0
LWPOLYLINE
  5
101
330
1F
100
AcDbEntity
  8
0
  6
SLD-実線
 62
     7
370
    25
100
AcDbPolyline
 90
        3
 70
   128
 43
0.0
 10
711.4848446497
 20
869.262690859
 10
711.7474035691
 20
855.2102643854
 10
711.7870123606
 20
853.0899817216
  0
LINE
  5
102
330
1F
100
AcDbEntity
  8
0
  6
SLD-実線
 62
     7
370
    25
100
AcDbLine
 10
562.9136429127
 20
969.2297527946
 30
0.0
 11
566.4037644453
 21
972.636218405
 31
0.0
  0
LINE
  5
103
330
1F
100
AcDbEntity
  8
0
  6
SLD-実線
 62
     7
370
    25
100
AcDbLine
 10
566.4037644453
 20
972.636218405
 30
0.0
 11
571.9313777058
 21
971.1339315633
 31
0.0
  0
LINE
  5
104
330
1F
100
AcDbEntity
  8
0
  6
SLD-実線
 62
     7
370
    25
100
AcDbLine
 10
568.4412561732
 20
967.7274659529
 30
0.0
 11
571.9313777058
 21
971.1339315633
 31
0.0
  0
LINE
  5
105
330
1F
100
AcDbEntity
  8
0
  6
SLD-実線
 62
     7
370
    25
100
AcDbLine
 10
691.1741412393
 20
934.3712976395
 30
0.0
 11
568.4412561732
 21
967.7274659529
 31
0.0
  0
LWPOLYLINE
  5
106
330
1F
100
AcDbEntity
  8
0
  6
SLD-実線
 62
     7
370
    25
100
AcDbPolyline
 90
       14
 70
   128
 43
0.0
 10
731.3325573354
 20
891.1268740267
 10
732.4316841012
 20
895.0354307242
 10
732.7805177273
 20
898.980680667
 10
732.3756883802
 20
902.9245116037
 10
731.2211068283
 20
906.8288249907
 10
729.327926662
 20
910.6559040354
 10
726.7144365475
 20
914.3687780512
 10
723.4058835524
 20
917.931579605
 10
719.4342292522
 20
921.3098910069
 10
714.8378409723
 20
924.4710767952
 10
709.6611211481
 20
927.384599004
 10
703.9540783852
 20
930.022312169
 10
697.7718443614
 20
932.3587352209
 10
691.1741412393
 20
934.3712976395
  0
LINE
  5
107
330
1F
100
AcDbEntity
  8
0
  6
SLD-実線
 62
     7
370
    25
100
AcDbLine
 10
740.8783256326
 20
888.5325387446
 30
0.0
 11
731.3325573354
 21
891.1268740267
 31
0.0
  0
LINE
  5
108
330
1F
100
AcDbEntity
  8
0
  6
SLD-実線
 62
     7
370
    25
100
AcDbLine
 10
737.9614794518
 20
885.6856074521
 30
0.0
 11
740.8783256326
 21
888.5325387446
 31
0.0
  0
LINE
  5
109
330
1F
100
AcDbEntity
  8
0
  6
SLD-実線
 62
     7
370
    25
100
AcDbLine
 10
730.1497572158
 20
887.8086661709
 30
0.0
 11
737.9614794518
 21
885.6856074521
 31
0.0
  0
SPLINE
  5
10A
330
1F
100
AcDbEntity
  8
0
  6
SLD-実線
 62
     7
370
    25
100
AcDbSpline
210
0.0
220
0.0
230
1.0
 70
     8
 71
     3
 72
    11
 73
     7
 74
     0
 42
0.000000001
 43
0.00000001
 40
0.0
 40
0.0
 40
0.0
 40
0.0
 40
0.1128542513412855
 40
0.3654917547306522
 40
0.618129258078133
 40
1.0
 40
1.0
 40
1.0
 40
1.0
 10
714.9821570755487
 20
873.0046234497577
 30
0.0
 10
715.7563858414151
 20
873.4975322145729
 30
0.0
 10
718.2638166810717
 20
875.0938751722667
 30
0.0
 10
722.0150440130113
 20
877.9860992058091
 30
0.0
 10
726.6411485560628
 20
882.3794208712621
 30
0.0
 10
728.8315137171563
 20
885.7688070663938
 30
0.0
 10
730.1497572157755
 20
887.8086661708966
 30
0.0
  0
LINE
  5
10B
330
1F
100
AcDbEntity
  8
0
  6
SLD-実線
 62
     7
370
    25
100
AcDbLine
 10
722.7938793116
 20
870.881564731
 30
0.0
 11
714.9821570755
 21
873.0046234498
 31
0.0
  0
LINE
  5
10C
330
1F
100
AcDbEntity
  8
0
  6
SLD-実線
 62
     7
370
    25
100
AcDbLine
 10
719.8770331308
 20
868.0346334384
 30
0.0
 11
722.7938793116
 21
870.881564731
 31
0.0
  0
LINE
  5
10D
330
1F
100
AcDbEntity
  8
0
  6
SLD-実線
 62
     7
370
    25
100
AcDbLine
 10
710.3312648336
 20
870.6289687205
 30
0.0
 11
719.8770331308
 21
868.0346334384
 31
0.0
  0
ARC
  5
10E
330
1F
100
AcDbEntity
  8
0
  6
SLD-実線
 62
     7
370
    25
100
AcDbCircle
 10
654.5536600524
 20
999.2930517504
 30
0.0
 40
140.7354264841679
100
AcDbArc
 50
255.3694305599
 51
288.8633716908
  0
LINE
  5
10F
330
1F
100
AcDbEntity
  8
0
  6
SLD-実線
 62
     7
370
    25
100
AcDbLine
 10
495.6207819295
 20
896.6524506761
 30
0.0
 11
618.3536669956
 21
863.2962823628
 31
0.0
  0
LINE
  5
110
330
1F
100
AcDbEntity
  8
0
  6
SLD-実線
 62
     7
370
    25
100
AcDbLine
 10
495.6207819295
 20
896.6524506761
 30
0.0
 11
492.1306603969
 21
893.2459850657
 31
0.0
  0
LINE
  5
111
330
1F
100
AcDbEntity
  8
0
  6
SLD-実線
 62
     7
370
    25
100
AcDbLine
 10
486.6030471364
 20
894.7482719075
 30
0.0
 11
492.1306603969
 21
893.2459850657
 31
0.0
  0
LINE
  5
112
330
1F
100
AcDbEntity
  8
0
  6
SLD-実線
 62
     7
370
    25
100
AcDbLine
 10
490.093168669
 20
898.1547375179
 30
0.0
 11
486.6030471364
 21
894.7482719075
 31
0.0
  0
LINE
  5
113
330
1F
100
AcDbEntity
  8
0
  6
SLD-実線
 62
     7
370
    25
100
AcDbLine
 10
456.9274891061
 20
907.1684585686
 30
0.0
 11
490.093168669
 21
898.1547375179
 31
0.0
  0
LINE
  5
114
330
1F
100
AcDbEntity
  8
0
  6
SLD-実線
 62
     7
370
    25
100
AcDbLine
 10
456.9274891061
 20
907.1684585686
 30
0.0
 11
453.4373675735
 21
903.7619929581
 31
0.0
  0
LINE
  5
115
330
1F
100
AcDbEntity
  8
0
  6
SLD-実線
 62
     7
370
    25
100
AcDbLine
 10
447.909754313
 20
905.2642797999
 30
0.0
 11
453.4373675735
 21
903.7619929581
 31
0.0
  0
LINE
  5
116
330
1F
100
AcDbEntity
  8
0
  6
SLD-実線
 62
     7
370
    25
100
AcDbLine
 10
451.3998758456
 20
908.6707454103
 30
0.0
 11
447.909754313
 21
905.2642797999
 31
0.0
  0
LINE
  5
117
330
1F
100
AcDbEntity
  8
0
  6
SLD-実線
 62
     7
370
    25
100
AcDbLine
 10
346.1187748247
 20
937.2838927667
 30
0.0
 11
451.3998758456
 21
908.6707454103
 31
0.0
  0
ARC
  5
118
330
1F
100
AcDbEntity
  8
0
  6
SLD-実線
 62
     7
370
    25
100
AcDbCircle
 10
365.0508736474
 20
1082.5703852393
 30
0.0
 40
146.5148090153714
100
AcDbArc
 50
262.5756934124
 51
286.7302093631
  0
LINE
  5
119
330
1F
100
AcDbEntity
  8
0
  6
SLD-実線
 62
     7
370
    25
100
AcDbLine
 10
524.2203500893
 20
979.745760687
 30
0.0
 11
527.7104716219
 21
983.1522262975
 31
0.0
  0
LINE
  5
11A
330
1F
100
AcDbEntity
  8
0
  6
SLD-実線
 62
     7
370
    25
100
AcDbLine
 10
527.7104716219
 20
983.1522262975
 30
0.0
 11
533.2380848824
 21
981.6499394557
 31
0.0
  0
LINE
  5
11B
330
1F
100
AcDbEntity
  8
0
  6
SLD-実線
 62
     7
370
    25
100
AcDbLine
 10
529.7479633498
 20
978.2434738453
 30
0.0
 11
533.2380848824
 21
981.6499394557
 31
0.0
  0
LINE
  5
11C
330
1F
100
AcDbEntity
  8
0
  6
SLD-実線
 62
     7
370
    25
100
AcDbLine
 10
562.9136429127
 20
969.2297527946
 30
0.0
 11
529.7479633498
 21
978.2434738453
 31
0.0
  0
ARC
  5
11D
330
1F
100
AcDbEntity
  8
0
  6
SLD-実線
 62
     7
370
    25
100
AcDbCircle
 10
620.3243751225
 20
861.6717291861
 30
0.0
 40
2.553989730851203
100
AcDbArc
 50
140.4995367386
 51
179.944048828
  0
SPLINE
  5
11E
330
1F
100
AcDbEntity
  8
0
  6
SLD-実線
 62
     7
370
    25
100
AcDbSpline
210
0.0
220
0.0
230
1.0
 70
     8
 71
     3
 72
    12
 73
     8
 74
     0
 42
0.000000001
 43
0.00000001
 40
0.0
 40
0.0
 40
0.0
 40
0.0
 40
0.2292321602820477
 40
0.4586335905652832
 40
0.6829169183104169
 40
0.897887853244041
 40
1.0
 40
1.0
 40
1.0
 40
1.0
 10
710.3312648335791
 20
870.6289687205407
 30
0.0
 10
710.465381064047
 20
870.5799165321068
 30
0.0
 10
710.733712559318
 20
870.4817759340388
 30
0.0
 10
711.0892008037259
 20
870.1874860665938
 30
0.0
 10
711.349164850257
 20
869.8284748267591
 30
0.0
 10
711.4679479057304
 20
869.5037613048702
 30
0.0
 10
711.4807287564837
 20
869.3214134280563
 30
0.0
 10
711.484844649709
 20
869.2626908590103
 30
0.0
  0
LINE
  5
11F
330
1F
100
AcDbEntity
  8
0
  6
SLD-実線
 62
     7
370
    25
100
AcDbLine
 10
614.5219123177
 20
516.6894520484
 30
0.0
 11
497.316640512
 21
548.54333352
 31
0.0
  0
LINE
  5
120
330
1F
100
AcDbEntity
  8
0
  6
SLD-実線
 62
     7
370
    25
100
AcDbLine
 10
492.8197304255
 20
554.1006779208
 30
0.0
 11
497.316640512
 21
548.54333352
 31
0.0
  0
LINE
  5
121
330
1F
100
AcDbEntity
  8
0
  6
SLD-実線
 62
     7
370
    25
100
AcDbLine
 10
492.173744705
 20
591.7058646758
 30
0.0
 11
492.8197304255
 21
554.1006779208
 31
0.0
  0
ELLIPSE
  5
122
330
1F
100
AcDbEntity
  8
0
  6
SLD-実線
 62
     7
370
    25
100
AcDbEllipse
 10
470.0655186296
 20
597.1478841284
 30
0.0
 11
-17.15702873543387
 21
18.18544451545461
 31
0.0
210
0.0
220
0.0
230
1.0
 40
0.7669934716
 41
3.841110681833102
 42
6.930443115401221
  0
LINE
  5
123
330
1F
100
AcDbEntity
  8
0
  6
SLD-実線
 62
     7
370
    25
100
AcDbLine
 10
446.618852168
 20
566.6570866662
 30
0.0
 11
447.9679343959
 21
603.7200567018
 31
0.0
  0
LINE
  5
124
330
1F
100
AcDbEntity
  8
0
  6
SLD-実線
 62
     7
370
    25
100
AcDbLine
 10
442.0405079072
 20
563.5662019377
 30
0.0
 11
446.618852168
 21
566.6570866662
 31
0.0
  0
LINE
  5
125
330
1F
100
AcDbEntity
  8
0
  6
SLD-実線
 62
     7
370
    25
100
AcDbLine
 10
442.0405079072
 20
563.5662019377
 30
0.0
 11
324.8352360765
 21
595.4200834161
 31
0.0
  0
LINE
  5
126
330
1F
100
AcDbEntity
  8
0
  6
SLD-実線
 62
     7
370
    25
100
AcDbLine
 10
324.8352360765
 20
595.4200834161
 30
0.0
 11
328.0837103683
 21
940.4048546065
 31
0.0
  0
LINE
  5
127
330
1F
100
AcDbEntity
  8
0
  6
SLD-実線
 62
     7
370
    25
100
AcDbLine
 10
494.8845826114
 20
878.7905515584
 30
0.0
 11
495.0375015433
 21
895.0303915522
 31
0.0
  0
LINE
  5
128
330
1F
100
AcDbEntity
  8
0
  6
SLD-実線
 62
     7
370
    25
100
AcDbLine
 10
617.7703866094
 20
861.6742232388
 30
0.0
 11
495.0375015433
 21
895.0303915522
 31
0.0
  0
ARC
  5
129
330
1F
100
AcDbEntity
  8
0
  6
SLD-実線
 62
     7
370
    25
100
AcDbCircle
 10
497.5914900564
 20
895.0278974994
 30
0.0
 40
2.55398973085236
100
AcDbArc
 50
140.4995367386
 51
179.9440488279
  0
LINE
  5
12A
330
1F
100
AcDbEntity
  8
0
  6
SLD-実線
 62
     7
370
    25
100
AcDbLine
 10
720.1857846455
 20
850.8073753784
 30
0.0
 11
719.8770331308
 21
868.0346334384
 31
0.0
  0
LINE
  5
12B
330
1F
100
AcDbEntity
  8
0
  6
SLD-実線
 62
     7
370
    25
100
AcDbLine
 10
711.7870123606
 20
853.0899817216
 30
0.0
 11
720.1857846455
 21
850.8073753784
 31
0.0
  0
LINE
  5
12C
330
1F
100
AcDbEntity
  8
0
  6
SLD-実線
 62
     7
370
    25
100
AcDbLine
 10
738.1737461182
 20
873.8418675358
 30
0.0
 11
723.006145978
 21
859.0378248147
 31
0.0
  0
LINE
  5
12D
330
1F
100
AcDbEntity
  8
0
  6
SLD-実線
 62
     7
370
    25
100
AcDbLine
 10
738.1737461182
 20
873.8418675358
 30
0.0
 11
737.9614794518
 21
885.6856074521
 31
0.0
  0
LINE
  5
12E
330
1F
100
AcDbEntity
  8
0
  6
SLD-実線
 62
     7
370
    25
100
AcDbLine
 10
741.1870771474
 20
871.3052806846
 30
0.0
 11
740.8783256326
 21
888.5325387446
 31
0.0
  0
LINE
  5
12F
330
1F
100
AcDbEntity
  8
0
  6
SLD-実線
 62
     7
370
    25
100
AcDbLine
 10
720.1857846455
 20
850.8073753784
 30
0.0
 11
741.1870771474
 21
871.3052806846
 31
0.0
  0
LINE
  5
130
330
1F
100
AcDbEntity
  8
0
  6
SLD-実線
 62
     7
370
    25
100
AcDbLine
 10
722.7938793116
 20
870.881564731
 30
0.0
 11
723.006145978
 21
859.0378248147
 31
0.0
  0
SPLINE
  5
131
330
1F
100
AcDbEntity
  8
0
  6
SLD-実線
 62
     7
370
    25
100
AcDbSpline
210
0.0
220
0.0
230
1.0
 70
     8
 71
     3
 72
    12
 73
     8
 74
     0
 42
0.000000001
 43
0.00000001
 40
0.0
 40
0.0
 40
0.0
 40
0.0
 40
0.2229279625551903
 40
0.4459316972761588
 40
0.6666721087568843
 40
0.8828987678805656
 40
0.9999999999999999
 40
0.9999999999999999
 40
0.9999999999999999
 40
0.9999999999999999
 10
730.1497572157755
 20
887.8086661708966
 30
0.0
 10
730.278787036949
 20
887.7613851242837
 30
0.0
 10
730.5368905359253
 20
887.6668069604526
 30
0.0
 10
730.8799817528899
 20
887.382590247559
 30
0.0
 10
731.1351500560312
 20
887.0333388045179
 30
0.0
 10
731.2597539484417
 20
886.7052743105562
 30
0.0
 10
731.2739231738218
 20
886.5153558996388
 30
0.0
 10
731.278900956341
 20
886.4486357705862
 30
0.0
  0
ARC
  5
132
330
1F
100
AcDbEntity
  8
0
  6
SLD-実線
 62
     7
370
    25
100
AcDbCircle
 10
699.1360661019
 20
894.5814810433
 30
0.0
 40
37.46367281373418
100
AcDbArc
 50
309.3464998345
 51
329.6702030223
  0
LINE
  5
133
330
1F
100
AcDbEntity
  8
0
  6
SLD-実線
 62
     7
370
    25
100
AcDbLine
 10
731.4722003404
 20
875.6632040815
 30
0.0
 11
731.2789009563
 21
886.4486357706
 31
0.0
  0
LINE
  5
134
330
1F
100
AcDbEntity
  8
0
  6
SLD-実線
 62
     7
370
    25
100
AcDbLine
 10
738.1737461182
 20
873.8418675358
 30
0.0
 11
731.4722003404
 21
875.6632040815
 31
0.0
  0
ARC
  5
135
330
1F
100
AcDbEntity
  8
0
  6
SLD-実線
 62
     7
370
    25
100
AcDbCircle
 10
420.5210354556
 20
978.9653362407
 30
0.0
 40
23.77603734799411
100
AcDbArc
 50
323.7243530272
 51
0.1922874268
  0
SPLINE
  5
136
330
1F
100
AcDbEntity
  8
0
  6
SLD-実線
 62
     7
370
    25
100
AcDbSpline
210
0.0
220
0.0
230
1.0
 70
     8
 71
     3
 72
    11
 73
     7
 74
     0
 42
0.000000001
 43
0.00000001
 40
0.0
 40
0.0
 40
0.0
 40
0.0
 40
0.0044970841613915
 40
0.3759837294230279
 40
0.7509656274234846
 40
1.0
 40
1.0
 40
1.0
 40
1.0
 10
328.0837103682786
 20
940.4048546065313
 30
0.0
 10
328.109596500925
 20
940.40235996708
 30
0.0
 10
330.273835448529
 20
940.1937928576365
 30
0.0
 10
334.7063830454264
 20
939.8679921178218
 30
0.0
 10
340.8374548781142
 20
939.5404489195075
 30
0.0
 10
344.8227481118188
 20
939.1271677013116
 30
0.0
 10
346.4132114487305
 20
938.962234135115
 30
0.0
  0
LWPOLYLINE
  5
137
330
1F
100
AcDbEntity
  8
0
  6
SLD-実線
 62
     7
370
    25
100
AcDbPolyline
 90
       13
 70
   128
 43
0.0
 10
278.8544380322
 20
635.1632807311
 10
279.0605313598
 20
631.5937705735
 10
279.9821038749
 20
627.5237172039
 10
281.6281138143
 20
623.5147361647
 10
283.9845482576
 20
619.6009569777
 10
287.0313462517
 20
615.815698686
 10
290.7425695948
 20
612.1911862005
 10
295.0866236555
 20
608.7582759598
 10
300.0265263461
 20
605.546193242
 10
305.5202229611
 20
602.5822833616
 10
311.5209442
 20
599.8917788717
 10
317.9776043268
 20
597.4975847528
 10
324.8352360765
 20
595.4200834161
  0
LINE
  5
138
330
1F
100
AcDbEntity
  8
0
  6
SLD-実線
 62
     7
370
    25
100
AcDbLine
 10
491.9677364306
 20
875.9436202659
 30
0.0
 11
494.8845826114
 21
878.7905515584
 31
0.0
  0
LINE
  5
139
330
1F
100
AcDbEntity
  8
0
  6
SLD-実線
 62
     7
370
    25
100
AcDbLine
 10
492.1306603969
 20
893.2459850657
 30
0.0
 11
491.9677364306
 21
875.9436202659
 31
0.0
  0
LINE
  5
13A
330
1F
100
AcDbEntity
  8
0
  6
SLD-実線
 62
     7
370
    25
100
AcDbLine
 10
447.7468303467
 20
887.9619150001
 30
0.0
 11
491.9677364306
 21
875.9436202659
 31
0.0
  0
LINE
  5
13B
330
1F
100
AcDbEntity
  8
0
  6
SLD-実線
 62
     7
370
    25
100
AcDbLine
 10
447.909754313
 20
905.2642797999
 30
0.0
 11
447.7468303467
 21
887.9619150001
 31
0.0
  0
LINE
  5
13C
330
1F
100
AcDbEntity
  8
0
  6
SLD-実線
 62
     7
370
    25
100
AcDbLine
 10
453.4373675735
 20
903.7619929581
 30
0.0
 11
453.3253573467
 21
891.8666171583
 31
0.0
  0
LINE
  5
13D
330
1F
100
AcDbEntity
  8
0
  6
SLD-実線
 62
     7
370
    25
100
AcDbLine
 10
486.4910369096
 20
882.8528961076
 30
0.0
 11
453.3253573467
 21
891.8666171583
 31
0.0
  0
LINE
  5
13E
330
1F
100
AcDbEntity
  8
0
  6
SLD-実線
 62
     7
370
    25
100
AcDbLine
 10
486.6030471364
 20
894.7482719075
 30
0.0
 11
486.4910369096
 21
882.8528961076
 31
0.0
  0
ARC
  5
13F
330
1F
100
AcDbEntity
  8
0
  6
SLD-実線
 62
     7
370
    25
100
AcDbCircle
 10
458.898197233
 20
905.5439053919
 30
0.0
 40
2.553989730849268
100
AcDbArc
 50
140.4995367386
 51
179.944048828
  0
LINE
  5
140
330
1F
100
AcDbEntity
  8
0
  6
SLD-実線
 62
     7
370
    25
100
AcDbLine
 10
486.5252215667
 20
886.4832730343
 30
0.0
 11
456.2422035275
 21
894.7135484508
 31
0.0
  0
LINE
  5
141
330
1F
100
AcDbEntity
  8
0
  6
SLD-実線
 62
     7
370
    25
100
AcDbLine
 10
456.2422035275
 20
894.7135484508
 30
0.0
 11
456.3442087199
 21
905.5463994446
 31
0.0
  0
LINE
  5
142
330
1F
100
AcDbEntity
  8
0
  6
SLD-実線
 62
     7
370
    25
100
AcDbLine
 10
453.3253573467
 20
891.8666171583
 30
0.0
 11
456.2422035275
 21
894.7135484508
 31
0.0
  0
SPLINE
  5
143
330
1F
100
AcDbEntity
  8
0
  6
SLD-実線
 62
     7
370
    25
100
AcDbSpline
210
0.0
220
0.0
230
1.0
 70
     8
 71
     3
 72
    10
 73
     6
 74
     0
 42
0.000000001
 43
0.00000001
 40
0.0
 40
0.0
 40
0.0
 40
0.0
 40
0.0045301623910769
 40
0.7520072206828702
 40
1.0
 40
1.0
 40
1.0
 40
1.0
 10
328.0837103682786
 20
940.4048546065313
 30
0.0
 10
328.1101047447396
 20
940.3999618756073
 30
0.0
 10
332.4915727740585
 20
939.5877682573597
 30
0.0
 10
338.4574999462554
 20
938.6823711121262
 30
0.0
 10
344.590831141968
 20
937.5628014584296
 30
0.0
 10
346.1187748246723
 20
937.2838927667043
 30
0.0
  0
ARC
  5
144
330
1F
100
AcDbEntity
  8
0
  6
SLD-実線
 62
     7
370
    25
100
AcDbCircle
 10
341.6693047493
 20
938.9294747306
 30
0.0
 40
4.744019809394417
100
AcDbArc
 50
339.7037039784
 51
0.3956540258
  0
ARC
  5
145
330
1F
100
AcDbEntity
  8
0
  6
SLD-実線
 62
     7
370
    25
100
AcDbCircle
 10
568.7150828298
 20
967.5275287595
 30
0.0
 40
0.3390514992651033
100
AcDbArc
 50
80.8347711036
 51
143.8645866052
  0
LINE
  5
146
330
1F
100
AcDbEntity
  8
0
  6
SLD-実線
 62
     7
370
    25
100
AcDbLine
 10
279.9276548448
 20
1041.1764037756
 30
0.0
 11
287.0832027921
 21
1039.2316791684
 31
0.0
  0
LINE
  5
147
330
1F
100
AcDbEntity
  8
0
  6
SLD-実線
 62
     7
370
    25
100
AcDbLine
 10
280.2738574969
 20
1060.3051238037
 30
0.0
 11
279.9276548448
 21
1041.1764037756
 31
0.0
  0
LINE
  5
148
330
1F
100
AcDbEntity
  8
0
  6
SLD-実線
 62
     7
370
    25
100
AcDbLine
 10
571.9313777058
 20
971.1339315633
 30
0.0
 11
571.9711095225
 21
966.9920106953
 31
0.0
  0
ARC
  5
149
330
1F
100
AcDbEntity
  8
0
  6
SLD-実線
 62
     7
370
    25
100
AcDbCircle
 10
530.0217900064
 20
978.0435366519
 30
0.0
 40
0.3390514992658711
100
AcDbArc
 50
80.8347711037
 51
143.8645866051
  0
ELLIPSE
  5
14A
330
1F
100
AcDbEntity
  8
0
  6
SLD-実線
 62
     7
370
    25
100
AcDbEllipse
 10
632.8336928125
 20
-89.4643139828
 30
0.0
 11
43.84389571925556
 21
2351.003450357351
 31
0.0
210
0.0
220
0.0
230
1.0
 40
0.0312874646
 41
4.984310394826228
 42
4.991566228717934
  0
ELLIPSE
  5
14B
330
1F
100
AcDbEntity
  8
0
  6
SLD-実線
 62
     7
370
    25
100
AcDbEllipse
 10
632.8336928117
 20
-89.4643140387
 30
0.0
 11
43.84389571981603
 21
2351.003450439368
 31
0.0
210
0.0
220
0.0
230
1.0
 40
0.0312874646
 41
4.993986260391017
 42
4.996615109896772
  0
SPLINE
  5
14C
330
1F
100
AcDbEntity
  8
0
  6
SLD-実線
 62
     7
370
    25
100
AcDbSpline
210
0.0
220
0.0
230
1.0
 70
     8
 71
     3
 72
    10
 73
     6
 74
     0
 42
0.000000001
 43
0.00000001
 40
0.0
 40
0.0
 40
0.0
 40
0.0
 40
0.0715436177573895
 40
0.776154074474998
 40
0.9999999999999999
 40
0.9999999999999999
 40
0.9999999999999999
 40
0.9999999999999999
 10
727.3901406708427
 20
594.8898092450072
 30
0.0
 10
727.4940889981746
 20
594.9998349371488
 30
0.0
 10
728.6217915147992
 20
596.1934688618725
 30
0.0
 10
729.7803974061133
 20
596.5995004306875
 30
0.0
 10
730.6866966905087
 20
596.6076618803643
 30
0.0
 10
730.9052006568751
 20
596.6096295627361
 30
0.0
  0
ELLIPSE
  5
14D
330
1F
100
AcDbEntity
  8
0
  6
SLD-実線
 62
     7
370
    25
100
AcDbEllipse
 10
654.4710201953
 20
606.9734740814
 30
0.0
 11
75.45767417062325
 21
39.34159506693982
 31
0.0
210
0.0
220
0.0
230
1.0
 40
0.7781003356
 41
5.545667801592382
 42
5.585717694075371
  0
ELLIPSE
  5
14E
330
1F
100
AcDbEntity
  8
0
  6
SLD-実線
 62
     7
370
    25
100
AcDbEllipse
 10
652.2830117593
 20
541.5057541149
 30
0.0
 11
35.91545660493648
 21
299.2527725866258
 31
0.0
210
0.0
220
0.0
230
1.0
 40
0.248519692
 41
4.925855323124017
 42
4.938659557608592
  0
SPLINE
  5
14F
330
1F
100
AcDbEntity
  8
0
  6
SLD-実線
 62
     7
370
    25
100
AcDbSpline
210
0.0
220
0.0
230
1.0
 70
     8
 71
     3
 72
    10
 73
     6
 74
     0
 42
0.000000001
 43
0.00000001
 40
0.0
 40
0.0
 40
0.0
 40
0.0
 40
0.0565989951733565
 40
0.6837775307826343
 40
1.0
 40
1.0
 40
1.0
 40
1.0
 10
731.1166479904297
 20
596.4567872422448
 30
0.0
 10
731.0670325363682
 20
596.4997529423028
 30
0.0
 10
730.4676237913391
 20
597.0188254135377
 30
0.0
 10
729.0931030818809
 20
596.4177305606634
 30
0.0
 10
727.5439763227104
 20
594.9365637987322
 30
0.0
 10
727.024718142563
 20
594.4400854100255
 30
0.0
  0
ELLIPSE
  5
150
330
1F
100
AcDbEntity
  8
0
  6
SLD-実線
 62
     7
370
    25
100
AcDbEllipse
 10
632.7895774698
 20
-91.9834979817
 30
0.0
 11
43.91914696734159
 21
2352.954884009083
 31
0.0
210
0.0
220
0.0
230
1.0
 40
0.0312653869
 41
4.979231067611478
 42
4.997525597692491
  0
LWPOLYLINE
  5
151
330
1F
100
AcDbEntity
  8
0
  6
SLD-実線
 62
     7
370
    25
100
AcDbPolyline
 90
        9
 70
   128
 43
0.0
 10
715.3280743315
 20
527.1319562036
 10
715.3286767474
 20
527.1322918461
 10
715.3292791564
 20
527.132627492
 10
715.3298815583
 20
527.1329631412
 10
715.3304839532
 20
527.1332987937
 10
715.3310863412
 20
527.1336344495
 10
715.331688722
 20
527.1339701087
 10
715.3322910959
 20
527.1343057712
 10
715.3328934628
 20
527.1346414371
  0
ELLIPSE
  5
152
330
1F
100
AcDbEntity
  8
0
  6
SLD-実線
 62
     7
370
    25
100
AcDbEllipse
 10
632.8336928125
 20
-89.4643139813
 30
0.0
 11
43.84389571925022
 21
2351.003450355433
 31
0.0
210
0.0
220
0.0
230
1.0
 40
0.0312874646
 41
4.978345593759018
 42
4.981897171639002
  0
ELLIPSE
  5
153
330
1F
100
AcDbEntity
  8
0
  6
SLD-実線
 62
     7
370
    25
100
AcDbEllipse
 10
657.3577450824
 20
545.6951119894
 30
0.0
 11
-51.57869521217925
 21
233.957554171513
 31
0.0
210
0.0
220
0.0
230
1.0
 40
0.2959979419
 41
4.797970961784717
 42
4.798038898519605
  0
SPLINE
  5
154
330
1F
100
AcDbEntity
  8
0
  6
SLD-実線
 62
     7
370
    25
100
AcDbSpline
210
0.0
220
0.0
230
1.0
 70
     8
 71
     3
 72
    10
 73
     6
 74
     0
 42
0.000000001
 43
0.00000001
 40
0.0
 40
0.0
 40
0.0
 40
0.0
 40
0.0128662964872052
 40
0.5236980281786099
 40
1.0
 40
1.0
 40
1.0
 40
1.0
 10
721.9425338335512
 20
580.920288810043
 30
0.0
 10
721.9529759073034
 20
580.9450486977659
 30
0.0
 10
722.3780005785131
 20
581.952852644401
 30
0.0
 10
723.2571291249607
 20
583.8526373930538
 30
0.0
 10
724.2296040279606
 20
585.5717346937917
 30
0.0
 10
724.6988329806316
 20
586.4012164865625
 30
0.0
  0
ELLIPSE
  5
155
330
1F
100
AcDbEntity
  8
0
  6
SLD-実線
 62
     7
370
    25
100
AcDbEllipse
 10
655.070278353
 20
607.5474289736
 30
0.0
 11
85.13807572223322
 21
-15.52593761823061
 31
0.0
210
0.0
220
0.0
230
1.0
 40
0.1747060097
 41
5.701149188944689
 42
5.7015985676143
  0
SPLINE
  5
156
330
1F
100
AcDbEntity
  8
0
  6
SLD-実線
 62
     7
370
    25
100
AcDbSpline
210
0.0
220
0.0
230
1.0
 70
     8
 71
     3
 72
    11
 73
     7
 74
     0
 42
0.000000001
 43
0.00000001
 40
0.0
 40
0.0
 40
0.0
 40
0.0
 40
0.3030517701418414
 40
0.6062910851293566
 40
0.9063278432879649
 40
1.0
 40
1.0
 40
1.0
 40
1.0
 10
724.7208762690475
 20
586.4029667152605
 30
0.0
 10
725.7967204691129
 20
588.0684036349575
 30
0.0
 10
727.9490746598916
 20
591.4003081369009
 30
0.0
 10
731.103749085185
 20
594.5949934108551
 30
0.0
 10
733.1201250642599
 20
595.7254421903842
 30
0.0
 10
734.0308376798332
 20
595.7059074609296
 30
0.0
 10
734.2475165804714
 20
595.70125971187
 30
0.0
  0
ELLIPSE
  5
157
330
1F
100
AcDbEntity
  8
0
  6
SLD-実線
 62
     7
370
    25
100
AcDbEllipse
 10
654.4575298819
 20
606.9493676812
 30
0.0
 11
78.93326849332709
 21
41.15367615695061
 31
0.0
210
0.0
220
0.0
230
1.0
 40
0.7781003356
 41
5.540101512227264
 42
5.540550890896872
  0
LINE
  5
158
330
1F
100
AcDbEntity
  8
0
  6
SLD-実線
 62
     7
370
    25
100
AcDbLine
 10
734.2609103146
 20
595.7340971036
 30
0.0
 11
734.4792289348
 21
595.6518029974
 31
0.0
  0
LINE
  5
159
330
1F
100
AcDbEntity
  8
0
  6
SLD-実線
 62
     7
370
    25
100
AcDbLine
 10
735.0883589641
 20
595.4221944955
 30
0.0
 11
735.8980800707
 21
594.5413297646
 31
0.0
  0
ELLIPSE
  5
15A
330
1F
100
AcDbEntity
  8
0
  6
SLD-実線
 62
     7
370
    25
100
AcDbEllipse
 10
652.1700631525
 20
540.63177539
 30
0.0
 11
37.55059399266315
 21
312.8769735043444
 31
0.0
210
0.0
220
0.0
230
1.0
 40
0.248519692
 41
4.915227946349262
 42
4.915295883084152
  0
SPLINE
  5
15B
330
1F
100
AcDbEntity
  8
0
  6
SLD-実線
 62
     7
370
    25
100
AcDbSpline
210
0.0
220
0.0
230
1.0
 70
     8
 71
     3
 72
     9
 73
     5
 74
     0
 42
0.000000001
 43
0.00000001
 40
0.0
 40
0.0
 40
0.0
 40
0.0
 40
0.5032669041500826
 40
1.0
 40
1.0
 40
1.0
 40
1.0
 10
735.8966456629093
 20
594.5203821053188
 30
0.0
 10
736.2968511571105
 20
593.6084732109537
 30
0.0
 10
737.0920663618083
 20
591.7964945434808
 30
0.0
 10
737.2888181279874
 20
588.3144524627835
 30
0.0
 10
737.3865512419156
 20
586.5848069201588
 30
0.0
  0
ELLIPSE
  5
15C
330
1F
100
AcDbEntity
  8
0
  6
SLD-実線
 62
     7
370
    25
100
AcDbEllipse
 10
677.8367051511
 20
-104.8932195724
 30
0.0
 11
-47.46064454720295
 21
2382.264141663212
 31
0.0
210
0.0
220
0.0
230
1.0
 40
0.0321456507
 41
5.006205808111277
 42
5.006247913850129
  0
LINE
  5
15D
330
1F
100
AcDbEntity
  8
0
  6
SLD-実線
 62
     7
370
    25
100
AcDbLine
 10
737.3893978416
 20
586.4888177546
 30
0.0
 11
737.3958038525
 21
586.2337304753
 31
0.0
  0
ELLIPSE
  5
15E
330
1F
100
AcDbEntity
  8
0
  6
SLD-実線
 62
     7
370
    25
100
AcDbEllipse
 10
677.8287316228
 20
-107.4233293707
 30
0.0
 11
-47.42966404593699
 21
2384.227762263997
 31
0.0
210
0.0
220
0.0
230
1.0
 40
0.0321437199
 41
4.989169337464372
 42
5.006954216891847
  0
ARC
  5
15F
330
1F
100
AcDbEntity
  8
0
  6
SLD-実線
 62
     7
370
    25
100
AcDbCircle
 10
697.6464787517
 20
567.6692125585
 30
0.0
 40
46.53224141348961
100
AcDbArc
 50
296.9822747214
 51
331.6277925167
  0
ELLIPSE
  5
160
330
1F
100
AcDbEntity
  8
0
  6
SLD-実線
 62
     7
370
    25
100
AcDbEllipse
 10
631.6450783675
 20
-152.4999907757
 30
0.0
 11
46.20660832753675
 21
2475.504927694014
 31
0.0
210
0.0
220
0.0
230
1.0
 40
0.0312653869
 41
4.990696080958777
 42
5.008589731536757
  0
ELLIPSE
  5
161
330
1F
100
AcDbEntity
  8
0
  6
SLD-実線
 62
     7
370
    25
100
AcDbEllipse
 10
590.8127607102
 20
-3938.8429628931
 30
0.0
 11
82.05672559358186
 21
6804.554616611491
 31
0.0
210
0.0
220
0.0
230
1.0
 40
0.0145151841
 41
5.436620271095552
 42
5.436667810874735
  0
SPLINE
  5
162
330
1F
100
AcDbEntity
  8
0
  6
SLD-実線
 62
     7
370
    25
100
AcDbSpline
210
0.0
220
0.0
230
1.0
 70
     8
 71
     3
 72
     9
 73
     5
 74
     0
 42
0.000000001
 43
0.00000001
 40
0.0
 40
0.0
 40
0.0
 40
0.0
 40
0.4925538172969841
 40
1.0
 40
1.0
 40
1.0
 40
1.0
 10
719.1592025719627
 20
568.9320629740074
 30
0.0
 10
719.3135340386173
 20
570.8647114936664
 30
0.0
 10
719.6268631840525
 20
574.7884421638803
 30
0.0
 10
721.1656008408359
 20
578.8457009333645
 30
0.0
 10
721.9464273909517
 20
580.9045414081776
 30
0.0
  0
LINE
  5
163
330
1F
100
AcDbEntity
  8
0
  6
SLD-実線
 62
     7
370
    25
100
AcDbLine
 10
732.2123415304
 20
596.254376682
 30
0.0
 11
734.2609103146
 21
595.7340971036
 31
0.0
  0
SPLINE
  5
164
330
1F
100
AcDbEntity
  8
0
  6
SLD-実線
 62
     7
370
    25
100
AcDbSpline
210
0.0
220
0.0
230
1.0
 70
     8
 71
     3
 72
    12
 73
     8
 74
     0
 42
0.000000001
 43
0.00000001
 40
0.0
 40
0.0
 40
0.0
 40
0.0
 40
0.1515891068773415
 40
0.3031773579553612
 40
0.609647142161217
 40
0.916115561031454
 40
1.0
 40
1.0
 40
1.0
 40
1.0
 10
722.6857012189405
 20
586.9560836853533
 30
0.0
 10
723.1214458629588
 20
587.8379358551447
 30
0.0
 10
723.9929326909904
 20
589.6016352162135
 30
0.0
 10
725.9298164982546
 20
592.5982204201222
 30
0.0
 10
728.5120632463158
 20
595.3633030318568
 30
0.0
 10
730.8162153083034
 20
596.3679476517798
 30
0.0
 10
731.9653907619232
 20
596.274465437426
 30
0.0
 10
732.2123415303564
 20
596.2543766819649
 30
0.0
  0
LINE
  5
165
330
1F
100
AcDbEntity
  8
0
  6
SLD-実線
 62
     7
370
    25
100
AcDbLine
 10
724.6988329806
 20
586.4012164866
 30
0.0
 11
722.6857012189
 21
586.9560836854
 31
0.0
  0
LINE
  5
166
330
1F
100
AcDbEntity
  8
0
  6
SLD-実線
 62
     7
370
    25
100
AcDbLine
 10
720.536813401
 20
581.2876442863
 30
0.0
 11
721.9425338336
 21
580.92028881
 31
0.0
  0
SPLINE
  5
167
330
1F
100
AcDbEntity
  8
0
  6
SLD-実線
 62
     7
370
    25
100
AcDbSpline
210
0.0
220
0.0
230
1.0
 70
     8
 71
     3
 72
    10
 73
     6
 74
     0
 42
0.000000001
 43
0.00000001
 40
0.0
 40
0.0
 40
0.0
 40
0.0
 40
0.4922222216410487
 40
0.7461110504952787
 40
1.0
 40
1.0
 40
1.0
 40
1.0
 10
718.581632596156
 20
569.0996577992601
 30
0.0
 10
718.683414815762
 20
571.0350081839712
 30
0.0
 10
718.8376964297427
 20
573.9686146834888
 30
0.0
 10
719.6593780161433
 20
578.1636921130271
 30
0.0
 10
720.2443348930418
 20
580.2463267302451
 30
0.0
 10
720.5368134009855
 20
581.2876442862762
 30
0.0
  0
LINE
  5
168
330
1F
100
AcDbEntity
  8
0
  6
SLD-実線
 62
     7
370
    25
100
AcDbLine
 10
715.748567854
 20
569.8216964635
 30
0.0
 11
718.5816325962
 21
569.0996577993
 31
0.0
  0
ELLIPSE
  5
169
330
1F
100
AcDbEntity
  8
0
  6
SLD-実線
 62
     7
370
    25
100
AcDbEllipse
 10
-43284.2548833046
 20
12538.758593148
 30
0.0
 11
44013.09998030421
 21
-11972.81972381023
 31
0.0
210
0.0
220
0.0
230
1.0
 40
0.000359692
 41
0.0210778992102461
 42
0.0216943733099869
  0
LINE
  5
16A
330
1F
100
AcDbEntity
  8
0
  6
SLD-実線
 62
     7
370
    25
100
AcDbLine
 10
721.946427391
 20
580.9045414082
 30
0.0
 11
720.536813401
 21
581.2876442863
 31
0.0
  0
LINE
  5
16B
330
1F
100
AcDbEntity
  8
0
  6
SLD-実線
 62
     7
370
    25
100
AcDbLine
 10
724.720876269
 20
586.4029667153
 30
0.0
 11
722.6857012189
 21
586.9560836854
 31
0.0
  0
LINE
  5
16C
330
1F
100
AcDbEntity
  8
0
  6
SLD-実線
 62
     7
370
    25
100
AcDbLine
 10
734.2475165805
 20
595.7012597119
 30
0.0
 11
732.2123415304
 21
596.254376682
 31
0.0
  0
LINE
  5
16D
330
1F
100
AcDbEntity
  8
0
  6
SLD-実線
 62
     7
370
    25
100
AcDbLine
 10
730.9052006569
 20
596.6096295627
 30
0.0
 11
729.3076659567
 21
597.0438052632
 31
0.0
  0
LINE
  5
16E
330
1F
100
AcDbEntity
  8
0
  6
SLD-実線
 62
     7
370
    25
100
AcDbLine
 10
718.7588468591
 20
526.2021484731
 30
0.0
 11
715.3328934628
 21
527.1346414371
 31
0.0
  0
LINE
  5
16F
330
1F
100
AcDbEntity
  8
0
  6
SLD-実線
 62
     7
370
    25
100
AcDbLine
 10
715.7487169484
 20
569.5589761025
 30
0.0
 11
719.1593916437
 21
568.6897269941
 31
0.0
  0
LINE
  5
170
330
1F
100
AcDbEntity
  8
0
  6
SLD-実線
 62
     7
370
    25
100
AcDbLine
 10
533.2380848824
 20
981.6499394557
 30
0.0
 11
533.2778166991
 21
977.5080185877
 31
0.0
  0
LINE
  5
171
330
1F
100
AcDbEntity
  8
0
  6
SLD-実線
 62
     7
370
    25
100
AcDbLine
 10
715.6772242137
 20
562.5391703382
 30
0.0
 11
715.5923319955
 21
562.5622422241
 31
0.0
  0
LINE
  5
172
330
1F
100
AcDbEntity
  8
0
  6
SLD-実線
 62
     7
370
    25
100
AcDbLine
 10
715.5369701391
 20
557.6429715646
 30
0.0
 11
715.5496216303
 21
557.6395243425
 31
0.0
  0
LINE
  5
173
330
1F
100
AcDbEntity
  8
0
  6
SLD-実線
 62
     7
370
    25
100
AcDbLine
 10
715.4636131021
 20
540.6532886848
 30
0.0
 11
715.3435083806
 21
540.6859305746
 31
0.0
  0
LINE
  5
174
330
1F
100
AcDbEntity
  8
0
  6
SLD-実線
 62
     7
370
    25
100
AcDbLine
 10
715.2865400547
 20
535.7593369026
 30
0.0
 11
715.2935614852
 21
535.7574237344
 31
0.0
  0
LINE
  5
175
330
1F
100
AcDbEntity
  8
0
  6
SLD-実線
 62
     7
370
    25
100
AcDbLine
 10
715.3280743315
 20
527.1319562036
 30
0.0
 11
714.4326097848
 21
527.3753242799
 31
0.0
  0
LINE
  5
176
330
1F
100
AcDbEntity
  8
0
  6
SLD-実線
 62
     7
370
    25
100
AcDbLine
 10
738.7830087574
 20
580.3148775853
 30
0.0
 11
737.56121763
 21
580.6469342339
 31
0.0
  0
LINE
  5
177
330
1F
100
AcDbEntity
  8
0
  6
SLD-実線
 62
     7
370
    25
100
AcDbLine
 10
738.7793918353
 20
580.3124922041
 30
0.0
 11
737.5613229828
 21
580.643370806
 31
0.0
  0
LINE
  5
178
330
1F
100
AcDbEntity
  8
0
  6
SLD-実線
 62
     7
370
    25
100
AcDbLine
 10
737.5929030516
 20
579.5749159974
 30
0.0
 11
738.8087512841
 21
579.2453553043
 31
0.0
  0
LINE
  5
179
330
1F
100
AcDbEntity
  8
0
  6
SLD-実線
 62
     7
370
    25
100
AcDbLine
 10
739.3577156045
 20
559.24425612
 30
0.0
 11
738.1811287117
 21
559.5640272262
 31
0.0
  0
LINE
  5
17A
330
1F
100
AcDbEntity
  8
0
  6
SLD-実線
 62
     7
370
    25
100
AcDbLine
 10
739.3558187712
 20
559.2429245082
 30
0.0
 11
738.1811878892
 21
559.562003535
 31
0.0
  0
LINE
  5
17B
330
1F
100
AcDbEntity
  8
0
  6
SLD-実線
 62
     7
370
    25
100
AcDbLine
 10
738.2122270108
 20
558.5002661891
 30
0.0
 11
739.3846504147
 21
558.1824759755
 31
0.0
  0
LINE
  5
17C
330
1F
100
AcDbEntity
  8
0
  6
SLD-実線
 62
     7
370
    25
100
AcDbLine
 10
738.3811939976
 20
552.7101789035
 30
0.0
 11
739.5431089451
 21
552.3943953176
 31
0.0
  0
LINE
  5
17D
330
1F
100
AcDbEntity
  8
0
  6
SLD-実線
 62
     7
370
    25
100
AcDbLine
 10
740.4252851435
 20
550.8860992375
 30
0.0
 11
738.4184393196
 21
551.4315169309
 31
0.0
  0
LINE
  5
17E
330
1F
100
AcDbEntity
  8
0
  6
SLD-実線
 62
     7
370
    25
100
AcDbLine
 10
446.618852168
 20
566.6570866662
 30
0.0
 11
450.1196007659
 21
570.0739246182
 31
0.0
  0
LINE
  5
17F
330
1F
100
AcDbEntity
  8
0
  6
SLD-実線
 62
     7
370
    25
100
AcDbLine
 10
450.1196007659
 20
570.0739246182
 30
0.0
 11
450.1204960301
 21
570.098519966
 31
0.0
  0
LWPOLYLINE
  5
180
330
1F
100
AcDbEntity
  8
0
  6
SLD-実線
 62
     7
370
    25
100
AcDbPolyline
 90
       60
 70
   128
 43
0.0
 10
335.9087660682
 20
1045.5264297726
 10
341.9495040396
 20
1044.0908810696
 10
348.2522883634
 20
1042.9941663983
 10
354.7457059748
 20
1042.2487119741
 10
361.3561838576
 20
1041.8629640934
 10
368.008822656
 20
1041.8412934339
 10
374.6282453142
 20
1042.1839455329
 10
381.1394511284
 20
1042.887038005
 10
387.468665535
 20
1043.9426045318
 10
393.5441760057
 20
1045.3386851226
 10
399.2971445794
 20
1047.0594616265
 10
404.6623878232
 20
1049.0854369581
 10
409.5791153873
 20
1051.3936560075
 10
413.991618784
 20
1053.9579657303
 10
417.8499025864
 20
1056.7493114729
 10
421.1102508975
 20
1059.7360661726
 10
423.7357226681
 20
1062.8843887052
 10
425.696570254
 20
1066.1586073184
 10
426.9705764685
 20
1069.521623807
 10
427.543306312
 20
1072.9353338504
 10
427.4082705268
 20
1076.3610587498
 10
426.5669991221
 20
1079.7599836732
 10
425.0290240391
 20
1083.093597443
 10
422.81177115
 20
1086.3241288833
 10
419.9403628162
 20
1089.4149747819
 10
416.4473332412
 20
1092.3311146198
 10
412.372259846
 20
1095.0395073674
 10
407.7613148405
 20
1097.5094658526
 10
402.6667420739
 20
1099.7130044588
 10
397.1462650915
 20
1101.6251562132
 10
391.2624331034
 20
1103.2242556724
 10
385.0819122769
 20
1104.4921844004
 10
378.6747303827
 20
1105.4145762581
 10
372.1134833518
 20
1105.9809801773
 10
365.4725127348
 20
1106.1849785752
 10
358.8270633824
 20
1106.0242600684
 10
352.2524308912
 20
1105.5006456619
 10
345.8231084744
 20
1104.6200681161
 10
339.6119429239
 20
1103.3925047264
 10
333.6893092274
 20
1101.8318642766
 10
328.1223131911
 20
1099.9558294465
 10
322.9740311046
 20
1097.7856564605
 10
318.3027950612
 20
1095.3459342456
 10
314.1615320316
 20
1092.6643058293
 10
310.5971641809
 20
1089.7711551332
 10
307.650077221
 20
1086.6992627106
 10
305.3536628247
 20
1083.4834343302
 10
303.7339402848
 20
1080.1601066126
 10
302.8092617048
 20
1076.7669341886
 10
302.5901040625
 20
1073.3423630577
 10
303.0789505017
 20
1069.9251949793
 10
304.2702621968
 20
1066.554147833
 10
306.1505411102
 20
1063.26741693
 10
308.6984829306
 20
1060.1022422448
 10
311.8852184591
 20
1057.0944864713
 10
315.6746407087
 20
1054.2782286842
 10
320.0238140112
 20
1051.6853782096
 10
324.8834604952
 20
1049.3453130795
 10
330.1985184242
 20
1047.2845471667
 10
335.9087660682
 20
1045.5264297726
  0
LWPOLYLINE
  5
181
330
1F
100
AcDbEntity
  8
0
  6
SLD-実線
 62
     7
370
    25
100
AcDbPolyline
 90
       70
 70
   128
 43
0.0
 10
325.4081198173
 20
1026.7058041124
 10
332.4085525887
 20
1025.008320623
 10
339.679688292
 20
1023.6457347588
 10
347.161276007
 20
1022.6293373353
 10
354.7913209416
 20
1021.9675505418
 10
362.5065981405
 20
1021.665858152
 10
370.2431763869
 20
1021.7267600841
 10
377.936947957
 20
1022.1497516855
 10
385.5241598365
 20
1022.9313279146
 10
392.9419419984
 20
1024.0650123845
 10
400.1288283633
 20
1025.5414110288
 10
407.0252661276
 20
1027.3482899433
 10
413.574109236
 20
1029.4706767603
 10
419.7210919119
 20
1031.8909847141
 10
425.4152783211
 20
1034.5891583709
 10
430.6094846416
 20
1037.5428398139
 10
435.2606700441
 20
1040.7275539085
 10
439.3302933413
 20
1044.1169111107
 10
442.7846323531
 20
1047.6828261393
 10
445.5950633385
 20
1051.3957506993
 10
447.7382981812
 20
1055.2249183286
 10
449.1965773623
 20
1059.1385993381
 10
449.9578171213
 20
1063.1043637345
 10
450.0157095858
 20
1067.089349945
 10
449.3697750405
 20
1071.0605371189
 10
448.0253659027
 20
1074.9850187485
 10
445.9936223697
 20
1078.8302753432
 10
443.2913801083
 20
1082.5644438957
 10
439.9410307491
 20
1086.1565819094
 10
435.9703363418
 20
1089.5769237974
 10
431.412199311
 20
1092.7971275296
 10
426.3043898155
 20
1095.7905094839
 10
420.6892327735
 20
1098.5322655545
 10
414.6132571447
 20
1100.9996766871
 10
408.1268103766
 20
1103.1722971362
 10
401.28364121
 20
1105.0321238843
 10
394.1404542998
 20
1106.5637458213
 10
386.7564403424
 20
1107.7544714455
 10
379.1927856028
 20
1108.5944340293
 10
371.5121649065
 20
1109.0766733783
 10
363.7782222953
 20
1109.1971935053
 10
356.0550436535
 20
1108.9549957427
 10
348.4066256715
 20
1108.3520870172
 10
340.8963455496
 20
1107.3934632206
 10
333.5864358342
 20
1106.0870678115
 10
326.5374687392
 20
1104.4437259936
 10
319.807854226
 20
1102.477055015
 10
313.4533559998
 20
1100.2033513305
 10
307.5266294343
 20
1097.6414555651
 10
302.0767852524
 20
1094.812596394
 10
297.1489825791
 20
1091.740214635
 10
292.7840547395
 20
1088.4497690111
 10
289.0181709003
 20
1084.9685251909
 10
285.882536361
 20
1081.3253298573
 10
283.403133977
 20
1077.550371674
 10
281.6005088571
 20
1073.6749311334
 10
280.489598121
 20
1069.7311213565
 10
280.0796071248
 20
1065.7516219929
 10
280.373933183
 20
1061.7694084279
 10
281.3701374173
 20
1057.817478537
 10
283.0599649656
 20
1053.9285792561
 10
285.4294133846
 20
1050.1349352293
 10
288.4588486785
 20
1046.4679817857
 10
292.1231679924
 20
1042.9581044564
 10
296.3920076224
 20
1039.6343871905
 10
301.229994619
 20
1036.5243713559
 10
306.5970398982
 20
1033.6538275233
 10
312.4486704326
 20
1031.0465419228
 10
318.7363977686
 20
1028.7241193443
 10
325.4081198173
 20
1026.7058041124
  0
LWPOLYLINE
  5
182
330
1F
100
AcDbEntity
  8
0
  6
SLD-実線
 62
     7
370
    25
100
AcDbPolyline
 90
       24
 70
   128
 43
0.0
 10
325.4081198173
 20
1024.5628858607
 10
332.4085525887
 20
1022.8654023713
 10
339.679688292
 20
1021.502816507
 10
347.161276007
 20
1020.4864190836
 10
354.7913209416
 20
1019.82463229
 10
362.5065981405
 20
1019.5229399003
 10
370.2431763869
 20
1019.5838418324
 10
377.936947957
 20
1020.0068334338
 10
385.5241598365
 20
1020.7884096628
 10
392.9419419984
 20
1021.9220941328
 10
400.1288283633
 20
1023.3984927771
 10
407.0252661276
 20
1025.2053716916
 10
413.574109236
 20
1027.3277585085
 10
419.7210919119
 20
1029.7480664624
 10
425.4152783211
 20
1032.4462401191
 10
430.6094846416
 20
1035.3999215621
 10
435.2606700441
 20
1038.5846356567
 10
439.3302933413
 20
1041.9739928589
 10
442.7846323531
 20
1045.5399078875
 10
445.5950633385
 20
1049.2528324476
 10
447.7382981812
 20
1053.0820000768
 10
449.1965773623
 20
1056.9956810864
 10
449.9578171213
 20
1060.9614454828
 10
450.0772278763
 20
1063.2811514391
  0
LWPOLYLINE
  5
183
330
1F
100
AcDbEntity
  8
0
  6
SLD-実線
 62
     7
370
    25
100
AcDbPolyline
 90
       13
 70
   128
 43
0.0
 10
280.0772278763
 20
1063.2811514391
 10
280.373933183
 20
1059.6264901761
 10
281.3701374173
 20
1055.6745602853
 10
283.0599649656
 20
1051.7856610043
 10
285.4294133846
 20
1047.9920169775
 10
288.4588486785
 20
1044.3250635339
 10
292.1231679924
 20
1040.8151862047
 10
296.3920076224
 20
1037.4914689387
 10
301.229994619
 20
1034.3814531041
 10
306.5970398982
 20
1031.5109092715
 10
312.4486704326
 20
1028.9036236711
 10
318.7363977686
 20
1026.5812010925
 10
325.4081198173
 20
1024.5628858607
  0
LWPOLYLINE
  5
184
330
1F
100
AcDbEntity
  8
0
  6
SLD-実線
 62
     7
370
    25
100
AcDbPolyline
 90
       51
 70
   128
 43
0.0
 10
344.1342722981
 20
1053.5547760175
 10
339.3251553955
 20
1055.0678559827
 10
334.9221640595
 20
1056.8794400284
 10
330.9947360936
 20
1058.9609583919
 10
327.604809383
 20
1061.2795842854
 10
324.805845097
 20
1063.7987515932
 10
322.6419845744
 20
1066.4787315421
 10
321.1473531882
 20
1069.2772592475
 10
320.3455221684
 20
1072.1502002555
 10
320.2491368689
 20
1075.0522465703
 10
320.8597173437
 20
1077.9376311879
 10
322.1676343738
 20
1080.7608498692
 10
324.1522613264
 20
1083.4773787692
 10
326.7822994488
 20
1086.0443766043
 10
330.0162714689
 20
1088.4213602852
 10
333.8031757159
 20
1090.5708433592
 10
338.0832904477
 20
1092.4589271944
 10
342.7891156981
 20
1094.0558355807
 10
347.8464377919
 20
1095.3363843189
 10
353.1754997384
 20
1096.2803783904
 10
358.6922590475
 20
1096.8729304449
 10
364.3097131292
 20
1097.1046955824
 10
369.9392713769
 20
1096.9720187284
 10
375.4921522942
 20
1096.4769922759
 10
380.8807836318
 20
1095.627423088
 10
386.0201834546
 20
1094.4367093782
 10
390.8293003572
 20
1092.923629413
 10
395.2322916932
 20
1091.1120453673
 10
399.1597196591
 20
1089.0305270037
 10
402.5496463697
 20
1086.7119011103
 10
405.3486106557
 20
1084.1927338025
 10
407.5124711783
 20
1081.5127538535
 10
409.0071025644
 20
1078.7142261482
 10
409.8089335843
 20
1075.8412851402
 10
409.9053188838
 20
1072.9392388254
 10
409.294738409
 20
1070.0538542078
 10
407.9868213789
 20
1067.2306355264
 10
406.0021944263
 20
1064.5141066264
 10
403.3721563039
 20
1061.9471087914
 10
400.1381842838
 20
1059.5701251105
 10
396.3512800368
 20
1057.4206420364
 10
392.071165305
 20
1055.5325582013
 10
387.3653400546
 20
1053.935649815
 10
382.3080179608
 20
1052.6551010768
 10
376.9789560143
 20
1051.7111070052
 10
371.4621967052
 20
1051.1185549508
 10
365.8447426235
 20
1050.8867898132
 10
360.2151843758
 20
1051.0194666673
 10
354.6623034585
 20
1051.5144931197
 10
349.2736721209
 20
1052.3640623077
 10
344.1342722981
 20
1053.5547760175
  0
LWPOLYLINE
  5
185
330
1F
100
AcDbEntity
  8
0
  6
SLD-実線
 62
     7
370
    25
100
AcDbPolyline
 90
       37
 70
   128
 43
0.0
 10
400.5485532767
 20
1059.8346010147
 10
402.9454718646
 20
1061.6527717583
 10
405.5462059411
 20
1064.1911679462
 10
407.5087200586
 20
1066.8774291147
 10
408.802064197
 20
1069.6691913205
 10
409.4058415466
 20
1072.5224268059
 10
409.3105301781
 20
1075.3921383428
 10
408.5176332086
 20
1078.2330688661
 10
407.0396550969
 20
1081.0004152042
 10
404.8999044409
 20
1083.6505346523
 10
402.1321263865
 20
1086.1416332437
 10
398.779970447
 20
1088.4344248653
 10
394.8963021242
 20
1090.4927508237
 10
390.5423691875
 20
1092.2841500889
 10
385.7868357601
 20
1093.7803712244
 10
380.7046994451
 20
1094.9578179291
 10
375.3761085681
 20
1095.7979211651
 10
369.8850981902
 20
1096.2874320025
 10
364.3182648255
 20
1096.4186305629
 10
358.7634007614
 20
1096.1894477667
 10
353.3081095227
 20
1095.6034979635
 10
348.0384243109
 20
1094.6700219318
 10
343.0374512098
 20
1093.4037411461
 10
338.3840585527
 20
1091.8246256109
 10
334.1516331216
 20
1089.9575789216
 10
330.4069227938
 20
1087.8320455196
 10
327.2089838881
 20
1085.4815463366
 10
324.6082498116
 20
1082.9431501487
 10
322.6457356941
 20
1080.2568889802
 10
321.3523915557
 20
1077.4651267744
 10
320.748614206
 20
1074.611891289
 10
320.8439255746
 20
1071.7421797521
 10
321.6368225441
 20
1068.9012492289
 10
323.1148006558
 20
1066.1339028907
 10
325.2545513118
 20
1063.4837834426
 10
328.0223293662
 20
1060.9926848513
 10
329.605902476
 20
1059.8346010147
  0
LINE
  5
186
330
1F
100
AcDbEntity
  8
0
  6
SLD-実線
 62
     7
370
    25
100
AcDbLine
 10
409.2939484681
 20
1071.6385326209
 30
0.0
 11
408.8081450491
 21
1073.5897365293
 31
0.0
  0
LINE
  5
187
330
1F
100
AcDbEntity
  8
0
  6
SLD-実線
 62
     7
370
    25
100
AcDbLine
 10
321.3463107035
 20
1073.5897365292
 30
0.0
 11
320.8605072846
 21
1071.6385326209
 31
0.0
  0
LWPOLYLINE
  5
188
330
1F
100
AcDbEntity
  8
0
  6
SLD-実線
 62
     7
370
    25
100
AcDbPolyline
 90
       34
 70
   128
 43
0.0
 10
403.2143838878
 20
1061.8825130879
 10
405.5523141387
 20
1064.370465665
 10
407.3438144186
 20
1067.1064466238
 10
408.441298516
 20
1069.9379563043
 10
408.8267457724
 20
1072.8185013961
 10
408.4938271545
 20
1075.7007834282
 10
407.4480091767
 20
1078.5374754095
 10
405.7064641414
 20
1081.2819989359
 10
403.2977881698
 20
1083.8892890072
 10
400.2615316549
 20
1086.3165339924
 10
396.6475498447
 20
1088.5238785959
 10
392.5151842206
 20
1090.4750782804
 10
387.9322881118
 20
1092.1380944009
 10
382.9741125459
 20
1093.4856202789
 10
377.7220706285
 20
1094.4955295766
 10
372.2624007426
 20
1095.1512396113
 10
366.684750517
 20
1095.4419836423
 10
361.080704814
 20
1095.3629876607
 10
355.5422819092
 20
1094.9155487782
 10
350.1604225536
 20
1094.1070139291
 10
345.023496729
 20
1092.9506592332
 10
340.2158526154
 20
1091.4654720025
 10
335.8164315963
 20
1089.6758389705
 10
331.8974720431
 20
1087.6111458619
 10
328.5233231634
 20
1085.3052948805
 10
325.7493883885
 20
1082.7961480357
 10
323.6212156508
 20
1080.1249054494
 10
322.1737494876
 20
1077.3354288509
 10
321.4307572535
 20
1074.4735213689
 10
321.4044388603
 20
1071.5861754451
 10
322.0952264554
 20
1068.7208012198
 10
323.4917773255
 20
1065.9244480584
 10
325.5711601439
 20
1063.2430320027
 10
326.9400718563
 20
1061.8825130958
  0
LINE
  5
189
330
1F
100
AcDbEntity
  8
0
  6
SLD-実線
 62
     8
370
    25
100
AcDbLine
 10
618.3536669956
 20
863.2962823628
 30
0.0
 11
619.0059134996
 21
863.1210355991
 31
0.0
  0
LWPOLYLINE
  5
18A
330
1F
100
AcDbEntity
  8
0
  6
SLD-実線
 62
     8
370
    25
100
AcDbPolyline
 90
        3
 70
   128
 43
0.0
 10
700.0551874483
 20
866.1162096481
 10
704.6869316166
 20
867.9557017445
 10
710.3312648336
 20
870.6289687205
  0
LWPOLYLINE
  5
18B
330
1F
100
AcDbEntity
  8
0
  6
SLD-実線
 62
     8
370
    25
100
AcDbPolyline
 90
       15
 70
   128
 43
0.0
 10
444.1714699825
 20
985.2062035432
 10
444.308185792
 20
984.8208008243
 10
445.2841351296
 20
980.9377076909
 10
445.5442778411
 20
977.0245096603
 10
445.0862922825
 20
973.1161300723
 10
443.9142657464
 20
969.2474492645
 10
442.038657985
 20
965.4529932828
 10
439.4762078614
 20
961.7666257535
 10
436.2497839646
 20
958.2212456674
 10
432.3881805179
 20
954.8484937728
 10
427.9258604052
 20
951.6784701972
 10
422.902647607
 20
948.7394658195
 10
417.363371791
 20
946.0577097872
 10
411.35746823
 20
943.6571354348
 10
407.2274316
 20
942.2574235426
  0
LINE
  5
18C
330
1F
100
AcDbEntity
  8
0
  6
SLD-実線
 62
     8
370
    25
100
AcDbLine
 10
524.2203500893
 20
979.745760687
 30
0.0
 11
443.8377763686
 21
1001.5920218341
 31
0.0
  0
LINE
  5
18D
330
1F
100
AcDbEntity
  8
0
  6
SLD-実線
 62
     8
370
    25
100
AcDbLine
 10
449.972909132
 20
907.2779821522
 30
0.0
 11
328.0837103683
 21
940.4048546065
 31
0.0
  0
SPLINE
  5
18E
330
1F
100
AcDbEntity
  8
0
  6
SLD-実線
 62
     8
370
    25
100
AcDbSpline
210
0.0
220
0.0
230
1.0
 70
     8
 71
     3
 72
    12
 73
     8
 74
     0
 42
0.000000001
 43
0.00000001
 40
0.0
 40
0.0
 40
0.0
 40
0.0
 40
0.0000048590708745
 40
0.4026115002409458
 40
0.6746288210791594
 40
0.9466461501017415
 40
0.9999999999999999
 40
0.9999999999999999
 40
0.9999999999999999
 40
0.9999999999999999
 10
731.278900956341
 20
886.4486357705862
 30
0.0
 10
731.2788871411019
 20
886.4486110236002
 30
0.0
 10
730.1341880181702
 20
884.3981323628751
 30
0.0
 10
727.6937181183855
 20
881.030182941756
 30
0.0
 10
723.0927825302082
 20
876.6021224057076
 30
0.0
 10
719.6850223772769
 20
873.9560038346084
 30
0.0
 10
717.5950924503671
 20
872.6085726684721
 30
0.0
 10
717.2523890554688
 20
872.3876230428024
 30
0.0
  0
LWPOLYLINE
  5
18F
330
1F
100
AcDbEntity
  8
0
  6
SLD-実線
 62
     8
370
    25
100
AcDbPolyline
 90
       17
 70
   128
 43
0.0
 10
346.4132114487
 20
938.9622341351
 10
353.7619862092
 20
938.2320923264
 10
361.2117438555
 20
937.8623672826
 10
368.6959990179
 20
937.8563586153
 10
376.1479584535
 20
938.2141199488
 10
383.5011171428
 20
938.9324584418
 10
390.6898518134
 20
940.0049632816
 10
397.6500065953
 20
941.4220628976
 10
404.3194655801
 20
943.171110383
 10
410.6387071742
 20
945.2364963616
 10
416.5513352996
 20
947.5997882941
 10
422.0045827004
 20
950.2398949792
 10
426.9497818646
 20
953.1332547822
 10
431.3427993571
 20
956.2540459105
 10
435.144429689
 20
959.5744168604
 10
438.3207452063
 20
963.0647349781
 10
439.6887974175
 20
964.8977545954
  0
ARC
  5
190
330
1F
100
AcDbEntity
  8
0
  6
SLD-実線
 62
     8
370
    25
100
AcDbCircle
 10
691.4479749446
 20
934.1713494841
 30
0.0
 40
0.3390636562798744
100
AcDbArc
 50
80.8401672825
 51
143.8637929576
  0
LINE
  5
191
330
1F
100
AcDbEntity
  8
0
  6
SLD-実線
 62
     8
370
    25
100
AcDbLine
 10
488.6662019554
 20
896.7619742597
 30
0.0
 11
456.3442087199
 21
905.5463994446
 31
0.0
  0
LINE
  5
192
330
1F
100
AcDbEntity
  8
0
  6
SLD-実線
 62
     8
370
    25
100
AcDbLine
 10
738.5349595251
 20
589.3340505192
 30
0.0
 11
737.0967428829
 21
589.7249269853
 31
0.0
  0
LINE
  5
193
330
1F
100
AcDbEntity
  8
0
  6
SLD-実線
 62
     8
370
    25
100
AcDbLine
 10
447.9679343959
 20
603.7200567018
 30
0.0
 11
449.7183086949
 21
605.4284756778
 31
0.0
  0
ENDSEC
  0
SECTION
  2
OBJECTS
  0
DICTIONARY
  5
C
330
0
100
AcDbDictionary
281
     1
  3
ACAD_GROUP
350
D
  3
ACAD_LAYOUT
350
1A
  3
ACAD_MLINESTYLE
350
17
  3
ACAD_PLOTSETTINGS
350
19
  3
ACAD_PLOTSTYLENAME
350
E
  3
ACAD_SCALELIST
350
47
  0
DICTIONARY
  5
D
102
{ACAD_REACTORS
330
C
102
}
330
C
100
AcDbDictionary
281
     1
  0
DICTIONARY
  5
1A
102
{ACAD_REACTORS
330
C
102
}
330
C
100
AcDbDictionary
281
     1
  3
Layout1
350
1E
  3
Layout2
350
26
  3
Model
350
22
  0
DICTIONARY
  5
17
102
{ACAD_REACTORS
330
C
102
}
330
C
100
AcDbDictionary
281
     1
  3
Standard
350
18
  0
DICTIONARY
  5
19
102
{ACAD_REACTORS
330
C
102
}
330
C
100
AcDbDictionary
281
     1
  0
ACDBDICTIONARYWDFLT
  5
E
102
{ACAD_REACTORS
330
C
102
}
330
C
100
AcDbDictionary
281
     1
  3
Normal
350
F
100
AcDbDictionaryWithDefault
340
F
  0
DICTIONARY
  5
47
102
{ACAD_REACTORS
330
C
102
}
330
C
100
AcDbDictionary
281
     1
  3
A0
350
48
  3
A1
350
49
  3
A2
350
4A
  3
A3
350
4B
  3
A4
350
4C
  3
A5
350
4D
  3
A6
350
4E
  3
A7
350
4F
  3
A8
350
50
  3
A9
350
51
  3
B0
350
52
  3
B1
350
53
  3
B2
350
54
  3
B3
350
55
  3
B4
350
56
  3
B5
350
57
  3
B6
350
58
  3
B7
350
59
  3
B8
350
5A
  3
B9
350
5B
  3
C0
350
5C
  3
C1
350
5D
  3
C2
350
5E
  3
C3
350
5F
  3
C4
350
60
  3
C5
350
61
  3
C6
350
62
  3
C7
350
63
  3
C8
350
64
  3
C9
350
65
  3
D0
350
66
  3
D1
350
67
  3
D2
350
68
  0
LAYOUT
  5
1E
102
{ACAD_REACTORS
330
1A
102
}
330
1A
100
AcDbPlotSettings
  1

  2
none_device
  4

  6

 40
0.0
 41
0.0
 42
0.0
 43
0.0
 44
0.0
 45
0.0
 46
0.0
 47
0.0
 48
0.0
 49
0.0
140
0.0
141
0.0
142
1.0
143
1.0
 70
   688
 72
     1
 73
     0
 74
     5
  7

 75
    16
147
1.0
148
0.0
149
0.0
100
AcDbLayout
  1
Layout1
 70
     1
 71
     1
 10
0.0
 20
0.0
 11
420.0
 21
297.0
 12
0.0
 22
0.0
 32
0.0
 14
1.0000000000E+20
 24
1.0000000000E+20
 34
1.0000000000E+20
 15
-1.0000000000E+20
 25
-1.0000000000E+20
 35
-1.0000000000E+20
146
0.0
 13
0.0
 23
0.0
 33
0.0
 16
1.0
 26
0.0
 36
0.0
 17
0.0
 27
1.0
 37
0.0
 76
     0
330
1B
  0
LAYOUT
  5
26
102
{ACAD_REACTORS
330
1A
102
}
330
1A
100
AcDbPlotSettings
  1

  2
none_device
  4

  6

 40
0.0
 41
0.0
 42
0.0
 43
0.0
 44
0.0
 45
0.0
 46
0.0
 47
0.0
 48
0.0
 49
0.0
140
0.0
141
0.0
142
1.0
143
1.0
 70
   688
 72
     1
 73
     0
 74
     5
  7

 75
    16
147
1.0
148
0.0
149
0.0
100
AcDbLayout
  1
Layout2
 70
     1
 71
     2
 10
0.0
 20
0.0
 11
0.0
 21
0.0
 12
0.0
 22
0.0
 32
0.0
 14
0.0
 24
0.0
 34
0.0
 15
0.0
 25
0.0
 35
0.0
146
0.0
 13
0.0
 23
0.0
 33
0.0
 16
1.0
 26
0.0
 36
0.0
 17
0.0
 27
1.0
 37
0.0
 76
     0
330
23
  0
LAYOUT
  5
22
102
{ACAD_REACTORS
330
1A
102
}
330
1A
100
AcDbPlotSettings
  1

  2
none_device
  4
Letter_(8.50_x_11.00_Inches)
  6

 40
6.35
 41
6.35
 42
6.35000508
 43
6.35000508
 44
215.9
 45
279.4
 46
0.0
 47
0.0
 48
0.0
 49
0.0
140
0.0
141
0.0
142
1.0
143
1.0
 70
  1712
 72
     1
 73
     0
 74
     0
  7

 75
     0
147
1.0
148
0.0
149
0.0
100
AcDbLayout
  1
Model
 70
     1
 71
     0
 10
0.0
 20
0.0
 11
1050.0
 21
1485.0
 12
0.0
 22
0.0
 32
0.0
 14
0.0
 24
0.0
 34
0.0
 15
1050.0
 25
1485.0
 35
0.0
146
0.0
 13
0.0
 23
0.0
 33
0.0
 16
1.0
 26
0.0
 36
0.0
 17
0.0
 27
1.0
 37
0.0
 76
     0
330
1F
331
29
  0
MLINESTYLE
  5
18
102
{ACAD_REACTORS
330
17
102
}
330
17
100
AcDbMlineStyle
  2
Standard
 70
     0
  3

 62
   256
 51
90.0
 52
90.0
 71
     2
 49
0.5
 62
   256
  6
BYLAYER
 49
-0.5
 62
   256
  6
BYLAYER
  0
ACDBPLACEHOLDER
  5
F
102
{ACAD_REACTORS
330
E
102
}
330
E
  0
SCALE
  5
48
102
{ACAD_REACTORS
330
47
102
}
330
47
100
AcDbScale
 70
     0
300
1:1
140
1.0
141
1.0
290
     1
  0
SCALE
  5
49
102
{ACAD_REACTORS
330
47
102
}
330
47
100
AcDbScale
 70
     0
300
1:2
140
1.0
141
2.0
290
     0
  0
SCALE
  5
4A
102
{ACAD_REACTORS
330
47
102
}
330
47
100
AcDbScale
 70
     0
300
1:4
140
1.0
141
4.0
290
     0
  0
SCALE
  5
4B
102
{ACAD_REACTORS
330
47
102
}
330
47
100
AcDbScale
 70
     0
300
1:5
140
1.0
141
5.0
290
     0
  0
SCALE
  5
4C
102
{ACAD_REACTORS
330
47
102
}
330
47
100
AcDbScale
 70
     0
300
1:8
140
1.0
141
8.0
290
     0
  0
SCALE
  5
4D
102
{ACAD_REACTORS
330
47
102
}
330
47
100
AcDbScale
 70
     0
300
1:10
140
1.0
141
10.0
290
     0
  0
SCALE
  5
4E
102
{ACAD_REACTORS
330
47
102
}
330
47
100
AcDbScale
 70
     0
300
1:16
140
1.0
141
16.0
290
     0
  0
SCALE
  5
4F
102
{ACAD_REACTORS
330
47
102
}
330
47
100
AcDbScale
 70
     0
300
1:20
140
1.0
141
20.0
290
     0
  0
SCALE
  5
50
102
{ACAD_REACTORS
330
47
102
}
330
47
100
AcDbScale
 70
     0
300
1:30
140
1.0
141
30.0
290
     0
  0
SCALE
  5
51
102
{ACAD_REACTORS
330
47
102
}
330
47
100
AcDbScale
 70
     0
300
1:40
140
1.0
141
40.0
290
     0
  0
SCALE
  5
52
102
{ACAD_REACTORS
330
47
102
}
330
47
100
AcDbScale
 70
     0
300
1:50
140
1.0
141
50.0
290
     0
  0
SCALE
  5
53
102
{ACAD_REACTORS
330
47
102
}
330
47
100
AcDbScale
 70
     0
300
1:100
140
1.0
141
100.0
290
     0
  0
SCALE
  5
54
102
{ACAD_REACTORS
330
47
102
}
330
47
100
AcDbScale
 70
     0
300
2:1
140
2.0
141
1.0
290
     0
  0
SCALE
  5
55
102
{ACAD_REACTORS
330
47
102
}
330
47
100
AcDbScale
 70
     0
300
4:1
140
4.0
141
1.0
290
     0
  0
SCALE
  5
56
102
{ACAD_REACTORS
330
47
102
}
330
47
100
AcDbScale
 70
     0
300
8:1
140
8.0
141
1.0
290
     0
  0
SCALE
  5
57
102
{ACAD_REACTORS
330
47
102
}
330
47
100
AcDbScale
 70
     0
300
10:1
140
10.0
141
1.0
290
     0
  0
SCALE
  5
58
102
{ACAD_REACTORS
330
47
102
}
330
47
100
AcDbScale
 70
     0
300
100:1
140
100.0
141
1.0
290
     0
  0
SCALE
  5
59
102
{ACAD_REACTORS
330
47
102
}
330
47
100
AcDbScale
 70
     0
300
1/128" = 1'-0"
140
0.0078125
141
12.0
290
     0
  0
SCALE
  5
5A
102
{ACAD_REACTORS
330
47
102
}
330
47
100
AcDbScale
 70
     0
300
1/64" = 1'-0"
140
0.015625
141
12.0
290
     0
  0
SCALE
  5
5B
102
{ACAD_REACTORS
330
47
102
}
330
47
100
AcDbScale
 70
     0
300
1/32" = 1'-0"
140
0.03125
141
12.0
290
     0
  0
SCALE
  5
5C
102
{ACAD_REACTORS
330
47
102
}
330
47
100
AcDbScale
 70
     0
300
1/16" = 1'-0"
140
0.0625
141
12.0
290
     0
  0
SCALE
  5
5D
102
{ACAD_REACTORS
330
47
102
}
330
47
100
AcDbScale
 70
     0
300
3/32" = 1'-0"
140
0.09375
141
12.0
290
     0
  0
SCALE
  5
5E
102
{ACAD_REACTORS
330
47
102
}
330
47
100
AcDbScale
 70
     0
300
1/8" = 1'-0"
140
0.125
141
12.0
290
     0
  0
SCALE
  5
5F
102
{ACAD_REACTORS
330
47
102
}
330
47
100
AcDbScale
 70
     0
300
3/16" = 1'-0"
140
0.1875
141
12.0
290
     0
  0
SCALE
  5
60
102
{ACAD_REACTORS
330
47
102
}
330
47
100
AcDbScale
 70
     0
300
1/4" = 1'-0"
140
0.25
141
12.0
290
     0
  0
SCALE
  5
61
102
{ACAD_REACTORS
330
47
102
}
330
47
100
AcDbScale
 70
     0
300
3/8" = 1'-0"
140
0.375
141
12.0
290
     0
  0
SCALE
  5
62
102
{ACAD_REACTORS
330
47
102
}
330
47
100
AcDbScale
 70
     0
300
1/2" = 1'-0"
140
0.5
141
12.0
290
     0
  0
SCALE
  5
63
102
{ACAD_REACTORS
330
47
102
}
330
47
100
AcDbScale
 70
     0
300
3/4" = 1'-0"
140
0.75
141
12.0
290
     0
  0
SCALE
  5
64
102
{ACAD_REACTORS
330
47
102
}
330
47
100
AcDbScale
 70
     0
300
1" = 1'-0"
140
1.0
141
12.0
290
     0
  0
SCALE
  5
65
102
{ACAD_REACTORS
330
47
102
}
330
47
100
AcDbScale
 70
     0
300
1-1/2" = 1'-0"
140
1.5
141
12.0
290
     0
  0
SCALE
  5
66
102
{ACAD_REACTORS
330
47
102
}
330
47
100
AcDbScale
 70
     0
300
3" = 1'-0"
140
3.0
141
12.0
290
     0
  0
SCALE
  5
67
102
{ACAD_REACTORS
330
47
102
}
330
47
100
AcDbScale
 70
     0
300
6" = 1'-0"
140
6.0
141
12.0
290
     0
  0
SCALE
  5
68
102
{ACAD_REACTORS
330
47
102
}
330
47
100
AcDbScale
 70
     0
300
1'-0" = 1'-0"
140
12.0
141
12.0
290
     0
  0
ENDSEC
  0
EOF
