  0
SECTION
  2
HEADER
  9
$ACADVER
  1
AC1015
  9
$ACADMAINTVER
 70
     6
  9
$DWGCODEPAGE
  3
DOS932
  9
$INSBASE
 10
0.0
 20
0.0
 30
0.0
  9
$EXTMIN
 10
0.0
 20
0.0
 30
0.0
  9
$EXTMAX
 10
420.0
 20
594.0
 30
0.0
  9
$LIMMIN
 10
0.0
 20
0.0
  9
$LIMMAX
 10
420.0
 20
594.0
  9
$ORTHOMODE
 70
     0
  9
$REGENMODE
 70
     1
  9
$FILLMODE
 70
     1
  9
$QTEXTMODE
 70
     0
  9
$MIRRTEXT
 70
     1
  9
$LTSCALE
 40
2.0
  9
$ATTMODE
 70
     1
  9
$TEXTSIZE
 40
7.0
  9
$TRACEWID
 40
1.0
  9
$TEXTSTYLE
  7
Standard
  9
$CLAYER
  8
0
  9
$CELTYPE
  6
ByLayer
  9
$CECOLOR
 62
   256
  9
$CELTSCALE
 40
1.0
  9
$DISPSILH
 70
     0
  9
$DIMSCALE
 40
1.0
  9
$DIMASZ
 40
6.604
  9
$DIMEXO
 40
2.0
  9
$DIMDLI
 40
3.75
  9
$DIMRND
 40
0.0
  9
$DIMDLE
 40
0.0
  9
$DIMEXE
 40
2.0
  9
$DIMTP
 40
0.0
  9
$DIMTM
 40
0.0
  9
$DIMTXT
 40
7.0
  9
$DIMCEN
 40
2.5
  9
$DIMTSZ
 40
0.0
  9
$DIMTOL
 70
     0
  9
$DIMLIM
 70
     0
  9
$DIMTIH
 70
     1
  9
$DIMTOH
 70
     1
  9
$DIMSE1
 70
     0
  9
$DIMSE2
 70
     0
  9
$DIMTAD
 70
     1
  9
$DIMZIN
 70
     0
  9
$DIMBLK
  1

  9
$DIMASO
 70
     1
  9
$DIMSHO
 70
     1
  9
$DIMPOST
  1

  9
$DIMAPOST
  1

  9
$DIMALT
 70
     0
  9
$DIMALTD
 70
     3
  9
$DIMALTF
 40
0.0393700787
  9
$DIMLFAC
 40
1.0
  9
$DIMTOFL
 70
     1
  9
$DIMTVP
 40
0.0
  9
$DIMTIX
 70
     0
  9
$DIMSOXD
 70
     0
  9
$DIMSAH
 70
     0
  9
$DIMBLK1
  1

  9
$DIMBLK2
  1

  9
$DIMSTYLE
  2
ISO-25
  9
$DIMCLRD
 70
     0
  9
$DIMCLRE
 70
     0
  9
$DIMCLRT
 70
     0
  9
$DIMTFAC
 40
1.0
  9
$DIMGAP
 40
3.048
  9
$DIMJUST
 70
     0
  9
$DIMSD1
 70
     0
  9
$DIMSD2
 70
     0
  9
$DIMTOLJ
 70
     0
  9
$DIMTZIN
 70
     0
  9
$DIMALTZ
 70
     0
  9
$DIMALTTZ
 70
     0
  9
$DIMUPT
 70
     0
  9
$DIMDEC
 70
     2
  9
$DIMTDEC
 70
     2
  9
$DIMALTU
 70
     2
  9
$DIMALTTD
 70
     3
  9
$DIMTXSTY
  7
Standard
  9
$DIMAUNIT
 70
     0
  9
$DIMADEC
 70
     2
  9
$DIMALTRND
 40
0.0
  9
$DIMAZIN
 70
     0
  9
$DIMDSEP
 70
    44
  9
$DIMATFIT
 70
     3
  9
$DIMFRAC
 70
     0
  9
$DIMLDRBLK
  1

  9
$DIMLUNIT
 70
     2
  9
$DIMLWD
 70
    -2
  9
$DIMLWE
 70
    -2
  9
$DIMTMOVE
 70
     0
  9
$LUNITS
 70
     2
  9
$LUPREC
 70
     2
  9
$SKETCHINC
 40
1.0
  9
$FILLETRAD
 40
10.0
  9
$AUNITS
 70
     0
  9
$AUPREC
 70
     2
  9
$MENU
  1
.
  9
$ELEVATION
 40
0.0
  9
$PELEVATION
 40
0.0
  9
$THICKNESS
 40
0.0
  9
$LIMCHECK
 70
     0
  9
$CHAMFERA
 40
0.0
  9
$CHAMFERB
 40
0.0
  9
$CHAMFERC
 40
0.0
  9
$CHAMFERD
 40
0.0
  9
$SKPOLY
 70
     0
  9
$TDCREATE
 40
2459747.639675335
  9
$TDUCREATE
 40
2459747.264675335
  9
$TDUPDATE
 40
2459747.639675729
  9
$TDUUPDATE
 40
2459747.264675729
  9
$TDINDWG
 40
0.0000000116
  9
$TDUSRTIMER
 40
0.0000000116
  9
$USRTIMER
 70
     1
  9
$ANGBASE
 50
0.0
  9
$ANGDIR
 70
     0
  9
$PDMODE
 70
     0
  9
$PDSIZE
 40
-1.0
  9
$PLINEWID
 40
0.0
  9
$SPLFRAME
 70
     0
  9
$SPLINETYPE
 70
     6
  9
$SPLINESEGS
 70
     8
  9
$HANDSEED
  5
172
  9
$SURFTAB1
 70
     6
  9
$SURFTAB2
 70
     6
  9
$SURFTYPE
 70
     6
  9
$SURFU
 70
     6
  9
$SURFV
 70
     6
  9
$UCSBASE
  2

  9
$UCSNAME
  2

  9
$UCSORG
 10
0.0
 20
0.0
 30
0.0
  9
$UCSXDIR
 10
1.0
 20
0.0
 30
0.0
  9
$UCSYDIR
 10
0.0
 20
1.0
 30
0.0
  9
$UCSORTHOREF
  2

  9
$UCSORTHOVIEW
 70
     0
  9
$UCSORGTOP
 10
0.0
 20
0.0
 30
0.0
  9
$UCSORGBOTTOM
 10
0.0
 20
0.0
 30
0.0
  9
$UCSORGLEFT
 10
0.0
 20
0.0
 30
0.0
  9
$UCSORGRIGHT
 10
0.0
 20
0.0
 30
0.0
  9
$UCSORGFRONT
 10
0.0
 20
0.0
 30
0.0
  9
$UCSORGBACK
 10
0.0
 20
0.0
 30
0.0
  9
$PUCSBASE
  2

  9
$PUCSNAME
  2

  9
$PUCSORG
 10
0.0
 20
0.0
 30
0.0
  9
$PUCSXDIR
 10
1.0
 20
0.0
 30
0.0
  9
$PUCSYDIR
 10
0.0
 20
1.0
 30
0.0
  9
$PUCSORTHOREF
  2

  9
$PUCSORTHOVIEW
 70
     0
  9
$PUCSORGTOP
 10
0.0
 20
0.0
 30
0.0
  9
$PUCSORGBOTTOM
 10
0.0
 20
0.0
 30
0.0
  9
$PUCSORGLEFT
 10
0.0
 20
0.0
 30
0.0
  9
$PUCSORGRIGHT
 10
0.0
 20
0.0
 30
0.0
  9
$PUCSORGFRONT
 10
0.0
 20
0.0
 30
0.0
  9
$PUCSORGBACK
 10
0.0
 20
0.0
 30
0.0
  9
$USERI1
 70
     0
  9
$USERI2
 70
     0
  9
$USERI3
 70
     0
  9
$USERI4
 70
     0
  9
$USERI5
 70
     0
  9
$USERR1
 40
0.0
  9
$USERR2
 40
0.0
  9
$USERR3
 40
0.0
  9
$USERR4
 40
0.0
  9
$USERR5
 40
0.0
  9
$WORLDVIEW
 70
     1
  9
$SHADEDGE
 70
     3
  9
$SHADEDIF
 70
    70
  9
$TILEMODE
 70
     1
  9
$MAXACTVP
 70
    64
  9
$PINSBASE
 10
0.0
 20
0.0
 30
0.0
  9
$PLIMCHECK
 70
     0
  9
$PEXTMIN
 10
1.0000000000E+20
 20
1.0000000000E+20
 30
1.0000000000E+20
  9
$PEXTMAX
 10
-1.0000000000E+20
 20
-1.0000000000E+20
 30
-1.0000000000E+20
  9
$PLIMMIN
 10
0.0
 20
0.0
  9
$PLIMMAX
 10
420.0
 20
297.0
  9
$UNITMODE
 70
     0
  9
$VISRETAIN
 70
     1
  9
$PLINEGEN
 70
     0
  9
$PSLTSCALE
 70
     1
  9
$TREEDEPTH
 70
  3020
  9
$CMLSTYLE
  2
Standard
  9
$CMLJUST
 70
     0
  9
$CMLSCALE
 40
20.0
  9
$PROXYGRAPHICS
 70
     1
  9
$MEASUREMENT
 70
     1
  9
$CELWEIGHT
370
    -1
  9
$ENDCAPS
280
     0
  9
$JOINSTYLE
280
     0
  9
$LWDISPLAY
290
     1
  9
$INSUNITS
 70
     4
  9
$HYPERLINKBASE
  1

  9
$STYLESHEET
  1

  9
$XEDIT
290
     1
  9
$CEPSNTYPE
380
     0
  9
$PSTYLEMODE
290
     1
  9
$FINGERPRINTGUID
  2
{3e0ee296-c78f-4e58-bc8f-539314294605}
  9
$VERSIONGUID
  2
{FAEB1C32-E019-11D5-929B-00C0DF256EC4}
  9
$EXTNAMES
290
     1
  9
$PSVPSCALE
 40
0.0
  9
$OLESTARTUP
290
     0
  0
ENDSEC
  0
SECTION
  2
CLASSES
  0
CLASS
  1
ACDBDICTIONARYWDFLT
  2
AcDbDictionaryWithDefault
  3
ObjectDBX Classes
 90
        0
280
     0
281
     0
  0
CLASS
  1
VISUALSTYLE
  2
AcDbVisualStyle
  3
ObjectDBX Classes
 90
     4095
280
     0
281
     0
  0
CLASS
  1
MATERIAL
  2
AcDbMaterial
  3
ObjectDBX Classes
 90
     1153
280
     0
281
     0
  0
CLASS
  1
SCALE
  2
AcDbScale
  3
ObjectDBX Classes
 90
     1153
280
     0
281
     0
  0
CLASS
  1
TABLESTYLE
  2
AcDbTableStyle
  3
ObjectDBX Classes
 90
     4095
280
     0
281
     0
  0
CLASS
  1
MLEADERSTYLE
  2
AcDbMLeaderStyle
  3
ACDB_MLEADERSTYLE_CLASS
 90
     4095
280
     0
281
     0
  0
CLASS
  1
SUN
  2
AcDbSun
  3
SCENEOE
 90
     1153
280
     0
281
     0
  0
CLASS
  1
ACDBPLACEHOLDER
  2
AcDbPlaceHolder
  3
ObjectDBX Classes
 90
        0
280
     0
281
     0
  0
CLASS
  1
LAYOUT
  2
AcDbLayout
  3
ObjectDBX Classes
 90
        0
280
     0
281
     0
  0
ENDSEC
  0
SECTION
  2
TABLES
  0
TABLE
  2
VPORT
  5
8
330
0
100
AcDbSymbolTable
 70
     1
  0
VPORT
  5
29
330
8
100
AcDbSymbolTableRecord
100
AcDbViewportTableRecord
  2
*Active
 70
     0
 10
0.0
 20
0.0
 11
1.0
 21
1.0
 12
210.0
 22
297.0
 13
0.0
 23
0.0
 14
10.0
 24
10.0
 15
10.0
 25
10.0
 16
0.0
 26
0.0
 36
1.0
 17
0.0
 27
0.0
 37
0.0
 40
594.0
 41
0.7070707071
 42
50.0
 43
0.0
 44
0.0
 50
0.0
 51
0.0
 71
     0
 72
  2000
 73
     1
 74
     3
 75
     0
 76
     0
 77
     0
 78
     0
281
     0
 65
     1
110
0.0
120
0.0
130
0.0
111
1.0
121
0.0
131
0.0
112
0.0
122
1.0
132
0.0
 79
     0
146
0.0
  0
ENDTAB
  0
TABLE
  2
LTYPE
  5
5
330
0
100
AcDbSymbolTable
 70
     6
  0
LTYPE
  5
14
330
5
100
AcDbSymbolTableRecord
100
AcDbLinetypeTableRecord
  2
ByBlock
 70
     0
  3

 72
    65
 73
     0
 40
0.0
  0
LTYPE
  5
15
330
5
100
AcDbSymbolTableRecord
100
AcDbLinetypeTableRecord
  2
ByLayer
 70
     0
  3

 72
    65
 73
     0
 40
0.0
  0
LTYPE
  5
16
330
5
100
AcDbSymbolTableRecord
100
AcDbLinetypeTableRecord
  2
Continuous
 70
     0
  3
Solid line
 72
    65
 73
     0
 40
0.0
  0
LTYPE
  5
6E
330
5
100
AcDbSymbolTableRecord
100
AcDbLinetypeTableRecord
  2
HIDDEN
 70
     0
  3
Hidden __ __ __ __ __ __ __ __ __ __ __ __ __ __
 72
    65
 73
     2
 40
1.905
 49
1.27
 74
     0
 49
-0.635
 74
     0
  0
LTYPE
  5
6F
330
5
100
AcDbSymbolTableRecord
100
AcDbLinetypeTableRecord
  2
PHANTOM
 70
     0
  3
Phantom ______  __  __  ______  __  __  ______
 72
    65
 73
     6
 40
12.7
 49
6.35
 74
     0
 49
-1.27
 74
     0
 49
1.27
 74
     0
 49
-1.27
 74
     0
 49
1.27
 74
     0
 49
-1.27
 74
     0
  0
LTYPE
  5
70
330
5
100
AcDbSymbolTableRecord
100
AcDbLinetypeTableRecord
  2
CENTER
 70
     0
  3
Center ____ _ ____ _ ____ _ ____ _ ____ _ ____
 72
    65
 73
     4
 40
10.16
 49
6.35
 74
     0
 49
-1.27
 74
     0
 49
1.27
 74
     0
 49
-1.27
 74
     0
  0
LTYPE
  5
71
330
5
100
AcDbSymbolTableRecord
100
AcDbLinetypeTableRecord
  2
CENTERX2
 70
     0
  3
Center (2x) ________  __  ________  __  _____
 72
    65
 73
     4
 40
20.32
 49
12.7
 74
     0
 49
-2.54
 74
     0
 49
2.54
 74
     0
 49
-2.54
 74
     0
  0
LTYPE
  5
72
330
5
100
AcDbSymbolTableRecord
100
AcDbLinetypeTableRecord
  2
DOT2
 70
     0
  3
Dot (.5x) ........................................
 72
    65
 73
     2
 40
0.635
 49
0.0
 74
     0
 49
-0.635
 74
     0
  0
ENDTAB
  0
TABLE
  2
LAYER
  5
2
330
0
100
AcDbSymbolTable
 70
     3
  0
LAYER
  5
10
330
2
100
AcDbSymbolTableRecord
100
AcDbLayerTableRecord
  2
0
 70
     0
 62
     7
  6
Continuous
370
    -3
390
F
  0
LAYER
  5
73
330
2
100
AcDbSymbolTableRecord
100
AcDbLayerTableRecord
  2
レイヤー_1
 70
     0
 62
   179
  6
Continuous
370
    -3
390
F
  0
LAYER
  5
74
330
2
100
AcDbSymbolTableRecord
100
AcDbLayerTableRecord
  2
FORMAT
 70
     0
 62
     7
  6
Continuous
370
    -3
390
F
  0
ENDTAB
  0
TABLE
  2
STYLE
  5
3
330
0
100
AcDbSymbolTable
 70
     2
  0
STYLE
  5
11
330
3
100
AcDbSymbolTableRecord
100
AcDbTextStyleTableRecord
  2
Standard
 70
     0
 40
0.0
 41
1.0
 50
0.0
 71
     0
 42
7.0
  3
txt
  4
bigfont
  0
STYLE
  5
75
330
3
100
AcDbSymbolTableRecord
100
AcDbTextStyleTableRecord
  2
SLDTEXTSTYLE0
 70
     0
 40
0.0
 41
0.7
 50
0.0
 71
     0
 42
7.0
  3
TXT
  4
bigfont
  0
ENDTAB
  0
TABLE
  2
VIEW
  5
6
330
0
100
AcDbSymbolTable
 70
     0
  0
ENDTAB
  0
TABLE
  2
UCS
  5
7
330
0
100
AcDbSymbolTable
 70
     0
  0
ENDTAB
  0
TABLE
  2
APPID
  5
9
330
0
100
AcDbSymbolTable
 70
     1
  0
APPID
  5
12
330
9
100
AcDbSymbolTableRecord
100
AcDbRegAppTableRecord
  2
ACAD
 70
     0
  0
ENDTAB
  0
TABLE
  2
DIMSTYLE
  5
A
330
0
100
AcDbSymbolTable
 70
     1
100
AcDbDimStyleTable
  0
DIMSTYLE
105
27
330
A
100
AcDbSymbolTableRecord
100
AcDbDimStyleTableRecord
  2
ISO-25
 70
     0
 41
2.5
 42
0.625
 43
3.75
 44
1.25
 73
     0
 74
     0
 77
     1
 78
     8
140
2.5
141
2.5
143
0.0393700787
147
0.625
171
     3
172
     1
178
     0
271
     2
272
     2
274
     3
278
    44
283
     0
284
     8
340
11
  0
ENDTAB
  0
TABLE
  2
BLOCK_RECORD
  5
1
330
0
100
AcDbSymbolTable
 70
     1
  0
BLOCK_RECORD
  5
1F
330
1
100
AcDbSymbolTableRecord
100
AcDbBlockTableRecord
  2
*Model_Space
340
22
  0
BLOCK_RECORD
  5
1B
330
1
100
AcDbSymbolTableRecord
100
AcDbBlockTableRecord
  2
*Paper_Space
340
1E
  0
BLOCK_RECORD
  5
23
330
1
100
AcDbSymbolTableRecord
100
AcDbBlockTableRecord
  2
*Paper_Space0
340
26
  0
ENDTAB
  0
ENDSEC
  0
SECTION
  2
BLOCKS
  0
BLOCK
  5
20
330
1F
100
AcDbEntity
  8
0
100
AcDbBlockBegin
  2
*Model_Space
 70
     0
 10
0.0
 20
0.0
 30
0.0
  3
*Model_Space
  1

  0
ENDBLK
  5
21
330
1F
100
AcDbEntity
  8
0
100
AcDbBlockEnd
  0
BLOCK
  5
1C
330
1B
100
AcDbEntity
 67
     1
  8
0
100
AcDbBlockBegin
  2
*Paper_Space
 70
     0
 10
0.0
 20
0.0
 30
0.0
  3
*Paper_Space
  1

  0
ENDBLK
  5
1D
330
1B
100
AcDbEntity
 67
     1
  8
0
100
AcDbBlockEnd
  0
BLOCK
  5
24
330
23
100
AcDbEntity
  8
0
100
AcDbBlockBegin
  2
*Paper_Space0
 70
     0
 10
0.0
 20
0.0
 30
0.0
  3
*Paper_Space0
  1

  0
ENDBLK
  5
25
330
23
100
AcDbEntity
  8
0
100
AcDbBlockEnd
  0
ENDSEC
  0
SECTION
  2
ENTITIES
  0
MTEXT
  5
76
330
1F
100
AcDbEntity
  8
レイヤー_1
100
AcDbMText
 10
14.7582361697
 20
362.5056482615
 30
0.0
 40
8.4666666667
 41
0.0
 71
     1
 72
     1
  1
スパイクタイプ
  7
SLDTEXTSTYLE0
 73
     1
 44
1.0
  0
MTEXT
  5
77
330
1F
100
AcDbEntity
  8
レイヤー_1
100
AcDbMText
 10
14.6640700589
 20
572.9725154622
 30
0.0
 40
8.4666666667
 41
0.0
 71
     1
 72
     1
  1
デッキタイプ
  7
SLDTEXTSTYLE0
 73
     1
 44
1.0
  0
MTEXT
  5
78
330
1F
100
AcDbEntity
  8
レイヤー_1
100
AcDbMText
 10
320.805710217
 20
394.466542989
 30
0.0
 40
8.4666666667
 41
0.0
 71
     1
 72
     1
  1
フード付き
  7
SLDTEXTSTYLE0
 73
     1
 44
1.0
  0
MTEXT
  5
79
330
1F
100
AcDbEntity
  8
レイヤー_1
100
AcDbMText
 10
318.0722104703
 20
169.3299362305
 30
0.0
 40
8.4666666667
 41
0.0
 71
     1
 72
     1
  1
フード付き
  7
SLDTEXTSTYLE0
 73
     1
 44
1.0
  0
MTEXT
  5
7A
330
1F
100
AcDbEntity
  8
レイヤー_1
100
AcDbMText
 10
342.0178638499
 20
51.3642387195
 30
0.0
 40
8.4666666667
 41
0.0
 71
     1
 72
     1
  1
HBD-D40C
  7
SLDTEXTSTYLE0
 73
     1
 44
1.0
  0
LINE
  5
7B
330
1F
100
AcDbEntity
  8
0
  6
Continuous
 62
     7
370
    25
100
AcDbLine
 10
156.0916016902
 20
426.1140676311
 30
0.0
 11
156.0916016902
 21
490.62079177
 31
0.0
  0
LINE
  5
7C
330
1F
100
AcDbEntity
  8
0
  6
Continuous
 62
     7
370
    25
100
AcDbLine
 10
78.0916016902
 20
490.62079177
 30
0.0
 11
78.0916016902
 21
426.1140676311
 31
0.0
  0
LINE
  5
7D
330
1F
100
AcDbEntity
  8
0
  6
Continuous
 62
     7
370
    25
100
AcDbLine
 10
161.0916016902
 20
422.0313635716
 30
0.0
 11
161.0916016902
 21
426.1140676311
 31
0.0
  0
LINE
  5
7E
330
1F
100
AcDbEntity
  8
0
  6
Continuous
 62
     7
370
    25
100
AcDbLine
 10
73.0916016902
 20
426.1140676311
 30
0.0
 11
73.0916016902
 21
422.0313635716
 31
0.0
  0
LINE
  5
7F
330
1F
100
AcDbEntity
  8
0
  6
Continuous
 62
     7
370
    25
100
AcDbLine
 10
81.3416016902
 20
506.9516080077
 30
0.0
 11
81.3416016902
 21
504.5066394954
 31
0.0
  0
LINE
  5
80
330
1F
100
AcDbEntity
  8
0
  6
Continuous
 62
     7
370
    25
100
AcDbLine
 10
152.8416016902
 20
504.5066394954
 30
0.0
 11
152.8416016902
 21
506.9516080077
 31
0.0
  0
LINE
  5
81
330
1F
100
AcDbEntity
  8
0
  6
Continuous
 62
     7
370
    25
100
AcDbLine
 10
144.6732471289
 20
522.0524381457
 30
0.0
 11
143.966025451
 21
522.4608412409
 31
0.0
  0
LINE
  5
82
330
1F
100
AcDbEntity
  8
0
  6
Continuous
 62
     7
370
    25
100
AcDbLine
 10
90.2171779295
 20
522.4608412409
 30
0.0
 11
89.5099562515
 21
522.0524381457
 31
0.0
  0
LINE
  5
83
330
1F
100
AcDbEntity
  8
0
  6
Continuous
 62
     7
370
    25
100
AcDbLine
 10
78.0916016902
 20
506.1350671959
 30
0.0
 11
78.0916016902
 21
492.2538733938
 31
0.0
  0
LINE
  5
84
330
1F
100
AcDbEntity
  8
0
  6
Continuous
 62
     7
370
    25
100
AcDbLine
 10
156.0916016902
 20
492.2538733938
 30
0.0
 11
156.0916016902
 21
506.1350671959
 31
0.0
  0
LWPOLYLINE
  5
85
330
1F
100
AcDbEntity
  8
0
  6
Continuous
 62
     7
370
    25
100
AcDbPolyline
 90
       49
 70
   128
 43
0.0
 10
156.0659438884
 20
491.4373325819
 10
156.0790856268
 20
490.0504454472
 10
155.9234421532
 20
488.5323050649
 10
155.590617898
 20
487.0236939683
 10
155.082131462
 20
485.531495604
 10
154.4003029522
 20
484.0625185308
 10
153.5482433957
 20
482.6234653542
 10
152.5298405447
 20
481.2209021437
 10
151.349741138
 20
479.8612284737
 10
150.0133296984
 20
478.5506482231
 10
148.5267039649
 20
477.2951412692
 10
146.8966470697
 20
476.1004362021
 10
145.1305965884
 20
474.9719841871
 10
143.2366106045
 20
473.9149340919
 10
141.2233309415
 20
472.9341089936
 10
139.0999437328
 20
472.0339841721
 10
136.8761375072
 20
471.2186666907
 10
134.5620589825
 20
470.491876656
 10
132.1682667681
 20
469.8569302441
 10
129.705683189
 20
469.31672457
 10
127.1855444492
 20
468.8737244682
 10
124.6193493637
 20
468.5299512466
 10
122.0188068922
 20
468.2869734636
 10
119.3957827134
 20
468.145899771
 10
116.7622450851
 20
468.1073738557
 10
114.1302102354
 20
468.1715715027
 10
111.5116875357
 20
468.3381997928
 10
108.9186247045
 20
468.6064984394
 10
106.3628532928
 20
468.9752432573
 10
103.8560346992
 20
469.4427517484
 10
101.4096069621
 20
470.0068907787
 10
99.0347325701
 20
470.6650863112
 10
96.7422475304
 20
471.4143351507
 10
94.5426119264
 20
472.2512186465
 10
92.4458621908
 20
473.1719182913
 10
90.4615653118
 20
474.1722331437
 10
88.598775181
 20
475.2475989964
 10
86.8659912824
 20
476.3931092018
 10
85.2711199115
 20
477.6035370594
 10
83.8214381006
 20
478.8733596647
 10
82.5235604154
 20
480.1967831083
 10
81.3834087739
 20
481.5677689125
 10
80.4061854267
 20
482.9800615836
 10
79.5963492197
 20
484.4272171541
 10
78.9575952499
 20
485.9026325851
 10
78.492838005
 20
487.3995758942
 10
78.2041980657
 20
488.9112168725
 10
78.09299243
 20
490.430658249
 10
78.117259492
 20
491.4373325819
  0
LWPOLYLINE
  5
86
330
1F
100
AcDbEntity
  8
0
  6
Continuous
 62
     7
370
    25
100
AcDbPolyline
 90
       49
 70
   128
 43
0.0
 10
156.0916016902
 20
426.1140676311
 10
156.0790856268
 20
425.5437213083
 10
155.9234421532
 20
424.0255809259
 10
155.590617898
 20
422.5169698293
 10
155.082131462
 20
421.024771465
 10
154.4003029522
 20
419.5557943918
 10
153.5482433957
 20
418.1167412152
 10
152.5298405447
 20
416.7141780047
 10
151.349741138
 20
415.3545043347
 10
150.0133296984
 20
414.0439240842
 10
148.5267039649
 20
412.7884171302
 10
146.8966470697
 20
411.5937120631
 10
145.1305965884
 20
410.4652600481
 10
143.2366106045
 20
409.4082099529
 10
141.2233309415
 20
408.4273848546
 10
139.0999437328
 20
407.5272600332
 10
136.8761375072
 20
406.7119425518
 10
134.5620589825
 20
405.985152517
 10
132.1682667681
 20
405.3502061052
 10
129.705683189
 20
404.810000431
 10
127.1855444492
 20
404.3670003292
 10
124.6193493637
 20
404.0232271077
 10
122.0188068922
 20
403.7802493246
 10
119.3957827134
 20
403.639175632
 10
116.7622450851
 20
403.6006497167
 10
114.1302102354
 20
403.6648473637
 10
111.5116875357
 20
403.8314756539
 10
108.9186247045
 20
404.0997743005
 10
106.3628532928
 20
404.4685191183
 10
103.8560346992
 20
404.9360276094
 10
101.4096069621
 20
405.5001666397
 10
99.0347325701
 20
406.1583621722
 10
96.7422475304
 20
406.9076110117
 10
94.5426119264
 20
407.7444945076
 10
92.4458621908
 20
408.6651941523
 10
90.4615653118
 20
409.6655090047
 10
88.598775181
 20
410.7408748574
 10
86.8659912824
 20
411.8863850628
 10
85.2711199115
 20
413.0968129204
 10
83.8214381006
 20
414.3666355257
 10
82.5235604154
 20
415.6900589693
 10
81.3834087739
 20
417.0610447735
 10
80.4061854267
 20
418.4733374447
 10
79.5963492197
 20
419.9204930152
 10
78.9575952499
 20
421.3959084461
 10
78.492838005
 20
422.8928517552
 10
78.2041980657
 20
424.4044927335
 10
78.09299243
 20
425.92393411
 10
78.0916016902
 20
426.1140676311
  0
LWPOLYLINE
  5
87
330
1F
100
AcDbEntity
  8
0
  6
Continuous
 62
     7
370
    25
100
AcDbPolyline
 90
       38
 70
   128
 43
0.0
 10
153.081576917
 20
483.5806815362
 10
152.442182537
 20
482.5731353294
 10
151.4084415185
 20
481.1992422302
 10
150.2146995515
 20
479.8692767441
 10
148.8665224119
 20
478.5894397842
 10
147.370195924
 20
477.3656985411
 10
145.7326966526
 20
476.2037586615
 10
143.9616593753
 20
475.1090376454
 10
142.0653414853
 20
474.0866395875
 10
140.052584492
 20
473.1413313796
 10
137.9327727977
 20
472.2775204849
 10
135.715789943
 20
471.4992343885
 10
133.4119725253
 20
470.8101018195
 10
131.0320620051
 20
470.2133358321
 10
128.5871546237
 20
469.7117188247
 10
126.0886496679
 20
469.3075895673
 10
123.5481963213
 20
469.0028322973
 10
120.97763935
 20
468.7988679335
 10
118.3889638773
 20
468.6966474521
 10
115.7942395031
 20
468.6966474521
 10
113.2055640304
 20
468.7988679335
 10
110.6350070591
 20
469.0028322973
 10
108.0945537125
 20
469.3075895673
 10
105.5960487567
 20
469.7117188247
 10
103.1511413753
 20
470.2133358321
 10
100.7712308551
 20
470.8101018195
 10
98.4674134374
 20
471.4992343885
 10
96.2504305827
 20
472.2775204849
 10
94.1306188884
 20
473.1413313796
 10
92.1178618951
 20
474.0866395875
 10
90.2215440051
 20
475.1090376454
 10
88.4505067278
 20
476.2037586615
 10
86.8130074564
 20
477.3656985411
 10
85.3166809685
 20
478.5894397842
 10
83.968503829
 20
479.8692767441
 10
82.7747618619
 20
481.1992422302
 10
81.7410208434
 20
482.5731353294
 10
81.1016264634
 20
483.5806815362
  0
LWPOLYLINE
  5
88
330
1F
100
AcDbEntity
  8
0
  6
Continuous
 62
     7
370
    25
100
AcDbPolyline
 90
       51
 70
   128
 43
0.0
 10
73.0916016902
 20
422.0313635716
 10
73.1594308629
 20
420.6215085001
 10
73.4027747646
 20
419.0158211049
 10
73.8220381526
 20
417.4222762349
 10
74.4155328012
 20
415.8472905329
 10
75.180868917
 20
414.2972059104
 10
76.1149647616
 20
412.778264011
 10
77.2140590606
 20
411.2965810778
 10
78.4737261492
 20
409.8581233249
 10
79.8888937928
 20
408.468682914
 10
81.4538636105
 20
407.1338546312
 10
83.1623340214
 20
405.8590133589
 10
85.0074256181
 20
404.6492924331
 10
86.9817088679
 20
403.5095629728
 10
89.077234029
 20
402.4444142664
 10
91.2855631611
 20
401.4581352917
 10
93.5978041024
 20
400.5546974461
 10
96.0046462745
 20
399.737738555
 10
98.4963981736
 20
399.0105482234
 10
101.0630263942
 20
398.3760545901
 10
103.6941960303
 20
397.8368125372
 10
106.3793122905
 20
397.3949934019
 10
109.1075631593
 20
397.0523762341
 10
111.8679629333
 20
396.810340632
 10
114.6493964569
 20
396.6698611878
 10
117.4406638791
 20
396.6315035625
 10
120.230525751
 20
396.6954222087
 10
123.0077482836
 20
396.8613597486
 10
125.7611485819
 20
397.1286480103
 10
128.4796396747
 20
397.4962107183
 10
131.1522751579
 20
397.9625678273
 10
133.7682932717
 20
398.5258414819
 10
136.3171602345
 20
399.1837635778
 10
138.7886126585
 20
399.9336848949
 10
141.1726988771
 20
400.7725857649
 10
143.4598190167
 20
401.6970882299
 10
145.6407636516
 20
402.7034696448
 10
147.7067508875
 20
403.787677667
 10
149.6494617231
 20
404.9453465733
 10
151.4610735473
 20
406.1718148396
 10
153.1342916389
 20
407.4621439111
 10
154.6623785391
 20
408.8111380882
 10
156.0391811814
 20
410.2133654472
 10
157.2591556673
 20
411.6631797136
 10
158.3173895902
 20
413.154742997
 10
159.2096218156
 20
414.6820492985
 10
159.9322596393
 20
416.2389486947
 10
160.4823932538
 20
417.8191721012
 10
160.8578074652
 20
419.4163565161
 10
161.0569906129
 20
421.0240706414
 10
161.0916016902
 20
422.0313635716
  0
LWPOLYLINE
  5
89
330
1F
100
AcDbEntity
  8
0
  6
Continuous
 62
     7
370
    25
100
AcDbPolyline
 90
       67
 70
   128
 43
0.0
 10
78.0916016902
 20
437.8743124222
 10
77.5141093661
 20
437.2127463366
 10
76.3744313822
 20
435.7413167593
 10
75.3987070721
 20
434.2311216476
 10
74.5908653335
 20
432.6882420243
 10
73.9541590598
 20
431.118890521
 10
73.4911520425
 20
429.5293863623
 10
73.2037086474
 20
427.9261299205
 10
73.0929863076
 20
426.3155769434
 10
73.1594308629
 20
424.7042125595
 10
73.4027747646
 20
423.0985251643
 10
73.8220381526
 20
421.5049802943
 10
74.4155328012
 20
419.9299945923
 10
75.180868917
 20
418.3799099698
 10
76.1149647616
 20
416.8609680704
 10
77.2140590606
 20
415.3792851372
 10
78.4737261492
 20
413.9408273843
 10
79.8888937928
 20
412.5513869734
 10
81.4538636105
 20
411.2165586906
 10
83.1623340214
 20
409.9417174184
 10
85.0074256181
 20
408.7319964925
 10
86.9817088679
 20
407.5922670322
 10
89.077234029
 20
406.5271183258
 10
91.2855631611
 20
405.5408393511
 10
93.5978041024
 20
404.6374015056
 10
96.0046462745
 20
403.8204426144
 10
98.4963981736
 20
403.0932522828
 10
101.0630263942
 20
402.4587586496
 10
103.6941960303
 20
401.9195165966
 10
106.3793122905
 20
401.4776974613
 10
109.1075631593
 20
401.1350802935
 10
111.8679629333
 20
400.8930446915
 10
114.6493964569
 20
400.7525652472
 10
117.4406638791
 20
400.7142076219
 10
120.230525751
 20
400.7781262681
 10
123.0077482836
 20
400.944063808
 10
125.7611485819
 20
401.2113520697
 10
128.4796396747
 20
401.5789147777
 10
131.1522751579
 20
402.0452718868
 10
133.7682932717
 20
402.6085455413
 10
136.3171602345
 20
403.2664676372
 10
138.7886126585
 20
404.0163889544
 10
141.1726988771
 20
404.8552898243
 10
143.4598190167
 20
405.7797922893
 10
145.6407636516
 20
406.7861737043
 10
147.7067508875
 20
407.8703817264
 10
149.6494617231
 20
409.0280506327
 10
151.4610735473
 20
410.254518899
 10
153.1342916389
 20
411.5448479706
 10
154.6623785391
 20
412.8938421476
 10
156.0391811814
 20
414.2960695066
 10
157.2591556673
 20
415.745883773
 10
158.3173895902
 20
417.2374470564
 10
159.2096218156
 20
418.7647533579
 10
159.9322596393
 20
420.3216527541
 10
160.4823932538
 20
421.9018761606
 10
160.8578074652
 20
423.4990605755
 10
161.0569906129
 20
425.1067747008
 10
161.0791406567
 20
426.7185448393
 10
160.9241684062
 20
428.3278809614
 10
160.59269788
 20
429.9283028386
 10
160.0860637929
 20
431.5133661367
 10
159.4063061816
 20
433.0766883655
 10
158.5561621899
 20
434.611974578
 10
157.5390550478
 20
436.1130427185
 10
156.3590802867
 20
437.5738485153
 10
156.0916016902
 20
437.8743124222
  0
LWPOLYLINE
  5
8A
330
1F
100
AcDbEntity
  8
0
  6
Continuous
 62
     7
370
    25
100
AcDbPolyline
 90
       45
 70
   128
 43
0.0
 10
140.0248142815
 20
491.1194963473
 10
141.9228597087
 20
492.1042986105
 10
143.6943707367
 20
493.164759359
 10
145.3303201516
 20
494.2954747281
 10
146.8223715301
 20
495.4906828513
 10
148.1629217204
 20
496.7442932221
 10
149.3451395859
 20
498.0499177293
 10
150.3630008155
 20
499.4009032097
 10
151.2113186216
 20
500.790365351
 10
151.8857701711
 20
502.2112237726
 10
152.3829186135
 20
503.6562381057
 10
152.7002305944
 20
505.1180448884
 10
152.8360891646
 20
506.5891950885
 10
152.7898020199
 20
508.0621920617
 10
152.5616050291
 20
509.5295297532
 10
152.1526610316
 20
510.9837309464
 10
151.5650539125
 20
512.4173853653
 10
150.8017779828
 20
513.8231874357
 10
149.8667227218
 20
515.1939735124
 10
148.7646529567
 20
516.5227583838
 10
147.5011845824
 20
517.8027708668
 10
146.0827559442
 20
519.0274883112
 10
144.5165950293
 20
520.1906698375
 10
142.8106826346
 20
521.2863881395
 10
140.9737116988
 20
522.3090596876
 10
139.0150430046
 20
523.2534731823
 10
136.9446574787
 20
524.1148161087
 10
134.7731053313
 20
524.8886992608
 10
132.5114522942
 20
525.5711791074
 10
130.171223233
 20
526.1587778877
 10
127.7643434186
 20
526.6485013329
 10
125.3030777587
 20
527.0378539246
 10
122.7999682989
 20
527.3248516113
 10
120.2677703114
 20
527.5080319186
 10
117.7193872967
 20
527.5864614015
 10
115.1678052304
 20
527.5597404015
 10
112.6260263899
 20
527.4280050825
 10
110.1070030975
 20
527.1919267377
 10
107.6235717186
 20
526.8527083681
 10
105.1883872501
 20
526.4120785528
 10
102.8138588339
 20
525.8722826403
 10
100.5120865227
 20
525.2360713068
 10
98.2947996203
 20
524.5066865396
 10
96.1732969127
 20
523.6878451161
 10
94.1583890914
 20
522.7837196646
  0
LWPOLYLINE
  5
8B
330
1F
100
AcDbEntity
  8
0
  6
Continuous
 62
     7
370
    25
100
AcDbPolyline
 90
       45
 70
   128
 43
0.0
 10
94.1583890914
 20
522.7837196646
 10
92.260343665
 20
521.7989174013
 10
90.4888326377
 20
520.7384566526
 10
88.8528832236
 20
519.6077412835
 10
87.3608318458
 20
518.4125331603
 10
86.0202816563
 20
517.1589227896
 10
84.8380637914
 20
515.8532982825
 10
83.8202025625
 20
514.5023128022
 10
82.971884757
 20
513.1128506611
 10
82.297433208
 20
511.6919922397
 10
81.800284766
 20
510.2469779068
 10
81.4829727856
 20
508.7851711243
 10
81.3471142158
 20
507.3140209245
 10
81.3934013607
 20
505.8410239515
 10
81.6215983518
 20
504.3736862602
 10
82.0305423494
 20
502.9194850673
 10
82.6181494686
 20
501.4858306487
 10
83.3814253983
 20
500.0800285786
 10
84.3164806593
 20
498.7092425022
 10
85.4185504243
 20
497.380457631
 10
86.6820187985
 20
496.1004451483
 10
88.1004474365
 20
494.8757277041
 10
89.6666083512
 20
493.712546178
 10
91.3725207455
 20
492.6168278762
 10
93.209491681
 20
491.5941563282
 10
95.1681603748
 20
490.6497428337
 10
97.2385459002
 20
489.7883999073
 10
99.4100980472
 20
489.0145167553
 10
101.6717510838
 20
488.3320369087
 10
104.0119801445
 20
487.7444381284
 10
106.4188599584
 20
487.2547146832
 10
108.8801256179
 20
486.8653620914
 10
111.3832350771
 20
486.5783644046
 10
113.9154330641
 20
486.3951840971
 10
116.4638160784
 20
486.316754614
 10
119.0153981442
 20
486.3434756138
 10
121.5571769843
 20
486.4752109325
 10
124.0762002764
 20
486.711289277
 10
126.559631655
 20
487.0505076463
 10
128.9948161232
 20
487.4911374613
 10
131.3693445391
 20
488.0309333734
 10
133.6711168503
 20
488.6671447064
 10
135.8884037525
 20
489.3965294732
 10
138.0099064601
 20
490.2153708962
 10
140.0248142815
 20
491.1194963473
  0
LWPOLYLINE
  5
8C
330
1F
100
AcDbEntity
  8
0
  6
Continuous
 62
     7
370
    25
100
AcDbPolyline
 90
       40
 70
   128
 43
0.0
 10
99.4506689171
 20
519.1301554394
 10
101.2054077276
 20
519.9101271465
 10
103.0631746019
 20
520.6060578845
 10
105.0119212091
 20
521.2134342753
 10
107.0390091796
 20
521.7283172501
 10
109.13129207
 20
522.1473675951
 10
111.275200623
 20
522.4678676081
 10
113.4568307688
 20
522.6877387234
 10
115.6620337988
 20
522.8055549927
 10
117.8765081251
 20
522.820552332
 10
120.085892032
 20
522.732633478
 10
122.2758568171
 20
522.5423686181
 10
124.4321997183
 20
522.2509916929
 10
126.5409360244
 20
521.8603923937
 10
128.5883897714
 20
521.3731039068
 10
130.561282436
 20
520.7922864849
 10
132.4468190522
 20
520.121706952
 10
134.2327711914
 20
519.3657142736
 10
135.9075562689
 20
518.5292113525
 10
137.4603126606
 20
517.6176232309
 10
138.8809701455
 20
516.6368619077
 10
140.1603152147
 20
515.5932879964
 10
141.2900508245
 20
514.4936694743
 10
142.2628502059
 20
513.3451377894
 10
143.0724043816
 20
512.1551416105
 10
143.7134630822
 20
510.9313985194
 10
144.181868796
 20
509.6818449597
 10
144.4745837322
 20
508.4145847657
 10
144.5897095221
 20
507.137836606
 10
144.5264995308
 20
505.8598806823
 10
144.2853636993
 20
504.5890050294
 10
143.8678658861
 20
503.3334517633
 10
143.2767137246
 20
502.1013636289
 10
142.5157410635
 20
500.9007311904
 10
141.5898831025
 20
499.7393410101
 10
140.5051443858
 20
498.6247251488
 10
139.2685598601
 20
497.5641123182
 10
137.8881492506
 20
496.5643809994
 10
136.3728650499
 20
495.6320148336
 10
134.7325344575
 20
494.7730605733
  0
LWPOLYLINE
  5
8D
330
1F
100
AcDbEntity
  8
0
  6
Continuous
 62
     7
370
    25
100
AcDbPolyline
 90
       40
 70
   128
 43
0.0
 10
134.7325344575
 20
494.7730605733
 10
132.977795647
 20
493.9930888666
 10
131.1200287727
 20
493.297158129
 10
129.1712821656
 20
492.6897817386
 10
127.1441941952
 20
492.1748987642
 10
125.051911305
 20
491.7558484195
 10
122.9080027524
 20
491.4353484068
 10
120.7263726069
 20
491.2154772917
 10
118.5211695772
 20
491.0976610227
 10
116.3066952513
 20
491.0826636836
 10
114.0973113447
 20
491.1705825377
 10
111.9073465601
 20
491.3608473978
 10
109.7510036593
 20
491.652224323
 10
107.6422673536
 20
492.0428236223
 10
105.5948136071
 20
492.5301121093
 10
103.6219209429
 20
493.1109295311
 10
101.7363843271
 20
493.7815090639
 10
99.9504321882
 20
494.5375017422
 10
98.2756471111
 20
495.3740046633
 10
96.7228907197
 20
496.2855927847
 10
95.302233235
 20
497.2663541077
 10
94.022888166
 20
498.3099280188
 10
92.8931525564
 20
499.4095465407
 10
91.9203531751
 20
500.5580782254
 10
91.1107989994
 20
501.748074404
 10
90.4697402987
 20
502.9718174949
 10
90.0013345848
 20
504.2213710544
 10
89.7086196485
 20
505.4886312482
 10
89.5934938583
 20
506.7653794076
 10
89.6567038493
 20
508.043335331
 10
89.8978396805
 20
509.3142109838
 10
90.3153374933
 20
510.5697642497
 10
90.9064896543
 20
511.801852384
 10
91.6674623149
 20
513.0024848223
 10
92.5933202754
 20
514.1638750025
 10
93.6780589915
 20
515.2784908637
 10
94.9146435166
 20
516.3391036943
 10
96.2950541254
 20
517.3388350132
 10
97.8103383254
 20
518.271201179
 10
99.4506689171
 20
519.1301554394
  0
LWPOLYLINE
  5
8E
330
1F
100
AcDbEntity
  8
0
  6
Continuous
 62
     7
370
    25
100
AcDbPolyline
 90
       40
 70
   128
 43
0.0
 10
132.418126936
 20
493.7703757492
 10
134.2057239575
 20
494.525071713
 10
135.8823293288
 20
495.360358533
 10
137.4370696208
 20
496.2708190539
 10
138.859861746
 20
497.2505485896
 10
140.1414783515
 20
498.2931932183
 10
141.2736076619
 20
499.3919909895
 10
142.2489073842
 20
500.5398157779
 10
143.0610523253
 20
501.7292234993
 10
143.7047754138
 20
502.9525003882
 10
144.1759018583
 20
504.2017130246
 10
144.4713762231
 20
505.4687597853
 10
144.5892822435
 20
506.7454233856
 10
144.5288552538
 20
508.0234241724
 10
144.2904871462
 20
509.29447382
 10
143.8757238292
 20
510.5503290839
 10
143.2872552023
 20
511.7828452606
 10
142.5288977102
 20
512.9840290098
 10
141.6055695922
 20
514.1460901939
 10
140.5232589857
 20
515.2614924004
 10
139.28898509
 20
516.3230018177
 10
137.9107526452
 20
517.3237341501
 10
136.3975000174
 20
518.2571992644
 10
134.7590412307
 20
519.117343281
 10
133.006002319
 20
519.898587836
 10
131.1497524123
 20
520.5958662586
 10
129.2023300036
 20
521.2046564307
 10
127.1763648746
 20
521.7210101145
 10
125.0849961864
 20
522.141578558
 10
122.9417872676
 20
522.4636342137
 10
120.7606376504
 20
522.6850884269
 10
118.5556929271
 20
522.8045049822
 10
116.3412530102
 20
522.8211094173
 10
114.1316793925
 20
522.7347940461
 10
111.9413020068
 20
522.546118657
 10
109.7843262908
 20
522.2563068822
 10
107.6747410598
 20
521.8672382622
 10
105.6262277836
 20
521.3814360564
 10
103.6520718568
 20
520.8020508786
 10
101.7650764381
 20
520.1328402638
  0
LWPOLYLINE
  5
8F
330
1F
100
AcDbEntity
  8
0
  6
Continuous
 62
     7
370
    25
100
AcDbPolyline
 90
       40
 70
   128
 43
0.0
 10
101.7650764381
 20
520.1328402638
 10
99.9774794173
 20
519.3781443
 10
98.3008740467
 20
518.5428574798
 10
96.7461337554
 20
517.6323969589
 10
95.3233416308
 20
516.6526674231
 10
94.0417250258
 20
515.6100227944
 10
92.909595716
 20
514.5112250234
 10
91.9342959943
 20
513.3634002351
 10
91.1221510536
 20
512.1739925138
 10
90.4784279656
 20
510.950715625
 10
90.0073015215
 20
509.7015029888
 10
89.711827157
 20
508.4344562283
 10
89.5939211368
 20
507.1577926282
 10
89.6543481268
 20
505.8797918417
 10
89.8927162346
 20
504.6087421942
 10
90.3074795516
 20
503.3528869307
 10
90.8959481786
 20
502.1203707542
 10
91.6543056706
 20
500.9191870052
 10
92.5776337884
 20
499.7571258213
 10
93.6599443948
 20
498.641723615
 10
94.8942182903
 20
497.5802141978
 10
96.2724507348
 20
496.5794818656
 10
97.7857033623
 20
495.6460167515
 10
99.4241621487
 20
494.785872735
 10
101.17720106
 20
494.0046281801
 10
103.0334509663
 20
493.3073497575
 10
104.9808733745
 20
492.6985595854
 10
107.0068385032
 20
492.1822059016
 10
109.0982071909
 20
491.761637458
 10
111.2414161093
 20
491.4395818023
 10
113.422565726
 20
491.2181275889
 10
115.6275104489
 20
491.0987110334
 10
117.8419503654
 20
491.0821065981
 10
120.0515239827
 20
491.168421969
 10
122.2419013681
 20
491.3570973579
 10
124.3988770839
 20
491.6469091324
 10
126.5084623146
 20
492.035977752
 10
128.5569755907
 20
492.5217799574
 10
130.5311315174
 20
493.1011651349
 10
132.418126936
 20
493.7703757492
  0
LWPOLYLINE
  5
90
330
1F
100
AcDbEntity
  8
0
  6
Continuous
 62
     7
370
    25
100
AcDbPolyline
 90
       93
 70
   128
 43
0.0
 10
90.5374322689
 20
491.2596145345
 10
88.7443521048
 20
492.3423111519
 10
87.0834399038
 20
493.4931230552
 10
85.5624396055
 20
494.706684628
 10
84.1884428152
 20
495.9773376862
 10
82.9678557403
 20
497.2991578585
 10
81.9063693212
 20
498.6659822091
 10
81.0089326976
 20
500.071437972
 10
80.2797301333
 20
501.5089722636
 10
79.7221615072
 20
502.9718826355
 10
79.3388264617
 20
504.4533483242
 10
79.1315122817
 20
505.9464620528
 10
79.1011855616
 20
507.4442622359
 10
79.2479876987
 20
508.9397654375
 10
79.5712342334
 20
510.4259989313
 10
80.0694180414
 20
511.8960332109
 10
80.7402163597
 20
513.3430142977
 10
81.5805016169
 20
514.760195698
 10
82.5863560152
 20
516.1409698579
 10
83.7530897971
 20
517.4788989709
 10
85.0752631112
 20
518.7677449938
 10
86.546711375
 20
520.0014987315
 10
88.1605740176
 20
521.1744078546
 10
89.9093264664
 20
522.2810037193
 10
91.78481523
 20
523.3161268648
 10
93.7782959143
 20
524.2749510693
 10
95.8804739919
 20
525.1530058516
 10
98.0815481383
 20
525.9461973151
 10
100.3712559298
 20
526.6508272349
 10
102.7389216917
 20
527.2636103012
 10
105.1735062731
 20
527.7816894364
 10
107.663658517
 20
528.2026491164
 10
110.1977681842
 20
528.5245266329
 10
112.7640200854
 20
528.7458212443
 10
115.3504491698
 20
528.8655011729
 10
117.9449963109
 20
528.8830084158
 10
120.5355645325
 20
528.798261346
 10
123.1100754094
 20
528.6116550935
 10
125.6565253836
 20
528.3240597028
 10
128.1630417298
 20
527.9368160763
 10
130.6179379118
 20
527.4517297227
 10
133.0097680703
 20
526.8710623384
 10
135.327380389
 20
526.1975212629
 10
137.5599690895
 20
525.4342468554
 10
139.6971248125
 20
524.5847978537
 10
141.7288831516
 20
523.6531347811
 10
143.6457711115
 20
522.643601481
 10
145.4388512756
 20
521.5609048636
 10
147.0997634766
 20
520.4100929603
 10
148.620763775
 20
519.1965313874
 10
149.9947605652
 20
517.9258783293
 10
151.2153476401
 20
516.604058157
 10
152.2768340592
 20
515.2372338064
 10
153.1742706828
 20
513.8317780435
 10
153.9034732471
 20
512.3942437519
 10
154.4610418732
 20
510.93133338
 10
154.8443769187
 20
509.4498676912
 10
155.0516910987
 20
507.9567539627
 10
155.0820178188
 20
506.4589537796
 10
154.9352156818
 20
504.963450578
 10
154.611969147
 20
503.4772170841
 10
154.113785339
 20
502.0071828046
 10
153.4429870207
 20
500.5602017178
 10
152.6027017636
 20
499.1430203175
 10
151.5968473652
 20
497.7622461576
 10
150.4301135833
 20
496.4243170446
 10
149.1079402693
 20
495.1354710217
 10
147.6364920054
 20
493.901717284
 10
146.0226293628
 20
492.7288081609
 10
144.2738769141
 20
491.6222122962
 10
142.3983881504
 20
490.5870891507
 10
140.4049074661
 20
489.6282649462
 10
138.3027293885
 20
488.7502101639
 10
136.1016552421
 20
487.9570187004
 10
133.8119474506
 20
487.2523887805
 10
131.4442816888
 20
486.6396057143
 10
129.0096971073
 20
486.1215265791
 10
126.5195448634
 20
485.7005668991
 10
123.9854351963
 20
485.3786893826
 10
121.419183295
 20
485.1573947712
 10
118.8327542106
 20
485.0377148426
 10
116.2382070695
 20
485.0202075997
 10
113.647638848
 20
485.1049546695
 10
111.073127971
 20
485.291560922
 10
108.5266779968
 20
485.5791563127
 10
106.0201616506
 20
485.9663999391
 10
103.5652654686
 20
486.4514862928
 10
101.1734353101
 20
487.0321536771
 10
98.8558229914
 20
487.7056947526
 10
96.6232342909
 20
488.4689691601
 10
94.4860785679
 20
489.3184181618
 10
92.4543202288
 20
490.2500812344
 10
90.5374322689
 20
491.2596145345
  0
LWPOLYLINE
  5
91
330
1F
100
AcDbEntity
  8
0
  6
Continuous
 62
     7
370
    25
100
AcDbPolyline
 90
       48
 70
   128
 43
0.0
 10
89.8386383368
 20
490.0301265259
 10
91.7841726435
 20
489.0047506976
 10
93.8451789445
 20
488.0575365744
 10
96.0122533406
 20
487.1928060772
 10
98.2755079685
 20
486.4145047729
 10
100.6246161164
 20
485.7261838718
 10
103.0488593426
 20
485.1309840244
 10
105.5371763813
 20
484.6316209909
 10
108.0782136126
 20
484.2303732504
 10
110.6603768663
 20
483.9290716044
 10
113.2718843239
 20
483.729090823
 10
115.9008202756
 20
483.6313433729
 10
118.5351894899
 20
483.636275253
 10
121.1629719442
 20
483.7438639605
 10
123.7721776697
 20
483.9536185927
 10
126.3509014594
 20
484.2645820873
 10
128.8873771879
 20
484.6753355893
 10
131.3700314983
 20
485.1840049245
 10
133.7875366084
 20
485.7882691516
 10
136.1288619968
 20
486.4853711514
 10
138.3833247329
 20
487.2721302074
 10
140.5406382201
 20
488.1449565185
 10
142.590959132
 20
489.0998675783
 10
144.5249323244
 20
490.1325063469
 10
146.3337335212
 20
491.2381611302
 10
148.0091095775
 20
492.4117870792
 10
149.5434161365
 20
493.6480292077
 10
150.9296525093
 20
494.9412468266
 10
152.1614936174
 20
496.2855392804
 10
153.2333188522
 20
497.674772871
 10
154.1402377211
 20
499.1026088441
 10
154.8781121612
 20
500.5625323118
 10
155.4435754208
 20
502.047881978
 10
155.8340474207
 20
503.5518805329
 10
156.0477465267
 20
505.067665576
 10
156.0836976788
 20
506.588320928
 10
155.9417368401
 20
508.1069081871
 10
155.6225117454
 20
509.616498388
 10
155.1274789456
 20
511.1102036169
 10
154.4588971618
 20
512.5812084394
 10
153.6198169793
 20
514.022800998
 10
152.6140669285
 20
515.4284036363
 10
151.4462360163
 20
516.7916029119
 10
150.1216527873
 20
518.1061788593
 10
148.6463610109
 20
519.3661333698
 10
147.0270921051
 20
520.5657175601
 10
145.2712344226
 20
521.6994580025
 10
144.6732471289
 20
522.0524381457
  0
LWPOLYLINE
  5
92
330
1F
100
AcDbEntity
  8
0
  6
Continuous
 62
     7
370
    25
100
AcDbPolyline
 90
       25
 70
   128
 43
0.0
 10
89.5099562515
 20
522.0524381457
 10
88.7376942963
 20
521.5936198977
 10
86.994611225
 20
520.4533289852
 10
85.3888538182
 20
519.2477071283
 10
83.9277487786
 20
517.9822553028
 10
82.6179627934
 20
516.6627474753
 10
81.4654721156
 20
515.2952042573
 10
80.4755352958
 20
513.8858654348
 10
79.6526691887
 20
512.4411614978
 10
79.0006283436
 20
510.9676842987
 10
78.5223878733
 20
509.4721569763
 10
78.2201298795
 20
507.9614032786
 10
78.0952334959
 20
506.4423164282
 10
78.1482685962
 20
504.92182767
 10
78.3789931934
 20
503.4068746456
 10
78.786354544
 20
501.904369738
 10
79.3684939516
 20
500.4211685325
 10
80.1227552477
 20
498.9640385361
 10
81.0456969109
 20
497.5396282988
 10
82.1331077701
 20
496.1544370776
 10
83.380026219
 20
494.8147851826
 10
84.7807628547
 20
493.5267851379
 10
86.3289264372
 20
492.2963137925
 10
88.0174530511
 20
491.1289855047
 10
89.8386383368
 20
490.0301265259
  0
LWPOLYLINE
  5
93
330
1F
100
AcDbEntity
  8
0
  6
Continuous
 62
     7
370
    25
100
AcDbPolyline
 90
       49
 70
   128
 43
0.0
 10
78.0916016902
 20
492.2538733938
 10
78.0995057016
 20
491.8006196617
 10
78.2414665403
 20
490.2820324026
 10
78.560691635
 20
488.7724422016
 10
79.0557244348
 20
487.2787369727
 10
79.7243062187
 20
485.8077321502
 10
80.5633864011
 20
484.3661395917
 10
81.5691364519
 20
482.9605369534
 10
82.7369673641
 20
481.5973376778
 10
84.0615505931
 20
480.2827617304
 10
85.5368423695
 20
479.0228072199
 10
87.1561112753
 20
477.8232230296
 10
88.9119689579
 20
476.6894825871
 10
90.7964038413
 20
475.6267588901
 10
92.8008176814
 20
474.6399009029
 10
94.9160647976
 20
473.7334114322
 10
97.1324938025
 20
472.9114265817
 10
99.4399916389
 20
472.1776968795
 10
101.8280297233
 20
471.5355701661
 10
104.2857119858
 20
470.9879763184
 10
106.8018245858
 20
470.5374138815
 10
109.3648870787
 20
470.1859386684
 10
111.9632047981
 20
469.93515438
 10
114.5849222164
 20
469.7862052875
 10
117.2180770381
 20
469.7397710113
 10
119.8506547819
 20
469.7960634204
 10
122.4706435991
 20
469.9548256655
 10
125.0660890819
 20
470.2153333509
 10
127.6251488078
 20
470.5763978398
 10
130.1361463742
 20
471.0363716777
 10
132.587624675
 20
471.5931561094
 10
134.9683981771
 20
472.2442106554
 10
137.2676039571
 20
472.986564703
 10
139.4747512663
 20
473.816831061
 10
141.5797693979
 20
474.7312214145
 10
143.5730536367
 20
475.7255636099
 10
145.4455090841
 20
476.795320692
 10
147.1885921554
 20
477.9356116044
 10
148.7943495622
 20
479.1412334614
 10
150.2554546018
 20
480.4066852868
 10
151.565240587
 20
481.7261931144
 10
152.7177312648
 20
483.0937363324
 10
153.7076680846
 20
484.5030751548
 10
154.5305341917
 20
485.9477790919
 10
155.1825750368
 20
487.4212562909
 10
155.6608155071
 20
488.9167836134
 10
155.963073501
 20
490.4275373111
 10
156.0879698845
 20
491.9466241615
 10
156.0916016902
 20
492.2538733938
  0
LWPOLYLINE
  5
94
330
1F
100
AcDbEntity
  8
0
  6
Continuous
 62
     7
370
    25
100
AcDbPolyline
 90
       90
 70
   128
 43
0.0
 10
142.2481832472
 20
521.8177070877
 10
140.3690257207
 20
522.8050840663
 10
138.3739012386
 20
523.7134798246
 10
136.2727494106
 20
524.5383687806
 10
134.0760380696
 20
525.2756413792
 10
131.7947111208
 20
525.9216245652
 10
129.4401340205
 20
526.4731000829
 10
127.0240371532
 20
526.9273205091
 10
124.5584573921
 20
527.2820229404
 10
122.0556781315
 20
527.5354402671
 10
119.5281680917
 20
527.686309977
 10
116.9885192007
 20
527.7338804446
 10
114.4493838614
 20
527.6779146763
 10
111.9234119185
 20
527.5186914908
 10
109.4231876371
 20
527.2570041299
 10
106.9611670087
 20
526.8941563069
 10
104.5496156963
 20
526.4319557114
 10
102.2005479273
 20
525.8727050036
 10
99.9256666391
 20
525.2191903423
 10
97.7363051758
 20
524.4746675047
 10
95.6433708262
 20
523.6428456661
 10
93.6572904839
 20
522.7278689211
 10
91.7879587012
 20
521.7342956378
 10
90.044688395
 20
520.6670757483
 10
88.4361644504
 20
519.5315260884
 10
86.9704004527
 20
518.3333039095
 10
85.6546987645
 20
517.078378694
 10
84.4956141453
 20
515.7730024165
 10
83.4989210964
 20
514.4236783957
 10
82.6695850924
 20
513.037128896
 10
82.0117378437
 20
511.6202616375
 10
81.5286567121
 20
510.1801353814
 10
81.2227483835
 20
508.7239247643
 10
81.0955368778
 20
507.2588845542
 10
81.1476559564
 20
505.7923135079
 10
81.3788459645
 20
504.3315180085
 10
81.7879551253
 20
502.8837756656
 10
82.3729452774
 20
501.4562990589
 10
83.1309020294
 20
500.0561998049
 10
84.0580492788
 20
498.6904531277
 10
85.1497680247
 20
497.3658631086
 10
86.4006193792
 20
496.0890287884
 10
87.8043716638
 20
494.8663112915
 10
89.3540314552
 20
493.7038021349
 10
91.0418784262
 20
492.6072928808
 10
92.8595038082
 20
491.5822462831
 10
94.7978522829
 20
490.6337690724
 10
96.8472670958
 20
489.7665865145
 10
98.9975381653
 20
488.9850188692
 10
101.2379529491
 20
488.2929598673
 10
103.5573498135
 20
487.6938573118
 10
105.9441736399
 20
487.1906959016
 10
108.3865333922
 20
486.7859823615
 10
110.8722613568
 20
486.4817329541
 10
113.3889737622
 20
486.2794634344
 10
115.9241324736
 20
486.1801814992
 10
118.4651074579
 20
486.1843817661
 10
120.9992397056
 20
486.2920433094
 10
123.5139042973
 20
486.5026297649
 10
125.9965733004
 20
486.8150920014
 10
128.4348781829
 20
487.2278733477
 10
130.8166714325
 20
487.7389173479
 10
133.130087075
 20
488.3456780066
 10
135.3635997901
 20
489.0451324726
 10
137.5060823298
 20
489.8337960991
 10
139.5468609538
 20
490.7077398034
 10
141.4757686057
 20
491.662609642
 10
143.2831955646
 20
492.6936485014
 10
144.9601373202
 20
493.7957197979
 10
146.4982394332
 20
494.9633330677
 10
147.8898391562
 20
496.1906713202
 10
149.1280036093
 20
497.471620018
 10
150.2065643195
 20
498.7997975391
 10
151.1201479517
 20
500.1685869699
 10
151.864203078
 20
501.5711690703
 10
152.4350228534
 20
503.0005562468
 10
152.8297634823
 20
504.4496273645
 10
153.0464583869
 20
505.9111632239
 10
153.084028004
 20
507.3778825269
 10
152.9422851637
 20
508.8424781517
 10
152.6219360216
 20
510.2976535565
 10
152.1245765412
 20
511.7361591307
 10
151.4526845422
 20
513.1508283119
 10
150.6096073569
 20
514.5346132893
 10
149.5995451534
 20
515.8806201159
 10
148.4275300107
 20
517.1821430533
 10
147.0994008494
 20
518.4326979797
 10
145.6217743421
 20
519.6260546934
 10
144.0020119498
 20
520.7562679513
 10
142.2481832472
 20
521.8177070877
  0
LINE
  5
95
330
1F
100
AcDbEntity
  8
0
  6
Continuous
 62
     7
370
    25
100
AcDbLine
 10
81.2029210356
 20
505.318526384
 30
0.0
 11
81.3416016902
 21
506.1304132726
 31
0.0
  0
LINE
  5
96
330
1F
100
AcDbEntity
  8
0
  6
Continuous
 62
     7
370
    25
100
AcDbLine
 10
152.8416016902
 20
506.1304132726
 30
0.0
 11
152.9802823448
 21
505.318526384
 31
0.0
  0
LINE
  5
97
330
1F
100
AcDbEntity
  8
0
  6
Continuous
 62
     8
370
    25
100
AcDbLine
 10
140.0248142816
 20
490.9318192827
 30
0.0
 11
140.0248142815
 21
491.1194963473
 31
0.0
  0
LINE
  5
98
330
1F
100
AcDbEntity
  8
0
  6
Continuous
 62
     7
370
    25
100
AcDbLine
 10
160.0088913261
 20
203.526618487
 30
0.0
 11
160.0088913261
 21
268.0333426259
 31
0.0
  0
LINE
  5
99
330
1F
100
AcDbEntity
  8
0
  6
Continuous
 62
     7
370
    25
100
AcDbLine
 10
82.0088913261
 20
268.0333426259
 30
0.0
 11
82.0088913261
 21
203.526618487
 31
0.0
  0
LINE
  5
9A
330
1F
100
AcDbEntity
  8
0
  6
Continuous
 62
     7
370
    25
100
AcDbLine
 10
85.2588913261
 20
284.3641588636
 30
0.0
 11
85.2588913261
 21
281.9191903513
 31
0.0
  0
LINE
  5
9B
330
1F
100
AcDbEntity
  8
0
  6
Continuous
 62
     7
370
    25
100
AcDbLine
 10
156.7588913261
 20
281.9191903513
 30
0.0
 11
156.7588913261
 21
284.3641588636
 31
0.0
  0
LINE
  5
9C
330
1F
100
AcDbEntity
  8
0
  6
Continuous
 62
     7
370
    25
100
AcDbLine
 10
148.5905367647
 20
299.4649890016
 30
0.0
 11
147.8833150868
 21
299.8733920968
 31
0.0
  0
LINE
  5
9D
330
1F
100
AcDbEntity
  8
0
  6
Continuous
 62
     7
370
    25
100
AcDbLine
 10
94.1344675653
 20
299.8733920968
 30
0.0
 11
93.4272458874
 21
299.4649890016
 31
0.0
  0
LINE
  5
9E
330
1F
100
AcDbEntity
  8
0
  6
Continuous
 62
     7
370
    25
100
AcDbLine
 10
82.0088913261
 20
283.5476180518
 30
0.0
 11
82.0088913261
 21
269.6664242497
 31
0.0
  0
LINE
  5
9F
330
1F
100
AcDbEntity
  8
0
  6
Continuous
 62
     7
370
    25
100
AcDbLine
 10
160.0088913261
 20
269.6664242497
 30
0.0
 11
160.0088913261
 21
283.5476180518
 31
0.0
  0
LINE
  5
A0
330
1F
100
AcDbEntity
  8
0
  6
Continuous
 62
     7
370
    25
100
AcDbLine
 10
125.5452759325
 20
150.636458493
 30
0.0
 11
118.4742081207
 21
146.5544179339
 31
0.0
  0
LINE
  5
A1
330
1F
100
AcDbEntity
  8
0
  6
Continuous
 62
     7
370
    25
100
AcDbLine
 10
121.2972295683
 20
180.783853024
 30
0.0
 11
118.4742081207
 21
146.5544179339
 31
0.0
  0
LINE
  5
A2
330
1F
100
AcDbEntity
  8
0
  6
Continuous
 62
     7
370
    25
100
AcDbLine
 10
128.0630464124
 20
181.1646931566
 30
0.0
 11
125.5452759325
 21
150.636458493
 31
0.0
  0
LINE
  5
A3
330
1F
100
AcDbEntity
  8
0
  6
Continuous
 62
     7
370
    25
100
AcDbLine
 10
118.4742081207
 20
146.5544179339
 30
0.0
 11
113.9378235142
 21
141.6897177282
 31
0.0
  0
LINE
  5
A4
330
1F
100
AcDbEntity
  8
0
  6
Continuous
 62
     7
370
    25
100
AcDbLine
 10
113.9378235142
 20
141.6897177282
 30
0.0
 11
113.9378235142
 21
116.5658845715
 31
0.0
  0
LINE
  5
A5
330
1F
100
AcDbEntity
  8
0
  6
Continuous
 62
     7
370
    25
100
AcDbLine
 10
113.9378235142
 20
116.5658845715
 30
0.0
 11
111.8165031707
 21
117.7904967393
 31
0.0
  0
LINE
  5
A6
330
1F
100
AcDbEntity
  8
0
  6
Continuous
 62
     7
370
    25
100
AcDbLine
 10
111.8165031707
 20
117.7904967393
 30
0.0
 11
111.8165031707
 21
142.914329896
 31
0.0
  0
LINE
  5
A7
330
1F
100
AcDbEntity
  8
0
  6
Continuous
 62
     7
370
    25
100
AcDbLine
 10
111.8165031707
 20
142.914329896
 30
0.0
 11
107.2801185643
 21
153.0166282827
 31
0.0
  0
LINE
  5
A8
330
1F
100
AcDbEntity
  8
0
  6
Continuous
 62
     7
370
    25
100
AcDbLine
 10
107.2801185643
 20
153.0166282827
 30
0.0
 11
105.036113332
 21
182.8163035142
 31
0.0
  0
LINE
  5
A9
330
1F
100
AcDbEntity
  8
0
  6
Continuous
 62
     7
370
    25
100
AcDbLine
 10
107.1121996124
 20
182.3035026733
 30
0.0
 11
109.3416294365
 21
152.6973842223
 31
0.0
  0
LINE
  5
AA
330
1F
100
AcDbEntity
  8
0
  6
Continuous
 62
     7
370
    25
100
AcDbLine
 10
109.3416294365
 20
152.6973842223
 30
0.0
 11
111.8165031707
 21
147.1859659671
 31
0.0
  0
LINE
  5
AB
330
1F
100
AcDbEntity
  8
0
  6
Continuous
 62
     7
370
    25
100
AcDbLine
 10
111.8165031707
 20
147.1859659671
 30
0.0
 11
113.9378235142
 21
145.9613537994
 31
0.0
  0
LINE
  5
AC
330
1F
100
AcDbEntity
  8
0
  6
Continuous
 62
     7
370
    25
100
AcDbLine
 10
116.4126972484
 20
148.6153436632
 30
0.0
 11
113.9378235142
 21
145.9613537994
 31
0.0
  0
LINE
  5
AD
330
1F
100
AcDbEntity
  8
0
  6
Continuous
 62
     7
370
    25
100
AcDbLine
 10
119.0680572213
 20
180.8118655525
 30
0.0
 11
116.4126972484
 21
148.6153436632
 31
0.0
  0
LINE
  5
AE
330
1F
100
AcDbEntity
  8
0
  6
Continuous
 62
     7
370
    25
100
AcDbLine
 10
134.8475384315
 20
182.2903613211
 30
0.0
 11
130.9083862627
 21
117.3822926834
 31
0.0
  0
LINE
  5
AF
330
1F
100
AcDbEntity
  8
0
  6
Continuous
 62
     7
370
    25
100
AcDbLine
 10
130.9083862627
 20
117.3822926834
 30
0.0
 11
128.7870659192
 21
116.1576805156
 31
0.0
  0
LINE
  5
B0
330
1F
100
AcDbEntity
  8
0
  6
Continuous
 62
     7
370
    25
100
AcDbLine
 10
132.7745246294
 20
181.8617286356
 30
0.0
 11
128.7870659192
 21
116.1576805156
 31
0.0
  0
LINE
  5
B1
330
1F
100
AcDbEntity
  8
0
  6
Continuous
 62
     7
370
    25
100
AcDbLine
 10
128.7870659192
 20
116.1576805156
 30
0.0
 11
121.0088913261
 21
79.8208845364
 31
0.0
  0
LINE
  5
B2
330
1F
100
AcDbEntity
  8
0
  6
Continuous
 62
     7
370
    25
100
AcDbLine
 10
121.0088913261
 20
79.8208845364
 30
0.0
 11
121.0088913261
 21
145.7717582873
 31
0.0
  0
LINE
  5
B3
330
1F
100
AcDbEntity
  8
0
  6
Continuous
 62
     7
370
    25
100
AcDbLine
 10
121.0088913261
 20
145.7717582873
 30
0.0
 11
125.5452759325
 21
150.636458493
 31
0.0
  0
LINE
  5
B4
330
1F
100
AcDbEntity
  8
0
  6
Continuous
 62
     7
370
    25
100
AcDbLine
 10
136.9533665032
 20
182.8087384947
 30
0.0
 11
134.7376640879
 21
155.9431112198
 31
0.0
  0
LINE
  5
B5
330
1F
100
AcDbEntity
  8
0
  6
Continuous
 62
     7
370
    25
100
AcDbLine
 10
134.7376640879
 20
155.9431112198
 30
0.0
 11
133.1945081777
 21
155.052266275
 31
0.0
  0
LINE
  5
B6
330
1F
100
AcDbEntity
  8
0
  6
Continuous
 62
     7
370
    25
100
AcDbLine
 10
117.1196776247
 20
157.1875558653
 30
0.0
 11
109.3416294365
 21
152.6973842223
 31
0.0
  0
LINE
  5
B7
330
1F
100
AcDbEntity
  8
0
  6
Continuous
 62
     7
370
    25
100
AcDbLine
 10
111.8165031707
 20
122.2430287124
 30
0.0
 11
111.1093963895
 21
126.3627819134
 31
0.0
  0
LINE
  5
B8
330
1F
100
AcDbEntity
  8
0
  6
Continuous
 62
     7
370
    25
100
AcDbLine
 10
109.9327729075
 20
147.10930163
 30
0.0
 11
111.1093963895
 21
126.3627819134
 31
0.0
  0
LINE
  5
B9
330
1F
100
AcDbEntity
  8
0
  6
Continuous
 62
     7
370
    25
100
AcDbLine
 10
121.0088913261
 20
145.7717582873
 30
0.0
 11
113.9378235142
 21
141.6897177282
 31
0.0
  0
LINE
  5
BA
330
1F
100
AcDbEntity
  8
0
  6
Continuous
 62
     7
370
    25
100
AcDbLine
 10
111.8165031707
 20
147.1859659671
 30
0.0
 11
116.5186868481
 21
149.9004788241
 31
0.0
  0
LINE
  5
BB
330
1F
100
AcDbEntity
  8
0
  6
Continuous
 62
     7
370
    25
100
AcDbLine
 10
134.7376640879
 20
155.9431112198
 30
0.0
 11
133.1449151777
 21
154.2350889459
 31
0.0
  0
LINE
  5
BC
330
1F
100
AcDbEntity
  8
0
  6
Continuous
 62
     7
370
    25
100
AcDbLine
 10
113.9378235142
 20
116.5658845715
 30
0.0
 11
121.0088913261
 21
79.8208845364
 31
0.0
  0
LINE
  5
BD
330
1F
100
AcDbEntity
  8
0
  6
Continuous
 62
     7
370
    25
100
AcDbLine
 10
121.0088913261
 20
79.8208845364
 30
0.0
 11
118.8875709825
 21
81.0454967041
 31
0.0
  0
LINE
  5
BE
330
1F
100
AcDbEntity
  8
0
  6
Continuous
 62
     7
370
    25
100
AcDbLine
 10
111.8165031707
 20
117.7904967393
 30
0.0
 11
118.8875709825
 21
81.0454967041
 31
0.0
  0
LINE
  5
BF
330
1F
100
AcDbEntity
  8
0
  6
Continuous
 62
     7
370
    25
100
AcDbLine
 10
123.1302116696
 20
81.0454967041
 30
0.0
 11
121.0088913261
 21
79.8208845364
 31
0.0
  0
LINE
  5
C0
330
1F
100
AcDbEntity
  8
0
  6
Continuous
 62
     7
370
    25
100
AcDbLine
 10
130.9083862627
 20
117.3822926834
 30
0.0
 11
123.1302116697
 21
81.0454967041
 31
0.0
  0
LWPOLYLINE
  5
C1
330
1F
100
AcDbEntity
  8
0
  6
Continuous
 62
     7
370
    25
100
AcDbPolyline
 90
       42
 70
   128
 43
0.0
 10
159.9832335243
 20
268.8498834378
 10
160.0009832565
 20
267.579972563
 10
159.8113498935
 20
265.7701679581
 10
159.370067697
 20
263.9750409094
 10
158.6799985513
 20
262.2062335047
 10
157.7456178197
 20
260.4752171386
 10
156.5729853198
 20
258.7932181166
 10
155.1697060232
 20
257.1711448477
 10
153.5448807347
 20
255.6195170997
 10
151.7090470698
 20
254.1483977737
 10
149.6741111143
 20
252.7673276432
 10
147.4532702088
 20
251.4852634779
 10
145.0609273586
 20
250.3105199559
 10
142.5125978252
 20
249.2507157398
 10
139.8248085035
 20
248.3127240665
 10
137.0149907387
 20
247.5026281719
 10
134.1013672772
 20
246.8256818389
 10
131.1028340851
 20
246.2862753241
 10
128.0388378008
 20
245.8879068858
 10
124.9292496161
 20
245.6331600962
 10
121.7942364034
 20
245.523687086
 10
118.6541299266
 20
245.5601978296
 10
115.5292949811
 20
245.7424555409
 10
112.4399973205
 20
246.0692782086
 10
109.4062722257
 20
246.5385462624
 10
106.4477945681
 20
247.1472163188
 10
103.5837512105
 20
247.891340919
 10
100.8327165731
 20
248.7660941294
 10
98.2125321713
 20
249.7658028397
 10
95.7401909062
 20
250.8839835554
 10
93.4317268598
 20
252.1133844454
 10
91.3021113072
 20
253.4460323732
 10
89.3651556224
 20
254.8732846056
 10
87.6334217063
 20
256.3858848642
 10
86.118140518
 20
257.9740233558
 10
84.8291392373
 20
259.6274003931
 10
83.7747775322
 20
261.3352931913
 10
82.961893343
 20
263.0866254103
 10
82.3957585356
 20
264.8700389888
 10
82.0800447114
 20
266.6739678051
 10
82.0167993957
 20
268.4867126888
 10
82.0345491279
 20
268.8498834378
  0
LWPOLYLINE
  5
C2
330
1F
100
AcDbEntity
  8
0
  6
Continuous
 62
     7
370
    25
100
AcDbPolyline
 90
       41
 70
   128
 43
0.0
 10
160.0088913261
 20
203.526618487
 10
160.0009832565
 20
203.073248424
 10
159.8113498935
 20
201.2634438192
 10
159.370067697
 20
199.4683167705
 10
158.6799985513
 20
197.6995093657
 10
157.7456178197
 20
195.9684929996
 10
156.5729853198
 20
194.2864939776
 10
155.1697060232
 20
192.6644207088
 10
153.5448807347
 20
191.1127929607
 10
151.7090470698
 20
189.6416736347
 10
149.6741111143
 20
188.2606035042
 10
147.4532702088
 20
186.978539339
 10
145.0609273586
 20
185.803795817
 10
142.5125978252
 20
184.7439916008
 10
139.8248085035
 20
183.8059999275
 10
137.0149907387
 20
182.9959040329
 10
134.1013672772
 20
182.3189576999
 10
131.1028340851
 20
181.7795511851
 10
128.0388378008
 20
181.3811827469
 10
124.9292496161
 20
181.1264359573
 10
121.7942364034
 20
181.016962947
 10
118.6541299266
 20
181.0534736906
 10
115.5292949811
 20
181.2357314019
 10
112.4399973205
 20
181.5625540696
 10
109.4062722257
 20
182.0318221234
 10
106.4477945681
 20
182.6404921798
 10
103.5837512105
 20
183.38461678
 10
100.8327165731
 20
184.2593699904
 10
98.2125321713
 20
185.2590787007
 10
95.7401909062
 20
186.3772594164
 10
93.4317268598
 20
187.6066603064
 10
91.3021113072
 20
188.9393082342
 10
89.3651556224
 20
190.3665604666
 10
87.6334217063
 20
191.8791607252
 10
86.118140518
 20
193.4672992169
 10
84.8291392373
 20
195.1206762541
 10
83.7747775322
 20
196.8285690523
 10
82.961893343
 20
198.5799012714
 10
82.3957585356
 20
200.3633148498
 10
82.0800447114
 20
202.1672436661
 10
82.0088913261
 20
203.526618487
  0
LWPOLYLINE
  5
C3
330
1F
100
AcDbEntity
  8
0
  6
Continuous
 62
     7
370
    25
100
AcDbPolyline
 90
       33
 70
   128
 43
0.0
 10
156.9988665528
 20
260.9932323921
 10
156.6129808761
 20
260.3671703115
 10
155.4120973588
 20
258.7173530783
 10
153.9822661816
 20
257.1295322186
 10
152.3330026349
 20
255.6142744182
 10
150.4752822956
 20
254.1816634677
 10
148.421467986
 20
252.8412331566
 10
146.1852275015
 20
251.6019038275
 10
143.7814426535
 20
250.4719230126
 10
141.2261102337
 20
249.4588105478
 10
138.5362355576
 20
248.5693085294
 10
135.7297192975
 20
247.8093364466
 10
132.8252383559
 20
247.1839517882
 10
129.8421215745
 20
246.6973163859
 10
126.8002211032
 20
246.352668718
 10
123.7197802876
 20
246.1523023579
 10
120.6212989533
 20
246.0975507107
 10
117.5253969823
 20
246.1887781395
 10
114.4526770915
 20
246.4253775409
 10
111.4235877246
 20
246.8057743849
 10
108.4582869718
 20
247.3274371932
 10
105.5765084202
 20
247.9868943859
 10
102.7974298307
 20
248.7797573843
 10
100.1395455128
 20
249.7007498158
 10
97.620543248
 20
250.7437426278
 10
95.257186581
 20
251.9017948752
 10
93.0652032602
 20
253.1671999113
 10
91.0591805732
 20
254.5315366745
 10
89.2524682699
 20
255.9857257287
 10
87.6570897225
 20
257.5200896855
 10
86.2836619122
 20
259.1244176062
 10
85.1413247744
 20
260.7880329529
 10
85.0189160993
 20
260.9932323921
  0
LWPOLYLINE
  5
C4
330
1F
100
AcDbEntity
  8
0
  6
Continuous
 62
     7
370
    25
100
AcDbPolyline
 90
       21
 70
   128
 43
0.0
 10
147.7429550322
 20
187.134393492
 10
146.1736629072
 20
186.2861865564
 10
143.7709822229
 20
185.1567247912
 10
141.2168235792
 20
184.1440776934
 10
138.5281844804
 20
183.2549842622
 10
135.7229573762
 20
182.4953612679
 10
132.81981059
 20
181.870263876
 10
129.8380640848
 20
181.3838520067
 10
126.7975608917
 20
181.0393626506
 10
123.7185350576
 20
180.8390883275
 10
120.6214769915
 20
180.7843618302
 10
117.5269971039
 20
180.8755473542
 10
114.4556886479
 20
181.1120380752
 10
111.4279906745
 20
181.4922601862
 10
108.4640520142
 20
182.0136833719
 10
105.5835971898
 20
182.6728376471
 10
102.8057951529
 20
183.4653364487
 10
100.1491317177
 20
184.385905828
 10
97.6312865411
 20
185.4284195477
 10
95.2690154672
 20
186.585939851
 10
94.2748276199
 20
187.134393492
  0
LWPOLYLINE
  5
C5
330
1F
100
AcDbEntity
  8
0
  6
Continuous
 62
     7
370
    25
100
AcDbPolyline
 90
       38
 70
   128
 43
0.0
 10
143.9421039174
 20
268.5320472032
 10
146.1852886706
 20
269.7118334444
 10
148.2470769039
 20
270.9971900261
 10
150.112613386
 20
272.3788559245
 10
151.7684568837
 20
273.8468762053
 10
153.2026770067
 20
275.3906737487
 10
154.4049401661
 20
276.9991254579
 10
155.3665840283
 20
278.6606424016
 10
156.0806799272
 20
280.3632533122
 10
156.5420827855
 20
282.0946908389
 10
156.7474681851
 20
283.8424799347
 10
156.6953563194
 20
285.5940277392
 10
156.3861226556
 20
287.3367143102
 10
155.8219952294
 20
289.0579835512
 10
155.0070385918
 20
290.7454336777
 10
153.947124524
 20
292.3869065729
 10
152.6498897313
 20
293.970575387
 10
151.1246808199
 20
295.4850297499
 10
149.3824869551
 20
296.9193579833
 10
147.4358606835
 20
298.2632257193
 10
145.2988274921
 20
299.50695036
 10
142.9867847541
 20
300.6415708411
 10
140.5163907902
 20
301.6589121958
 10
137.9054448456
 20
302.5516444564
 10
135.1727588458
 20
303.3133354665
 10
132.3380218558
 20
303.938497225
 10
129.4216582208
 20
304.422625427
 10
126.4446804075
 20
304.7622319177
 10
123.4285376093
 20
304.9548698247
 10
120.3949612042
 20
304.9991511873
 10
117.3658081797
 20
304.8947569574
 10
114.3629036528
 20
304.6424392977
 10
111.4078836193
 20
304.2440161627
 10
108.5220390664
 20
303.7023582004
 10
105.7261625702
 20
303.0213680687
 10
103.0403984848
 20
302.2059523171
 10
100.4840978022
 20
301.2619860348
 10
98.0756787273
 20
300.1962705205
  0
LWPOLYLINE
  5
C6
330
1F
100
AcDbEntity
  8
0
  6
Continuous
 62
     7
370
    25
100
AcDbPolyline
 90
       38
 70
   128
 43
0.0
 10
98.0756787273
 20
300.1962705205
 10
95.832493975
 20
299.0164842791
 10
93.7707057425
 20
297.7311276974
 10
91.9051692613
 20
296.3494617989
 10
90.2493257645
 20
294.8814415182
 10
88.8151056423
 20
293.3376439749
 10
87.6128424837
 20
291.7291922658
 10
86.6511986222
 20
290.0676753223
 10
85.9371027239
 20
288.365064412
 10
85.4756998661
 20
286.6336268855
 10
85.270314467
 20
284.88583779
 10
85.322426333
 20
283.1342899858
 10
85.631659997
 20
281.3916034151
 10
86.1957874234
 20
279.6703341745
 10
87.0107440611
 20
277.9828840483
 10
88.0706581288
 20
276.3414111534
 10
89.3678929215
 20
274.7577423396
 10
90.8931018327
 20
273.2432879769
 10
92.6352956972
 20
271.8089597439
 10
94.5819219685
 20
270.4650920081
 10
96.7189551594
 20
269.2213673675
 10
99.030997897
 20
268.0867468867
 10
101.5013918604
 20
267.0694055321
 10
104.1123378044
 20
266.1766732715
 10
106.8450238037
 20
265.4149822614
 10
109.6797607931
 20
264.7898205029
 10
112.5961244275
 20
264.3056923008
 10
115.5731022402
 20
263.9660858099
 10
118.5892450378
 20
263.7734479028
 10
121.6228214423
 20
263.7291665399
 10
124.6519744664
 20
263.8335607696
 10
127.6548789929
 20
264.0858784289
 10
130.6098990259
 20
264.4843015634
 10
133.4957435786
 20
265.0259595253
 10
136.2916200746
 20
265.7069496566
 10
138.9773841598
 20
266.5223654077
 10
141.5336848424
 20
267.4663316894
 10
143.9421039174
 20
268.5320472032
  0
LWPOLYLINE
  5
C7
330
1F
100
AcDbEntity
  8
0
  6
Continuous
 62
     7
370
    25
100
AcDbPolyline
 90
       33
 70
   128
 43
0.0
 10
103.367958553
 20
296.5427062953
 10
105.5206886363
 20
297.4822594005
 10
107.8225785782
 20
298.2954780265
 10
110.2514599203
 20
298.9745304334
 10
112.7839412075
 20
299.5128769751
 10
115.3956332606
 20
299.9053330802
 10
118.0613840573
 20
300.148119182
 10
120.7555209603
 20
300.2388971174
 10
123.4520979585
 20
300.1767926455
 10
126.1251455411
 20
299.9624038661
 10
128.7489207989
 20
299.5977954605
 10
131.2981553417
 20
299.0864788068
 10
133.7482986473
 20
298.4333781641
 10
136.0757544963
 20
297.6447832484
 10
138.2581082166
 20
296.72828866
 10
140.2743425488
 20
295.6927207427
 10
142.1050400541
 20
294.5480525816
 10
143.7325701148
 20
293.3053079569
 10
145.1412587268
 20
291.9764551788
 10
146.3175394485
 20
290.5742918258
 10
147.2500840536
 20
289.1123214975
 10
147.9299116279
 20
287.6046237675
 10
148.35047506
 20
286.065718589
 10
148.5077240943
 20
284.5104264602
 10
148.4001443367
 20
282.9537256945
 10
148.0287718389
 20
281.4106081712
 10
147.3971831212
 20
279.8959349557
 10
146.5114607281
 20
278.424293179
 10
145.3801346505
 20
277.0098555559
 10
144.014100177
 20
275.666243894
 10
142.4265129662
 20
274.406397908
 10
140.632662351
 20
273.2424506034
 10
138.6498240934
 20
272.1856114292
  0
LWPOLYLINE
  5
C8
330
1F
100
AcDbEntity
  8
0
  6
Continuous
 62
     7
370
    25
100
AcDbPolyline
 90
       33
 70
   128
 43
0.0
 10
138.6498240934
 20
272.1856114292
 10
136.49709401
 20
271.2460583244
 10
134.1952040681
 20
270.4328396989
 10
131.7663227262
 20
269.7537872925
 10
129.2338414392
 20
269.2154407512
 10
126.6221493865
 20
268.8229846464
 10
123.9563985902
 20
268.580198545
 10
121.2622616876
 20
268.4894206098
 10
118.5656846899
 20
268.551525082
 10
115.8926371078
 20
268.7659138615
 10
113.2688618506
 20
269.1305222673
 10
110.7196273083
 20
269.641838921
 10
108.2694840032
 20
270.2949395637
 10
105.9420281547
 20
271.0835344793
 10
103.7596744348
 20
272.0000290676
 10
101.743440103
 20
273.0355969848
 10
99.912742598
 20
274.1802651457
 10
98.2852125376
 20
275.4230097701
 10
96.8765239258
 20
276.751862548
 10
95.7002432042
 20
278.1540259008
 10
94.7676985991
 20
279.6159962287
 10
94.0878710248
 20
281.1236939585
 10
93.6673075924
 20
282.6625991366
 10
93.5100585578
 20
284.2178912652
 10
93.6176383151
 20
285.7745920306
 10
93.9890108125
 20
287.3177095536
 10
94.6205995297
 20
288.832382769
 10
95.5063219221
 20
290.3040245455
 10
96.637647999
 20
291.7184621685
 10
98.0036824718
 20
293.0620738303
 10
99.5912696818
 20
294.3219198164
 10
101.3851202962
 20
295.4858671209
 10
103.367958553
 20
296.5427062953
  0
LWPOLYLINE
  5
C9
330
1F
100
AcDbEntity
  8
0
  6
Continuous
 62
     7
370
    25
100
AcDbPolyline
 90
       33
 70
   128
 43
0.0
 10
136.3354165719
 20
271.1829266051
 10
138.4996442522
 20
272.1136353358
 10
140.4954264204
 20
273.1623233048
 10
142.3035426032
 20
274.3188910738
 10
143.9065796533
 20
275.572200263
 10
145.2890994476
 20
276.9101808197
 10
146.4377875648
 20
278.3199472597
 10
147.3415815102
 20
279.7879227615
 10
147.9917772543
 20
281.2999699187
 10
148.3821130565
 20
282.8415268905
 10
148.5088297696
 20
284.3977476405
 10
148.3707070425
 20
285.9536449122
 10
147.9690750725
 20
287.4942345644
 10
147.307801795
 20
289.0046798765
 10
146.3932556333
 20
290.4704344345
 10
145.2342441667
 20
291.8773822207
 10
143.8419293093
 20
293.2119735588
 10
142.2297198142
 20
294.4613556047
 10
140.4131421403
 20
295.6134961263
 10
138.4096909236
 20
296.6572993804
 10
136.2386604945
 20
297.5827129713
 10
133.9209590629
 20
298.3808246601
 10
131.4789073604
 20
299.043948195
 10
128.93602368
 20
299.5656973337
 10
126.3167973817
 20
299.941047347
 10
123.6464530464
 20
300.166383409
 10
120.9507075499
 20
300.2395354102
 10
118.255522395
 20
300.1597988569
 10
115.586853688
 20
299.9279416556
 10
112.9704021675
 20
299.546196718
 10
110.4313656919
 20
299.0182404565
 10
107.9941965704
 20
298.3491573784
 10
105.682366074
 20
297.5453911197
  0
LWPOLYLINE
  5
CA
330
1F
100
AcDbEntity
  8
0
  6
Continuous
 62
     7
370
    25
100
AcDbPolyline
 90
       33
 70
   128
 43
0.0
 10
105.682366074
 20
297.5453911197
 10
103.5181383945
 20
296.6146823889
 10
101.5223562271
 20
295.5659944198
 10
99.7142400451
 20
294.4094266507
 10
98.1112029957
 20
293.1561174616
 10
96.7286832021
 20
291.818136905
 10
95.5799950856
 20
290.4083704651
 10
94.6762011407
 20
288.9403949634
 10
94.0260053971
 20
287.4283478064
 10
93.6356695954
 20
285.8867908349
 10
93.5089528825
 20
284.3305700852
 10
93.6470756099
 20
282.7746728137
 10
94.04870758
 20
281.2340831618
 10
94.7099808575
 20
279.72363785
 10
95.6245270192
 20
278.2578832922
 10
96.7835384857
 20
276.8509355063
 10
98.1758533429
 20
275.5163441684
 10
99.7880628376
 20
274.2669621228
 10
101.6046405111
 20
273.1148216014
 10
103.6080917274
 20
272.0710183474
 10
105.779122156
 20
271.1456047566
 10
108.0968235872
 20
270.3474930678
 10
110.5388752891
 20
269.6843695329
 10
113.081758969
 20
269.1626203941
 10
115.7009852668
 20
268.7872703807
 10
118.3713296015
 20
268.5619343185
 10
121.0670750975
 20
268.4887823171
 10
123.762260252
 20
268.5685188701
 10
126.4309289586
 20
268.800376071
 10
129.0473804788
 20
269.1821210083
 10
131.5864169542
 20
269.7100772694
 10
134.0235860755
 20
270.3791603469
 10
136.3354165719
 20
271.1829266051
  0
LWPOLYLINE
  5
CB
330
1F
100
AcDbEntity
  8
0
  6
Continuous
 62
     7
370
    25
100
AcDbPolyline
 90
       78
 70
   128
 43
0.0
 10
94.4547219048
 20
268.6721653904
 10
92.3274709343
 20
269.9738672658
 10
90.3910900844
 20
271.3713341576
 10
88.6584656502
 20
272.8552661542
 10
87.1411279614
 20
274.4157879329
 10
85.8491746501
 20
276.0425144787
 10
84.7912034522
 20
277.724620195
 10
83.9742549917
 20
279.4509109457
 10
83.4037659257
 20
281.2098985506
 10
83.0835327648
 20
282.9898772375
 10
83.0156866079
 20
284.7790015419
 10
83.2006789599
 20
286.5653651367
 10
83.6372787274
 20
288.337080067
 10
84.3225804108
 20
290.0823558621
 10
85.2520234405
 20
291.7895779996
 10
86.4194225266
 20
293.4473851979
 10
87.8170088206
 20
295.0447450235
 10
89.4354816164
 20
296.5710273105
 10
91.2640702446
 20
298.0160749019
 10
93.2906057496
 20
299.3702712445
 10
95.5016018719
 20
300.624604385
 10
97.8823447971
 20
301.7707269433
 10
100.4169910738
 20
302.801011663
 10
103.0886730493
 20
303.7086021692
 10
105.8796111207
 20
304.4874585967
 10
108.7712320558
 20
305.1323977847
 10
111.7442925943
 20
305.6391277692
 10
114.7790075088
 20
306.0042763457
 10
117.8551812722
 20
306.2254135107
 10
120.9523424557
 20
306.3010676329
 10
124.0498799626
 20
306.2307352466
 10
127.1271801919
 20
306.0148844022
 10
130.1637642182
 20
305.6549515515
 10
133.1394240758
 20
305.1533319881
 10
136.0343572394
 20
304.5133639076
 10
138.8292984064
 20
303.7393061919
 10
141.5056477044
 20
302.8363100674
 10
144.0455944704
 20
301.8103848243
 10
146.4322357778
 20
300.6683578259
 10
148.6496889225
 20
299.4178290734
 10
150.6831971195
 20
298.0671206293
 10
152.5192277074
 20
296.6252212355
 10
154.1455622056
 20
295.1017264946
 10
155.5513776261
 20
293.5067750126
 10
156.7273184995
 20
291.8509809286
 10
157.6655591332
 20
290.145363279
 10
158.3598556905
 20
288.4012726679
 10
158.8055877424
 20
286.6303157304
 10
158.9997890158
 20
284.8442778929
 10
158.941167133
 20
283.0550449425
 10
158.6301122132
 20
281.2745239292
 10
158.0686942754
 20
279.5145639267
 10
157.2606494634
 20
277.7868771783
 10
156.2113551821
 20
276.1029611544
 10
154.9277943119
 20
274.4740220382
 10
153.4185087385
 20
272.9109001509
 10
151.6935425084
 20
271.4239978106
 10
149.7643749874
 20
270.0232101072
 10
147.6438444669
 20
268.7178590516
 10
145.3460627277
 20
267.5166315398
 10
142.8863211281
 20
266.4275215428
 10
140.2809888428
 20
265.4577769077
 10
137.5474039282
 20
264.6138511253
 10
134.7037579408
 20
263.9013603822
 10
131.7689748756
 20
263.325046187
 10
128.7625852297
 20
262.8887438154
 10
125.7045960302
 20
262.5953567877
 10
122.6153576906
 20
262.4468375463
 10
119.5154285823
 20
262.4441744621
 10
116.4254382222
 20
262.5873852576
 10
113.3659499863
 20
262.8755168885
 10
110.3573242641
 20
263.3066518864
 10
107.4195829632
 20
263.877921119
 10
104.5722762674
 20
264.5855228837
 10
101.834352533
 20
265.4247482077
 10
99.2240321907
 20
266.3900121848
 10
96.7586864916
 20
267.4748911425
 10
94.4547219048
 20
268.6721653904
  0
LWPOLYLINE
  5
CC
330
1F
100
AcDbEntity
  8
0
  6
Continuous
 62
     7
370
    25
100
AcDbPolyline
 90
       40
 70
   128
 43
0.0
 10
93.7559279726
 20
267.4426773818
 10
96.0891249423
 20
266.2289362403
 10
98.5839361595
 20
265.127513396
 10
101.2241818161
 20
264.1455519988
 10
103.9927389059
 20
263.2894204451
 10
106.8716522738
 20
262.5646710767
 10
109.8422510618
 20
261.9760041711
 10
112.885269797
 20
261.5272374593
 10
115.980973335
 20
261.2212813656
 10
119.1092848506
 20
261.0601201326
 10
122.2499160431
 20
261.0447989527
 10
125.3824987141
 20
261.1754171898
 10
128.4867168629
 20
261.4511277344
 10
131.5424384437
 20
261.8701424977
 10
134.5298459293
 20
262.4297440084
 10
137.4295648359
 20
263.1263030359
 10
140.2227893736
 20
263.9553021275
 10
142.8914044096
 20
264.9113649061
 10
145.4181029511
 20
265.9882909377
 10
147.7864983887
 20
267.1790959437
 10
149.9812307691
 20
268.4760570966
 10
151.9880664106
 20
269.8707631058
 10
153.793990214
 20
271.3541687676
 10
155.3872900704
 20
272.916653627
 10
156.7576328189
 20
274.5480843701
 10
157.8961312609
 20
276.2378805425
 10
158.7954017971
 20
277.9750831677
 10
159.449612313
 20
279.7484258199
 10
159.8545200024
 20
281.5464076916
 10
160.0074988836
 20
283.3573681805
 10
159.9075568297
 20
285.1695625128
 10
159.5553420034
 20
286.9712379128
 10
158.953138653
 20
288.7507098243
 10
158.1048522982
 20
290.4964376891
 10
157.0159844017
 20
292.197099792
 10
155.6935966895
 20
293.8416666868
 10
154.1462653534
 20
295.419472726
 10
152.3840254308
 20
296.920285232
 10
150.418305724
 20
298.3343708599
 10
148.5905367647
 20
299.4649890016
  0
LWPOLYLINE
  5
CD
330
1F
100
AcDbEntity
  8
0
  6
Continuous
 62
     7
370
    25
100
AcDbPolyline
 90
       21
 70
   128
 43
0.0
 10
93.4272458874
 20
299.4649890016
 10
92.036551883
 20
298.6191790069
 10
90.0297162415
 20
297.2244729977
 10
88.2237924381
 20
295.7410673359
 10
86.6304925817
 20
294.1785824765
 10
85.2601498332
 20
292.5471517334
 10
84.1216513912
 20
290.857355561
 10
83.222380855
 20
289.1201529358
 10
82.5681703391
 20
287.3468102836
 10
82.1632626497
 20
285.5488284119
 10
82.0102837686
 20
283.737867923
 10
82.1102258224
 20
281.9256735907
 10
82.4624406487
 20
280.1239981907
 10
83.0646439992
 20
278.3445262792
 10
83.9129303539
 20
276.5987984144
 10
85.0017982505
 20
274.8981363115
 10
86.3241859627
 20
273.2535694167
 10
87.8715172988
 20
271.6757633775
 10
89.6337572213
 20
270.1749508715
 10
91.5994769281
 20
268.7608652436
 10
93.7559279726
 20
267.4426773818
  0
LWPOLYLINE
  5
CE
330
1F
100
AcDbEntity
  8
0
  6
Continuous
 62
     7
370
    25
100
AcDbPolyline
 90
       41
 70
   128
 43
0.0
 10
82.0088913261
 20
269.6664242497
 10
82.1102258224
 20
268.0444797887
 10
82.4624406487
 20
266.2428043886
 10
83.0646439992
 20
264.4633324771
 10
83.9129303539
 20
262.7176046124
 10
85.0017982505
 20
261.0169425094
 10
86.3241859627
 20
259.3723756147
 10
87.8715172988
 20
257.7945695755
 10
89.6337572213
 20
256.2937570694
 10
91.5994769281
 20
254.8796714415
 10
93.7559279726
 20
253.5614835798
 10
96.0891249423
 20
252.3477424382
 10
98.5839361595
 20
251.246319594
 10
101.2241818161
 20
250.2643581967
 10
103.9927389059
 20
249.4082266431
 10
106.8716522738
 20
248.6834772746
 10
109.8422510618
 20
248.0948103691
 10
112.885269797
 20
247.6460436573
 10
115.980973335
 20
247.3400875635
 10
119.1092848506
 20
247.1789263305
 10
122.2499160431
 20
247.1636051507
 10
125.3824987141
 20
247.2942233877
 10
128.4867168629
 20
247.5699339323
 10
131.5424384437
 20
247.9889486957
 10
134.5298459293
 20
248.5485502064
 10
137.4295648359
 20
249.2451092338
 10
140.2227893736
 20
250.0741083255
 10
142.8914044096
 20
251.0301711041
 10
145.4181029511
 20
252.1070971357
 10
147.7864983887
 20
253.2979021416
 10
149.9812307691
 20
254.5948632946
 10
151.9880664106
 20
255.9895693038
 10
153.793990214
 20
257.4729749655
 10
155.3872900704
 20
259.0354598249
 10
156.7576328189
 20
260.666890568
 10
157.8961312609
 20
262.3566867404
 10
158.7954017971
 20
264.0938893656
 10
159.449612313
 20
265.8672320179
 10
159.8545200024
 20
267.6652138896
 10
160.0074988836
 20
269.4761743784
 10
160.0088913261
 20
269.6664242497
  0
LWPOLYLINE
  5
CF
330
1F
100
AcDbEntity
  8
0
  6
Continuous
 62
     7
370
    25
100
AcDbPolyline
 90
       75
 70
   128
 43
0.0
 10
146.1654728831
 20
299.2302579436
 10
143.8909552922
 20
300.4083039329
 10
141.4515719061
 20
301.4707514893
 10
138.8648985379
 20
302.4099456538
 10
136.1495722286
 20
303.219119511
 10
133.3251569665
 20
303.8924429447
 10
130.4120027282
 20
304.4250646441
 10
127.4310988568
 20
304.8131470576
 10
124.403922833
 20
305.0538940427
 10
121.3522855293
 20
305.1455710116
 10
118.2981740626
 20
305.0875174298
 10
115.2635933758
 20
304.8801515747
 10
112.2704076924
 20
304.524967522
 10
109.3401829839
 20
304.0245243809
 10
106.4940315864
 20
303.3824278557
 10
103.7524600858
 20
302.6033042666
 10
101.1352215678
 20
301.692767217
 10
98.6611732959
 20
300.6573771471
 10
96.3481408444
 20
299.5045940661
 10
94.2127896652
 20
298.2427238025
 10
92.2705050125
 20
296.8808581606
 10
90.5352810918
 20
295.4288094133
 10
89.0196202311
 20
293.8970396053
 10
87.7344428017
 20
292.2965851732
 10
86.6890085363
 20
290.6389774276
 10
85.890849813
 20
288.9361594706
 10
85.3457173834
 20
287.2004001444
 10
85.0575389393
 20
285.4442056348
 10
85.028390813
 20
283.6802293634
 10
85.2584830174
 20
281.9211808198
 10
85.7461577328
 20
280.179733989
 10
86.4879012519
 20
278.4684360352
 10
87.4783692955
 20
276.7996168996
 10
88.7104255186
 20
275.1853004621
 10
90.175192928
 20
273.6371179098
 10
91.8621178409
 20
272.1662239333
 10
93.7590459247
 20
270.7832163575
 10
95.8523097691
 20
269.4980597837
 10
98.12682736
 20
268.3200137944
 10
100.5662107461
 20
267.257566238
 10
103.1528841142
 20
266.3183720735
 10
105.8682104235
 20
265.5091982163
 10
108.6926256856
 20
264.8358747826
 10
111.6057799239
 20
264.3032530832
 10
114.5866837953
 20
263.9151706696
 10
117.6138598192
 20
263.6744236846
 10
120.6654971228
 20
263.5827467157
 10
123.7196085896
 20
263.6408002975
 10
126.7541892763
 20
263.8481661526
 10
129.7473749597
 20
264.2033502053
 10
132.6775996682
 20
264.7037933464
 10
135.5237510658
 20
265.3458898716
 10
138.2653225663
 20
266.1250134606
 10
140.8825610843
 20
267.0355505103
 10
143.3566093563
 20
268.0709405802
 10
145.6696418078
 20
269.2237236612
 10
147.8049929869
 20
270.4855939247
 10
149.7472776396
 20
271.8474595667
 10
151.4825015603
 20
273.299508314
 10
152.998162421
 20
274.8312781219
 10
154.2833398505
 20
276.4317325541
 10
155.3287741158
 20
278.0893402996
 10
156.1269328392
 20
279.7921582567
 10
156.6720652687
 20
281.5279175829
 10
156.9602437128
 20
283.2841120925
 10
156.9893918391
 20
285.0480883638
 10
156.7592996348
 20
286.8071369075
 10
156.2716249193
 20
288.5485837383
 10
155.5298814003
 20
290.2598816921
 10
154.5394133567
 20
291.9287008277
 10
153.3073571335
 20
293.5430172652
 10
151.8425897241
 20
295.0911998175
 10
150.1556648112
 20
296.562093794
 10
148.2587367274
 20
297.9451013698
 10
146.1654728831
 20
299.2302579436
  0
LINE
  5
D0
330
1F
100
AcDbEntity
  8
0
  6
Continuous
 62
     7
370
    25
100
AcDbLine
 10
85.1202106715
 20
282.7310772399
 30
0.0
 11
85.2588913261
 21
283.5429641285
 31
0.0
  0
LWPOLYLINE
  5
D1
330
1F
100
AcDbEntity
  8
0
  6
Continuous
 62
     7
370
    25
100
AcDbPolyline
 90
        3
 70
   128
 43
0.0
 10
156.7588913261
 20
283.5429641285
 10
156.7592996348
 20
283.5409736599
 10
156.8975719807
 20
282.7310772399
  0
LINE
  5
D2
330
1F
100
AcDbEntity
  8
0
  6
Continuous
 62
     8
370
    25
100
AcDbLine
 10
143.9421039174
 20
268.3443701386
 30
0.0
 11
143.9421039174
 21
268.5320472032
 31
0.0
  0
LINE
  5
D3
330
1F
100
AcDbEntity
  8
0
  6
Continuous
 62
     7
370
    25
100
AcDbLine
 10
308.3979684331
 20
242.484250443
 30
0.0
 11
314.7619294638
 21
238.8104139398
 31
0.0
  0
LINE
  5
D4
330
1F
100
AcDbEntity
  8
0
  6
Continuous
 62
     7
370
    25
100
AcDbLine
 10
318.7616043944
 20
245.7388048388
 30
0.0
 11
312.3976433637
 21
249.412641342
 31
0.0
  0
LINE
  5
D5
330
1F
100
AcDbEntity
  8
0
  6
Continuous
 62
     7
370
    25
100
AcDbLine
 10
319.5901940538
 20
243.4992215571
 30
0.0
 11
319.5901940538
 21
243.907425613
 31
0.0
  0
LINE
  5
D6
330
1F
100
AcDbEntity
  8
0
  6
Continuous
 62
     7
370
    25
100
AcDbLine
 10
310.3973461994
 20
249.2143437184
 30
0.0
 11
310.0438502712
 21
249.0102085181
 31
0.0
  0
LINE
  5
D7
330
1F
100
AcDbEntity
  8
0
  6
Continuous
 62
     7
370
    25
100
AcDbLine
 10
307.5693787737
 20
244.7238337248
 30
0.0
 11
307.5693787737
 21
244.3156296689
 31
0.0
  0
LINE
  5
D8
330
1F
100
AcDbEntity
  8
0
  6
Continuous
 62
     7
370
    25
100
AcDbLine
 10
321.2244473544
 20
259.6224855652
 30
0.0
 11
321.2244473544
 21
283.27730921
 31
0.0
  0
LINE
  5
D9
330
1F
100
AcDbEntity
  8
0
  6
Continuous
 62
     7
370
    25
100
AcDbLine
 10
235.2244473544
 20
309.6792415495
 30
0.0
 11
235.2244473544
 21
259.6224855652
 31
0.0
  0
LINE
  5
DA
330
1F
100
AcDbEntity
  8
0
  6
Continuous
 62
     7
370
    25
100
AcDbLine
 10
311.3369831919
 20
250.0249474259
 30
0.0
 11
310.5637888581
 21
250.4713030138
 31
0.0
  0
LINE
  5
DB
330
1F
100
AcDbEntity
  8
0
  6
Continuous
 62
     7
370
    25
100
AcDbLine
 10
317.2244473544
 20
198.7901950797
 30
0.0
 11
317.2244473544
 21
239.9254333303
 31
0.0
  0
LINE
  5
DC
330
1F
100
AcDbEntity
  8
0
  6
Continuous
 62
     7
370
    25
100
AcDbLine
 10
317.2244473544
 20
246.6261867095
 30
0.0
 11
317.2244473544
 21
249.1673604283
 31
0.0
  0
LINE
  5
DD
330
1F
100
AcDbEntity
  8
0
  6
Continuous
 62
     7
370
    25
100
AcDbLine
 10
239.2244473544
 20
249.1673604283
 30
0.0
 11
239.2244473544
 21
198.7901950797
 31
0.0
  0
LINE
  5
DE
330
1F
100
AcDbEntity
  8
0
  6
Continuous
 62
     7
370
    25
100
AcDbLine
 10
313.9744473544
 20
277.182766944
 30
0.0
 11
313.9744473544
 21
279.6277354564
 31
0.0
  0
LINE
  5
DF
330
1F
100
AcDbEntity
  8
0
  6
Continuous
 62
     7
370
    25
100
AcDbLine
 10
305.8060927931
 20
294.7285655943
 30
0.0
 11
305.0988711152
 21
295.1369686896
 31
0.0
  0
LINE
  5
E0
330
1F
100
AcDbEntity
  8
0
  6
Continuous
 62
     7
370
    25
100
AcDbLine
 10
251.3500235937
 20
295.1369686896
 30
0.0
 11
250.6428019157
 21
294.7285655943
 31
0.0
  0
LINE
  5
E1
330
1F
100
AcDbEntity
  8
0
  6
Continuous
 62
     7
370
    25
100
AcDbLine
 10
317.2244473544
 20
272.3424438906
 30
0.0
 11
317.2244473544
 21
278.8111946445
 31
0.0
  0
LWPOLYLINE
  5
E2
330
1F
100
AcDbEntity
  8
0
  6
Continuous
 62
     7
370
    25
100
AcDbPolyline
 90
        9
 70
   128
 43
0.0
 10
316.2314368432
 20
244.2296664532
 10
315.585054056
 20
243.4331948909
 10
315.0766320159
 20
242.5138705975
 10
314.7520073765
 20
241.5545750098
 10
314.6404465855
 20
240.6417931657
 10
314.7520073765
 20
239.8578166691
 10
315.0766320159
 20
239.2733247121
 10
315.585054056
 20
238.9410120114
 10
316.2314368432
 20
238.8908381298
  0
LINE
  5
E3
330
1F
100
AcDbEntity
  8
0
  6
Continuous
 62
     7
370
    25
100
AcDbLine
 10
316.2314368432
 20
238.8908381298
 30
0.0
 11
315.8778834526
 21
238.6617678448
 31
0.0
  0
LWPOLYLINE
  5
E4
330
1F
100
AcDbEntity
  8
0
  6
Continuous
 62
     7
370
    25
100
AcDbPolyline
 90
       10
 70
   128
 43
0.0
 10
315.8778834526
 20
238.6617678448
 10
315.1734538209
 20
238.6551401903
 10
314.5913692983
 20
238.92731421
 10
314.1764668844
 20
239.4573247933
 10
313.9607058201
 20
240.204346109
 10
313.9607058201
 20
241.1108363515
 10
314.1764668844
 20
242.1069700897
 10
314.5913692983
 20
243.1160168035
 10
315.1734538209
 20
244.0602513078
 10
315.8778834526
 20
244.866940794
  0
LINE
  5
E5
330
1F
100
AcDbEntity
  8
0
  6
Continuous
 62
     7
370
    25
100
AcDbLine
 10
315.8778834526
 20
244.866940794
 30
0.0
 11
316.2314368432
 21
244.2296664532
 31
0.0
  0
LWPOLYLINE
  5
E6
330
1F
100
AcDbEntity
  8
0
  6
Continuous
 62
     7
370
    25
100
AcDbPolyline
 90
       14
 70
   128
 43
0.0
 10
312.3976433637
 20
249.412641342
 10
312.3283577228
 20
249.4499593048
 10
311.6990663303
 20
249.5996256184
 10
310.9732664044
 20
249.4785006349
 10
310.2047872054
 20
249.09556764
 10
309.4506233198
 20
248.4792270222
 10
308.766707633
 20
247.6751899456
 10
308.2037630428
 20
246.7430881619
 10
307.8035405741
 20
245.7520513963
 10
307.5957228965
 20
244.7755803121
 10
307.5957228965
 20
243.8860953025
 10
307.8035405741
 20
243.1495654015
 10
308.2037630428
 20
242.6206156625
 10
308.3979684331
 20
242.484250443
  0
LINE
  5
E7
330
1F
100
AcDbEntity
  8
0
  6
Continuous
 62
     7
370
    25
100
AcDbLine
 10
317.6456504056
 20
239.6822779846
 30
0.0
 11
316.2314368432
 21
240.4986860964
 31
0.0
  0
LWPOLYLINE
  5
E8
330
1F
100
AcDbEntity
  8
0
  6
Continuous
 62
     7
370
    25
100
AcDbPolyline
 90
        6
 70
   128
 43
0.0
 10
317.6456504056
 20
245.8874509338
 10
318.3500800372
 20
245.8940785883
 10
318.9321645598
 20
245.6219045686
 10
319.3470669737
 20
245.0918939854
 10
319.5628280381
 20
244.3448726696
 10
319.5901940538
 20
243.907425613
  0
LINE
  5
E9
330
1F
100
AcDbEntity
  8
0
  6
Continuous
 62
     7
370
    25
100
AcDbLine
 10
315.1707766714
 20
247.3161651295
 30
0.0
 11
317.6456504056
 21
245.8874509338
 31
0.0
  0
ARC
  5
EA
330
1F
100
AcDbEntity
  8
0
  6
Continuous
 62
     7
370
    25
100
AcDbCircle
 10
316.0776808023
 20
243.7038388222
 30
0.0
 40
3.724429681556146
100
AcDbArc
 50
104.0932930006
 51
135.9013304667
  0
LINE
  5
EB
330
1F
100
AcDbEntity
  8
0
  6
Continuous
 62
     7
370
    25
100
AcDbLine
 10
315.8778834526
 20
244.866940794
 30
0.0
 11
313.4030097184
 21
246.2956549897
 31
0.0
  0
LINE
  5
EC
330
1F
100
AcDbEntity
  8
0
  6
Continuous
 62
     7
370
    25
100
AcDbLine
 10
316.2314368432
 20
244.2296664532
 30
0.0
 11
316.2314368432
 21
238.8908381298
 31
0.0
  0
LINE
  5
ED
330
1F
100
AcDbEntity
  8
0
  6
Continuous
 62
     7
370
    25
100
AcDbLine
 10
315.1707766714
 20
245.2751448499
 30
0.0
 11
315.1707766714
 21
247.3161651295
 31
0.0
  0
LINE
  5
EE
330
1F
100
AcDbEntity
  8
0
  6
Continuous
 62
     7
370
    25
100
AcDbLine
 10
317.9992037962
 20
245.250176593
 30
0.0
 11
317.6456504056
 21
245.8874509338
 31
0.0
  0
LINE
  5
EF
330
1F
100
AcDbEntity
  8
0
  6
Continuous
 62
     7
370
    25
100
AcDbLine
 10
317.9992037962
 20
239.9113482695
 30
0.0
 11
317.9992037962
 21
245.250176593
 31
0.0
  0
LINE
  5
F0
330
1F
100
AcDbEntity
  8
0
  6
Continuous
 62
     7
370
    25
100
AcDbLine
 10
317.6456504056
 20
239.6822779846
 30
0.0
 11
317.9992037962
 21
239.9113482695
 31
0.0
  0
LWPOLYLINE
  5
F1
330
1F
100
AcDbEntity
  8
0
  6
Continuous
 62
     7
370
    25
100
AcDbPolyline
 90
        9
 70
   128
 43
0.0
 10
317.9992037962
 20
239.9113482695
 10
318.6455865834
 20
240.7078198319
 10
319.1540086235
 20
241.6271441252
 10
319.4786332629
 20
242.586439713
 10
319.5901940538
 20
243.4992215571
 10
319.4786332629
 20
244.2831980536
 10
319.1540086235
 20
244.8676900106
 10
318.6455865834
 20
245.2000027114
 10
317.9992037962
 20
245.250176593
  0
ARC
  5
F2
330
1F
100
AcDbEntity
  8
0
  6
Continuous
 62
     7
370
    25
100
AcDbCircle
 10
312.8277650015
 20
244.5456603614
 30
0.0
 40
5.261403944671489
100
AcDbArc
 50
121.9460247008
 51
178.0593518319
  0
ELLIPSE
  5
F3
330
1F
100
AcDbEntity
  8
0
  6
Continuous
 62
     7
370
    25
100
AcDbEllipse
 10
278.2244473544
 20
296.4782753797
 30
0.0
 11
37.22142752001532
 21
-30.4661482281266
 31
0.0
210
0.0
220
0.0
230
1.0
 40
0.7067046106
 41
0.0
 42
6.283185307179586
  0
ELLIPSE
  5
F4
330
1F
100
AcDbEntity
  8
0
  6
Continuous
 62
     7
370
    25
100
AcDbEllipse
 10
277.9507564314
 20
296.8043195825
 30
0.0
 11
36.09874534335808
 21
-29.54904796483237
 31
0.0
210
0.0
220
0.0
230
1.0
 40
0.7066782254
 41
0.0
 42
6.283185307179586
  0
SPLINE
  5
F5
330
1F
100
AcDbEntity
  8
0
  6
Continuous
 62
     7
370
    25
100
AcDbSpline
210
0.0
220
0.0
230
1.0
 70
     8
 71
     3
 72
    15
 73
    11
 74
     0
 42
0.00000001
 43
0.00000001
 40
0.0
 40
0.0
 40
0.0
 40
0.0
 40
0.1306046611460644
 40
0.2739287922197988
 40
0.4167393998747597
 40
0.559243384830745
 40
0.7021198518691049
 40
0.8454727317981656
 40
0.9886629092971114
 40
1.0
 40
1.0
 40
1.0
 40
1.0
 10
310.5559673226136
 20
250.4548224512006
 30
0.0
 10
310.3495306110822
 20
250.5402594749606
 30
0.0
 10
309.9165525032306
 20
250.7194541570192
 30
0.0
 10
309.0328575631386
 20
250.490689257452
 30
0.0
 10
308.0682051185133
 20
249.9102796053141
 30
0.0
 10
307.1345396350855
 20
249.0086992380006
 30
0.0
 10
306.3504175444494
 20
247.8907809768199
 30
0.0
 10
305.8182405828233
 20
246.6698688917204
 30
0.0
 10
305.6732176640514
 20
245.8375753751524
 30
0.0
 10
305.6700068048978
 20
245.4413214352721
 30
0.0
 10
305.6697712361087
 20
245.4122497580848
 30
0.0
  0
LINE
  5
F6
330
1F
100
AcDbEntity
  8
0
  6
Continuous
 62
     7
370
    25
100
AcDbLine
 10
305.6697712361
 20
245.4122497581
 30
0.0
 11
305.6697712361
 21
240.5130048868
 31
0.0
  0
ARC
  5
F7
330
1F
100
AcDbEntity
  8
0
  6
Continuous
 62
     7
370
    25
100
AcDbCircle
 10
304.0380251502
 20
260.0866309606
 30
0.0
 40
17.19268853702816
100
AcDbArc
 50
312.8699682157
 51
358.4530166085
  0
LWPOLYLINE
  5
F8
330
1F
100
AcDbEntity
  8
0
  6
Continuous
 62
     7
370
    25
100
AcDbPolyline
 90
       29
 70
   128
 43
0.0
 10
235.2244473544
 20
259.6224855652
 10
235.2258337034
 20
259.4231548055
 10
235.4045169994
 20
257.3531085788
 10
235.8817121358
 20
255.2988829267
 10
236.6540924282
 20
253.2747985329
 10
237.716273359
 20
251.2949659564
 10
239.0608501152
 20
249.3731872625
 10
240.6784492093
 20
247.5228598033
 10
242.5577938249
 20
245.7568828213
 10
244.6857824318
 20
244.0875675237
 10
247.0475801204
 20
242.5265512573
 10
249.6267220208
 20
241.0847163808
 10
252.4052280854
 20
239.7721144001
 10
255.363728433
 20
238.5978958961
 10
258.4815983831
 20
237.5702467326
 10
261.7371022371
 20
236.6963309905
 10
265.1075448053
 20
235.9822410245
 10
268.5694296222
 20
235.4329549908
 10
272.0986227483
 20
235.0523021434
 10
275.6705210157
 20
234.8429361386
 10
279.260223545
 20
234.8063165359
 10
282.8427053372
 20
234.9426986226
 10
286.3929917317
 20
235.2511316342
 10
289.8863325124
 20
235.7294653825
 10
293.2983744499
 20
236.3743652455
 10
296.6053310759
 20
237.1813354138
 10
299.7841485064
 20
238.1447502324
 10
302.8126661579
 20
239.2578934194
 10
305.6697712361
 20
240.5130048868
  0
LINE
  5
F9
330
1F
100
AcDbEntity
  8
0
  6
Continuous
 62
     7
370
    25
100
AcDbLine
 10
306.5087186019
 20
240.0286908814
 30
0.0
 11
306.5087186019
 21
244.9279357527
 31
0.0
  0
LWPOLYLINE
  5
FA
330
1F
100
AcDbEntity
  8
0
  6
Continuous
 62
     7
370
    25
100
AcDbPolyline
 90
       11
 70
   128
 43
0.0
 10
306.5087186019
 20
244.9279357527
 10
306.623289774
 20
245.9142608054
 10
306.9577214156
 20
246.9529607279
 10
307.4849198638
 20
247.9598862299
 10
308.1621746358
 20
248.8534621956
 10
308.9346185778
 20
249.5612964147
 10
309.7396728754
 20
250.0260443683
 10
310.5121168174
 20
250.2100549412
 10
311.1893715894
 20
250.0984206911
 10
311.7165700377
 20
249.7001855611
 10
311.7957370227
 20
249.5948072393
  0
LINE
  5
FB
330
1F
100
AcDbEntity
  8
0
  6
Continuous
 62
     7
370
    25
100
AcDbLine
 10
309.5801509223
 20
241.8017910185
 30
0.0
 11
306.5087186019
 21
240.0286908814
 31
0.0
  0
LINE
  5
FC
330
1F
100
AcDbEntity
  8
0
  6
Continuous
 62
     7
370
    25
100
AcDbLine
 10
305.6697712361
 20
245.4122497581
 30
0.0
 11
306.5087186019
 21
244.9279357527
 31
0.0
  0
LINE
  5
FD
330
1F
100
AcDbEntity
  8
0
  6
Continuous
 62
     7
370
    25
100
AcDbLine
 10
305.6697712361
 20
240.5130048868
 30
0.0
 11
306.5087186019
 21
240.0286908814
 31
0.0
  0
LINE
  5
FE
330
1F
100
AcDbEntity
  8
0
  6
Continuous
 62
     7
370
    25
100
AcDbLine
 10
282.7608319609
 20
145.9000350857
 30
0.0
 11
275.689764149
 21
141.8179945266
 31
0.0
  0
LINE
  5
FF
330
1F
100
AcDbEntity
  8
0
  6
Continuous
 62
     7
370
    25
100
AcDbLine
 10
278.5127855967
 20
176.0474296167
 30
0.0
 11
275.689764149
 21
141.8179945266
 31
0.0
  0
LINE
  5
100
330
1F
100
AcDbEntity
  8
0
  6
Continuous
 62
     7
370
    25
100
AcDbLine
 10
285.2786024408
 20
176.4282697493
 30
0.0
 11
282.7608319609
 21
145.9000350857
 31
0.0
  0
LINE
  5
101
330
1F
100
AcDbEntity
  8
0
  6
Continuous
 62
     7
370
    25
100
AcDbLine
 10
275.689764149
 20
141.8179945266
 30
0.0
 11
271.1533795426
 21
136.9532943209
 31
0.0
  0
LINE
  5
102
330
1F
100
AcDbEntity
  8
0
  6
Continuous
 62
     7
370
    25
100
AcDbLine
 10
271.1533795426
 20
136.9532943209
 30
0.0
 11
271.1533795426
 21
111.8294611643
 31
0.0
  0
LINE
  5
103
330
1F
100
AcDbEntity
  8
0
  6
Continuous
 62
     7
370
    25
100
AcDbLine
 10
271.1533795426
 20
111.8294611643
 30
0.0
 11
269.032059199
 21
113.054073332
 31
0.0
  0
LINE
  5
104
330
1F
100
AcDbEntity
  8
0
  6
Continuous
 62
     7
370
    25
100
AcDbLine
 10
269.032059199
 20
113.054073332
 30
0.0
 11
269.032059199
 21
138.1779064887
 31
0.0
  0
LINE
  5
105
330
1F
100
AcDbEntity
  8
0
  6
Continuous
 62
     7
370
    25
100
AcDbLine
 10
269.032059199
 20
138.1779064887
 30
0.0
 11
264.4956745926
 21
148.2802048755
 31
0.0
  0
LINE
  5
106
330
1F
100
AcDbEntity
  8
0
  6
Continuous
 62
     7
370
    25
100
AcDbLine
 10
264.4956745926
 20
148.2802048755
 30
0.0
 11
262.2516693604
 21
178.0798801069
 31
0.0
  0
LINE
  5
107
330
1F
100
AcDbEntity
  8
0
  6
Continuous
 62
     7
370
    25
100
AcDbLine
 10
264.3277556408
 20
177.567079266
 30
0.0
 11
266.5571854649
 21
147.960960815
 31
0.0
  0
LINE
  5
108
330
1F
100
AcDbEntity
  8
0
  6
Continuous
 62
     7
370
    25
100
AcDbLine
 10
266.5571854649
 20
147.960960815
 30
0.0
 11
269.032059199
 21
142.4495425599
 31
0.0
  0
LINE
  5
109
330
1F
100
AcDbEntity
  8
0
  6
Continuous
 62
     7
370
    25
100
AcDbLine
 10
269.032059199
 20
142.4495425599
 30
0.0
 11
271.1533795426
 21
141.2249303921
 31
0.0
  0
LINE
  5
10A
330
1F
100
AcDbEntity
  8
0
  6
Continuous
 62
     7
370
    25
100
AcDbLine
 10
273.6282532767
 20
143.8789202559
 30
0.0
 11
271.1533795426
 21
141.2249303921
 31
0.0
  0
LINE
  5
10B
330
1F
100
AcDbEntity
  8
0
  6
Continuous
 62
     7
370
    25
100
AcDbLine
 10
276.2836132496
 20
176.0754421452
 30
0.0
 11
273.6282532767
 21
143.8789202559
 31
0.0
  0
LINE
  5
10C
330
1F
100
AcDbEntity
  8
0
  6
Continuous
 62
     7
370
    25
100
AcDbLine
 10
292.0630944599
 20
177.5539379138
 30
0.0
 11
288.1239422911
 21
112.6458692761
 31
0.0
  0
LINE
  5
10D
330
1F
100
AcDbEntity
  8
0
  6
Continuous
 62
     7
370
    25
100
AcDbLine
 10
288.1239422911
 20
112.6458692761
 30
0.0
 11
286.0026219475
 21
111.4212571084
 31
0.0
  0
LINE
  5
10E
330
1F
100
AcDbEntity
  8
0
  6
Continuous
 62
     7
370
    25
100
AcDbLine
 10
289.9900806577
 20
177.1253052284
 30
0.0
 11
286.0026219475
 21
111.4212571084
 31
0.0
  0
LINE
  5
10F
330
1F
100
AcDbEntity
  8
0
  6
Continuous
 62
     7
370
    25
100
AcDbLine
 10
286.0026219475
 20
111.4212571084
 30
0.0
 11
278.2244473544
 21
75.0844611291
 31
0.0
  0
LINE
  5
110
330
1F
100
AcDbEntity
  8
0
  6
Continuous
 62
     7
370
    25
100
AcDbLine
 10
278.2244473544
 20
75.0844611291
 30
0.0
 11
278.2244473544
 21
141.0353348801
 31
0.0
  0
LINE
  5
111
330
1F
100
AcDbEntity
  8
0
  6
Continuous
 62
     7
370
    25
100
AcDbLine
 10
278.2244473544
 20
141.0353348801
 30
0.0
 11
282.7608319609
 21
145.9000350857
 31
0.0
  0
LINE
  5
112
330
1F
100
AcDbEntity
  8
0
  6
Continuous
 62
     7
370
    25
100
AcDbLine
 10
294.1689225315
 20
178.0723150874
 30
0.0
 11
291.9532201163
 21
151.2066878126
 31
0.0
  0
LINE
  5
113
330
1F
100
AcDbEntity
  8
0
  6
Continuous
 62
     7
370
    25
100
AcDbLine
 10
291.9532201163
 20
151.2066878126
 30
0.0
 11
290.4100642061
 21
150.3158428678
 31
0.0
  0
LINE
  5
114
330
1F
100
AcDbEntity
  8
0
  6
Continuous
 62
     7
370
    25
100
AcDbLine
 10
274.335233653
 20
152.451132458
 30
0.0
 11
266.5571854649
 21
147.960960815
 31
0.0
  0
LINE
  5
115
330
1F
100
AcDbEntity
  8
0
  6
Continuous
 62
     7
370
    25
100
AcDbLine
 10
269.032059199
 20
117.5066053052
 30
0.0
 11
268.3249524178
 21
121.6263585061
 31
0.0
  0
LINE
  5
116
330
1F
100
AcDbEntity
  8
0
  6
Continuous
 62
     7
370
    25
100
AcDbLine
 10
267.1483289359
 20
142.3728782227
 30
0.0
 11
268.3249524178
 21
121.6263585061
 31
0.0
  0
LINE
  5
117
330
1F
100
AcDbEntity
  8
0
  6
Continuous
 62
     7
370
    25
100
AcDbLine
 10
278.2244473544
 20
141.0353348801
 30
0.0
 11
271.1533795426
 21
136.9532943209
 31
0.0
  0
LINE
  5
118
330
1F
100
AcDbEntity
  8
0
  6
Continuous
 62
     7
370
    25
100
AcDbLine
 10
269.032059199
 20
142.4495425599
 30
0.0
 11
273.7342428764
 21
145.1640554168
 31
0.0
  0
LINE
  5
119
330
1F
100
AcDbEntity
  8
0
  6
Continuous
 62
     7
370
    25
100
AcDbLine
 10
291.9532201163
 20
151.2066878126
 30
0.0
 11
290.3604712061
 21
149.4986655386
 31
0.0
  0
LINE
  5
11A
330
1F
100
AcDbEntity
  8
0
  6
Continuous
 62
     7
370
    25
100
AcDbLine
 10
271.1533795426
 20
111.8294611643
 30
0.0
 11
278.2244473544
 21
75.0844611291
 31
0.0
  0
LINE
  5
11B
330
1F
100
AcDbEntity
  8
0
  6
Continuous
 62
     7
370
    25
100
AcDbLine
 10
278.2244473544
 20
75.0844611291
 30
0.0
 11
276.1031270109
 21
76.3090732968
 31
0.0
  0
LINE
  5
11C
330
1F
100
AcDbEntity
  8
0
  6
Continuous
 62
     7
370
    25
100
AcDbLine
 10
269.032059199
 20
113.054073332
 30
0.0
 11
276.1031270109
 21
76.3090732968
 31
0.0
  0
LINE
  5
11D
330
1F
100
AcDbEntity
  8
0
  6
Continuous
 62
     7
370
    25
100
AcDbLine
 10
280.345767698
 20
76.3090732968
 30
0.0
 11
278.2244473544
 21
75.0844611291
 31
0.0
  0
LINE
  5
11E
330
1F
100
AcDbEntity
  8
0
  6
Continuous
 62
     7
370
    25
100
AcDbLine
 10
288.1239422911
 20
112.6458692761
 30
0.0
 11
280.345767698
 21
76.3090732968
 31
0.0
  0
LWPOLYLINE
  5
11F
330
1F
100
AcDbEntity
  8
0
  6
Continuous
 62
     7
370
    25
100
AcDbPolyline
 90
       37
 70
   128
 43
0.0
 10
317.2244473544
 20
198.7901950797
 10
317.07604058
 20
196.827951446
 10
316.6319497219
 20
194.8806416711
 10
315.8955545797
 20
192.9630859584
 10
314.8724595651
 20
191.0898780646
 10
313.5704510488
 20
189.2752742329
 10
311.999438102
 20
187.533084694
 10
310.1713770817
 20
185.8765685624
 10
308.1001806361
 20
184.3183329261
 10
305.8016118207
 20
182.8702368991
 10
303.2931641322
 20
181.5433013666
 10
300.5939283721
 20
180.3476251093
 10
297.7244473544
 20
179.2923079453
 10
294.7065595623
 20
178.3853814756
 10
291.5632329441
 20
177.6337479581
 10
288.3183901134
 20
177.0431277779
 10
284.9967262834
 20
176.618015911
 10
281.6235213216
 20
176.3616477156
 10
278.2244473544
 20
176.2759743083
 10
274.8253733873
 20
176.3616477156
 10
271.4521684254
 20
176.618015911
 10
268.1305045954
 20
177.0431277779
 10
264.8856617647
 20
177.6337479581
 10
261.7423351465
 20
178.3853814756
 10
258.7244473544
 20
179.2923079453
 10
255.8549663367
 20
180.3476251093
 10
253.1557305766
 20
181.5433013666
 10
250.6472828881
 20
182.8702368991
 10
248.3487140728
 20
184.3183329261
 10
246.2775176271
 20
185.8765685624
 10
244.4494566068
 20
187.533084694
 10
242.87844366
 20
189.2752742329
 10
241.5764351438
 20
191.0898780646
 10
240.5533401291
 20
192.9630859584
 10
239.8169449869
 20
194.8806416711
 10
239.3728541288
 20
196.827951446
 10
239.2244473544
 20
198.7901950797
  0
LWPOLYLINE
  5
120
330
1F
100
AcDbEntity
  8
0
  6
Continuous
 62
     7
370
    25
100
AcDbPolyline
 90
       20
 70
   128
 43
0.0
 10
304.9585110606
 20
182.3979700847
 10
304.4814410217
 20
182.1298249639
 10
301.953075036
 20
180.85217322
 10
299.2390003662
 20
179.7085202794
 10
296.3604583266
 20
178.707816777
 10
293.3399774113
 20
177.8578945746
 10
290.201196979
 20
177.1654054658
 10
286.9686822422
 20
176.6357691167
 10
283.6677320115
 20
176.2731306499
 10
280.3241806981
 20
176.080328203
 10
276.9641961244
 20
176.0588707167
 10
273.6140747252
 20
176.2089261248
 10
270.3000357428
 20
176.5293200404
 10
267.0480160257
 20
177.0175449466
 10
263.8834670372
 20
177.6697798215
 10
260.8311556639
 20
178.4809200431
 10
257.9149703808
 20
179.4446173391
 10
255.1577342917
 20
180.5533294717
 10
252.5810265072
 20
181.7983792652
 10
251.4903836483
 20
182.3979700847
  0
LWPOLYLINE
  5
121
330
1F
100
AcDbEntity
  8
0
  6
Continuous
 62
     7
370
    25
100
AcDbPolyline
 90
       35
 70
   128
 43
0.0
 10
301.1576599457
 20
263.7956237959
 10
303.590290048
 20
265.0847073089
 10
305.8065077241
 20
266.4978668104
 10
307.7874049863
 20
268.0230457217
 10
309.5160815175
 20
269.6472317541
 10
310.9777888591
 20
271.3565679251
 10
312.1600562394
 20
273.1364707812
 10
313.0527969701
 20
274.9717548187
 10
313.6483945019
 20
276.8467620414
 10
313.9417674067
 20
278.7454955487
 10
313.9304127304
 20
280.6517560159
 10
313.6144273469
 20
282.5492799007
 10
312.9965071323
 20
284.4218781984
 10
312.0819239639
 20
286.2535745605
 10
310.8784807428
 20
288.0287415997
 10
309.3964448223
 20
289.7322342165
 10
307.6484604103
 20
291.3495188126
 10
305.6494406935
 20
292.8667972861
 10
303.4164406032
 20
294.2711247521
 10
300.9685113089
 20
295.5505199836
 10
298.3265376803
 20
296.6940676317
 10
295.5130601048
 20
297.6920113512
 10
292.5520821811
 20
298.5358370379
 10
289.4688659288
 20
299.2183454687
 10
286.2897162618
 20
299.7337137224
 10
283.0417565643
 20
300.0775448586
 10
279.7526972831
 20
300.2469054313
 10
276.4505995124
 20
300.2403505159
 10
273.163635586
 20
300.0579360366
 10
269.9198487212
 20
299.7012182894
 10
266.7469137639
 20
299.1732406644
 10
263.6719010763
 20
298.4785076804
 10
260.7210455825
 20
297.6229465544
 10
257.9195229412
 20
296.6138566322
 10
255.2912347556
 20
295.4598471132
  0
LWPOLYLINE
  5
122
330
1F
100
AcDbEntity
  8
0
  6
Continuous
 62
     7
370
    25
100
AcDbPolyline
 90
        8
 70
   128
 43
0.0
 10
255.2912347556
 20
295.4598471132
 10
252.8586046543
 20
294.1707636001
 10
250.6423869792
 20
292.7576040985
 10
248.661489718
 20
291.2324251872
 10
246.9328131877
 20
289.6082391549
 10
245.471105847
 20
287.898902984
 10
244.2888384674
 20
286.1190001281
 10
244.0642270818
 20
285.7137239362
  0
ARC
  5
123
330
1F
100
AcDbEntity
  8
0
  6
Continuous
 62
     7
370
    25
100
AcDbCircle
 10
279.4448620778
 20
310.8822499591
 30
0.0
 40
51.85167263156168
100
AcDbArc
 50
271.8618230954
 51
294.7555853211
  0
LWPOLYLINE
  5
124
330
1F
100
AcDbEntity
  8
0
  6
Continuous
 62
     7
370
    25
100
AcDbPolyline
 90
       31
 70
   128
 43
0.0
 10
260.5835145813
 20
291.806282888
 10
262.8853014642
 20
292.8040742916
 10
265.3551472395
 20
293.6575029695
 10
267.9659917598
 20
294.3572185787
 10
270.6892300664
 20
294.8955548883
 10
273.4950257905
 20
295.2666137733
 10
276.352638047
 20
295.4663298347
 10
279.2307582379
 20
295.4925149417
 10
282.0978530762
 20
295.3448822047
 10
284.9225100708
 20
295.0250491188
 10
287.6737816886
 20
294.5365198423
 10
290.3215244221
 20
293.8846468042
 10
292.8367290477
 20
293.0765720619
 10
295.1918384572
 20
292.1211490514
 10
297.3610495791
 20
291.0288455871
 10
299.3205960825
 20
289.8116291743
 10
301.0490087656
 20
288.4828358909
 10
302.5273507776
 20
287.057024274
 10
303.7394250938
 20
285.5498158141
 10
304.6719519746
 20
283.9777238025
 10
305.3147144602
 20
282.3579724083
 10
305.6606703104
 20
280.7083079668
 10
305.7060291603
 20
279.0468045466
 10
305.4502940491
 20
277.3916659271
 10
304.8962668641
 20
275.7610261533
 10
304.050017643
 20
274.1727508558
 10
302.9208180695
 20
272.6442415111
 10
301.5210398903
 20
271.1922447875
 10
299.8660193681
 20
269.8326690649
 10
297.9738892541
 20
268.5804101394
 10
295.8653801217
 20
267.449188022
  0
ARC
  5
125
330
1F
100
AcDbEntity
  8
0
  6
Continuous
 62
     7
370
    25
100
AcDbCircle
 10
278.1094160285
 20
307.7663489449
 30
0.0
 40
44.05391839283069
100
AcDbArc
 50
252.7748023167
 51
293.7690335795
  0
LWPOLYLINE
  5
126
330
1F
100
AcDbEntity
  8
0
  6
Continuous
 62
     7
370
    25
100
AcDbPolyline
 90
       12
 70
   128
 43
0.0
 10
251.1811831745
 20
276.7463894582
 10
251.134180249
 20
276.897498503
 10
250.7882243987
 20
278.5471629442
 10
250.7428655483
 20
280.2086663641
 10
250.9986006591
 20
281.8638049833
 10
251.5526278436
 20
283.4944447569
 10
252.3988770641
 20
285.0827200542
 10
253.5280766369
 20
286.6112293988
 10
254.9278548154
 20
288.0632261223
 10
256.5828753367
 20
289.4228018449
 10
258.4750054499
 20
290.6750607704
 10
260.5835145813
 20
291.806282888
  0
LWPOLYLINE
  5
127
330
1F
100
AcDbEntity
  8
0
  6
Continuous
 62
     7
370
    25
100
AcDbPolyline
 90
       31
 70
   128
 43
0.0
 10
293.5509726003
 20
266.4465031979
 10
295.8537146638
 20
267.4435598406
 10
297.9633067856
 20
268.5741088612
 10
299.8566358328
 20
269.8257637278
 10
301.5129580961
 20
271.1848110479
 10
302.9141265623
 20
272.6363608147
 10
304.0447897363
 20
274.1645095451
 10
304.892559836
 20
275.7525145218
 10
305.4481485145
 20
277.38297723
 10
305.7054686262
 20
279.0380339791
 10
305.661700918
 20
280.699551621
 10
305.3173249181
 20
282.3493262207
 10
304.676113682
 20
283.9692825025
 10
303.7450924542
 20
285.5416718863
 10
302.5344616981
 20
287.0492669449
 10
301.0574853376
 20
288.4755501516
 10
299.3303454348
 20
289.8048948488
 10
297.3719648959
 20
291.0227364581
 10
295.2038001479
 20
292.1157320518
 10
292.8496060575
 20
293.0719065415
 10
290.3351756678
 20
293.8807838794
 10
287.6880576044
 20
294.533501836
 10
284.9372542466
 20
295.022909097
 10
282.1129039718
 20
295.3436436139
 10
279.2459509526
 20
295.4921913522
 10
276.3678061262
 20
295.4669247919
 10
273.5100030496
 20
295.2681207586
 10
270.7038524114
 20
294.8979573909
 10
267.9800989851
 20
294.3604902762
 10
265.3685847834
 20
293.6616080166
 10
262.8979221023
 20
292.8089677125
  0
LWPOLYLINE
  5
128
330
1F
100
AcDbEntity
  8
0
  6
Continuous
 62
     7
370
    25
100
AcDbPolyline
 90
       13
 70
   128
 43
0.0
 10
262.8979221023
 20
292.8089677125
 10
260.5951800396
 20
291.8119110695
 10
258.4855879187
 20
290.6813620489
 10
256.5922588723
 20
289.4297071822
 10
254.9359366098
 20
288.0706598621
 10
253.5347681444
 20
286.6191100955
 10
252.4041049709
 20
285.0909613652
 10
251.5563348719
 20
283.5029563887
 10
251.0007461938
 20
281.8724936807
 10
250.7434260825
 20
280.2174369319
 10
250.787193791
 20
278.5559192903
 10
251.1315697911
 20
276.9061446909
 10
251.1811831745
 20
276.7463894582
  0
ARC
  5
129
330
1F
100
AcDbEntity
  8
0
  6
Continuous
 62
     7
370
    25
100
AcDbCircle
 10
278.1796708305
 20
308.4395938512
 30
0.0
 40
44.71796709058608
100
AcDbArc
 50
252.9442671606
 51
290.1048283762
  0
LWPOLYLINE
  5
12A
330
1F
100
AcDbEntity
  8
0
  6
Continuous
 62
     7
370
    25
100
AcDbPolyline
 90
       48
 70
   128
 43
0.0
 10
242.8588868601
 20
287.6534285569
 10
243.8739138059
 20
289.0082761175
 10
245.4444513655
 20
290.7241583216
 10
247.2715368385
 20
292.3531959718
 10
249.3408708037
 20
293.8826396396
 10
251.6362579173
 20
295.3005193546
 10
254.1397336628
 20
296.5957382857
 10
256.8317049482
 20
297.7581595886
 10
259.6911034483
 20
298.7786857405
 10
262.6955504928
 20
299.6493297406
 10
265.8215322102
 20
300.3632776192
 10
269.0445835551
 20
300.9149417661
 10
272.3394797807
 20
301.3000046613
 10
275.6804338567
 20
301.5154526656
 10
279.0412982877
 20
301.5595996063
 10
282.3957697526
 20
301.4320999738
 10
285.717594964
 20
301.1339516254
 10
288.9807761357
 20
300.6674879763
 10
292.1597744508
 20
300.036359737
 10
295.2297099372
 20
299.2455063416
 10
298.1665561873
 20
298.3011172903
 10
300.9473283972
 20
297.2105837079
 10
303.5502632541
 20
295.9824404982
 10
305.9549892637
 20
294.626299547
 10
308.1426861843
 20
293.152774496
 10
310.0962323214
 20
291.5733976765
 10
311.8003385278
 20
289.9005298537
 10
313.2416678619
 20
288.1472634864
 10
314.4089399674
 20
286.327320261
 10
315.2930193575
 20
284.4549437009
 10
315.8869869122
 20
282.5447876912
 10
316.1861940302
 20
280.6118017928
 10
316.1882990099
 20
278.6711142411
 10
315.8932853772
 20
276.7379135474
 10
315.3034620136
 20
274.8273296283
 10
314.4234450867
 20
272.9543153934
 10
313.2601219222
 20
271.1335297187
 10
311.822597101
 20
269.3792227207
 10
310.1221212041
 20
267.7051242304
 10
308.1720027608
 20
266.1243363381
 10
305.987504092
 20
264.6492308526
 10
303.5857218617
 20
263.2913524742
 10
300.9854532723
 20
262.0613284423
 10
298.2070489511
 20
260.9687853627
 10
295.272253679
 20
260.0222738663
 10
292.2040362081
 20
259.2292016889
 10
289.0264095003
 20
258.5957756957
 10
285.975249795
 20
258.1519725638
  0
LWPOLYLINE
  5
12B
330
1F
100
AcDbEntity
  8
0
  6
Continuous
 62
     7
370
    25
100
AcDbPolyline
 90
       24
 70
   128
 43
0.0
 10
292.0982064327
 20
257.7697202897
 10
295.1185521411
 20
258.5189836541
 10
298.11787205
 20
259.4462106065
 10
300.9657909851
 20
260.5208167804
 10
303.6406345635
 20
261.7346237738
 10
306.1220456105
 20
263.0783937826
 10
308.3911390897
 20
264.5418999058
 10
310.4306458297
 20
266.1140039779
 10
312.2250439527
 20
267.7827413378
 10
313.7606770055
 20
269.5354118865
 10
315.0258578932
 20
271.3586767429
 10
316.0109578254
 20
273.2386597604
 10
316.7084795969
 20
275.1610531332
 10
317.1131146457
 20
277.1112262869
 10
317.2217834547
 20
279.0743372263
 10
317.0336589888
 20
281.0354454918
 10
316.5501729888
 20
282.9796258652
 10
315.7750050749
 20
284.8920819602
 10
314.7140547432
 20
286.7582588309
 10
313.3753964662
 20
288.5639537445
 10
311.7692182417
 20
290.2954242726
 10
309.9077440559
 20
291.9394928788
 10
307.8051408513
 20
293.4836472083
 10
305.8060927931
 20
294.7285655943
  0
ARC
  5
12C
330
1F
100
AcDbEntity
  8
0
  6
Continuous
 62
     7
370
    25
100
AcDbCircle
 10
263.8816236657
 20
270.7947458095
 30
0.0
 40
27.35130949003638
100
AcDbArc
 50
118.948862179
 51
140.9521044236
  0
LWPOLYLINE
  5
12D
330
1F
100
AcDbEntity
  8
0
  6
Continuous
 62
     7
370
    25
100
AcDbPolyline
 90
       24
 70
   128
 43
0.0
 10
303.3810289114
 20
294.4938345363
 10
300.9350803808
 20
295.7528512516
 10
298.3009443926
 20
296.878250179
 10
295.500448227
 20
297.8607059086
 10
292.5567976773
 20
298.6920775028
 10
289.4943847591
 20
299.3654759547
 10
286.3385855903
 20
299.8753212727
 10
283.1155501165
 20
300.2173887179
 10
279.8519854249
 20
300.3888438118
 10
276.5749344403
 20
300.3882658234
 10
273.3115518392
 20
300.2156595421
 10
270.0888790376
 20
299.8724552379
 10
266.9336201172
 20
299.3614968099
 10
263.8719205472
 20
298.6870182203
 10
260.9291505345
 20
297.8546084113
 10
258.1296947981
 20
296.8711649927
 10
255.4967505101
 20
295.7448370863
 10
253.0521350758
 20
294.4849578
 10
250.8161053488
 20
293.1019668902
 10
248.8071897756
 20
291.6073242553
 10
247.0420348632
 20
290.0134149747
 10
245.5352672412
 20
288.3334466829
 10
244.2993724607
 20
286.581340126
 10
243.9218720436
 20
285.9340145605
  0
LWPOLYLINE
  5
12E
330
1F
100
AcDbEntity
  8
0
  6
Continuous
 62
     7
370
    25
100
AcDbPolyline
 90
       26
 70
   128
 43
0.0
 10
281.6378045909
 20
258.9390051612
 10
284.755447518
 20
259.190233601
 10
287.9477216168
 20
259.6177580219
 10
291.0594256028
 20
260.2110914178
 10
294.0647749169
 20
260.9653172411
 10
296.938866288
 20
261.8741857393
 10
299.6578840901
 20
262.9301657417
 10
302.1992976851
 20
264.1245070654
 10
304.5420481197
 20
265.4473130222
 10
306.6667226261
 20
266.8876224251
 10
308.5557154819
 20
268.433500417
 10
310.1933738977
 20
270.0721373658
 10
311.5661277199
 20
271.7899550099
 10
312.6626018781
 20
273.5727189711
 10
313.473710642
 20
275.4056567059
 10
313.9927329091
 20
277.2735799149
 10
314.2153678973
 20
279.1610103982
 10
314.139770783
 20
281.0523083122
 10
313.7665679877
 20
282.9318017669
 10
313.0988519873
 20
284.7839166876
 10
312.1421556869
 20
286.5933058668
 10
310.9044065733
 20
288.3449761358
 10
309.3958610255
 20
290.0244126031
 10
307.629019327
 20
291.6176989294
 10
305.6185220845
 20
293.1116326422
 10
303.3810289114
 20
294.4938345363
  0
LWPOLYLINE
  5
12F
330
1F
100
AcDbEntity
  8
0
  6
Continuous
 62
     7
370
    25
100
AcDbPolyline
 90
        3
 70
   128
 43
0.0
 10
313.9744473544
 20
278.8065407212
 10
313.990234413
 20
278.7283445406
 10
314.113128009
 20
277.9946538326
  0
LINE
  5
130
330
1F
100
AcDbEntity
  8
0
  6
Continuous
 62
     8
370
    25
100
AcDbLine
 10
301.1576599458
 20
263.6079467313
 30
0.0
 11
301.1576599457
 21
263.7956237959
 31
0.0
  0
LINE
  5
131
330
1F
100
AcDbEntity
  8
0
  6
Continuous
 62
     7
370
    25
100
AcDbLine
 10
298.7530720163
 20
466.8553864049
 30
0.0
 11
305.1170330469
 21
463.1815499017
 31
0.0
  0
LINE
  5
132
330
1F
100
AcDbEntity
  8
0
  6
Continuous
 62
     7
370
    25
100
AcDbLine
 10
309.1167079775
 20
470.1099408007
 30
0.0
 11
302.7527469468
 21
473.7837773039
 31
0.0
  0
LINE
  5
133
330
1F
100
AcDbEntity
  8
0
  6
Continuous
 62
     7
370
    25
100
AcDbLine
 10
309.945297637
 20
467.8703575189
 30
0.0
 11
309.945297637
 21
468.2785615749
 31
0.0
  0
LINE
  5
134
330
1F
100
AcDbEntity
  8
0
  6
Continuous
 62
     7
370
    25
100
AcDbLine
 10
300.7524497826
 20
473.5854796803
 30
0.0
 11
300.3989538544
 21
473.38134448
 31
0.0
  0
LINE
  5
135
330
1F
100
AcDbEntity
  8
0
  6
Continuous
 62
     7
370
    25
100
AcDbLine
 10
297.9244823568
 20
469.0949696867
 30
0.0
 11
297.9244823568
 21
468.6867656308
 31
0.0
  0
LINE
  5
136
330
1F
100
AcDbEntity
  8
0
  6
Continuous
 62
     7
370
    25
100
AcDbLine
 10
311.5795509375
 20
483.9936215271
 30
0.0
 11
311.5795509375
 21
507.6484451718
 31
0.0
  0
LINE
  5
137
330
1F
100
AcDbEntity
  8
0
  6
Continuous
 62
     7
370
    25
100
AcDbLine
 10
225.5795509375
 20
534.0503775114
 30
0.0
 11
225.5795509375
 21
483.9936215271
 31
0.0
  0
LINE
  5
138
330
1F
100
AcDbEntity
  8
0
  6
Continuous
 62
     7
370
    25
100
AcDbLine
 10
301.692086775
 20
474.3960833878
 30
0.0
 11
300.9188924413
 21
474.8424389757
 31
0.0
  0
LINE
  5
139
330
1F
100
AcDbEntity
  8
0
  6
Continuous
 62
     7
370
    25
100
AcDbLine
 10
307.5795509375
 20
423.1613310416
 30
0.0
 11
307.5795509375
 21
464.2965692922
 31
0.0
  0
LINE
  5
13A
330
1F
100
AcDbEntity
  8
0
  6
Continuous
 62
     7
370
    25
100
AcDbLine
 10
307.5795509375
 20
470.9973226714
 30
0.0
 11
307.5795509375
 21
473.5384963902
 31
0.0
  0
LINE
  5
13B
330
1F
100
AcDbEntity
  8
0
  6
Continuous
 62
     7
370
    25
100
AcDbLine
 10
229.5795509375
 20
473.5384963902
 30
0.0
 11
229.5795509375
 21
423.1613310416
 31
0.0
  0
LINE
  5
13C
330
1F
100
AcDbEntity
  8
0
  6
Continuous
 62
     7
370
    25
100
AcDbLine
 10
312.5795509375
 20
419.0786269821
 30
0.0
 11
312.5795509375
 21
423.1613310416
 31
0.0
  0
LINE
  5
13D
330
1F
100
AcDbEntity
  8
0
  6
Continuous
 62
     7
370
    25
100
AcDbLine
 10
224.5795509375
 20
423.1613310416
 30
0.0
 11
224.5795509375
 21
419.0786269821
 31
0.0
  0
LINE
  5
13E
330
1F
100
AcDbEntity
  8
0
  6
Continuous
 62
     7
370
    25
100
AcDbLine
 10
304.3295509375
 20
501.5539029059
 30
0.0
 11
304.3295509375
 21
503.9988714183
 31
0.0
  0
LINE
  5
13F
330
1F
100
AcDbEntity
  8
0
  6
Continuous
 62
     7
370
    25
100
AcDbLine
 10
296.1611963762
 20
519.0997015562
 30
0.0
 11
295.4539746983
 21
519.5081046514
 31
0.0
  0
LINE
  5
140
330
1F
100
AcDbEntity
  8
0
  6
Continuous
 62
     7
370
    25
100
AcDbLine
 10
241.7051271768
 20
519.5081046514
 30
0.0
 11
240.9979054989
 21
519.0997015562
 31
0.0
  0
LINE
  5
141
330
1F
100
AcDbEntity
  8
0
  6
Continuous
 62
     7
370
    25
100
AcDbLine
 10
307.5795509375
 20
496.7135798525
 30
0.0
 11
307.5795509375
 21
503.1823306064
 31
0.0
  0
LWPOLYLINE
  5
142
330
1F
100
AcDbEntity
  8
0
  6
Continuous
 62
     7
370
    25
100
AcDbPolyline
 90
       10
 70
   128
 43
0.0
 10
306.5865404263
 20
468.6008024151
 10
306.0061410101
 20
467.9003293332
 10
305.5302134735
 20
467.0957836911
 10
305.1927137172
 20
466.2445672356
 10
305.0177212644
 20
465.4074115257
 10
305.0177212644
 20
464.6440449317
 10
305.1927137172
 20
464.0089312072
 10
305.5302134735
 20
463.5473836759
 10
306.0061410101
 20
463.2923322713
 10
306.5865404263
 20
463.2619740916
  0
LINE
  5
143
330
1F
100
AcDbEntity
  8
0
  6
Continuous
 62
     7
370
    25
100
AcDbLine
 10
306.5865404263
 20
463.2619740916
 30
0.0
 11
306.2329870357
 21
463.0329038067
 31
0.0
  0
LWPOLYLINE
  5
144
330
1F
100
AcDbEntity
  8
0
  6
Continuous
 62
     7
370
    25
100
AcDbPolyline
 90
       11
 70
   128
 43
0.0
 10
306.2329870357
 20
463.0329038067
 10
305.5943290982
 20
463.0142304058
 10
305.0507838272
 20
463.2224165614
 10
304.6363063189
 20
463.6444569523
 10
304.3767888484
 20
464.2539868525
 10
304.2884433875
 20
465.0129291276
 10
304.3767888484
 20
465.8738729007
 10
304.6363063189
 20
466.7830352945
 10
305.0507838272
 20
467.6836212303
 10
305.5943290982
 20
468.5193713977
 10
306.2329870357
 20
469.2380767559
  0
LINE
  5
145
330
1F
100
AcDbEntity
  8
0
  6
Continuous
 62
     7
370
    25
100
AcDbLine
 10
306.2329870357
 20
469.2380767559
 30
0.0
 11
306.5865404263
 21
468.6008024151
 31
0.0
  0
LWPOLYLINE
  5
146
330
1F
100
AcDbEntity
  8
0
  6
Continuous
 62
     7
370
    25
100
AcDbPolyline
 90
       15
 70
   128
 43
0.0
 10
302.7527469468
 20
473.7837773039
 10
302.4419290401
 20
473.9144973832
 10
301.8731922354
 20
473.9653510239
 10
301.2440606974
 20
473.8196603049
 10
300.5884510703
 20
473.4852794507
 10
299.9417074387
 20
472.9802350197
 10
299.3386959192
 20
472.3317540879
 10
298.8119250189
 20
471.5747964301
 10
298.3897930933
 20
470.7501698296
 10
298.095057384
 20
469.90233012
 10
297.9436071692
 20
469.0769845594
 10
297.9436071692
 20
468.3186277405
 10
298.095057384
 20
467.6681428759
 10
298.3897930933
 20
467.1605977729
 10
298.7530720163
 20
466.8553864049
  0
LINE
  5
147
330
1F
100
AcDbEntity
  8
0
  6
Continuous
 62
     7
370
    25
100
AcDbLine
 10
308.0007539887
 20
464.0534139465
 30
0.0
 11
306.5865404263
 21
464.8698220583
 31
0.0
  0
ARC
  5
148
330
1F
100
AcDbEntity
  8
0
  6
Continuous
 62
     7
370
    25
100
AcDbCircle
 10
308.2612634291
 20
468.5695664964
 30
0.0
 40
1.708992415946001
100
AcDbArc
 50
350.195979251
 51
98.7680370692
  0
LINE
  5
149
330
1F
100
AcDbEntity
  8
0
  6
Continuous
 62
     7
370
    25
100
AcDbLine
 10
305.5258802545
 20
471.6873010914
 30
0.0
 11
308.0007539887
 21
470.2585868957
 31
0.0
  0
ARC
  5
14A
330
1F
100
AcDbEntity
  8
0
  6
Continuous
 62
     7
370
    25
100
AcDbCircle
 10
306.4327843854
 20
468.0749747841
 30
0.0
 40
3.724429681557165
100
AcDbArc
 50
104.0932930006
 51
135.9013304667
  0
LINE
  5
14B
330
1F
100
AcDbEntity
  8
0
  6
Continuous
 62
     7
370
    25
100
AcDbLine
 10
306.2329870357
 20
469.2380767559
 30
0.0
 11
303.7581133016
 21
470.6667909516
 31
0.0
  0
LINE
  5
14C
330
1F
100
AcDbEntity
  8
0
  6
Continuous
 62
     7
370
    25
100
AcDbLine
 10
306.5865404263
 20
468.6008024151
 30
0.0
 11
306.5865404263
 21
463.2619740916
 31
0.0
  0
LWPOLYLINE
  5
14D
330
1F
100
AcDbEntity
  8
0
  6
Continuous
 62
     7
370
    25
100
AcDbPolyline
 90
       10
 70
   128
 43
0.0
 10
308.3543073793
 20
464.2824842314
 10
308.9347067956
 20
464.9829573134
 10
309.4106343321
 20
465.7875029554
 10
309.7481340884
 20
466.6387194109
 10
309.9231265412
 20
467.4758751208
 10
309.9231265412
 20
468.2392417148
 10
309.7481340884
 20
468.8743554393
 10
309.4106343321
 20
469.3359029706
 10
308.9347067956
 20
469.5909543752
 10
308.3543073793
 20
469.6213125549
  0
LINE
  5
14E
330
1F
100
AcDbEntity
  8
0
  6
Continuous
 62
     7
370
    25
100
AcDbLine
 10
308.3543073793
 20
469.6213125549
 30
0.0
 11
308.0007539887
 21
470.2585868957
 31
0.0
  0
LINE
  5
14F
330
1F
100
AcDbEntity
  8
0
  6
Continuous
 62
     7
370
    25
100
AcDbLine
 10
308.0007539887
 20
464.0534139465
 30
0.0
 11
308.3543073793
 21
464.2824842314
 31
0.0
  0
LINE
  5
150
330
1F
100
AcDbEntity
  8
0
  6
Continuous
 62
     7
370
    25
100
AcDbLine
 10
305.5258802545
 20
469.6462808118
 30
0.0
 11
305.5258802545
 21
471.6873010914
 31
0.0
  0
LINE
  5
151
330
1F
100
AcDbEntity
  8
0
  6
Continuous
 62
     7
370
    25
100
AcDbLine
 10
308.3543073793
 20
464.2824842314
 30
0.0
 11
308.3543073793
 21
469.6213125549
 31
0.0
  0
ARC
  5
152
330
1F
100
AcDbEntity
  8
0
  6
Continuous
 62
     7
370
    25
100
AcDbCircle
 10
303.2352157966
 20
468.8865769211
 30
0.0
 40
5.314820525073805
100
AcDbArc
 50
122.2525055662
 51
177.7528709665
  0
SPLINE
  5
153
330
1F
100
AcDbEntity
  8
0
  6
Continuous
 62
     7
370
    25
100
AcDbSpline
210
0.0
220
0.0
230
1.0
 70
     8
 71
     3
 72
    15
 73
    11
 74
     0
 42
0.00000001
 43
0.00000001
 40
0.0
 40
0.0
 40
0.0
 40
0.0
 40
0.1306046611460644
 40
0.2739287922197988
 40
0.4167393998747597
 40
0.559243384830745
 40
0.7021198518691049
 40
0.8454727317981656
 40
0.9886629092971114
 40
1.0
 40
1.0
 40
1.0
 40
1.0
 10
300.9110709057458
 20
474.8259584130907
 30
0.0
 10
300.7046341942144
 20
474.9113954368507
 30
0.0
 10
300.2716560863627
 20
475.0905901189093
 30
0.0
 10
299.3879611462708
 20
474.8618252193421
 30
0.0
 10
298.4233087016455
 20
474.2814155672041
 30
0.0
 10
297.4896432182177
 20
473.3798351998907
 30
0.0
 10
296.7055211275816
 20
472.2619169387099
 30
0.0
 10
296.1733441659555
 20
471.0410048536105
 30
0.0
 10
296.0283212471836
 20
470.2087113370425
 30
0.0
 10
296.02511038803
 20
469.8124573971622
 30
0.0
 10
296.0248748192408
 20
469.7833857199748
 30
0.0
  0
LINE
  5
154
330
1F
100
AcDbEntity
  8
0
  6
Continuous
 62
     7
370
    25
100
AcDbLine
 10
296.0248748192
 20
469.78338572
 30
0.0
 11
296.0248748192
 21
464.8841408487
 31
0.0
  0
ARC
  5
155
330
1F
100
AcDbEntity
  8
0
  6
Continuous
 62
     7
370
    25
100
AcDbCircle
 10
293.9077117647
 20
484.6773339583
 30
0.0
 40
17.68506043077027
100
AcDbArc
 50
313.5386177216
 51
357.7843671026
  0
LWPOLYLINE
  5
156
330
1F
100
AcDbEntity
  8
0
  6
Continuous
 62
     7
370
    25
100
AcDbPolyline
 90
       34
 70
   128
 43
0.0
 10
225.5795509375
 20
483.9936215271
 10
225.5885946928
 20
483.4845332431
 10
225.7558665119
 20
481.7479758731
 10
226.133361979
 20
480.022442492
 10
226.7192279498
 20
478.316403831
 10
227.5105883782
 20
476.6382349209
 10
228.5035584356
 20
474.9961739782
 10
229.6932635815
 20
473.3982819639
 10
231.0738634927
 20
471.8524030111
 10
232.6385807339
 20
470.3661259185
 10
234.3797340284
 20
468.9467468959
 10
236.2887759661
 20
467.6012337472
 10
238.3563349629
 20
466.3361916651
 10
240.5722612662
 20
465.1578308056
 10
242.9256767812
 20
464.0719358022
 10
245.405028471
 20
463.0838373686
 10
247.998145072
 20
462.1983861305
 10
250.6922968427
 20
461.4199288131
 10
253.4742580548
 20
460.7522869031
 10
256.330371919
 20
460.1987378884
 10
259.246617627
 20
459.7619991696
 10
262.20867918
 20
459.4442147191
 10
265.2020156669
 20
459.2469445571
 10
268.2119326465
 20
459.1711570927
 10
271.223654283
 20
459.2172243706
 10
274.2223958815
 20
459.3849202441
 10
277.1934364668
 20
459.6734214857
 10
280.1221910492
 20
460.0813118279
 10
282.9942822235
 20
460.6065889165
 10
285.7956107476
 20
461.2466741393
 10
288.5124247572
 20
461.9984252855
 10
291.131387274
 20
462.8581519704
 10
293.6396416776
 20
463.8216337518
 10
296.0248748192
 20
464.8841408487
  0
ELLIPSE
  5
157
330
1F
100
AcDbEntity
  8
0
  6
Continuous
 62
     7
370
    25
100
AcDbEllipse
 10
268.5795509375
 20
520.8494113416
 30
0.0
 11
37.22142752001532
 21
-30.46614822812666
 31
0.0
210
0.0
220
0.0
230
1.0
 40
0.7067046106
 41
0.0
 42
6.283185307179586
  0
ELLIPSE
  5
158
330
1F
100
AcDbEntity
  8
0
  6
Continuous
 62
     7
370
    25
100
AcDbEllipse
 10
268.3058600145
 20
521.1754555444
 30
0.0
 11
36.09874534335808
 21
-29.54904796483231
 31
0.0
210
0.0
220
0.0
230
1.0
 40
0.7066782254
 41
0.0
 42
6.283185307179586
  0
LINE
  5
159
330
1F
100
AcDbEntity
  8
0
  6
Continuous
 62
     7
370
    25
100
AcDbLine
 10
296.863822185
 20
464.3998268433
 30
0.0
 11
296.863822185
 21
469.2990717146
 31
0.0
  0
LWPOLYLINE
  5
15A
330
1F
100
AcDbEntity
  8
0
  6
Continuous
 62
     7
370
    25
100
AcDbPolyline
 90
       12
 70
   128
 43
0.0
 10
296.863822185
 20
469.2990717146
 10
296.9460111368
 20
470.1281624138
 10
297.187801469
 20
471.0039627191
 10
297.5751412065
 20
471.8755743
 10
298.0855195715
 20
472.6923422598
 10
298.6892752287
 20
473.4067990134
 10
299.3513200938
 20
473.9774229313
 10
300.0331785257
 20
474.3710514254
 10
300.6952233908
 20
474.5648082385
 10
301.298979048
 20
474.5474329289
 10
301.809357413
 20
474.3199352864
 10
302.1508406058
 20
473.9659432012
  0
LINE
  5
15B
330
1F
100
AcDbEntity
  8
0
  6
Continuous
 62
     7
370
    25
100
AcDbLine
 10
299.9352545055
 20
466.1729269804
 30
0.0
 11
296.863822185
 21
464.3998268433
 31
0.0
  0
LINE
  5
15C
330
1F
100
AcDbEntity
  8
0
  6
Continuous
 62
     7
370
    25
100
AcDbLine
 10
296.0248748192
 20
469.78338572
 30
0.0
 11
296.863822185
 21
469.2990717146
 31
0.0
  0
LINE
  5
15D
330
1F
100
AcDbEntity
  8
0
  6
Continuous
 62
     7
370
    25
100
AcDbLine
 10
296.0248748192
 20
464.8841408487
 30
0.0
 11
296.863822185
 21
464.3998268433
 31
0.0
  0
LWPOLYLINE
  5
15E
330
1F
100
AcDbEntity
  8
0
  6
Continuous
 62
     7
370
    25
100
AcDbPolyline
 90
       45
 70
   128
 43
0.0
 10
307.5795509375
 20
423.1613310416
 10
307.5645681982
 20
422.5373182231
 10
307.3782767963
 20
420.8769289622
 10
306.980080208
 20
419.2290163134
 10
306.372153245
 20
417.602580604
 10
305.5578161936
 20
416.0065048619
 10
304.5415166804
 20
414.4495062992
 10
303.3288053809
 20
412.9400887023
 10
301.9263057037
 20
411.4864959867
 10
300.3416776156
 20
410.0966671716
 10
298.5835758059
 20
408.7781930201
 10
296.6616024168
 20
407.5382745808
 10
294.5862546007
 20
406.3836838582
 10
292.3688671875
 20
405.3207268266
 10
290.0215507784
 20
404.3552089886
 10
287.5571256017
 20
403.4924036678
 10
284.989051493
 20
402.7370232077
 10
282.3313543826
 20
402.0931932344
 10
279.5985496906
 20
401.564430124
 10
276.8055630484
 20
401.1536217972
 10
273.9676487807
 20
400.8630119466
 10
271.1003065909
 20
400.6941877825
 10
268.2191969079
 20
400.648071364
 10
265.3400553537
 20
400.7249145628
 10
262.478606801
 20
400.9242976881
 10
259.6504794895
 20
401.2451317785
 10
256.8711196699
 20
401.6856645493
 10
254.1557072418
 20
402.2434899633
 10
251.5190728461
 20
402.9155613716
 10
248.9756168657
 20
403.6982081531
 10
246.5392307751
 20
404.5871557627
 10
244.2232212702
 20
405.5775490766
 10
242.040237592
 20
406.66397891
 10
240.0022024401
 20
407.84051156
 10
238.1202468559
 20
409.1007212131
 10
236.4046494282
 20
410.4377250413
 10
234.8647801552
 20
411.8442207933
 10
233.5090492689
 20
413.3125266771
 10
232.3448613012
 20
414.8346233149
 10
231.3785746432
 20
416.402197543
 10
230.6154668175
 20
418.0066878143
 10
230.0597056543
 20
419.6393309594
 10
229.7143265285
 20
421.2912100477
 10
229.5812157811
 20
422.9533030883
 10
229.5795509375
 20
423.1613310416
  0
LWPOLYLINE
  5
15F
330
1F
100
AcDbEntity
  8
0
  6
Continuous
 62
     7
370
    25
100
AcDbPolyline
 90
       61
 70
   128
 43
0.0
 10
229.5795509375
 20
434.9215758327
 10
228.4559577139
 20
433.5860868983
 10
227.3057079493
 20
431.9632155087
 10
226.3521468425
 20
430.2983991312
 10
225.5998185465
 20
428.5995713742
 10
225.0523082482
 20
426.8748279253
 10
224.7122250835
 20
425.1323879727
 10
224.5811897036
 20
423.3805550362
 10
224.6598265517
 20
421.6276773976
 10
224.9477608875
 20
419.882108317
 10
225.4436205726
 20
418.152166226
 10
226.1450426099
 20
416.4460950865
 10
227.048684404
 20
414.7720251044
 10
228.1502396901
 20
413.1379339856
 10
229.4444590558
 20
411.5516089184
 10
230.9251749563
 20
410.0206094642
 10
232.585331106
 20
408.5522315325
 10
234.417016105
 20
407.153472613
 10
236.4115011399
 20
405.8309984288
 10
238.5592815814
 20
404.5911111716
 10
240.8501222775
 20
403.439719469
 10
243.2731063291
 20
402.3823102267
 10
245.8166871137
 20
401.4239224813
 10
248.4687433106
 20
400.5691233869
 10
251.2166366643
 20
399.8219864504
 10
254.0472722115
 20
399.1860721195
 10
256.9471606848
 20
398.6644108156
 10
259.902482795
 20
398.2594884925
 10
262.8991550865
 20
397.9732347894
 10
265.922897051
 20
397.8070138355
 10
268.9592991811
 20
397.7616177493
 10
271.9938916379
 20
397.837262864
 10
275.0122132063
 20
398.0335886961
 10
277.9998802097
 20
398.3496596635
 10
280.942655054
 20
398.7839695442
 10
283.8265140771
 20
399.3344486539
 10
286.6377143775
 20
399.9984737088
 10
289.3628593054
 20
400.7728803273
 10
291.9889623042
 20
401.653978109
 10
294.5035087973
 20
402.6375682219
 10
296.8945158255
 20
403.718963411
 10
299.1505891515
 20
404.893010336
 10
301.2609775584
 20
406.1541141284
 10
303.2156240843
 20
407.4962650545
 10
305.0052139486
 20
408.9130671538
 10
306.6212189405
 20
410.3977687192
 10
308.0559380602
 20
411.9432944715
 10
309.3025342179
 20
413.5422792768
 10
310.3550668151
 20
415.1871032442
 10
311.2085200546
 20
416.8699280385
 10
311.8588268432
 20
418.5827342332
 10
312.3028881728
 20
420.3173595268
 10
312.5385878891
 20
422.0655376398
 10
312.5648027753
 20
423.8189377074
 10
312.3814079059
 20
425.5692039797
 10
311.9892772407
 20
427.307995641
 10
311.3902794609
 20
429.027026557
 10
310.5872690639
 20
430.7181047627
 10
309.5840727598
 20
432.3731715003
 10
308.3854712359
 20
433.984339623
 10
307.5795509375
 20
434.9215758327
  0
LWPOLYLINE
  5
160
330
1F
100
AcDbEntity
  8
0
  6
Continuous
 62
     7
370
    25
100
AcDbPolyline
 90
       47
 70
   128
 43
0.0
 10
224.5795509375
 20
419.0786269821
 10
224.6598265517
 20
417.5449733382
 10
224.9477608875
 20
415.7994042575
 10
225.4436205726
 20
414.0694621665
 10
226.1450426099
 20
412.3633910271
 10
227.048684404
 20
410.689321045
 10
228.1502396901
 20
409.0552299262
 10
229.4444590558
 20
407.468904859
 10
230.9251749563
 20
405.9379054048
 10
232.585331106
 20
404.4695274731
 10
234.417016105
 20
403.0707685535
 10
236.4115011399
 20
401.7482943693
 10
238.5592815814
 20
400.5084071122
 10
240.8501222775
 20
399.3570154096
 10
243.2731063291
 20
398.2996061673
 10
245.8166871137
 20
397.3412184219
 10
248.4687433106
 20
396.4864193275
 10
251.2166366643
 20
395.7392823909
 10
254.0472722115
 20
395.1033680601
 10
256.9471606848
 20
394.5817067562
 10
259.902482795
 20
394.1767844331
 10
262.8991550865
 20
393.8905307299
 10
265.922897051
 20
393.724309776
 10
268.9592991811
 20
393.6789136899
 10
271.9938916379
 20
393.7545588046
 10
275.0122132063
 20
393.9508846366
 10
277.9998802097
 20
394.2669556041
 10
280.942655054
 20
394.7012654848
 10
283.8265140771
 20
395.2517445945
 10
286.6377143775
 20
395.9157696494
 10
289.3628593054
 20
396.6901762678
 10
291.9889623042
 20
397.5712740496
 10
294.5035087973
 20
398.5548641624
 10
296.8945158255
 20
399.6362593516
 10
299.1505891515
 20
400.8103062765
 10
301.2609775584
 20
402.071410069
 10
303.2156240843
 20
403.413560995
 10
305.0052139486
 20
404.8303630944
 10
306.6212189405
 20
406.3150646598
 10
308.0559380602
 20
407.8605904121
 10
309.3025342179
 20
409.4595752174
 10
310.3550668151
 20
411.1043991848
 10
311.2085200546
 20
412.7872239791
 10
311.8588268432
 20
414.5000301738
 10
312.3028881728
 20
416.2346554674
 10
312.5385878891
 20
417.9828335804
 10
312.5795509375
 20
419.0786269821
  0
LWPOLYLINE
  5
161
330
1F
100
AcDbEntity
  8
0
  6
Continuous
 62
     7
370
    25
100
AcDbPolyline
 90
       42
 70
   128
 43
0.0
 10
291.5127635289
 20
488.1667597578
 10
293.5448356732
 20
489.2266546123
 10
295.4304015996
 20
490.373238709
 10
297.1583960576
 20
491.5997834365
 10
298.7186784885
 20
492.8990909425
 10
300.1020925346
 20
494.263536374
 10
301.3005197722
 20
495.6851126226
 10
302.3069273537
 20
497.1554773137
 10
303.1154092793
 20
498.6660017625
 10
303.7212210555
 20
500.207821611
 10
304.120807538
 20
501.7718888472
 10
304.3118237943
 20
503.3490249027
 10
304.2931488651
 20
504.9299745159
 10
304.0648923424
 20
506.5054600459
 10
303.6283937262
 20
508.0662359172
 10
302.9862145639
 20
509.6031428762
 10
302.1421234181
 20
511.1071617419
 10
301.1010737515
 20
512.5694663334
 10
299.8691748573
 20
513.9814752661
 10
298.4536560082
 20
515.3349023099
 10
296.8628240316
 20
516.6218050169
 10
295.106014562
 20
517.8346313303
 10
293.1935372562
 20
518.9662639029
 10
291.1366152912
 20
520.0100618648
 10
288.9473195032
 20
520.9598997947
 10
286.6384975503
 20
521.8102036657
 10
284.2236985179
 20
522.5559835568
 10
281.7170934068
 20
523.1928629349
 10
279.1333919726
 20
523.7171043385
 10
276.4877564026
 20
524.1256313108
 10
273.7957123384
 20
524.416046453
 10
271.073057765
 20
524.5866454935
 10
268.335770302
 20
524.6364272893
 10
265.5999134407
 20
524.5650997011
 10
262.881542277
 20
524.3730813076
 10
260.1966092939
 20
524.0614989489
 10
257.5608707457
 20
523.6321811143
 10
254.9897941943
 20
523.0876472115
 10
252.4984677391
 20
522.431092782
 10
250.1015114746
 20
521.6663707484
 10
247.8129916931
 20
520.7979688034
 10
245.6463383387
 20
519.8309830751
  0
ARC
  5
162
330
1F
100
AcDbEntity
  8
0
  6
Continuous
 62
     7
370
    25
100
AcDbCircle
 10
255.083217662
 20
497.6206927072
 30
0.0
 40
24.13196406406324
100
AcDbArc
 50
113.0200421541
 51
148.9022086291
  0
ARC
  5
163
330
1F
100
AcDbEntity
  8
0
  6
Continuous
 62
     7
370
    25
100
AcDbCircle
 10
269.6313551151
 20
535.9661750323
 30
0.0
 40
52.56976445402479
100
AcDbArc
 50
272.0202550317
 51
294.5971533848
  0
LWPOLYLINE
  5
164
330
1F
100
AcDbEntity
  8
0
  6
Continuous
 62
     7
370
    25
100
AcDbPolyline
 90
       37
 70
   128
 43
0.0
 10
250.9386181645
 20
516.1774188499
 10
252.8443977511
 20
517.0186606214
 10
254.8699313546
 20
517.7608139354
 10
256.9998034413
 20
518.3982305573
 10
259.2178043984
 20
518.9260593614
 10
261.5070538996
 20
519.340283252
 10
263.8501293737
 20
519.6377497352
 10
266.2291986015
 20
519.8161949113
 10
268.6261554299
 20
519.8742607049
 10
271.0227575699
 20
519.8115052001
 10
273.4007654322
 20
519.6284060043
 10
275.7420809411
 20
519.3263566129
 10
278.0288852718
 20
518.9076558042
 10
280.2437744625
 20
518.3754901441
 10
282.3698918691
 20
517.7339097347
 10
284.3910564544
 20
516.9877973902
 10
286.2918859354
 20
516.1428314761
 10
288.0579138521
 20
515.2054426932
 10
289.6756996656
 20
514.1827651362
 10
291.132931049
 20
513.0825819988
 10
292.4185175917
 20
511.913266339
 10
293.5226752038
 20
510.6837173549
 10
294.437000579
 20
509.4032926569
 10
295.1545351493
 20
508.0817370499
 10
295.6698180434
 20
506.7291083702
 10
295.9789276471
 20
505.3557009387
 10
296.0795114499
 20
503.9719672153
 10
295.9708039482
 20
502.5884382491
 10
295.6536324717
 20
501.215643531
 10
295.130410887
 20
499.8640308577
 10
294.4051212261
 20
498.5438868177
 10
293.4832833815
 20
497.2652585043
 10
292.3719130956
 20
496.0378770511
 10
291.0794685674
 20
494.871083572
 10
289.6157860803
 20
493.77375807
 10
287.9920051416
 20
492.7542518546
 10
286.2204837049
 20
491.8203239838
  0
ARC
  5
165
330
1F
100
AcDbEntity
  8
0
  6
Continuous
 62
     7
370
    25
100
AcDbCircle
 10
268.4739121382
 20
531.9731876887
 30
0.0
 40
43.89980940819737
100
AcDbArc
 50
252.6995940354
 51
293.8442418608
  0
LWPOLYLINE
  5
166
330
1F
100
AcDbEntity
  8
0
  6
Continuous
 62
     7
370
    25
100
AcDbPolyline
 90
       14
 70
   128
 43
0.0
 10
241.5362867576
 20
501.1175254201
 10
241.4892838322
 20
501.2686344649
 10
241.1801742282
 20
502.6420418961
 10
241.0795904252
 20
504.0257756193
 10
241.1882979266
 20
505.4093045852
 10
241.5054694026
 20
506.7820993031
 10
242.0286909869
 20
508.1337119763
 10
242.7539806472
 20
509.4538560161
 10
243.6758184913
 20
510.7324843294
 10
244.7871887766
 20
511.9598657825
 10
246.0796333041
 20
513.1266592615
 10
247.5433157905
 20
514.2239847636
 10
249.1670967285
 20
515.243490979
 10
250.9386181645
 20
516.1774188499
  0
LWPOLYLINE
  5
167
330
1F
100
AcDbEntity
  8
0
  6
Continuous
 62
     7
370
    25
100
AcDbPolyline
 90
       37
 70
   128
 43
0.0
 10
283.9060761834
 20
490.8176391598
 10
285.8377845126
 20
491.6389355894
 10
287.6381472634
 20
492.5542985938
 10
289.2934625883
 20
493.5567617079
 10
290.7911325381
 20
494.638695582
 10
292.1197589402
 20
495.7918660461
 10
293.2692301454
 20
497.0074967766
 10
294.2307979837
 20
498.2763360896
 10
294.9971443434
 20
499.5887273518
 10
295.5624368658
 20
500.9346824733
 10
295.9223733335
 20
502.3039579229
 10
296.0742144127
 20
503.6861326876
 10
296.0168045011
 20
505.0706875829
 10
295.7505805228
 20
506.44708531
 10
295.277568603
 20
507.8048506511
 10
294.601368648
 20
509.1336501921
 10
293.7271269479
 20
510.4233709662
 10
292.6614970097
 20
511.6641974195
 10
291.4125889208
 20
512.8466861135
 10
289.9899076258
 20
513.9618375951
 10
288.4042805885
 20
515.0011648884
 10
286.667775388
 20
515.9567580849
 10
284.7936078775
 20
516.8213445436
 10
282.7960416033
 20
517.5883442393
 10
280.690279251
 20
518.2519198412
 10
278.4923469435
 20
518.8070211385
 10
276.2189722729
 20
519.2494234749
 10
273.8874569931
 20
519.5757599017
 10
271.5155453433
 20
519.7835468014
 10
269.1212890032
 20
519.8712027905
 10
266.7229097093
 20
519.8380607538
 10
264.3386605762
 20
519.6843729222
 10
261.9866871795
 20
519.4113089531
 10
259.6848894569
 20
519.020947028
 10
257.450785479
 20
518.5162580369
 10
255.3013781259
 20
517.9010829678
 10
253.2530256855
 20
517.1801036743
  0
LWPOLYLINE
  5
168
330
1F
100
AcDbEntity
  8
0
  6
Continuous
 62
     7
370
    25
100
AcDbPolyline
 90
       15
 70
   128
 43
0.0
 10
253.2530256855
 20
517.1801036743
 10
251.321317357
 20
516.3588072446
 10
249.5209546068
 20
515.44344424
 10
247.8656392826
 20
514.4409811259
 10
246.3679693335
 20
513.3590472518
 10
245.0393429321
 20
512.2058767878
 10
243.8898717275
 20
510.9902460574
 10
242.9283038897
 20
509.7214067445
 10
242.1619575306
 20
508.4090154824
 10
241.5966650086
 20
507.0630603611
 10
241.2367285412
 20
505.6937849117
 10
241.0848874623
 20
504.3116101472
 10
241.1422973741
 20
502.9270552522
 10
241.4085213526
 20
501.5506575253
 10
241.5362867576
 20
501.1175254201
  0
ARC
  5
169
330
1F
100
AcDbEntity
  8
0
  6
Continuous
 62
     7
370
    25
100
AcDbCircle
 10
268.5329565135
 20
532.8790342801
 30
0.0
 40
44.78273961980417
100
AcDbArc
 50
252.9721223261
 51
290.0769732106
  0
LWPOLYLINE
  5
16A
330
1F
100
AcDbEntity
  8
0
  6
Continuous
 62
     7
370
    25
100
AcDbPolyline
 90
       57
 70
   128
 43
0.0
 10
233.2139904432
 20
512.0245645188
 10
233.5749570457
 20
512.5356744989
 10
234.7779290951
 20
514.0219288163
 10
236.1699335251
 20
515.452130131
 10
237.7431856823
 20
516.8182801772
 10
239.4888873023
 20
518.1127388895
 10
241.3972757137
 20
519.3282671298
 10
243.4576784343
 20
520.4580671711
 10
245.6585728562
 20
521.4958207133
 10
247.9876506853
 20
522.4357242176
 10
250.4318867733
 20
523.2725213624
 10
252.9776119608
 20
524.0015324386
 10
255.6105895198
 20
524.6186805205
 10
258.3160947717
 20
525.1205142658
 10
261.0789974337
 20
525.5042272165
 10
263.8838462334
 20
525.7676734942
 10
266.7149553186
 20
525.9093798004
 10
269.5564919789
 20
525.9285536561
 10
272.3925651885
 20
525.8250878331
 10
275.2073144758
 20
525.5995609545
 10
277.9849986209
 20
525.2532342579
 10
280.7100836873
 20
524.7880445427
 10
283.367329894
 20
524.2065933386
 10
285.9418768423
 20
523.5121323565
 10
288.4193266213
 20
522.7085453038
 10
290.7858243269
 20
521.8003261655
 10
293.0281355441
 20
520.7925540713
 10
295.1337203588
 20
519.6908648915
 10
297.0908034868
 20
518.501419719
 10
298.8884401253
 20
517.2308704136
 10
300.516577161
 20
515.8863224024
 10
301.9661093913
 20
514.4752949433
 10
303.2289304438
 20
513.0056790742
 10
304.297978111
 20
511.4856934833
 10
305.1672738447
 20
509.9238385463
 10
305.8319561906
 20
508.3288487899
 10
306.2883079753
 20
506.7096440435
 10
306.5337770946
 20
505.0752795571
 10
306.5669907855
 20
503.4348953597
 10
306.3877633037
 20
501.7976651452
 10
305.9970969619
 20
500.172744969
 10
305.3971765247
 20
498.569222044
 10
304.5913569907
 20
496.9960639208
 10
303.5841448294
 20
495.4620683377
 10
302.38117278
 20
493.9758140202
 10
300.9891683499
 20
492.5456127055
 10
299.4159161928
 20
491.1794626594
 10
297.6702145728
 20
489.885003947
 10
295.7618261614
 20
488.6694757067
 10
293.7014234408
 20
487.5396756654
 10
291.5005290189
 20
486.5019221232
 10
289.1714511898
 20
485.5620186189
 10
286.7272151017
 20
484.7252214741
 10
284.1814899143
 20
483.9962103979
 10
281.5485123553
 20
483.379062316
 10
278.8430071034
 20
482.8772285708
 10
276.3303533781
 20
482.5231085257
  0
LWPOLYLINE
  5
16B
330
1F
100
AcDbEntity
  8
0
  6
Continuous
 62
     7
370
    25
100
AcDbPolyline
 90
       29
 70
   128
 43
0.0
 10
282.4533100159
 20
482.1408562516
 10
284.0897960215
 20
482.525170125
 10
286.6901147247
 20
483.2428474667
 10
289.1915198087
 20
484.0694273509
 10
291.5803494664
 20
485.0003952848
 10
293.8435567385
 20
486.0306666445
 10
295.9687807718
 20
487.1546144451
 10
297.9444143296
 20
488.3661000733
 10
299.7596671864
 20
489.6585068149
 10
301.4046250606
 20
491.0247759923
 10
302.8703037628
 20
492.4574455172
 10
304.1486982641
 20
493.9486906453
 10
305.2328264171
 20
495.4903667129
 10
306.1167670897
 20
497.07405362
 10
306.7956925045
 20
498.6911018178
 10
307.2658946064
 20
500.3326795498
 10
307.5248053145
 20
501.9898210877
 10
307.5710105482
 20
503.653475699
 10
307.4042579507
 20
505.3145570793
 10
307.0254582668
 20
506.9639929779
 10
306.4366803691
 20
508.592774748
 10
305.6411399581
 20
510.1920065485
 10
304.6431819998
 20
511.7529539296
 10
303.4482569945
 20
513.2670915383
 10
302.0628912082
 20
514.7261496798
 10
300.4946510284
 20
516.1221594846
 10
298.7521016392
 20
517.4474964313
 10
296.844760241
 20
518.694921989
 10
296.1611963762
 20
519.0997015562
  0
ARC
  5
16C
330
1F
100
AcDbEntity
  8
0
  6
Continuous
 62
     7
370
    25
100
AcDbCircle
 10
254.3072878388
 20
495.0816431929
 30
0.0
 40
27.45918399758588
100
AcDbArc
 50
118.9926183694
 51
140.9083482332
  0
LWPOLYLINE
  5
16D
330
1F
100
AcDbEntity
  8
0
  6
Continuous
 62
     7
370
    25
100
AcDbPolyline
 90
       28
 70
   128
 43
0.0
 10
293.7361324946
 20
518.8649704982
 10
291.6910501113
 20
519.9330434703
 10
289.5103402609
 20
520.9076083849
 10
287.2068002161
 20
521.7829461075
 10
284.7939480657
 20
522.5539198083
 10
282.2859433855
 20
523.2160051071
 10
279.6975041444
 20
523.765316624
 10
277.043820333
 20
524.1986307807
 10
274.3404648231
 20
524.5134047173
 10
271.6033019798
 20
524.7077912153
 10
268.848394563
 20
524.7806495374
 10
266.091909465
 20
524.731552122
 10
263.3500228363
 20
524.5607870922
 10
260.6388251579
 20
524.2693565652
 10
257.9742268159
 20
523.8589707711
 10
255.3718647328
 20
523.332038017
 10
252.8470106042
 20
522.6916505538
 10
250.4144812781
 20
521.9415664298
 10
248.0885518037
 20
521.0861874368
 10
245.8828716601
 20
520.130533279
 10
243.8103846555
 20
519.0802121149
 10
241.8832529676
 20
517.9413876468
 10
240.1127857716
 20
516.7207429494
 10
238.5093728728
 20
515.4254412513
 10
237.0824237358
 20
514.0630838978
 10
235.8403122655
 20
512.6416657436
 10
234.790327666
 20
511.1695282357
 10
234.2769756267
 20
510.3051505224
  0
LWPOLYLINE
  5
16E
330
1F
100
AcDbEntity
  8
0
  6
Continuous
 62
     7
370
    25
100
AcDbPolyline
 90
       31
 70
   128
 43
0.0
 10
271.992908174
 20
483.3101411231
 10
273.8090790388
 20
483.4369557443
 10
276.5202767172
 20
483.7283862713
 10
279.1848750592
 20
484.1387720654
 10
281.7872371423
 20
484.6657048195
 10
284.3120912709
 20
485.3060922827
 10
286.744620597
 20
486.0561764067
 10
289.0705500714
 20
486.9115553997
 10
291.276230215
 20
487.8672095575
 10
293.3487172196
 20
488.9175307216
 10
295.2758489075
 20
490.0563551898
 10
297.0463161035
 20
491.2769998871
 10
298.6497290023
 20
492.5723015853
 10
300.0766781393
 20
493.9346589387
 10
301.3187896095
 20
495.3560770929
 10
302.3687742091
 20
496.8282146009
 10
303.2204702108
 20
498.3424323743
 10
303.8688795239
 20
499.8898443812
 10
304.3101970246
 20
501.4613697927
 10
304.5418328865
 20
503.0477862727
 10
304.5624277781
 20
504.6397840985
 10
304.3718608404
 20
506.2280207938
 10
303.971250396
 20
507.8031759543
 10
303.3629473863
 20
509.356005943
 10
302.5505215753
 20
510.8773981361
 10
301.5387406005
 20
512.3584243993
 10
300.3335419952
 20
513.7903934817
 10
298.941998344
 20
515.1649020191
 10
297.3722757782
 20
516.4738838489
 10
295.6335860542
 20
517.7096573454
 10
293.7361324946
 20
518.8649704982
  0
LWPOLYLINE
  5
16F
330
1F
100
AcDbEntity
  8
0
  6
Continuous
 62
     7
370
    25
100
AcDbPolyline
 90
        3
 70
   128
 43
0.0
 10
304.3295509375
 20
503.1776766831
 10
304.3718608404
 20
502.9618575463
 10
304.4682315921
 20
502.3657897945
  0
LINE
  5
170
330
1F
100
AcDbEntity
  8
0
  6
Continuous
 62
     8
370
    25
100
AcDbLine
 10
291.5127635289
 20
487.9790826932
 30
0.0
 11
291.5127635289
 21
488.1667597578
 31
0.0
  0
ENDSEC
  0
SECTION
  2
OBJECTS
  0
DICTIONARY
  5
C
330
0
100
AcDbDictionary
281
     1
  3
ACAD_GROUP
350
D
  3
ACAD_LAYOUT
350
1A
  3
ACAD_MLINESTYLE
350
17
  3
ACAD_PLOTSETTINGS
350
19
  3
ACAD_PLOTSTYLENAME
350
E
  3
ACAD_SCALELIST
350
47
  3
DWGPROPS
350
171
  0
DICTIONARY
  5
D
102
{ACAD_REACTORS
330
C
102
}
330
C
100
AcDbDictionary
281
     1
  0
DICTIONARY
  5
1A
102
{ACAD_REACTORS
330
C
102
}
330
C
100
AcDbDictionary
281
     1
  3
Layout1
350
1E
  3
Layout2
350
26
  3
Model
350
22
  0
DICTIONARY
  5
17
102
{ACAD_REACTORS
330
C
102
}
330
C
100
AcDbDictionary
281
     1
  3
Standard
350
18
  0
DICTIONARY
  5
19
102
{ACAD_REACTORS
330
C
102
}
330
C
100
AcDbDictionary
281
     1
  0
ACDBDICTIONARYWDFLT
  5
E
102
{ACAD_REACTORS
330
C
102
}
330
C
100
AcDbDictionary
281
     1
  3
Normal
350
F
100
AcDbDictionaryWithDefault
340
F
  0
DICTIONARY
  5
47
102
{ACAD_REACTORS
330
C
102
}
330
C
100
AcDbDictionary
281
     1
  3
A0
350
48
  3
A1
350
49
  3
A2
350
4A
  3
A3
350
4B
  3
A4
350
4C
  3
A5
350
4D
  3
A6
350
4E
  3
A7
350
4F
  3
A8
350
50
  3
A9
350
51
  3
B0
350
52
  3
B1
350
53
  3
B2
350
54
  3
B3
350
55
  3
B4
350
56
  3
B5
350
57
  3
B6
350
58
  3
B7
350
59
  3
B8
350
5A
  3
B9
350
5B
  3
C0
350
5C
  3
C1
350
5D
  3
C2
350
5E
  3
C3
350
5F
  3
C4
350
60
  3
C5
350
61
  3
C6
350
62
  3
C7
350
63
  3
C8
350
64
  3
C9
350
65
  3
D0
350
66
  3
D1
350
67
  3
D2
350
68
  0
XRECORD
  5
171
102
{ACAD_REACTORS
330
C
102
}
330
C
100
AcDbXrecord
280
     1
  1
DWGPROPS COOKIE
  2

  3

  4

  6

  7

  8
9222
  9

300
=
301
=
302
=
303
=
304
=
305
=
306
=
307
=
308
=
309
=
 40
0.0
 41
2459747.264675335
 42
2459747.264675729
  1

 90
        0
  0
LAYOUT
  5
1E
102
{ACAD_REACTORS
330
1A
102
}
330
1A
100
AcDbPlotSettings
  1

  2
none_device
  4

  6

 40
0.0
 41
0.0
 42
0.0
 43
0.0
 44
0.0
 45
0.0
 46
0.0
 47
0.0
 48
0.0
 49
0.0
140
0.0
141
0.0
142
1.0
143
1.0
 70
   688
 72
     1
 73
     0
 74
     5
  7

 75
    16
147
1.0
148
0.0
149
0.0
100
AcDbLayout
  1
Layout1
 70
     1
 71
     1
 10
0.0
 20
0.0
 11
420.0
 21
297.0
 12
0.0
 22
0.0
 32
0.0
 14
1.0000000000E+20
 24
1.0000000000E+20
 34
1.0000000000E+20
 15
-1.0000000000E+20
 25
-1.0000000000E+20
 35
-1.0000000000E+20
146
0.0
 13
0.0
 23
0.0
 33
0.0
 16
1.0
 26
0.0
 36
0.0
 17
0.0
 27
1.0
 37
0.0
 76
     0
330
1B
  0
LAYOUT
  5
26
102
{ACAD_REACTORS
330
1A
102
}
330
1A
100
AcDbPlotSettings
  1

  2
none_device
  4

  6

 40
0.0
 41
0.0
 42
0.0
 43
0.0
 44
0.0
 45
0.0
 46
0.0
 47
0.0
 48
0.0
 49
0.0
140
0.0
141
0.0
142
1.0
143
1.0
 70
   688
 72
     1
 73
     0
 74
     5
  7

 75
    16
147
1.0
148
0.0
149
0.0
100
AcDbLayout
  1
Layout2
 70
     1
 71
     2
 10
0.0
 20
0.0
 11
0.0
 21
0.0
 12
0.0
 22
0.0
 32
0.0
 14
0.0
 24
0.0
 34
0.0
 15
0.0
 25
0.0
 35
0.0
146
0.0
 13
0.0
 23
0.0
 33
0.0
 16
1.0
 26
0.0
 36
0.0
 17
0.0
 27
1.0
 37
0.0
 76
     0
330
23
  0
LAYOUT
  5
22
102
{ACAD_REACTORS
330
1A
102
}
330
1A
100
AcDbPlotSettings
  1

  2
none_device
  4
Letter_(8.50_x_11.00_Inches)
  6

 40
6.35
 41
6.35
 42
6.35000508
 43
6.35000508
 44
215.9
 45
279.4
 46
0.0
 47
0.0
 48
0.0
 49
0.0
140
0.0
141
0.0
142
1.0
143
1.0
 70
  1712
 72
     1
 73
     0
 74
     0
  7

 75
     0
147
1.0
148
0.0
149
0.0
100
AcDbLayout
  1
Model
 70
     1
 71
     0
 10
0.0
 20
0.0
 11
420.0
 21
594.0
 12
0.0
 22
0.0
 32
0.0
 14
0.0
 24
0.0
 34
0.0
 15
420.0
 25
594.0
 35
0.0
146
0.0
 13
0.0
 23
0.0
 33
0.0
 16
1.0
 26
0.0
 36
0.0
 17
0.0
 27
1.0
 37
0.0
 76
     0
330
1F
331
29
  0
MLINESTYLE
  5
18
102
{ACAD_REACTORS
330
17
102
}
330
17
100
AcDbMlineStyle
  2
Standard
 70
     0
  3

 62
   256
 51
90.0
 52
90.0
 71
     2
 49
0.5
 62
   256
  6
BYLAYER
 49
-0.5
 62
   256
  6
BYLAYER
  0
ACDBPLACEHOLDER
  5
F
102
{ACAD_REACTORS
330
E
102
}
330
E
  0
SCALE
  5
48
102
{ACAD_REACTORS
330
47
102
}
330
47
100
AcDbScale
 70
     0
300
1:1
140
1.0
141
1.0
290
     1
  0
SCALE
  5
49
102
{ACAD_REACTORS
330
47
102
}
330
47
100
AcDbScale
 70
     0
300
1:2
140
1.0
141
2.0
290
     0
  0
SCALE
  5
4A
102
{ACAD_REACTORS
330
47
102
}
330
47
100
AcDbScale
 70
     0
300
1:4
140
1.0
141
4.0
290
     0
  0
SCALE
  5
4B
102
{ACAD_REACTORS
330
47
102
}
330
47
100
AcDbScale
 70
     0
300
1:5
140
1.0
141
5.0
290
     0
  0
SCALE
  5
4C
102
{ACAD_REACTORS
330
47
102
}
330
47
100
AcDbScale
 70
     0
300
1:8
140
1.0
141
8.0
290
     0
  0
SCALE
  5
4D
102
{ACAD_REACTORS
330
47
102
}
330
47
100
AcDbScale
 70
     0
300
1:10
140
1.0
141
10.0
290
     0
  0
SCALE
  5
4E
102
{ACAD_REACTORS
330
47
102
}
330
47
100
AcDbScale
 70
     0
300
1:16
140
1.0
141
16.0
290
     0
  0
SCALE
  5
4F
102
{ACAD_REACTORS
330
47
102
}
330
47
100
AcDbScale
 70
     0
300
1:20
140
1.0
141
20.0
290
     0
  0
SCALE
  5
50
102
{ACAD_REACTORS
330
47
102
}
330
47
100
AcDbScale
 70
     0
300
1:30
140
1.0
141
30.0
290
     0
  0
SCALE
  5
51
102
{ACAD_REACTORS
330
47
102
}
330
47
100
AcDbScale
 70
     0
300
1:40
140
1.0
141
40.0
290
     0
  0
SCALE
  5
52
102
{ACAD_REACTORS
330
47
102
}
330
47
100
AcDbScale
 70
     0
300
1:50
140
1.0
141
50.0
290
     0
  0
SCALE
  5
53
102
{ACAD_REACTORS
330
47
102
}
330
47
100
AcDbScale
 70
     0
300
1:100
140
1.0
141
100.0
290
     0
  0
SCALE
  5
54
102
{ACAD_REACTORS
330
47
102
}
330
47
100
AcDbScale
 70
     0
300
2:1
140
2.0
141
1.0
290
     0
  0
SCALE
  5
55
102
{ACAD_REACTORS
330
47
102
}
330
47
100
AcDbScale
 70
     0
300
4:1
140
4.0
141
1.0
290
     0
  0
SCALE
  5
56
102
{ACAD_REACTORS
330
47
102
}
330
47
100
AcDbScale
 70
     0
300
8:1
140
8.0
141
1.0
290
     0
  0
SCALE
  5
57
102
{ACAD_REACTORS
330
47
102
}
330
47
100
AcDbScale
 70
     0
300
10:1
140
10.0
141
1.0
290
     0
  0
SCALE
  5
58
102
{ACAD_REACTORS
330
47
102
}
330
47
100
AcDbScale
 70
     0
300
100:1
140
100.0
141
1.0
290
     0
  0
SCALE
  5
59
102
{ACAD_REACTORS
330
47
102
}
330
47
100
AcDbScale
 70
     0
300
1/128" = 1'-0"
140
0.0078125
141
12.0
290
     0
  0
SCALE
  5
5A
102
{ACAD_REACTORS
330
47
102
}
330
47
100
AcDbScale
 70
     0
300
1/64" = 1'-0"
140
0.015625
141
12.0
290
     0
  0
SCALE
  5
5B
102
{ACAD_REACTORS
330
47
102
}
330
47
100
AcDbScale
 70
     0
300
1/32" = 1'-0"
140
0.03125
141
12.0
290
     0
  0
SCALE
  5
5C
102
{ACAD_REACTORS
330
47
102
}
330
47
100
AcDbScale
 70
     0
300
1/16" = 1'-0"
140
0.0625
141
12.0
290
     0
  0
SCALE
  5
5D
102
{ACAD_REACTORS
330
47
102
}
330
47
100
AcDbScale
 70
     0
300
3/32" = 1'-0"
140
0.09375
141
12.0
290
     0
  0
SCALE
  5
5E
102
{ACAD_REACTORS
330
47
102
}
330
47
100
AcDbScale
 70
     0
300
1/8" = 1'-0"
140
0.125
141
12.0
290
     0
  0
SCALE
  5
5F
102
{ACAD_REACTORS
330
47
102
}
330
47
100
AcDbScale
 70
     0
300
3/16" = 1'-0"
140
0.1875
141
12.0
290
     0
  0
SCALE
  5
60
102
{ACAD_REACTORS
330
47
102
}
330
47
100
AcDbScale
 70
     0
300
1/4" = 1'-0"
140
0.25
141
12.0
290
     0
  0
SCALE
  5
61
102
{ACAD_REACTORS
330
47
102
}
330
47
100
AcDbScale
 70
     0
300
3/8" = 1'-0"
140
0.375
141
12.0
290
     0
  0
SCALE
  5
62
102
{ACAD_REACTORS
330
47
102
}
330
47
100
AcDbScale
 70
     0
300
1/2" = 1'-0"
140
0.5
141
12.0
290
     0
  0
SCALE
  5
63
102
{ACAD_REACTORS
330
47
102
}
330
47
100
AcDbScale
 70
     0
300
3/4" = 1'-0"
140
0.75
141
12.0
290
     0
  0
SCALE
  5
64
102
{ACAD_REACTORS
330
47
102
}
330
47
100
AcDbScale
 70
     0
300
1" = 1'-0"
140
1.0
141
12.0
290
     0
  0
SCALE
  5
65
102
{ACAD_REACTORS
330
47
102
}
330
47
100
AcDbScale
 70
     0
300
1-1/2" = 1'-0"
140
1.5
141
12.0
290
     0
  0
SCALE
  5
66
102
{ACAD_REACTORS
330
47
102
}
330
47
100
AcDbScale
 70
     0
300
3" = 1'-0"
140
3.0
141
12.0
290
     0
  0
SCALE
  5
67
102
{ACAD_REACTORS
330
47
102
}
330
47
100
AcDbScale
 70
     0
300
6" = 1'-0"
140
6.0
141
12.0
290
     0
  0
SCALE
  5
68
102
{ACAD_REACTORS
330
47
102
}
330
47
100
AcDbScale
 70
     0
300
1'-0" = 1'-0"
140
12.0
141
12.0
290
     0
  0
ENDSEC
  0
EOF
