  0
SECTION
  2
HEADER
  9
$ACADVER
  1
AC1032
  9
$ACADMAINTVER
 90
       55
  9
$DWGCODEPAGE
  3
ANSI_932
  9
$LASTSAVEDBY
  1
9257
  9
$REQUIREDVERSIONS
160
                 0
  9
$INSBASE
 10
0.0
 20
0.0
 30
0.0
  9
$EXTMIN
 10
74.1389693887769
 20
110.0245426529602
 30
0.0
  9
$EXTMAX
 10
181.7068022963655
 20
221.0997717985723
 30
0.0
  9
$LIMMIN
 10
0.0
 20
0.0
  9
$LIMMAX
 10
210.0
 20
297.0
  9
$ORTHOMODE
 70
     0
  9
$REGENMODE
 70
     1
  9
$FILLMODE
 70
     1
  9
$QTEXTMODE
 70
     0
  9
$MIRRTEXT
 70
     1
  9
$LTSCALE
 40
1.0
  9
$ATTMODE
 70
     1
  9
$TEXTSIZE
 40
3.5
  9
$TRACEWID
 40
1.0
  9
$TEXTSTYLE
  7
Standard
  9
$CLAYER
  8
0
  9
$CELTYPE
  6
ByLayer
  9
$CECOLOR
 62
   256
  9
$CELTSCALE
 40
1.0
  9
$DISPSILH
 70
     0
  9
$DIMSCALE
 40
1.0
  9
$DIMASZ
 40
1.5
  9
$DIMEXO
 40
1.0
  9
$DIMDLI
 40
3.75
  9
$DIMRND
 40
0.0
  9
$DIMDLE
 40
0.0
  9
$DIMEXE
 40
1.0
  9
$DIMTP
 40
0.0
  9
$DIMTM
 40
0.0
  9
$DIMTXT
 40
3.5
  9
$DIMCEN
 40
2.5
  9
$DIMTSZ
 40
0.0
  9
$DIMTOL
 70
     0
  9
$DIMLIM
 70
     0
  9
$DIMTIH
 70
     1
  9
$DIMTOH
 70
     1
  9
$DIMSE1
 70
     0
  9
$DIMSE2
 70
     0
  9
$DIMTAD
 70
     1
  9
$DIMZIN
 70
     0
  9
$DIMBLK
  1

  9
$DIMASO
 70
     1
  9
$DIMSHO
 70
     1
  9
$DIMPOST
  1

  9
$DIMAPOST
  1

  9
$DIMALT
 70
     0
  9
$DIMALTD
 70
     3
  9
$DIMALTF
 40
0.0393700787
  9
$DIMLFAC
 40
5.0
  9
$DIMTOFL
 70
     1
  9
$DIMTVP
 40
0.0
  9
$DIMTIX
 70
     0
  9
$DIMSOXD
 70
     0
  9
$DIMSAH
 70
     0
  9
$DIMBLK1
  1

  9
$DIMBLK2
  1

  9
$DIMSTYLE
  2
ISO-25
  9
$DIMCLRD
 70
     0
  9
$DIMCLRE
 70
     0
  9
$DIMCLRT
 70
     0
  9
$DIMTFAC
 40
1.0
  9
$DIMGAP
 40
1.5
  9
$DIMJUST
 70
     0
  9
$DIMSD1
 70
     0
  9
$DIMSD2
 70
     0
  9
$DIMTOLJ
 70
     0
  9
$DIMTZIN
 70
     0
  9
$DIMALTZ
 70
     0
  9
$DIMALTTZ
 70
     0
  9
$DIMUPT
 70
     0
  9
$DIMDEC
 70
     1
  9
$DIMTDEC
 70
     1
  9
$DIMALTU
 70
     2
  9
$DIMALTTD
 70
     3
  9
$DIMTXSTY
  7
Standard
  9
$DIMAUNIT
 70
     0
  9
$DIMADEC
 70
     2
  9
$DIMALTRND
 40
0.0
  9
$DIMAZIN
 70
     0
  9
$DIMDSEP
 70
    44
  9
$DIMATFIT
 70
     3
  9
$DIMFRAC
 70
     0
  9
$DIMLDRBLK
  1

  9
$DIMLUNIT
 70
     2
  9
$DIMLWD
 70
    -2
  9
$DIMLWE
 70
    -2
  9
$DIMTMOVE
 70
     0
  9
$DIMFXL
 40
1.0
  9
$DIMFXLON
 70
     0
  9
$DIMJOGANG
 40
0.7853981634
  9
$DIMTFILL
 70
     0
  9
$DIMTFILLCLR
 70
     0
  9
$DIMARCSYM
 70
     0
  9
$DIMLTYPE
  6

  9
$DIMLTEX1
  6

  9
$DIMLTEX2
  6

  9
$DIMTXTDIRECTION
 70
     0
  9
$LUNITS
 70
     2
  9
$LUPREC
 70
     2
  9
$SKETCHINC
 40
1.0
  9
$FILLETRAD
 40
10.0
  9
$AUNITS
 70
     0
  9
$AUPREC
 70
     2
  9
$MENU
  1
.
  9
$ELEVATION
 40
0.0
  9
$PELEVATION
 40
0.0
  9
$THICKNESS
 40
0.0
  9
$LIMCHECK
 70
     0
  9
$CHAMFERA
 40
0.0
  9
$CHAMFERB
 40
0.0
  9
$CHAMFERC
 40
0.0
  9
$CHAMFERD
 40
0.0
  9
$SKPOLY
 70
     0
  9
$TDCREATE
 40
2460018.759921343
  9
$TDUCREATE
 40
2460018.384921343
  9
$TDUPDATE
 40
2460018.76800904
  9
$TDUUPDATE
 40
2460018.39300904
  9
$TDINDWG
 40
0.0008619676
  9
$TDUSRTIMER
 40
0.0014126505
  9
$USRTIMER
 70
     1
  9
$ANGBASE
 50
0.0
  9
$ANGDIR
 70
     0
  9
$PDMODE
 70
     0
  9
$PDSIZE
 40
-1.0
  9
$PLINEWID
 40
0.0
  9
$SPLFRAME
 70
     0
  9
$SPLINETYPE
 70
     6
  9
$SPLINESEGS
 70
     8
  9
$HANDSEED
  5
354
  9
$SURFTAB1
 70
     6
  9
$SURFTAB2
 70
     6
  9
$SURFTYPE
 70
     6
  9
$SURFU
 70
     6
  9
$SURFV
 70
     6
  9
$UCSBASE
  2

  9
$UCSNAME
  2

  9
$UCSORG
 10
0.0
 20
0.0
 30
0.0
  9
$UCSXDIR
 10
1.0
 20
0.0
 30
0.0
  9
$UCSYDIR
 10
0.0
 20
1.0
 30
0.0
  9
$UCSORTHOREF
  2

  9
$UCSORTHOVIEW
 70
     0
  9
$UCSORGTOP
 10
0.0
 20
0.0
 30
0.0
  9
$UCSORGBOTTOM
 10
0.0
 20
0.0
 30
0.0
  9
$UCSORGLEFT
 10
0.0
 20
0.0
 30
0.0
  9
$UCSORGRIGHT
 10
0.0
 20
0.0
 30
0.0
  9
$UCSORGFRONT
 10
0.0
 20
0.0
 30
0.0
  9
$UCSORGBACK
 10
0.0
 20
0.0
 30
0.0
  9
$PUCSBASE
  2

  9
$PUCSNAME
  2

  9
$PUCSORG
 10
0.0
 20
0.0
 30
0.0
  9
$PUCSXDIR
 10
1.0
 20
0.0
 30
0.0
  9
$PUCSYDIR
 10
0.0
 20
1.0
 30
0.0
  9
$PUCSORTHOREF
  2

  9
$PUCSORTHOVIEW
 70
     0
  9
$PUCSORGTOP
 10
0.0
 20
0.0
 30
0.0
  9
$PUCSORGBOTTOM
 10
0.0
 20
0.0
 30
0.0
  9
$PUCSORGLEFT
 10
0.0
 20
0.0
 30
0.0
  9
$PUCSORGRIGHT
 10
0.0
 20
0.0
 30
0.0
  9
$PUCSORGFRONT
 10
0.0
 20
0.0
 30
0.0
  9
$PUCSORGBACK
 10
0.0
 20
0.0
 30
0.0
  9
$USERI1
 70
     0
  9
$USERI2
 70
     0
  9
$USERI3
 70
     0
  9
$USERI4
 70
     0
  9
$USERI5
 70
     0
  9
$USERR1
 40
0.0
  9
$USERR2
 40
0.0
  9
$USERR3
 40
0.0
  9
$USERR4
 40
0.0
  9
$USERR5
 40
0.0
  9
$WORLDVIEW
 70
     1
  9
$SHADEDGE
 70
     3
  9
$SHADEDIF
 70
    70
  9
$TILEMODE
 70
     1
  9
$MAXACTVP
 70
    64
  9
$PINSBASE
 10
0.0
 20
0.0
 30
0.0
  9
$PLIMCHECK
 70
     0
  9
$PEXTMIN
 10
1.000000000000000E+20
 20
1.000000000000000E+20
 30
1.000000000000000E+20
  9
$PEXTMAX
 10
-1.000000000000000E+20
 20
-1.000000000000000E+20
 30
-1.000000000000000E+20
  9
$PLIMMIN
 10
0.0
 20
0.0
  9
$PLIMMAX
 10
0.0
 20
0.0
  9
$UNITMODE
 70
     0
  9
$VISRETAIN
 70
     1
  9
$PLINEGEN
 70
     0
  9
$PSLTSCALE
 70
     1
  9
$TREEDEPTH
 70
  3020
  9
$CMLSTYLE
  2
Standard
  9
$CMLJUST
 70
     0
  9
$CMLSCALE
 40
20.0
  9
$PROXYGRAPHICS
 70
     1
  9
$MEASUREMENT
 70
     1
  9
$CELWEIGHT
370
    -1
  9
$ENDCAPS
280
     0
  9
$JOINSTYLE
280
     0
  9
$LWDISPLAY
290
     1
  9
$INSUNITS
 70
     4
  9
$HYPERLINKBASE
  1

  9
$STYLESHEET
  1

  9
$XEDIT
290
     1
  9
$CEPSNTYPE
380
     0
  9
$PSTYLEMODE
290
     1
  9
$FINGERPRINTGUID
  2
{1d51674f-2901-4a0a-9945-e51b6c848fae}
  9
$VERSIONGUID
  2
{FAEB1C32-E019-11D5-929B-00C0DF256EC4}
  9
$EXTNAMES
290
     1
  9
$PSVPSCALE
 40
0.0
  9
$OLESTARTUP
290
     0
  9
$SORTENTS
280
   127
  9
$INDEXCTL
280
     0
  9
$HIDETEXT
280
     1
  9
$XCLIPFRAME
280
     2
  9
$HALOGAP
280
     0
  9
$OBSCOLOR
 70
   257
  9
$OBSLTYPE
280
     0
  9
$INTERSECTIONDISPLAY
280
     0
  9
$INTERSECTIONCOLOR
 70
   257
  9
$DIMASSOC
280
     2
  9
$PROJECTNAME
  1

  9
$CAMERADISPLAY
290
     0
  9
$LENSLENGTH
 40
50.0
  9
$CAMERAHEIGHT
 40
0.0
  9
$STEPSPERSEC
 40
2.0
  9
$STEPSIZE
 40
6.0
  9
$3DDWFPREC
 40
2.0
  9
$PSOLWIDTH
 40
5.0
  9
$PSOLHEIGHT
 40
80.0
  9
$LOFTANG1
 40
1.5707963268
  9
$LOFTANG2
 40
1.5707963268
  9
$LOFTMAG1
 40
0.0
  9
$LOFTMAG2
 40
0.0
  9
$LOFTPARAM
 70
     7
  9
$LOFTNORMALS
280
     1
  9
$LATITUDE
 40
37.795
  9
$LONGITUDE
 40
-122.394
  9
$NORTHDIRECTION
 40
0.0
  9
$TIMEZONE
 70
 -8000
  9
$LIGHTGLYPHDISPLAY
280
     1
  9
$TILEMODELIGHTSYNCH
280
     1
  9
$CMATERIAL
347
44
  9
$SOLIDHIST
280
     0
  9
$SHOWHIST
280
     1
  9
$DWFFRAME
280
     2
  9
$DGNFRAME
280
     2
  9
$REALWORLDSCALE
290
     1
  9
$INTERFERECOLOR
 62
   256
  9
$CSHADOW
280
     0
  9
$SHADOWPLANELOCATION
 40
0.0
  0
ENDSEC
  0
SECTION
  2
CLASSES
  0
CLASS
  1
ACDBDICTIONARYWDFLT
  2
AcDbDictionaryWithDefault
  3
ObjectDBX Classes
 90
        0
 91
        3
280
     0
281
     0
  0
CLASS
  1
VISUALSTYLE
  2
AcDbVisualStyle
  3
ObjectDBX Classes
 90
     4095
 91
        3
280
     0
281
     0
  0
CLASS
  1
MATERIAL
  2
AcDbMaterial
  3
ObjectDBX Classes
 90
     1153
 91
        3
280
     0
281
     0
  0
CLASS
  1
SCALE
  2
AcDbScale
  3
ObjectDBX Classes
 90
     1153
 91
        3
280
     0
281
     0
  0
CLASS
  1
TABLESTYLE
  2
AcDbTableStyle
  3
ObjectDBX Classes
 90
     4095
 91
        3
280
     0
281
     0
  0
CLASS
  1
MLEADERSTYLE
  2
AcDbMLeaderStyle
  3
ACDB_MLEADERSTYLE_CLASS
 90
     4095
 91
        3
280
     0
281
     0
  0
CLASS
  1
SUN
  2
AcDbSun
  3
SCENEOE
 90
     1153
 91
        3
280
     0
281
     0
  0
CLASS
  1
DICTIONARYVAR
  2
AcDbDictionaryVar
  3
ObjectDBX Classes
 90
        0
 91
        3
280
     0
281
     0
  0
CLASS
  1
CELLSTYLEMAP
  2
AcDbCellStyleMap
  3
ObjectDBX Classes
 90
     1152
 91
        3
280
     0
281
     0
  0
ENDSEC
  0
SECTION
  2
TABLES
  0
TABLE
  2
VPORT
  5
8
330
0
100
AcDbSymbolTable
 70
     1
  0
VPORT
  5
29
330
8
100
AcDbSymbolTableRecord
100
AcDbViewportTableRecord
  2
*Active
 70
     0
 10
0.0
 20
0.0
 11
1.0
 21
1.0
 12
127.9228858425712
 22
165.5621572257662
 13
0.0
 23
0.0
 14
10.0
 24
10.0
 15
10.0
 25
10.0
 16
0.0
 26
0.0
 36
1.0
 17
0.0
 27
0.0
 37
0.0
 40
113.2967337285244
 41
2.082738944365193
 42
50.0
 43
0.0
 44
0.0
 50
0.0
 51
0.0
 71
    16
 72
  2000
 73
     1
 74
     3
 75
     0
 76
     0
 77
     0
 78
     0
281
     0
 65
     1
110
0.0
120
0.0
130
0.0
111
1.0
121
0.0
131
0.0
112
0.0
122
1.0
132
0.0
 79
     0
146
0.0
348
2F
 60
     3
 61
     5
292
     1
282
     1
141
0.0
142
0.0
 63
   250
361
6D
  0
ENDTAB
  0
TABLE
  2
LTYPE
  5
5
330
0
100
AcDbSymbolTable
 70
     6
  0
LTYPE
  5
14
330
5
100
AcDbSymbolTableRecord
100
AcDbLinetypeTableRecord
  2
ByBlock
 70
     0
  3

 72
    65
 73
     0
 40
0.0
  0
LTYPE
  5
15
330
5
100
AcDbSymbolTableRecord
100
AcDbLinetypeTableRecord
  2
ByLayer
 70
     0
  3

 72
    65
 73
     0
 40
0.0
  0
LTYPE
  5
16
330
5
100
AcDbSymbolTableRecord
100
AcDbLinetypeTableRecord
  2
Continuous
 70
     0
  3
Solid line
 72
    65
 73
     0
 40
0.0
  0
LTYPE
  5
6E
330
5
100
AcDbSymbolTableRecord
100
AcDbLinetypeTableRecord
  2
HIDDEN
 70
     0
  3
Hidden __ __ __ __ __ __ __ __ __ __ __ __ __ __
 72
    65
 73
     2
 40
1.905
 49
1.27
 74
     0
 49
-0.635
 74
     0
  0
LTYPE
  5
6F
330
5
100
AcDbSymbolTableRecord
100
AcDbLinetypeTableRecord
  2
PHANTOM
 70
     0
  3
Phantom ______  __  __  ______  __  __  ______
 72
    65
 73
     6
 40
12.7
 49
6.35
 74
     0
 49
-1.27
 74
     0
 49
1.27
 74
     0
 49
-1.27
 74
     0
 49
1.27
 74
     0
 49
-1.27
 74
     0
  0
LTYPE
  5
70
330
5
100
AcDbSymbolTableRecord
100
AcDbLinetypeTableRecord
  2
CENTER
 70
     0
  3
Center ____ _ ____ _ ____ _ ____ _ ____ _ ____
 72
    65
 73
     4
 40
10.16
 49
6.35
 74
     0
 49
-1.27
 74
     0
 49
1.27
 74
     0
 49
-1.27
 74
     0
  0
LTYPE
  5
71
330
5
100
AcDbSymbolTableRecord
100
AcDbLinetypeTableRecord
  2
CENTERX2
 70
     0
  3
Center (2x) ________  __  ________  __  _____
 72
    65
 73
     4
 40
20.32
 49
12.7
 74
     0
 49
-2.54
 74
     0
 49
2.54
 74
     0
 49
-2.54
 74
     0
  0
LTYPE
  5
72
330
5
100
AcDbSymbolTableRecord
100
AcDbLinetypeTableRecord
  2
DOT2
 70
     0
  3
Dot (.5x) ........................................
 72
    65
 73
     2
 40
0.635
 49
0.0
 74
     0
 49
-0.635
 74
     0
  0
ENDTAB
  0
TABLE
  2
LAYER
  5
2
330
0
100
AcDbSymbolTable
 70
     1
  0
LAYER
  5
10
330
2
100
AcDbSymbolTableRecord
100
AcDbLayerTableRecord
  2
0
 70
     0
 62
     7
  6
Continuous
370
    -3
390
F
347
46
348
0
  0
ENDTAB
  0
TABLE
  2
STYLE
  5
3
330
0
100
AcDbSymbolTable
 70
     2
  0
STYLE
  5
11
330
3
100
AcDbSymbolTableRecord
100
AcDbTextStyleTableRecord
  2
Standard
 70
     0
 40
0.0
 41
1.0
 50
0.0
 71
     0
 42
3.5
  3
txt
  4
bigfont
  0
STYLE
  5
76
330
3
100
AcDbSymbolTableRecord
100
AcDbTextStyleTableRecord
  2
SLDTEXTSTYLE0
 70
     0
 40
0.0
 41
0.7
 50
0.0
 71
     0
 42
3.5
  3
TXT
  4
bigfont
  0
ENDTAB
  0
TABLE
  2
VIEW
  5
6
330
0
100
AcDbSymbolTable
 70
     0
  0
ENDTAB
  0
TABLE
  2
UCS
  5
7
330
0
100
AcDbSymbolTable
 70
     0
  0
ENDTAB
  0
TABLE
  2
APPID
  5
9
330
0
100
AcDbSymbolTable
 70
     1
  0
APPID
  5
12
330
9
100
AcDbSymbolTableRecord
100
AcDbRegAppTableRecord
  2
ACAD
 70
     0
  0
ENDTAB
  0
TABLE
  2
DIMSTYLE
  5
A
330
0
100
AcDbSymbolTable
 70
     1
100
AcDbDimStyleTable
  0
DIMSTYLE
105
27
330
A
100
AcDbSymbolTableRecord
100
AcDbDimStyleTableRecord
  2
ISO-25
 70
     0
 41
2.5
 42
0.625
 43
3.75
 44
1.25
 73
     0
 74
     0
 77
     1
 78
     8
140
2.5
141
2.5
143
0.0393700787
147
0.625
171
     3
172
     1
178
     0
271
     2
272
     2
274
     3
278
    44
283
     0
284
     8
340
11
  0
ENDTAB
  0
TABLE
  2
BLOCK_RECORD
  5
1
330
0
100
AcDbSymbolTable
 70
     6
  0
BLOCK_RECORD
  5
1F
102
{ACAD_XDICTIONARY
360
34F
102
}
330
1
100
AcDbSymbolTableRecord
100
AcDbBlockTableRecord
  2
*Model_Space
340
22
 70
     0
280
     1
281
     0
  0
BLOCK_RECORD
  5
1B
330
1
100
AcDbSymbolTableRecord
100
AcDbBlockTableRecord
  2
*Paper_Space
340
1E
 70
     0
280
     1
281
     0
  0
BLOCK_RECORD
  5
23
330
1
100
AcDbSymbolTableRecord
100
AcDbBlockTableRecord
  2
*Paper_Space0
340
26
 70
     0
280
     1
281
     0
  0
BLOCK_RECORD
  5
73
330
1
100
AcDbSymbolTableRecord
100
AcDbBlockTableRecord
  2
SW_NOTE_0
340
0
102
{BLKREFS
331
79
102
}
 70
     0
280
     1
281
     0
  0
BLOCK_RECORD
  5
7A
330
1
100
AcDbSymbolTableRecord
100
AcDbBlockTableRecord
  2
SW_NOTE_0_1
340
0
102
{BLKREFS
331
0
102
}
 70
     0
280
     1
281
     0
  0
BLOCK_RECORD
  5
80
330
1
100
AcDbSymbolTableRecord
100
AcDbBlockTableRecord
  2
SW_NOTE_0_2
340
0
102
{BLKREFS
331
0
102
}
 70
     0
280
     1
281
     0
  0
BLOCK_RECORD
  5
1DF
330
1
100
AcDbSymbolTableRecord
100
AcDbBlockTableRecord
  2
SW_NOTE_0_3
340
0
102
{BLKREFS
331
0
102
}
 70
     0
280
     1
281
     0
  0
BLOCK_RECORD
  5
33B
330
1
100
AcDbSymbolTableRecord
100
AcDbBlockTableRecord
  2
SW_NOTE_0_4
340
0
102
{BLKREFS
331
0
102
}
 70
     0
280
     1
281
     0
  0
ENDTAB
  0
ENDSEC
  0
SECTION
  2
BLOCKS
  0
BLOCK
  5
20
330
1F
100
AcDbEntity
  8
0
100
AcDbBlockBegin
  2
*Model_Space
 70
     0
 10
0.0
 20
0.0
 30
0.0
  3
*Model_Space
  1

  0
ENDBLK
  5
21
330
1F
100
AcDbEntity
  8
0
100
AcDbBlockEnd
  0
BLOCK
  5
1C
330
1B
100
AcDbEntity
 67
     1
  8
0
100
AcDbBlockBegin
  2
*Paper_Space
 70
     0
 10
0.0
 20
0.0
 30
0.0
  3
*Paper_Space
  1

  0
ENDBLK
  5
1D
330
1B
100
AcDbEntity
 67
     1
  8
0
100
AcDbBlockEnd
  0
BLOCK
  5
24
330
23
100
AcDbEntity
  8
0
100
AcDbBlockBegin
  2
*Paper_Space0
 70
     0
 10
0.0
 20
0.0
 30
0.0
  3
*Paper_Space0
  1

  0
ENDBLK
  5
25
330
23
100
AcDbEntity
  8
0
100
AcDbBlockEnd
  0
BLOCK
  5
74
330
73
100
AcDbEntity
  8
0
100
AcDbBlockBegin
  2
SW_NOTE_0
 70
     0
 10
0.0
 20
0.0
 30
0.0
  3
SW_NOTE_0
  1

  0
MTEXT
  5
77
330
73
100
AcDbEntity
  8
0
  6
Continuous
 62
     0
370
     0
100
AcDbMText
 10
0.0
 20
4.5117370892
 30
0.0
 40
3.5
 41
0.0
 46
0.0
 71
     1
 72
     1
  1
HBD-D51S
  7
SLDTEXTSTYLE0
 73
     1
 44
1.0
  0
MTEXT
  5
78
330
73
100
AcDbEntity
  8
0
  6
Continuous
 62
     0
370
     0
100
AcDbMText
 10
0.0
 20
0.0117372829
 30
0.0
 40
3.5
 41
0.0
 46
0.0
 71
     1
 72
     1
  1
HBD-D53S
  7
SLDTEXTSTYLE0
 73
     1
 44
1.0
  0
ENDBLK
  5
75
330
73
100
AcDbEntity
  8
0
100
AcDbBlockEnd
  0
BLOCK
  5
7B
330
7A
100
AcDbEntity
  8
0
100
AcDbBlockBegin
  2
SW_NOTE_0_1
 70
     0
 10
0.0
 20
0.0
 30
0.0
  3
SW_NOTE_0_1
  1

  0
MTEXT
  5
7D
330
7A
100
AcDbEntity
  8
0
  6
Continuous
 62
     0
370
     0
100
AcDbMText
 10
0.0
 20
4.5117370892
 30
0.0
 40
3.5
 41
0.0
 46
0.0
 71
     1
 72
     1
  1
HFF-D49S
  7
SLDTEXTSTYLE0
 73
     1
 44
1.0
  0
MTEXT
  5
7E
330
7A
100
AcDbEntity
  8
0
  6
Continuous
 62
     0
370
     0
100
AcDbMText
 10
0.0
 20
0.0117372829
 30
0.0
 40
3.5
 41
0.0
 46
0.0
 71
     1
 72
     1
  1
HFF-D51S
  7
SLDTEXTSTYLE0
 73
     1
 44
1.0
  0
ENDBLK
  5
7C
330
7A
100
AcDbEntity
  8
0
100
AcDbBlockEnd
  0
BLOCK
  5
81
330
80
100
AcDbEntity
  8
0
100
AcDbBlockBegin
  2
SW_NOTE_0_2
 70
     0
 10
0.0
 20
0.0
 30
0.0
  3
SW_NOTE_0_2
  1

  0
MTEXT
  5
83
330
80
100
AcDbEntity
  8
0
  6
Continuous
 62
     0
370
     0
100
AcDbMText
 10
0.0
 20
4.5117370892
 30
0.0
 40
3.5
 41
0.0
 46
0.0
 71
     1
 72
     1
  1
HFF-D48S
  7
SLDTEXTSTYLE0
 73
     1
 44
1.0
  0
MTEXT
  5
84
330
80
100
AcDbEntity
  8
0
  6
Continuous
 62
     0
370
     0
100
AcDbMText
 10
0.0
 20
0.0117372829
 30
0.0
 40
3.5
 41
0.0
 46
0.0
 71
     1
 72
     1
  1
HFF-D50S
  7
SLDTEXTSTYLE0
 73
     1
 44
1.0
  0
ENDBLK
  5
82
330
80
100
AcDbEntity
  8
0
100
AcDbBlockEnd
  0
BLOCK
  5
1E0
330
1DF
100
AcDbEntity
  8
0
100
AcDbBlockBegin
  2
SW_NOTE_0_3
 70
     0
 10
0.0
 20
0.0
 30
0.0
  3
SW_NOTE_0_3
  1

  0
MTEXT
  5
1E2
330
1DF
100
AcDbEntity
  8
0
  6
Continuous
 62
     0
370
     0
100
AcDbMText
 10
0.0
 20
4.5117370892
 30
0.0
 40
3.5
 41
0.0
 46
0.0
 71
     1
 72
     1
  1
HBD-D52S
  7
SLDTEXTSTYLE0
 73
     1
 44
1.0
  0
MTEXT
  5
1E3
330
1DF
100
AcDbEntity
  8
0
  6
Continuous
 62
     0
370
     0
100
AcDbMText
 10
0.0
 20
0.0117372829
 30
0.0
 40
3.5
 41
0.0
 46
0.0
 71
     1
 72
     1
  1
HBD-D54S
  7
SLDTEXTSTYLE0
 73
     1
 44
1.0
  0
ENDBLK
  5
1E1
330
1DF
100
AcDbEntity
  8
0
100
AcDbBlockEnd
  0
BLOCK
  5
33C
330
33B
100
AcDbEntity
  8
0
100
AcDbBlockBegin
  2
SW_NOTE_0_4
 70
     0
 10
0.0
 20
0.0
 30
0.0
  3
SW_NOTE_0_4
  1

  0
MTEXT
  5
33E
330
33B
100
AcDbEntity
  8
0
  6
Continuous
 62
     0
370
     0
100
AcDbMText
 10
0.0
 20
4.5117370892
 30
0.0
 40
3.5
 41
0.0
 46
0.0
 71
     1
 72
     1
  1
HBD-D52S
  7
SLDTEXTSTYLE0
 73
     1
 44
1.0
  0
MTEXT
  5
33F
330
33B
100
AcDbEntity
  8
0
  6
Continuous
 62
     0
370
     0
100
AcDbMText
 10
0.0
 20
0.0117372829
 30
0.0
 40
3.5
 41
0.0
 46
0.0
 71
     1
 72
     1
  1
HBD-D54S
  7
SLDTEXTSTYLE0
 73
     1
 44
1.0
  0
ENDBLK
  5
33D
330
33B
100
AcDbEntity
  8
0
100
AcDbBlockEnd
  0
ENDSEC
  0
SECTION
  2
ENTITIES
  0
INSERT
  5
79
330
1F
100
AcDbEntity
  8
0
  6
Continuous
 62
     7
370
     0
100
AcDbBlockReference
  2
SW_NOTE_0
 10
162.9234689630321
 20
120.724724420196
 30
0.0
  0
LINE
  5
1E5
330
1F
100
AcDbEntity
  8
0
  6
Continuous
 62
     7
370
    25
100
AcDbLine
 10
127.0126234625769
 20
207.9605197683602
 30
0.0
 11
127.0126234625769
 21
207.8992792074602
 31
0.0
  0
LINE
  5
1E6
330
1F
100
AcDbEntity
  8
0
  6
Continuous
 62
     7
370
    25
100
AcDbLine
 10
130.0126234623769
 20
207.8992792074602
 30
0.0
 11
130.0126234623769
 21
207.9605197683602
 31
0.0
  0
LINE
  5
1E7
330
1F
100
AcDbEntity
  8
0
  6
Continuous
 62
     7
370
    25
100
AcDbLine
 10
128.2554111191769
 20
207.4552916731602
 30
0.0
 11
128.2554111191769
 21
207.7092076529602
 31
0.0
  0
LINE
  5
1E8
330
1F
100
AcDbEntity
  8
0
  6
Continuous
 62
     7
370
    25
100
AcDbLine
 10
128.7698358057769
 20
208.2118318838602
 30
0.0
 11
128.7698358057769
 21
207.8545952786602
 31
0.0
  0
LINE
  5
1E9
330
1F
100
AcDbEntity
  8
0
  6
Continuous
 62
     7
370
    25
100
AcDbLine
 10
145.3973997733769
 20
197.3472143146602
 30
0.0
 11
145.3973997733769
 21
197.2859737537602
 31
0.0
  0
LINE
  5
1EA
330
1F
100
AcDbEntity
  8
0
  6
Continuous
 62
     7
370
    25
100
AcDbLine
 10
148.3973997732769
 20
197.2859737537602
 30
0.0
 11
148.3973997732769
 21
197.3472143146602
 31
0.0
  0
LINE
  5
1EB
330
1F
100
AcDbEntity
  8
0
  6
Continuous
 62
     7
370
    25
100
AcDbLine
 10
146.6401874299769
 20
196.8419862194602
 30
0.0
 11
146.6401874299769
 21
197.0959021992602
 31
0.0
  0
LINE
  5
1EC
330
1F
100
AcDbEntity
  8
0
  6
Continuous
 62
     7
370
    25
100
AcDbLine
 10
147.1546121166769
 20
197.5985264301602
 30
0.0
 11
147.1546121166769
 21
197.2412898249602
 31
0.0
  0
LINE
  5
1ED
330
1F
100
AcDbEntity
  8
0
  6
Continuous
 62
     7
370
    25
100
AcDbLine
 10
143.7163958801769
 20
206.0005565113602
 30
0.0
 11
143.6103126284769
 21
206.0618169756602
 31
0.0
  0
LINE
  5
1EE
330
1F
100
AcDbEntity
  8
0
  6
Continuous
 62
     7
370
    25
100
AcDbLine
 10
131.7997106072769
 20
206.0618169756602
 30
0.0
 11
131.6936273555769
 21
206.0005565113602
 31
0.0
  0
LINE
  5
1EF
330
1F
100
AcDbEntity
  8
0
  6
Continuous
 62
     7
370
    25
100
AcDbLine
 10
146.2050116178769
 20
201.6054732962602
 30
0.0
 11
146.2050116178769
 21
202.5313859197602
 31
0.0
  0
LINE
  5
1F0
330
1F
100
AcDbEntity
  8
0
  6
Continuous
 62
     7
370
    25
100
AcDbLine
 10
129.2050116178769
 20
202.5313859197602
 30
0.0
 11
129.2050116178769
 21
201.6054732962602
 31
0.0
  0
LINE
  5
1F1
330
1F
100
AcDbEntity
  8
0
  6
Continuous
 62
     7
370
    25
100
AcDbLine
 10
149.1973638839769
 20
208.6736993283602
 30
0.0
 11
148.6669476255769
 21
208.9800016497602
 31
0.0
  0
LINE
  5
1F2
330
1F
100
AcDbEntity
  8
0
  6
Continuous
 62
     7
370
    25
100
AcDbLine
 10
126.7430756101769
 20
208.9800016497602
 30
0.0
 11
126.2126593517769
 21
208.6736993283602
 31
0.0
  0
LINE
  5
1F3
330
1F
100
AcDbEntity
  8
0
  6
Continuous
 62
     7
370
    25
100
AcDbLine
 10
153.9550116178769
 20
201.6331910266602
 30
0.0
 11
153.9550116178769
 21
202.0414614326602
 31
0.0
  0
LINE
  5
1F4
330
1F
100
AcDbEntity
  8
0
  6
Continuous
 62
     7
370
    25
100
AcDbLine
 10
121.4550116178769
 20
202.0414614326602
 30
0.0
 11
121.4550116178769
 21
201.6331910266602
 31
0.0
  0
LINE
  5
1F5
330
1F
100
AcDbEntity
  8
0
  6
Continuous
 62
     7
370
    25
100
AcDbLine
 10
154.9492049004769
 20
120.1019680394602
 30
0.0
 11
153.2640509959769
 21
198.9267769788602
 31
0.0
  0
LINE
  5
1F6
330
1F
100
AcDbEntity
  8
0
  6
Continuous
 62
     7
370
    25
100
AcDbLine
 10
122.1459722398769
 20
198.9267769788602
 30
0.0
 11
121.8614044776769
 21
185.6158269087602
 31
0.0
  0
LINE
  5
1F7
330
1F
100
AcDbEntity
  8
0
  6
Continuous
 62
     7
370
    25
100
AcDbLine
 10
123.3349140940769
 20
206.4213519842602
 30
0.0
 11
123.0507155840769
 21
206.5854162918602
 31
0.0
  0
LINE
  5
1F8
330
1F
100
AcDbEntity
  8
0
  6
Continuous
 62
     7
370
    25
100
AcDbLine
 10
151.5262040100769
 20
124.3501236105602
 30
0.0
 11
150.9882976436769
 21
124.6498080554602
 31
0.0
  0
LINE
  5
1F9
330
1F
100
AcDbEntity
  8
0
  6
Continuous
 62
     7
370
    25
100
AcDbLine
 10
75.53098096817692
 20
211.9557770921602
 30
0.0
 11
74.1389693887769
 21
146.8430022373602
 31
0.0
  0
LINE
  5
1FA
330
1F
100
AcDbEntity
  8
0
  6
Continuous
 62
     7
370
    25
100
AcDbLine
 10
122.1150571556769
 20
207.1255604052602
 30
0.0
 11
102.5414415422769
 21
218.4251681799602
 31
0.0
  0
SPLINE
  5
1FB
330
1F
100
AcDbEntity
  8
0
  6
Continuous
 62
     7
370
    25
100
AcDbSpline
210
0.0
220
0.0
230
1.0
 70
     8
 71
     3
 72
    14
 73
    10
 74
     0
 42
0.000000001
 43
0.00000001
 40
0.0
 40
0.0
 40
0.0
 40
0.0
 40
0.0170461716344673
 40
0.1999005445382367
 40
0.3827645998553897
 40
0.5656503468854647
 40
0.7485721913078426
 40
0.9315443414537957
 40
1.0
 40
1.0
 40
1.0
 40
1.0
 10
91.51051075290641
 20
221.0933809360992
 30
0.0
 10
91.46547579582332
 20
221.0946589906611
 30
0.0
 10
90.9373506169139
 20
221.1096467432399
 30
0.0
 10
89.92373455131761
 20
221.0657310327726
 30
0.0
 10
88.4849586817864
 20
220.9560516164813
 30
0.0
 10
87.0695101315095
 20
220.7625692847596
 30
0.0
 10
85.69135510087722
 20
220.4954228318794
 30
0.0
 10
84.63447780483352
 20
220.2302151913976
 30
0.0
 10
84.04687773728142
 20
220.0490110443061
 30
0.0
 10
83.8868932479152
 20
219.9996750170584
 30
0.0
  0
SPLINE
  5
1FC
330
1F
100
AcDbEntity
  8
0
  6
Continuous
 62
     7
370
    25
100
AcDbSpline
210
0.0
220
0.0
230
1.0
 70
     8
 71
     3
 72
    10
 73
     6
 74
     0
 42
0.000000001
 43
0.00000001
 40
0.0
 40
0.0
 40
0.0
 40
0.0
 40
0.0956682876494607
 40
0.5699600885654021
 40
1.0
 40
1.0
 40
1.0
 40
1.0
 10
94.54727444275991
 20
220.9052091170309
 30
0.0
 10
94.4523837044714
 20
220.9184022522596
 30
0.0
 10
93.88705599841771
 20
220.997002598395
 30
0.0
 10
92.87037322516741
 20
221.0689116337538
 30
0.0
 10
91.94876582871171
 20
221.0854949945624
 30
0.0
 10
91.51051075290641
 20
221.0933809360992
 30
0.0
  0
SPLINE
  5
1FD
330
1F
100
AcDbEntity
  8
0
  6
Continuous
 62
     7
370
    25
100
AcDbSpline
210
0.0
220
0.0
230
1.0
 70
     8
 71
     3
 72
    14
 73
    10
 74
     0
 42
0.000000001
 43
0.00000001
 40
0.0
 40
0.0
 40
0.0
 40
0.0
 40
0.0833147151806602
 40
0.2414916204755643
 40
0.3996592231096461
 40
0.5577787782966328
 40
0.7158485196316461
 40
0.8738735007683898
 40
1.0
 40
1.0
 40
1.0
 40
1.0
 10
102.5414415422442
 20
218.4251681799727
 30
0.0
 10
102.357441095329
 20
218.5283233722224
 30
0.0
 10
101.8241071458884
 20
218.8273235486357
 30
0.0
 10
100.8726936048994
 20
219.2780297104693
 30
0.0
 10
99.66858410213808
 20
219.7530304581707
 30
0.0
 10
98.3942742460057
 20
220.1613974958393
 30
0.0
 10
97.06111963429152
 20
220.4978983680025
 30
0.0
 10
95.7763340436469
 20
220.7521231660408
 30
0.0
 10
94.9251084784984
 20
220.8581478657818
 30
0.0
 10
94.54727444275991
 20
220.9052091170309
 30
0.0
  0
SPLINE
  5
1FE
330
1F
100
AcDbEntity
  8
0
  6
Continuous
 62
     7
370
    25
100
AcDbSpline
210
0.0
220
0.0
230
1.0
 70
     8
 71
     3
 72
    13
 73
     9
 74
     0
 42
0.000000001
 43
0.00000001
 40
0.0
 40
0.0
 40
0.0
 40
0.0
 40
0.0633717630289402
 40
0.2741285766516944
 40
0.4964162057066981
 40
0.7189231789687126
 40
0.933367585488196
 40
1.0
 40
1.0
 40
1.0
 40
1.0
 10
82.72482479016452
 20
219.6462222023166
 30
0.0
 10
82.60891859170042
 20
219.6026169857408
 30
0.0
 10
82.107540695751
 20
219.4139929774575
 30
0.0
 10
81.24320015790971
 20
219.0307642581027
 30
0.0
 10
80.17672707128622
 20
218.4736909008708
 30
0.0
 10
79.2009731950834
 20
217.8546060309642
 30
0.0
 10
78.5257954524385
 20
217.3444735088172
 30
0.0
 10
78.1880227700467
 20
217.0477319466937
 30
0.0
 10
78.1079499653903
 20
216.9773860295251
 30
0.0
  0
LINE
  5
1FF
330
1F
100
AcDbEntity
  8
0
  6
Continuous
 62
     7
370
    25
100
AcDbLine
 10
101.0322458858769
 20
137.9256159419602
 30
0.0
 11
100.5018350158769
 21
137.6194162643602
 31
0.0
  0
LWPOLYLINE
  5
200
330
1F
100
AcDbEntity
  8
0
  6
Continuous
 62
     7
370
    25
100
AcDbPolyline
 90
       20
 70
   128
 43
0.0
 10
128.3298037300769
 20
207.1010438369602
 10
128.8231275936769
 20
207.1133439664602
 10
129.2828035166769
 20
207.2174487392602
 10
129.6590184802769
 20
207.4020767880602
 10
129.9110037554769
 20
207.6472207988602
 10
130.0114528278769
 20
207.9263156143602
 10
129.9494804817769
 20
208.2091169807602
 10
129.7318023824769
 20
208.4649789817602
 10
129.3820073297769
 20
208.6661749994602
 10
128.9380010450769
 20
208.7909023235602
 10
128.4478984988769
 20
208.8256448130602
 10
127.9648099068769
 20
208.7666375801602
 10
127.5410854137769
 20
208.6202749741602
 10
127.2226421431769
 20
208.4024176544602
 10
127.0439883647769
 20
208.1366738420602
 10
127.0244839872769
 20
207.8518410024602
 10
127.1662426128769
 20
207.5787851934602
 10
127.4539024947769
 20
207.3470962488602
 10
127.8562912212769
 20
207.1818812608602
 10
128.3298037300769
 20
207.1010438369602
  0
LINE
  5
201
330
1F
100
AcDbEntity
  8
0
  6
Continuous
 62
     7
370
    25
100
AcDbLine
 10
128.2044226500769
 20
207.4589061541602
 30
0.0
 11
128.6014405960769
 21
207.4307622648602
 31
0.0
  0
LINE
  5
202
330
1F
100
AcDbEntity
  8
0
  6
Continuous
 62
     7
370
    25
100
AcDbLine
 10
128.6014405960769
 20
207.4307622648602
 30
0.0
 11
128.6501925246769
 21
207.6599558465602
 31
0.0
  0
ARC
  5
203
330
1F
100
AcDbEntity
  8
0
  6
Continuous
 62
     7
370
    25
100
AcDbCircle
 10
128.9185589170769
 20
207.5109616215602
 30
0.0
 40
0.3069524386980229
100
AcDbArc
 50
77.59092529090297
 51
150.9614217061986
  0
LINE
  5
204
330
1F
100
AcDbEntity
  8
0
  6
Continuous
 62
     7
370
    25
100
AcDbLine
 10
128.9845199306769
 20
207.8107431158602
 30
0.0
 11
129.3815378766769
 21
207.7825992264602
 31
0.0
  0
LINE
  5
205
330
1F
100
AcDbEntity
  8
0
  6
Continuous
 62
     7
370
    25
100
AcDbLine
 10
129.3815378766769
 20
207.7825992264602
 30
0.0
 11
129.4302898052769
 21
208.0117928082602
 31
0.0
  0
LINE
  5
206
330
1F
100
AcDbEntity
  8
0
  6
Continuous
 62
     7
370
    25
100
AcDbLine
 10
129.4302898052769
 20
208.0117928082602
 30
0.0
 11
129.0332718592769
 21
208.0399366975602
 31
0.0
  0
LWPOLYLINE
  5
207
330
1F
100
AcDbEntity
  8
0
  6
Continuous
 62
     7
370
    25
100
AcDbPolyline
 90
        9
 70
   128
 43
0.0
 10
128.7720723462769
 20
208.2329398008602
 10
128.7706605155769
 20
208.1989991308602
 10
128.7807458234769
 20
208.1655516164602
 10
128.8019406972769
 20
208.1338826266602
 10
128.8334306298769
 20
208.1052091832602
 10
128.8740054807769
 20
208.0806331902602
 10
128.9221059812769
 20
208.0610990896602
 10
128.9758836560769
 20
208.0473575656602
 10
129.0332718592769
 20
208.0399366975602
  0
LINE
  5
208
330
1F
100
AcDbEntity
  8
0
  6
Continuous
 62
     7
370
    25
100
AcDbLine
 10
128.7720723462769
 20
208.2329398008602
 30
0.0
 11
128.8208242748769
 21
208.4621333825602
 31
0.0
  0
LINE
  5
209
330
1F
100
AcDbEntity
  8
0
  6
Continuous
 62
     7
370
    25
100
AcDbLine
 10
128.8208242748769
 20
208.4621333825602
 30
0.0
 11
128.4238063288769
 21
208.4902772718602
 31
0.0
  0
LINE
  5
20A
330
1F
100
AcDbEntity
  8
0
  6
Continuous
 62
     7
370
    25
100
AcDbLine
 10
128.4238063288769
 20
208.4902772718602
 30
0.0
 11
128.3750544002769
 21
208.2610836901602
 31
0.0
  0
ARC
  5
20B
330
1F
100
AcDbEntity
  8
0
  6
Continuous
 62
     7
370
    25
100
AcDbCircle
 10
128.1066880078769
 20
208.4100779151602
 30
0.0
 40
0.3069524386979648
100
AcDbArc
 50
257.5909252908029
 51
330.9614217061981
  0
LINE
  5
20C
330
1F
100
AcDbEntity
  8
0
  6
Continuous
 62
     7
370
    25
100
AcDbLine
 10
128.0407269942769
 20
208.1102964208602
 30
0.0
 11
127.6437090482769
 21
208.1384403102602
 31
0.0
  0
LINE
  5
20D
330
1F
100
AcDbEntity
  8
0
  6
Continuous
 62
     7
370
    25
100
AcDbLine
 10
127.6437090482769
 20
208.1384403102602
 30
0.0
 11
127.5949571196769
 21
207.9092467285602
 31
0.0
  0
LINE
  5
20E
330
1F
100
AcDbEntity
  8
0
  6
Continuous
 62
     7
370
    25
100
AcDbLine
 10
127.5949571196769
 20
207.9092467285602
 30
0.0
 11
127.9919750656769
 21
207.8811028391602
 31
0.0
  0
LWPOLYLINE
  5
20F
330
1F
100
AcDbEntity
  8
0
  6
Continuous
 62
     7
370
    25
100
AcDbPolyline
 90
        9
 70
   128
 43
0.0
 10
128.2531745786769
 20
207.6880997358602
 10
128.2545864093769
 20
207.7220404058602
 10
128.2445011014769
 20
207.7554879203602
 10
128.2233062276769
 20
207.7871569100602
 10
128.1918162950769
 20
207.8158303535602
 10
128.1512414441769
 20
207.8404063464602
 10
128.1031409436769
 20
207.8599404471602
 10
128.0493632688769
 20
207.8736819710602
 10
127.9919750656769
 20
207.8811028391602
  0
LINE
  5
210
330
1F
100
AcDbEntity
  8
0
  6
Continuous
 62
     7
370
    25
100
AcDbLine
 10
128.2531745786769
 20
207.6880997358602
 30
0.0
 11
128.2044226500769
 21
207.4589061541602
 31
0.0
  0
ARC
  5
211
330
1F
100
AcDbEntity
  8
0
  6
Continuous
 62
     7
370
    25
100
AcDbCircle
 10
128.1804464866769
 20
207.9785275153602
 30
0.0
 40
0.2084452127057363
100
AcDbArc
 50
284.2705240678955
 51
339.0057863210977
  0
LINE
  5
212
330
1F
100
AcDbEntity
  8
0
  6
Continuous
 62
     7
370
    25
100
AcDbLine
 10
128.4238063288769
 20
208.1330406666602
 30
0.0
 11
128.3750544002769
 21
207.9038470849602
 31
0.0
  0
LINE
  5
213
330
1F
100
AcDbEntity
  8
0
  6
Continuous
 62
     7
370
    25
100
AcDbLine
 10
128.7698358057769
 20
208.1085112583602
 30
0.0
 11
128.4238063288769
 21
208.1330406666602
 31
0.0
  0
ARC
  5
214
330
1F
100
AcDbEntity
  8
0
  6
Continuous
 62
     7
370
    25
100
AcDbCircle
 10
128.8828717019769
 20
207.8564157668602
 30
0.0
 40
0.1130505550698137
100
AcDbArc
 50
180.9226916243017
 51
217.6959831184914
  0
LINE
  5
215
330
1F
100
AcDbEntity
  8
0
  6
Continuous
 62
     7
370
    25
100
AcDbLine
 10
127.6437090482769
 20
207.9057907918602
 30
0.0
 11
127.6437090482769
 21
208.1384403102602
 31
0.0
  0
LINE
  5
216
330
1F
100
AcDbEntity
  8
0
  6
Continuous
 62
     7
370
    25
100
AcDbLine
 10
128.3750544002769
 20
208.2610836901602
 30
0.0
 11
128.3750544002769
 21
207.9038470849602
 31
0.0
  0
LINE
  5
217
330
1F
100
AcDbEntity
  8
0
  6
Continuous
 62
     7
370
    25
100
AcDbLine
 10
128.4238063288769
 20
208.1330406666602
 30
0.0
 11
128.4238063288769
 21
208.4902772718602
 31
0.0
  0
LWPOLYLINE
  5
218
330
1F
100
AcDbEntity
  8
0
  6
Continuous
 62
     7
370
    25
100
AcDbPolyline
 90
       20
 70
   128
 43
0.0
 10
146.7145800409769
 20
196.4877383832602
 10
147.2079039045769
 20
196.5000385127602
 10
147.6675798275769
 20
196.6041432855602
 10
148.0437947911769
 20
196.7887713343602
 10
148.2957800663769
 20
197.0339153451602
 10
148.3962291387769
 20
197.3130101606602
 10
148.3342567926769
 20
197.5958115270602
 10
148.1165786933769
 20
197.8516735280602
 10
147.7667836405769
 20
198.0528695457602
 10
147.3227773558769
 20
198.1775968698602
 10
146.8326748097769
 20
198.2123393593602
 10
146.3495862176769
 20
198.1533321264602
 10
145.9258617245769
 20
198.0069695204602
 10
145.6074184540769
 20
197.7891122007602
 10
145.4287646755769
 20
197.5233683883602
 10
145.4092602981769
 20
197.2385355487602
 10
145.5510189237769
 20
196.9654797397602
 10
145.8386788055769
 20
196.7337907951602
 10
146.2410675320769
 20
196.5685758071602
 10
146.7145800409769
 20
196.4877383832602
  0
LINE
  5
219
330
1F
100
AcDbEntity
  8
0
  6
Continuous
 62
     7
370
    25
100
AcDbLine
 10
146.5891989608769
 20
196.8456007004602
 30
0.0
 11
146.9862169068769
 21
196.8174568111602
 31
0.0
  0
LINE
  5
21A
330
1F
100
AcDbEntity
  8
0
  6
Continuous
 62
     7
370
    25
100
AcDbLine
 10
146.9862169068769
 20
196.8174568111602
 30
0.0
 11
147.0349688355769
 21
197.0466503928602
 31
0.0
  0
ARC
  5
21B
330
1F
100
AcDbEntity
  8
0
  6
Continuous
 62
     7
370
    25
100
AcDbCircle
 10
147.3033352278769
 20
196.8976561678602
 30
0.0
 40
0.3069524386979677
100
AcDbArc
 50
77.59092529090069
 51
150.9614217061981
  0
LINE
  5
21C
330
1F
100
AcDbEntity
  8
0
  6
Continuous
 62
     7
370
    25
100
AcDbLine
 10
147.3692962414769
 20
197.1974376621602
 30
0.0
 11
147.7663141875769
 21
197.1692937727602
 31
0.0
  0
LINE
  5
21D
330
1F
100
AcDbEntity
  8
0
  6
Continuous
 62
     7
370
    25
100
AcDbLine
 10
147.7663141875769
 20
197.1692937727602
 30
0.0
 11
147.8150661161769
 21
197.3984873545602
 31
0.0
  0
LINE
  5
21E
330
1F
100
AcDbEntity
  8
0
  6
Continuous
 62
     7
370
    25
100
AcDbLine
 10
147.8150661161769
 20
197.3984873545602
 30
0.0
 11
147.4180481701769
 21
197.4266312438602
 31
0.0
  0
LWPOLYLINE
  5
21F
330
1F
100
AcDbEntity
  8
0
  6
Continuous
 62
     7
370
    25
100
AcDbPolyline
 90
        9
 70
   128
 43
0.0
 10
147.1568486570769
 20
197.6196343471602
 10
147.1554368263769
 20
197.5856936771602
 10
147.1655221342769
 20
197.5522461627602
 10
147.1867170081769
 20
197.5205771730602
 10
147.2182069406769
 20
197.4919037295602
 10
147.2587817916769
 20
197.4673277366602
 10
147.3068822921769
 20
197.4477936359602
 10
147.3606599669769
 20
197.4340521119602
 10
147.4180481701769
 20
197.4266312438602
  0
LINE
  5
220
330
1F
100
AcDbEntity
  8
0
  6
Continuous
 62
     7
370
    25
100
AcDbLine
 10
147.1568486570769
 20
197.6196343471602
 30
0.0
 11
147.2056005857769
 21
197.8488279288602
 31
0.0
  0
LINE
  5
221
330
1F
100
AcDbEntity
  8
0
  6
Continuous
 62
     7
370
    25
100
AcDbLine
 10
147.2056005857769
 20
197.8488279288602
 30
0.0
 11
146.8085826397769
 21
197.8769718181602
 31
0.0
  0
LINE
  5
222
330
1F
100
AcDbEntity
  8
0
  6
Continuous
 62
     7
370
    25
100
AcDbLine
 10
146.8085826397769
 20
197.8769718181602
 30
0.0
 11
146.7598307110769
 21
197.6477782364602
 31
0.0
  0
ARC
  5
223
330
1F
100
AcDbEntity
  8
0
  6
Continuous
 62
     7
370
    25
100
AcDbCircle
 10
146.4914643187769
 20
197.7967724614602
 30
0.0
 40
0.306952438698067
100
AcDbArc
 50
257.5909252909052
 51
330.9614217062037
  0
LINE
  5
224
330
1F
100
AcDbEntity
  8
0
  6
Continuous
 62
     7
370
    25
100
AcDbLine
 10
146.4255033051769
 20
197.4969909672602
 30
0.0
 11
146.0284853590769
 21
197.5251348565602
 31
0.0
  0
LINE
  5
225
330
1F
100
AcDbEntity
  8
0
  6
Continuous
 62
     7
370
    25
100
AcDbLine
 10
146.0284853590769
 20
197.5251348565602
 30
0.0
 11
145.9797334304769
 21
197.2959412748602
 31
0.0
  0
LINE
  5
226
330
1F
100
AcDbEntity
  8
0
  6
Continuous
 62
     7
370
    25
100
AcDbLine
 10
145.9797334304769
 20
197.2959412748602
 30
0.0
 11
146.3767513764769
 21
197.2677973854602
 31
0.0
  0
LWPOLYLINE
  5
227
330
1F
100
AcDbEntity
  8
0
  6
Continuous
 62
     7
370
    25
100
AcDbPolyline
 90
        9
 70
   128
 43
0.0
 10
146.6379508894769
 20
197.0747942822602
 10
146.6393627202769
 20
197.1087349521602
 10
146.6292774122769
 20
197.1421824666602
 10
146.6080825384769
 20
197.1738514563602
 10
146.5765926058769
 20
197.2025248998602
 10
146.5360177549769
 20
197.2271008927602
 10
146.4879172544769
 20
197.2466349934602
 10
146.4341395796769
 20
197.2603765173602
 10
146.3767513764769
 20
197.2677973854602
  0
LINE
  5
228
330
1F
100
AcDbEntity
  8
0
  6
Continuous
 62
     7
370
    25
100
AcDbLine
 10
146.6379508894769
 20
197.0747942822602
 30
0.0
 11
146.5891989608769
 21
196.8456007004602
 31
0.0
  0
ARC
  5
229
330
1F
100
AcDbEntity
  8
0
  6
Continuous
 62
     7
370
    25
100
AcDbCircle
 10
146.5652227975769
 20
197.3652220616602
 30
0.0
 40
0.2084452127057643
100
AcDbArc
 50
284.2705240680053
 51
339.0057863211033
  0
LINE
  5
22A
330
1F
100
AcDbEntity
  8
0
  6
Continuous
 62
     7
370
    25
100
AcDbLine
 10
146.8085826397769
 20
197.5197352129602
 30
0.0
 11
146.7598307110769
 21
197.2905416312602
 31
0.0
  0
LINE
  5
22B
330
1F
100
AcDbEntity
  8
0
  6
Continuous
 62
     7
370
    25
100
AcDbLine
 10
147.1546121166769
 20
197.4952058046602
 30
0.0
 11
146.8085826397769
 21
197.5197352129602
 31
0.0
  0
ARC
  5
22C
330
1F
100
AcDbEntity
  8
0
  6
Continuous
 62
     7
370
    25
100
AcDbCircle
 10
147.2676480127769
 20
197.2431103131602
 30
0.0
 40
0.1130505550707245
100
AcDbArc
 50
180.9226916243951
 51
217.6959831182945
  0
LINE
  5
22D
330
1F
100
AcDbEntity
  8
0
  6
Continuous
 62
     7
370
    25
100
AcDbLine
 10
146.0284853590769
 20
197.2924853381602
 30
0.0
 11
146.0284853590769
 21
197.5251348565602
 31
0.0
  0
LINE
  5
22E
330
1F
100
AcDbEntity
  8
0
  6
Continuous
 62
     7
370
    25
100
AcDbLine
 10
146.7598307110769
 20
197.6477782364602
 30
0.0
 11
146.7598307110769
 21
197.2905416312602
 31
0.0
  0
LINE
  5
22F
330
1F
100
AcDbEntity
  8
0
  6
Continuous
 62
     7
370
    25
100
AcDbLine
 10
146.8085826397769
 20
197.5197352129602
 30
0.0
 11
146.8085826397769
 21
197.8769718181602
 31
0.0
  0
LWPOLYLINE
  5
230
330
1F
100
AcDbEntity
  8
0
  6
Continuous
 62
     7
370
    25
100
AcDbPolyline
 90
       37
 70
   128
 43
0.0
 10
143.7154192579769
 20
206.0011203949602
 10
144.4629002594769
 20
205.5076913038602
 10
145.0897865781769
 20
204.9611499726602
 10
145.5848914126769
 20
204.3712494443602
 10
145.9393796055769
 20
203.7485165078602
 10
146.1469253066769
 20
203.1040638472602
 10
146.2038248579769
 20
202.4493917353602
 10
146.1090628856769
 20
201.7961828117602
 10
145.8643304193769
 20
201.1560936049602
 10
145.4739947158769
 20
200.5405465220602
 10
144.9450213248769
 20
199.9605260154602
 10
144.2868497890769
 20
199.4263825646602
 10
143.5112251952769
 20
198.9476479723602
 10
142.6319885825769
 20
198.5328652686602
 10
141.6648299492769
 20
198.1894362606602
 10
140.6270082639769
 20
197.9234894471602
 10
139.5370434793769
 20
197.7397706553602
 10
138.4143860427769
 20
197.6415583515602
 10
137.2790698026769
 20
197.6306051364602
 10
136.1513545044769
 20
197.7071064706602
 10
135.0513642541769
 20
197.8696971858602
 10
133.9987284040769
 20
198.1154758468602
 10
133.0122312655769
 20
198.4400565278602
 10
132.1094769037769
 20
198.8376470787602
 10
131.3065749914769
 20
199.3011524867602
 10
130.6178533322769
 20
199.8223014868602
 10
130.0556021806769
 20
200.3917941628602
 10
129.6298549216769
 20
200.9994679044602
 10
129.3482090251769
 20
201.6344787593602
 10
129.2156904689769
 20
202.2854949437602
 10
129.2346640497769
 20
202.9408990584602
 10
129.4047911835769
 20
203.5889954014602
 10
129.7230359476769
 20
204.2182186782602
 10
130.1837192566769
 20
204.8173403845602
 10
130.7786202060769
 20
205.3756691791602
 10
131.4971227743769
 20
205.8832416716602
 10
131.6936273555769
 20
206.0005565113602
  0
LWPOLYLINE
  5
231
330
1F
100
AcDbEntity
  8
0
  6
Continuous
 62
     7
370
    25
100
AcDbPolyline
 90
       48
 70
   128
 43
0.0
 10
143.6093532407769
 20
206.0623709083602
 10
142.7696999643769
 20
206.4862675950602
 10
141.8396672043769
 20
206.8417750030602
 10
140.8358514174769
 20
207.1225490942602
 10
139.7761657201769
 20
207.3235794483602
 10
138.6795202288769
 20
207.4412786739602
 10
137.5654846082769
 20
207.4735464255602
 10
136.4539388505769
 20
207.4198068843602
 10
135.3647185159769
 20
207.2810190337602
 10
134.3172607671769
 20
207.0596595462602
 10
133.3302575126769
 20
206.7596785870602
 10
132.4213218487769
 20
206.3864293236602
 10
131.6066737539769
 20
205.9465723978602
 10
130.9008506427769
 20
205.4479570669602
 10
130.3164479453769
 20
204.8994811333602
 10
129.8638943418769
 20
204.3109321631602
 10
129.5512656617769
 20
203.6928128265602
 10
129.3841407715769
 20
203.0561534777602
 10
129.3655020186769
 20
202.4123153180602
 10
129.4956820120769
 20
201.7727876545602
 10
129.7723576868769
 20
201.1489828735602
 10
130.1905917589769
 20
200.5520327862602
 10
130.7429208314769
 20
199.9925899809602
 10
131.4194885789769
 20
199.4806377279602
 10
132.2082216339769
 20
199.0253118271602
 10
133.0950450365769
 20
198.6347375800602
 10
134.0641334019769
 20
198.3158847934602
 10
135.0981933253769
 20
198.0744434029602
 10
136.1787719829769
 20
197.9147219356602
 10
137.2865864229769
 20
197.8395706250602
 10
138.4018676705769
 20
197.8503305480602
 10
139.5047135052769
 20
197.9468096936602
 10
140.5754436172769
 20
198.1272863890602
 10
141.5949508022769
 20
198.3885400234602
 10
142.5450419302769
 20
198.7259085195602
 10
143.4087626026769
 20
199.1333715285602
 10
144.1706997037769
 20
199.6036578633602
 10
144.8172564476769
 20
200.1283752531602
 10
145.3368950140769
 20
200.6981601037602
 10
145.7203424405769
 20
201.3028445910602
 10
145.9607560985769
 20
201.9316381059602
 10
146.0538458007769
 20
202.5733198133602
 10
145.9979503591769
 20
203.2164388879602
 10
145.7940672292769
 20
203.8495188545602
 10
145.4458347103769
 20
204.4612623863602
 10
144.9594670200769
 20
205.0407529052602
 10
144.3436434011769
 20
205.5776493894602
 10
143.6093532407769
 20
206.0623709083602
  0
LINE
  5
232
330
1F
100
AcDbEntity
  8
0
  6
Continuous
 62
     7
370
    25
100
AcDbLine
 10
129.2140543827769
 20
201.8088720021602
 30
0.0
 11
129.1865904531769
 21
201.7029873061602
 31
0.0
  0
LINE
  5
233
330
1F
100
AcDbEntity
  8
0
  6
Continuous
 62
     7
370
    25
100
AcDbLine
 10
146.2286424634769
 20
201.6809454577602
 30
0.0
 11
146.2050116178769
 21
201.7756870572602
 31
0.0
  0
LWPOLYLINE
  5
234
330
1F
100
AcDbEntity
  8
0
  6
Continuous
 62
     7
370
    25
100
AcDbPolyline
 90
       18
 70
   128
 43
0.0
 10
126.2145264235769
 20
195.4081455240602
 10
125.1591764264769
 20
196.0793195927602
 10
124.2209635121769
 20
196.8061605733602
 10
123.4086475220769
 20
197.5818821475602
 10
122.7298128314769
 20
198.3992416119602
 10
122.1907975371769
 20
199.2506075015602
 10
121.7966342795769
 20
200.1280308422602
 10
121.5510032549769
 20
201.0233193688602
 10
121.4561978539769
 20
201.9281140135602
 10
121.5131032490769
 20
202.8339669526602
 10
121.7211881299769
 20
203.7324204811602
 10
122.0785096641769
 20
204.6150859806602
 10
122.5817316367769
 20
205.4737222411602
 10
123.2261555998769
 20
206.3003124072602
 10
124.0057647403769
 20
207.0871388293602
 10
124.9132800579769
 20
207.8268551210602
 10
125.9402283266769
 20
208.5125547506602
 10
126.2126593517769
 20
208.6736993283602
  0
LWPOLYLINE
  5
235
330
1F
100
AcDbEntity
  8
0
  6
Continuous
 62
     7
370
    25
100
AcDbPolyline
 90
       34
 70
   128
 43
0.0
 10
149.1973638839769
 20
208.6736993283602
 10
149.7372227039769
 20
208.3465532238602
 10
150.7351695352769
 20
207.6467284625602
 10
151.6114572927769
 20
206.8945688333602
 10
152.3579043139769
 20
206.0970970478602
 10
152.9675412240769
 20
205.2617588854602
 10
153.4346760074769
 20
204.3963536733602
 10
153.7549471525769
 20
203.5089614668602
 10
153.9253643740769
 20
202.6078676079602
 10
153.9443365321769
 20
201.7014853671602
 10
153.8116864889769
 20
200.7982773913602
 10
153.5286527622769
 20
199.9066766899602
 10
153.0978779615769
 20
199.0350078985602
 10
152.5233841152769
 20
198.1914095537602
 10
151.8105351175769
 20
197.3837581059602
 10
150.9659866473769
 20
196.6195943791602
 10
149.9976240263769
 20
195.9060531642602
 10
148.9144885953769
 20
195.2497966032602
 10
147.7266932980769
 20
194.6569519867602
 10
146.4453282591769
 20
194.1330545453602
 10
145.0823572386769
 20
193.6829957683602
 10
143.6505059298769
 20
193.3109777330602
 10
142.1631431425769
 20
193.0204738718602
 10
140.6341559823769
 20
192.8141965408602
 10
139.0778201904769
 20
192.6940716960602
 10
137.5086668548769
 20
192.6612209107602
 10
135.9413467373769
 20
192.7159509037602
 10
134.3904934836769
 20
192.8577506759602
 10
132.8705869927769
 20
193.0852962811602
 10
131.3958182219769
 20
193.3964631871602
 10
129.9799566900769
 20
193.7883461125602
 10
128.6362219145769
 20
194.2572861520602
 10
127.3771599850769
 20
194.7989049387602
 10
126.2145264235769
 20
195.4081455240602
  0
LWPOLYLINE
  5
236
330
1F
100
AcDbEntity
  8
0
  6
Continuous
 62
     7
370
    25
100
AcDbPolyline
 90
       65
 70
   128
 43
0.0
 10
126.7448565094769
 20
196.3267041748602
 10
127.8719157133769
 20
195.7370007828602
 10
129.0936730060769
 20
195.2139105941602
 10
130.3983621970769
 20
194.7624712530602
 10
131.7734184162769
 20
194.3870303672602
 10
133.2055991204769
 20
194.0912036377602
 10
134.6811116266769
 20
193.8778400376602
 10
136.1857459427769
 20
193.7489943750602
 10
137.7050116178769
 20
193.7059075041602
 10
139.2242772929769
 20
193.7489943750602
 10
140.7289116091769
 20
193.8778400376602
 10
142.2044241153769
 20
194.0912036377602
 10
143.6366048195769
 20
194.3870303672602
 10
145.0116610386769
 20
194.7624712530602
 10
146.3163502296769
 20
195.2139105941602
 10
147.5381075224769
 20
195.7370007828602
 10
148.6651667262769
 20
196.3267041748602
 10
149.6866736449769
 20
196.9773416040602
 10
150.5927906085769
 20
197.6826470763602
 10
151.3747912152769
 20
198.4358281143602
 10
152.0251443717769
 20
199.2296311731602
 10
152.5375868217769
 20
200.0564114951602
 10
152.9071834641769
 20
200.9082067339602
 10
153.1303748812769
 20
201.7768136358602
 10
153.2050116178769
 20
202.6538670415602
 10
153.1303748812769
 20
203.5309204471602
 10
152.9071834641769
 20
204.3995273490602
 10
152.5375868217769
 20
205.2513225878602
 10
152.0251443717769
 20
206.0781029099602
 10
151.3747912152769
 20
206.8719059686602
 10
150.5927906085769
 20
207.6250870067602
 10
149.6866736449769
 20
208.3303924789602
 10
148.6651667262769
 20
208.9810299081602
 10
147.5381075224769
 20
209.5707333001602
 10
146.3163502296769
 20
210.0938234889602
 10
145.0116610386769
 20
210.5452628300602
 10
143.6366048195769
 20
210.9207037157602
 10
142.2044241153769
 20
211.2165304452602
 10
140.7289116091769
 20
211.4298940453602
 10
139.2242772929769
 20
211.5587397079602
 10
137.7050116178769
 20
211.6018265788602
 10
136.1857459427769
 20
211.5587397079602
 10
134.6811116266769
 20
211.4298940453602
 10
133.2055991204769
 20
211.2165304452602
 10
131.7734184162769
 20
210.9207037157602
 10
130.3983621970769
 20
210.5452628300602
 10
129.0936730060769
 20
210.0938234889602
 10
127.8719157133769
 20
209.5707333001602
 10
126.7448565094769
 20
208.9810299081602
 10
125.7233495907769
 20
208.3303924789602
 10
124.8172326271769
 20
207.6250870067602
 10
124.0352320204769
 20
206.8719059686602
 10
123.3848788639769
 20
206.0781029099602
 10
122.8724364140769
 20
205.2513225878602
 10
122.5028397716769
 20
204.3995273490602
 10
122.2796483544769
 20
203.5309204471602
 10
122.2050116178769
 20
202.6538670415602
 10
122.2796483544769
 20
201.7768136358602
 10
122.5028397716769
 20
200.9082067339602
 10
122.8724364140769
 20
200.0564114951602
 10
123.3848788639769
 20
199.2296311731602
 10
124.0352320204769
 20
198.4358281143602
 10
124.8172326271769
 20
197.6826470763602
 10
125.7233495907769
 20
196.9773416040602
 10
126.7448565094769
 20
196.3267041748602
  0
LWPOLYLINE
  5
237
330
1F
100
AcDbEntity
  8
0
  6
Continuous
 62
     7
370
    25
100
AcDbPolyline
 90
       34
 70
   128
 43
0.0
 10
153.9550116178769
 20
201.6331910266602
 10
153.8969199866769
 20
200.8406855066602
 10
153.6888351057769
 20
199.9422319781602
 10
153.3315135715769
 20
199.0595664786602
 10
152.8282915989769
 20
198.2009302181602
 10
152.1838676359769
 20
197.3743400519602
 10
151.4042584953769
 20
196.5875136299602
 10
150.4967431777769
 20
195.8477973382602
 10
149.4697949091769
 20
195.1620977086602
 10
148.3330020287769
 20
194.5368169337602
 10
147.0969784654769
 20
193.9777930918602
 10
145.7732646382769
 20
193.4902456377602
 10
144.3742197064769
 20
193.0787266708602
 10
142.9129061756769
 20
192.7470784326602
 10
141.4029679365769
 20
192.4983974335602
 10
139.8585028757769
 20
192.3350055410602
 10
138.2939312471769
 20
192.2584283011602
 10
136.7238610347769
 20
192.2693806948602
 10
135.1629515609769
 20
192.3677604627602
 10
133.6257766170769
 20
192.5526490593602
 10
132.1266883911769
 20
192.8223202296602
 10
130.6796834662769
 20
193.1742561267602
 10
129.2982721374769
 20
193.6051708197602
 10
127.9953522701769
 20
194.1110409744602
 10
126.7830888760769
 20
194.6871434174602
 10
125.6728005317769
 20
195.3280992354602
 10
124.6748537005769
 20
196.0279239966602
 10
123.7985659429769
 20
196.7800836259602
 10
123.0521189218769
 20
197.5775554113602
 10
122.4424820117769
 20
198.4128935738602
 10
121.9753472283769
 20
199.2782987859602
 10
121.6550760832769
 20
200.1656909924602
 10
121.4846588617769
 20
201.0667848513602
 10
121.4550116178769
 20
201.6331910266602
  0
LWPOLYLINE
  5
238
330
1F
100
AcDbEntity
  8
0
  6
Continuous
 62
     7
370
    25
100
AcDbPolyline
 90
       21
 70
   128
 43
0.0
 10
127.3989302820769
 20
207.3175983803602
 10
127.7975884253769
 20
207.1503915578602
 10
128.2662391800769
 20
207.0624857290602
 10
128.7590077448769
 20
207.0624857290602
 10
129.2276584995769
 20
207.1503915578602
 10
129.6263166428769
 20
207.3175983803602
 10
129.9159587380769
 20
207.5477388277602
 10
130.0682325988769
 20
207.8182851496602
 10
130.0682325988769
 20
208.1027543870602
 10
129.9159587380769
 20
208.3733007089602
 10
129.6263166428769
 20
208.6034411564602
 10
129.2276584995769
 20
208.7706479789602
 10
128.7590077448769
 20
208.8585538076602
 10
128.2662391800769
 20
208.8585538076602
 10
127.7975884253769
 20
208.7706479789602
 10
127.3989302820769
 20
208.6034411564602
 10
127.1092881868769
 20
208.3733007089602
 10
126.9570143260769
 20
208.1027543870602
 10
126.9570143260769
 20
207.8182851496602
 10
127.1092881868769
 20
207.5477388277602
 10
127.3989302820769
 20
207.3175983803602
  0
LWPOLYLINE
  5
239
330
1F
100
AcDbEntity
  8
0
  6
Continuous
 62
     7
370
    25
100
AcDbPolyline
 90
       21
 70
   128
 43
0.0
 10
145.7837065929769
 20
196.7042929266602
 10
146.1823647362769
 20
196.5370861041602
 10
146.6510154908769
 20
196.4491802753602
 10
147.1437840557769
 20
196.4491802753602
 10
147.6124348103769
 20
196.5370861041602
 10
148.0110929536769
 20
196.7042929266602
 10
148.3007350488769
 20
196.9344333740602
 10
148.4530089097769
 20
197.2049796959602
 10
148.4530089097769
 20
197.4894489333602
 10
148.3007350488769
 20
197.7599952552602
 10
148.0110929536769
 20
197.9901357027602
 10
147.6124348103769
 20
198.1573425252602
 10
147.1437840557769
 20
198.2452483539602
 10
146.6510154908769
 20
198.2452483539602
 10
146.1823647362769
 20
198.1573425252602
 10
145.7837065929769
 20
197.9901357027602
 10
145.4940644977769
 20
197.7599952552602
 10
145.3417906368769
 20
197.4894489333602
 10
145.3417906368769
 20
197.2049796959602
 10
145.4940644977769
 20
196.9344333740602
 10
145.7837065929769
 20
196.7042929266602
  0
LWPOLYLINE
  5
23A
330
1F
100
AcDbEntity
  8
0
  6
Continuous
 62
     7
370
    25
100
AcDbPolyline
 90
       49
 70
   128
 43
0.0
 10
131.4824719434769
 20
199.0616713494602
 10
130.7235022233769
 20
199.5612787070602
 10
130.0839880645769
 20
200.1138011083602
 10
129.5748717317769
 20
200.7097847420602
 10
129.2048643465769
 20
201.3390321628602
 10
128.9802968377769
 20
201.9907767730602
 10
128.9050116178769
 20
202.6538670415602
 10
128.9802968377769
 20
203.3169573100602
 10
129.2048643465769
 20
203.9687019201602
 10
129.5748717317769
 20
204.5979493410602
 10
130.0839880645769
 20
205.1939329746602
 10
130.7235022233769
 20
205.7464553760602
 10
131.4824719434769
 20
206.2460627335602
 10
132.3479110425769
 20
206.6842066268602
 10
133.3050116178769
 20
207.0533902923602
 10
134.3373974130769
 20
207.3472968952602
 10
135.4274040209769
 20
207.5608976121602
 10
136.5563811263769
 20
207.6905376755602
 10
137.7050116178769
 20
207.7339989078602
 10
138.8536421094769
 20
207.6905376755602
 10
139.9826192147769
 20
207.5608976121602
 10
141.0726258226769
 20
207.3472968952602
 10
142.1050116178769
 20
207.0533902923602
 10
143.0621121931769
 20
206.6842066268602
 10
143.9275512923769
 20
206.2460627335602
 10
144.6865210124769
 20
205.7464553760602
 10
145.3260351711769
 20
205.1939329746602
 10
145.8351515039769
 20
204.5979493410602
 10
146.2051588892769
 20
203.9687019201602
 10
146.4297263979769
 20
203.3169573100602
 10
146.5050116178769
 20
202.6538670415602
 10
146.4297263979769
 20
201.9907767730602
 10
146.2051588892769
 20
201.3390321628602
 10
145.8351515039769
 20
200.7097847420602
 10
145.3260351711769
 20
200.1138011083602
 10
144.6865210124769
 20
199.5612787070602
 10
143.9275512923769
 20
199.0616713494602
 10
143.0621121931769
 20
198.6235274562602
 10
142.1050116178769
 20
198.2543437906602
 10
141.0726258226769
 20
197.9604371877602
 10
139.9826192147769
 20
197.7468364708602
 10
138.8536421094769
 20
197.6171964075602
 10
137.7050116178769
 20
197.5737351751602
 10
136.5563811263769
 20
197.6171964075602
 10
135.4274040209769
 20
197.7468364708602
 10
134.3373974130769
 20
197.9604371877602
 10
133.3050116178769
 20
198.2543437906602
 10
132.3479110425769
 20
198.6235274562602
 10
131.4824719434769
 20
199.0616713494602
  0
LWPOLYLINE
  5
23B
330
1F
100
AcDbEntity
  8
0
  6
Continuous
 62
     7
370
    25
100
AcDbPolyline
 90
       37
 70
   128
 43
0.0
 10
143.8750646473769
 20
199.0316249027602
 10
144.5675180113769
 20
199.4915121591602
 10
145.1961313606769
 20
200.0346165649602
 10
145.6965695740769
 20
200.6204413867602
 10
146.0602700152769
 20
201.2389629992602
 10
146.2810096687769
 20
201.8795983262602
 10
146.3550116178769
 20
202.5313859197602
 10
146.2810096687769
 20
203.1831735131602
 10
146.0602700152769
 20
203.8238088402602
 10
145.6965695740769
 20
204.4423304527602
 10
145.1961313606769
 20
205.0281552745602
 10
144.5675180113769
 20
205.5712596803602
 10
143.8214852751769
 20
206.0623510033602
 10
142.9707979787769
 20
206.4930265348602
 10
142.0300116178769
 20
206.8559172969602
 10
141.0152233078769
 20
207.1448141282602
 10
139.9437963580769
 20
207.3547739238602
 10
138.8340631805769
 20
207.4822042133602
 10
137.7050116178769
 20
207.5249246292602
 10
136.5759600551769
 20
207.4822042133602
 10
135.4662268777769
 20
207.3547739238602
 10
134.3947999279769
 20
207.1448141282602
 10
133.3800116178769
 20
206.8559172969602
 10
132.4392252569769
 20
206.4930265348602
 10
131.5885379606769
 20
206.0623510033602
 10
130.8425052243769
 20
205.5712596803602
 10
130.2138918751769
 20
205.0281552745602
 10
129.7134536616769
 20
204.4423304527602
 10
129.3497532204769
 20
203.8238088402602
 10
129.1290135669769
 20
203.1831735131602
 10
129.0550116178769
 20
202.5313859197602
 10
129.1290135669769
 20
201.8795983262602
 10
129.3497532204769
 20
201.2389629992602
 10
129.7134536616769
 20
200.6204413867602
 10
130.2138918751769
 20
200.0346165649602
 10
130.8425052243769
 20
199.4915121591602
 10
131.5349585884769
 20
199.0316249027602
  0
LINE
  5
23C
330
1F
100
AcDbEntity
  8
0
  6
Continuous
 62
     7
370
    25
100
AcDbLine
 10
146.2116345488769
 20
201.9262012108602
 30
0.0
 11
146.2554907656769
 21
201.7760856687602
 31
0.0
  0
LINE
  5
23D
330
1F
100
AcDbEntity
  8
0
  6
Continuous
 62
     7
370
    25
100
AcDbLine
 10
129.1551417539769
 20
201.7783807618602
 30
0.0
 11
129.2050116178769
 21
201.9466980411602
 31
0.0
  0
LINE
  5
23E
330
1F
100
AcDbEntity
  8
0
  6
Continuous
 62
     7
370
    25
100
AcDbLine
 10
126.4949728172769
 20
178.6303845848602
 30
0.0
 11
125.5105970318769
 21
112.9394241414602
 31
0.0
  0
SPLINE
  5
23F
330
1F
100
AcDbEntity
  8
0
  6
Continuous
 62
     7
370
    25
100
AcDbSpline
210
0.0
220
0.0
230
1.0
 70
     8
 71
     3
 72
    14
 73
    10
 74
     0
 42
0.000000001
 43
0.00000001
 40
0.0
 40
0.0
 40
0.0
 40
0.0
 40
0.1845913819903928
 40
0.3702871594941875
 40
0.5582528125811427
 40
0.7467427240229959
 40
0.8710655193110228
 40
0.9955043170406239
 40
1.0
 40
1.0
 40
1.0
 40
1.0
 10
124.0958187161532
 20
180.8184437856678
 30
0.0
 10
124.223359283153
 20
180.6934263560002
 30
0.0
 10
124.4792034821908
 20
180.4426435273561
 30
0.0
 10
124.8983580330601
 20
180.0317745292542
 30
0.0
 10
125.3436910100776
 20
179.6117647484727
 30
0.0
 10
125.7629485432939
 20
179.2360073688758
 30
0.0
 10
126.1445778311802
 20
178.9117851602049
 30
0.0
 10
126.3727739441545
 20
178.7267610461513
 30
0.0
 10
126.490855551908
 20
178.6336318117937
 30
0.0
 10
126.4949728172738
 20
178.6303845849101
 30
0.0
  0
ARC
  5
240
330
1F
100
AcDbEntity
  8
0
  6
Continuous
 62
     7
370
    25
100
AcDbCircle
 10
128.1372905552769
 20
185.6829952293602
 30
0.0
 40
6.276245505287323
100
AcDbArc
 50
180.6131906014001
 51
221.7490072637001
  0
ARC
  5
241
330
1F
100
AcDbEntity
  8
0
  6
Continuous
 62
     7
370
    25
100
AcDbCircle
 10
148.4634403239769
 20
120.0682752429602
 30
0.0
 40
6.485852091012553
100
AcDbArc
 50
320.8068673044999
 51
0.2976422670001058
  0
ELLIPSE
  5
242
330
1F
100
AcDbEntity
  8
0
  6
Continuous
 62
     7
370
    25
100
AcDbEllipse
 10
137.9092762541769
 20
124.7959648368602
 30
0.0
 11
17.14322344956173
 21
-9.557250246872599
 31
0.0
210
0.0
220
0.0
230
1.0
 40
0.0152284264
 41
5.797651537793889
 42
5.861348424909793
  0
ELLIPSE
  5
243
330
1F
100
AcDbEntity
  8
0
  6
Continuous
 62
     7
370
    25
100
AcDbEllipse
 10
144.4686831782769
 20
24.24098688136017
 30
0.0
 11
-13.89515380360377
 21
439.6041867531994
 31
0.0
210
0.0
220
0.0
230
1.0
 40
0.026585623
 41
4.922340881201388
 42
4.924917846388603
  0
ELLIPSE
  5
244
330
1F
100
AcDbEntity
  8
0
  6
Continuous
 62
     7
370
    25
100
AcDbEllipse
 10
137.5889454982769
 20
119.4792090679602
 30
0.0
 11
14.82021178990874
 21
12.54535726531404
 31
0.0
210
0.0
220
0.0
230
1.0
 40
0.7043230119999999
 41
5.274110852838406
 42
5.274219908541138
  0
ELLIPSE
  5
245
330
1F
100
AcDbEntity
  8
0
  6
Continuous
 62
     7
370
    25
100
AcDbEllipse
 10
144.3816174034769
 20
27.48385867326017
 30
0.0
 11
-13.83913646961634
 21
434.143773981994
 31
0.0
210
0.0
220
0.0
230
1.0
 40
0.0269095157
 41
4.919981045072428
 42
4.92045803131696
  0
ELLIPSE
  5
246
330
1F
100
AcDbEntity
  8
0
  6
Continuous
 62
     7
370
    25
100
AcDbEllipse
 10
137.8017110737769
 20
124.0501862171602
 30
0.0
 11
17.09841078547851
 21
-4.96064370244895
 31
0.0
210
0.0
220
0.0
230
1.0
 40
0.291387156
 41
5.878944292086386
 42
5.87906217182802
  0
ELLIPSE
  5
247
330
1F
100
AcDbEntity
  8
0
  6
Continuous
 62
     7
370
    25
100
AcDbEllipse
 10
144.4686831782769
 20
24.24098688126017
 30
0.0
 11
-13.89515380360461
 21
439.604186753409
 31
0.0
210
0.0
220
0.0
230
1.0
 40
0.026585623
 41
4.925386019409931
 42
4.934297036673835
  0
ELLIPSE
  5
248
330
1F
100
AcDbEntity
  8
0
  6
Continuous
 62
     7
370
    25
100
AcDbEllipse
 10
137.5895439322769
 20
123.6413064583602
 30
0.0
 11
14.74379914430949
 21
12.48067371340343
 31
0.0
210
0.0
220
0.0
230
1.0
 40
0.704323012
 41
5.264833524136451
 42
5.265036696364838
  0
ELLIPSE
  5
249
330
1F
100
AcDbEntity
  8
0
  6
Continuous
 62
     7
370
    25
100
AcDbEllipse
 10
144.3816174034769
 20
27.48385867326017
 30
0.0
 11
-13.83913646961634
 21
434.143773981994
 31
0.0
210
0.0
220
0.0
230
1.0
 40
0.0269095157
 41
4.929464544319521
 42
4.92994555997705
  0
ELLIPSE
  5
24A
330
1F
100
AcDbEntity
  8
0
  6
Continuous
 62
     7
370
    25
100
AcDbEllipse
 10
137.8012271622769
 20
128.0669586022602
 30
0.0
 11
17.01284547399462
 21
-4.935819230228475
 31
0.0
210
0.0
220
0.0
230
1.0
 40
0.291387156
 41
5.869612427960506
 42
5.869827869231345
  0
ELLIPSE
  5
24B
330
1F
100
AcDbEntity
  8
0
  6
Continuous
 62
     7
370
    25
100
AcDbEllipse
 10
144.4686831784769
 20
24.24098687366018
 30
0.0
 11
-13.89515380371609
 21
439.6041867649981
 31
0.0
210
0.0
220
0.0
230
1.0
 40
0.026585623
 41
4.934766257353242
 42
4.938787677421999
  0
SPLINE
  5
24C
330
1F
100
AcDbEntity
  8
0
  6
Continuous
 62
     7
370
    25
100
AcDbSpline
210
0.0
220
0.0
230
1.0
 70
     8
 71
     3
 72
    10
 73
     6
 74
     0
 42
0.000000001
 43
0.00000001
 40
0.0
 40
0.0
 40
0.0
 40
0.0
 40
0.4782393066553173
 40
0.9560310663585191
 40
1.0
 40
1.0
 40
1.0
 40
1.0
 10
152.7385516652879
 20
123.2787406246858
 30
0.0
 10
152.6950162533682
 20
123.6798072288413
 30
0.0
 10
152.607986170933
 20
124.4815651101271
 30
0.0
 10
152.3076188177208
 20
125.0168431206833
 30
0.0
 10
152.0769114837523
 20
125.1598207024757
 30
0.0
 10
152.0574697059655
 20
125.1718694671416
 30
0.0
  0
LINE
  5
24D
330
1F
100
AcDbEntity
  8
0
  6
Continuous
 62
     7
370
    25
100
AcDbLine
 10
151.9336031418769
 20
125.2514062656602
 30
0.0
 11
151.8375361528769
 21
125.3130924907602
 31
0.0
  0
ELLIPSE
  5
24E
330
1F
100
AcDbEntity
  8
0
  6
Continuous
 62
     7
370
    25
100
AcDbEllipse
 10
136.9190074793769
 20
117.0860408971602
 30
0.0
 11
11.25632189709808
 21
59.42712094256689
 31
0.0
210
0.0
220
0.0
230
1.0
 40
0.2206153688
 41
4.892634172694185
 42
4.892915820465195
  0
LINE
  5
24F
330
1F
100
AcDbEntity
  8
0
  6
Continuous
 62
     7
370
    25
100
AcDbLine
 10
151.8350797534769
 20
125.2965010664602
 30
0.0
 11
151.7175787644769
 21
125.3410142655602
 31
0.0
  0
ELLIPSE
  5
250
330
1F
100
AcDbEntity
  8
0
  6
Continuous
 62
     7
370
    25
100
AcDbEllipse
 10
137.6121719178769
 20
129.6957102328602
 30
0.0
 11
15.51920790006216
 21
9.80533720275716
 31
0.0
210
0.0
220
0.0
230
1.0
 40
0.7167542824
 41
5.262614806619642
 42
5.263612525769067
  0
SPLINE
  5
251
330
1F
100
AcDbEntity
  8
0
  6
Continuous
 62
     7
370
    25
100
AcDbSpline
210
0.0
220
0.0
230
1.0
 70
     8
 71
     3
 72
    24
 73
    20
 74
     0
 42
0.000000001
 43
0.00000001
 40
0.0
 40
0.0
 40
0.0
 40
0.0
 40
0.0599792776405431
 40
0.1203608403569948
 40
0.1820240861403982
 40
0.2441381416622368
 40
0.3041251618249358
 40
0.364541901169873
 40
0.4263323952086502
 40
0.4886048623664365
 40
0.547261843674562
 40
0.6063324207020379
 40
0.6666995004827186
 40
0.7275099154381551
 40
0.7860220412381786
 40
0.8449247764820439
 40
0.9050376516147066
 40
0.9655603843837962
 40
1.0
 40
1.0
 40
1.0
 40
1.0
 10
151.7271038166186
 20
125.3551584650376
 30
0.0
 10
151.6648499441455
 20
125.3719479670432
 30
0.0
 10
151.5399246582618
 20
125.4056395793811
 30
0.0
 10
151.3308790164019
 20
125.4200367888795
 30
0.0
 10
151.1048971982218
 20
125.4073609663912
 30
0.0
 10
150.8640220344024
 20
125.3648147277694
 30
0.0
 10
150.6111515080681
 20
125.2944893204429
 30
0.0
 10
150.3464265127287
 20
125.1971067820501
 30
0.0
 10
150.0673048744824
 20
125.071443075872
 30
0.0
 10
149.7815536703327
 20
124.9207776851985
 30
0.0
 10
149.4932035842585
 20
124.7483753063779
 30
0.0
 10
149.2033199363589
 20
124.5558718234982
 30
0.0
 10
148.90747861955
 20
124.3398585747543
 30
0.0
 10
148.6125057132153
 20
124.1045539298293
 30
0.0
 10
148.322387262476
 20
123.8531610373931
 30
0.0
 10
148.0380732415124
 20
123.5865686587004
 30
0.0
 10
147.7580034839173
 20
123.3016428160643
 30
0.0
 10
147.5239460660531
 20
123.0440776085867
 30
0.0
 10
147.3869156458421
 20
122.8803210529104
 30
0.0
 10
147.3372193706336
 20
122.820932116895
 30
0.0
  0
ELLIPSE
  5
252
330
1F
100
AcDbEntity
  8
0
  6
Continuous
 62
     7
370
    25
100
AcDbEllipse
 10
137.7978513178769
 20
129.8029006688602
 30
0.0
 11
16.97534488373327
 21
-4.791745922764363
 31
0.0
210
0.0
220
0.0
230
1.0
 40
0.300727483
 41
5.391388262632931
 42
5.392385981782331
  0
LINE
  5
253
330
1F
100
AcDbEntity
  8
0
  6
Continuous
 62
     7
370
    25
100
AcDbLine
 10
147.3512976408769
 20
122.8204138253602
 30
0.0
 11
147.1837653933769
 21
122.6113544412602
 31
0.0
  0
ELLIPSE
  5
254
330
1F
100
AcDbEntity
  8
0
  6
Continuous
 62
     7
370
    25
100
AcDbEllipse
 10
138.4910157563769
 20
117.9935419587602
 30
0.0
 11
-14.60836715604473
 21
45.39017257012053
 31
0.0
210
0.0
220
0.0
230
1.0
 40
0.2033404049
 41
4.748733102239996
 42
4.749014750011007
  0
SPLINE
  5
255
330
1F
100
AcDbEntity
  8
0
  6
Continuous
 62
     7
370
    25
100
AcDbSpline
210
0.0
220
0.0
230
1.0
 70
     8
 71
     3
 72
    11
 73
     7
 74
     0
 42
0.000000001
 43
0.00000001
 40
0.0
 40
0.0
 40
0.0
 40
0.0
 40
0.4208061426567765
 40
0.6290451859855994
 40
0.8436264658229545
 40
1.0
 40
1.0
 40
1.0
 40
1.0
 10
147.1795588954376
 20
122.6240994568577
 30
0.0
 10
146.8623807947022
 20
122.1697512702976
 30
0.0
 10
146.3882447564116
 20
121.4905655110012
 30
0.0
 10
146.0063988216959
 20
120.5213679782167
 30
0.0
 10
145.8382680559166
 20
119.8574182901051
 30
0.0
 10
145.8122789144388
 20
119.4469810563974
 30
0.0
 10
145.8013233647341
 20
119.2739639708442
 30
0.0
  0
ELLIPSE
  5
256
330
1F
100
AcDbEntity
  8
0
  6
Continuous
 62
     7
370
    25
100
AcDbEllipse
 10
130.9413400573769
 20
16.43181791286018
 30
0.0
 11
13.52864570282549
 21
455.4206894892378
 31
0.0
210
0.0
220
0.0
230
1.0
 40
0.0265897516
 41
4.936939905047934
 42
4.940961325116671
  0
ELLIPSE
  5
257
330
1F
100
AcDbEntity
  8
0
  6
Continuous
 62
     7
370
    25
100
AcDbEllipse
 10
137.6087960735769
 20
127.9558704993602
 30
0.0
 11
15.42690520785646
 21
10.21878812167566
 31
0.0
210
0.0
220
0.0
230
1.0
 40
0.7158837901
 41
4.767255472778825
 42
4.767470914049714
  0
ELLIPSE
  5
258
330
1F
100
AcDbEntity
  8
0
  6
Continuous
 62
     7
370
    25
100
AcDbEllipse
 10
131.0200875516769
 20
19.77041167526018
 30
0.0
 11
13.48568972301553
 21
449.9029820729785
 31
0.0
210
0.0
220
0.0
230
1.0
 40
0.0268801833
 41
4.931663231615511
 42
4.932144247273039
  0
ELLIPSE
  5
259
330
1F
100
AcDbEntity
  8
0
  6
Continuous
 62
     7
370
    25
100
AcDbEllipse
 10
137.8204793034769
 20
123.7746226103602
 30
0.0
 11
17.11112669862405
 21
-5.742342548251743
 31
0.0
210
0.0
220
0.0
230
1.0
 40
0.2375365524
 41
5.272409958292145
 42
5.272613130520531
  0
ELLIPSE
  5
25A
330
1F
100
AcDbEntity
  8
0
  6
Continuous
 62
     7
370
    25
100
AcDbEllipse
 10
130.9413400575769
 20
16.43181792046018
 30
0.0
 11
13.52864570270924
 21
455.4206894777579
 31
0.0
210
0.0
220
0.0
230
1.0
 40
0.0265897516
 41
4.927559667104934
 42
4.936470684368802
  0
ELLIPSE
  5
25B
330
1F
100
AcDbEntity
  8
0
  6
Continuous
 62
     7
370
    25
100
AcDbEllipse
 10
137.6083121619769
 20
123.9385394017602
 30
0.0
 11
15.50449410686593
 21
10.27018303911899
 31
0.0
210
0.0
220
0.0
230
1.0
 40
0.7158837901
 41
4.758021170182181
 42
4.758139049923855
  0
ELLIPSE
  5
25C
330
1F
100
AcDbEntity
  8
0
  6
Continuous
 62
     7
370
    25
100
AcDbEllipse
 10
131.0200875516769
 20
19.77041167526018
 30
0.0
 11
13.48568972301553
 21
449.9029820729785
 31
0.0
210
0.0
220
0.0
230
1.0
 40
0.0268801833
 41
4.922179732368416
 42
4.922656718612949
  0
LINE
  5
25D
330
1F
100
AcDbEntity
  8
0
  6
Continuous
 62
     7
370
    25
100
AcDbLine
 10
145.6551959463769
 20
113.1108203563602
 30
0.0
 11
145.6568724512769
 21
113.1105172276602
 31
0.0
  0
ELLIPSE
  5
25E
330
1F
100
AcDbEntity
  8
0
  6
Continuous
 62
     7
370
    25
100
AcDbEllipse
 10
130.9413400575769
 20
16.43181792046018
 30
0.0
 11
13.52864570271026
 21
455.4206894778255
 31
0.0
210
0.0
220
0.0
230
1.0
 40
0.0265897516
 41
4.924514528896687
 42
4.927091494083869
  0
ELLIPSE
  5
25F
330
1F
100
AcDbEntity
  8
0
  6
Continuous
 62
     7
370
    25
100
AcDbEllipse
 10
137.5007469815769
 20
124.5601259077602
 30
0.0
 11
12.23430614919676
 21
20.44688677269525
 31
0.0
210
0.0
220
0.0
230
1.0
 40
0.5873611199
 41
4.366439166925435
 42
4.430136054041249
  0
LWPOLYLINE
  5
260
330
1F
100
AcDbEntity
  8
0
  6
Continuous
 62
     7
370
    25
100
AcDbPolyline
 90
       13
 70
   128
 43
0.0
 10
125.5105970318769
 20
112.9394241414602
 10
126.7888188885769
 20
112.2718490554602
 10
128.1760938595769
 20
111.6812697510602
 10
129.6585630237769
 20
111.1735861344602
 10
131.2214164665769
 20
110.7538699810602
 10
132.8490412322769
 20
110.4263142688602
 10
134.5251772972769
 20
110.1941912898602
 10
136.2330800088769
 20
110.0598199598602
 10
137.9556873643769
 20
110.0245426529602
 10
139.6757904610769
 20
110.0887117904602
 10
141.3762054141769
 20
110.2516863206602
 10
143.0399450237769
 20
110.5118381228602
 10
144.6503884781769
 20
110.8665682720602
  0
LWPOLYLINE
  5
261
330
1F
100
AcDbEntity
  8
0
  6
Continuous
 62
     7
370
    25
100
AcDbPolyline
 90
        3
 70
   128
 43
0.0
 10
145.1078183182769
 20
187.5617490912602
 10
145.0959464977769
 20
188.3207124829602
 10
145.0184945111769
 20
193.2703909101602
  0
LINE
  5
262
330
1F
100
AcDbEntity
  8
0
  6
Continuous
 62
     7
370
    25
100
AcDbLine
 10
151.3989568697769
 20
124.4652572863602
 30
0.0
 11
151.1596491158769
 21
124.7004096350602
 31
0.0
  0
SPLINE
  5
263
330
1F
100
AcDbEntity
  8
0
  6
Continuous
 62
     7
370
    25
100
AcDbSpline
210
0.0
220
0.0
230
1.0
 70
     8
 71
     3
 72
     9
 73
     5
 74
     0
 42
0.000000001
 43
0.00000001
 40
0.0
 40
0.0
 40
0.0
 40
0.0
 40
0.5853970031603909
 40
1.0
 40
1.0
 40
1.0
 40
1.0
 10
151.565718187422
 20
124.3144111067363
 30
0.0
 10
151.5442857677601
 20
124.5829891932867
 30
0.0
 10
151.5076739990866
 20
125.0417856768705
 30
0.0
 10
151.3318808704347
 20
125.2756469049707
 30
0.0
 10
151.2589965124718
 20
125.3726064709856
 30
0.0
  0
LINE
  5
264
330
1F
100
AcDbEntity
  8
0
  6
Continuous
 62
     7
370
    25
100
AcDbLine
 10
145.1078183182769
 20
187.5617490912602
 30
0.0
 11
146.4596391482769
 21
186.7813595371602
 31
0.0
  0
LINE
  5
265
330
1F
100
AcDbEntity
  8
0
  6
Continuous
 62
     7
370
    25
100
AcDbLine
 10
146.3979214747769
 20
190.9000033588602
 30
0.0
 11
145.5063592559769
 21
193.4040265731602
 31
0.0
  0
LINE
  5
266
330
1F
100
AcDbEntity
  8
0
  6
Continuous
 62
     7
370
    25
100
AcDbLine
 10
146.4596391482769
 20
186.7813595371602
 30
0.0
 11
146.3979214747769
 21
190.9000033588602
 31
0.0
  0
LINE
  5
267
330
1F
100
AcDbEntity
  8
0
  6
Continuous
 62
     7
370
    25
100
AcDbLine
 10
146.4562766388769
 20
193.7288201788602
 30
0.0
 11
147.2818049512769
 21
191.4102584287602
 31
0.0
  0
LINE
  5
268
330
1F
100
AcDbEntity
  8
0
  6
Continuous
 62
     7
370
    25
100
AcDbLine
 10
147.2818049512769
 20
191.4102584287602
 30
0.0
 11
146.3979214747769
 21
190.9000033588602
 31
0.0
  0
ARC
  5
269
330
1F
100
AcDbEntity
  8
0
  6
Continuous
 62
     7
370
    25
100
AcDbCircle
 10
141.7068448963769
 20
202.1808804211602
 30
0.0
 40
13.92997770806361
100
AcDbArc
 50
293.7248799334
 51
310.7336801324
  0
LINE
  5
26A
330
1F
100
AcDbEntity
  8
0
  6
Continuous
 62
     7
370
    25
100
AcDbLine
 10
150.7308464702769
 20
196.0245764391602
 30
0.0
 11
150.7967674987769
 21
191.6254275161602
 31
0.0
  0
LINE
  5
26B
330
1F
100
AcDbEntity
  8
0
  6
Continuous
 62
     7
370
    25
100
AcDbLine
 10
146.4596391482769
 20
186.7813595371602
 30
0.0
 11
152.8236001789769
 21
190.4551960403602
 31
0.0
  0
LINE
  5
26C
330
1F
100
AcDbEntity
  8
0
  6
Continuous
 62
     7
370
    25
100
AcDbLine
 10
147.3280943812769
 20
188.3211971572602
 30
0.0
 11
151.9242884589769
 21
190.9745235206602
 31
0.0
  0
LINE
  5
26D
330
1F
100
AcDbEntity
  8
0
  6
Continuous
 62
     7
370
    25
100
AcDbLine
 10
151.8779990289769
 20
194.0635847922602
 30
0.0
 11
151.9242884589769
 21
190.9745235206602
 31
0.0
  0
LINE
  5
26E
330
1F
100
AcDbEntity
  8
0
  6
Continuous
 62
     7
370
    25
100
AcDbLine
 10
152.7618825054769
 20
194.5738398621602
 30
0.0
 11
151.8779990289769
 21
194.0635847922602
 31
0.0
  0
LINE
  5
26F
330
1F
100
AcDbEntity
  8
0
  6
Continuous
 62
     7
370
    25
100
AcDbLine
 10
152.8236001789769
 20
190.4551960403602
 30
0.0
 11
152.7618825054769
 21
194.5738398621602
 31
0.0
  0
LINE
  5
270
330
1F
100
AcDbEntity
  8
0
  6
Continuous
 62
     7
370
    25
100
AcDbLine
 10
147.2818049512769
 20
191.4102584287602
 30
0.0
 11
147.3280943812769
 21
188.3211971572602
 31
0.0
  0
LINE
  5
271
330
1F
100
AcDbEntity
  8
0
  6
Continuous
 62
     7
370
    25
100
AcDbLine
 10
151.9242884589769
 20
190.9745235206602
 30
0.0
 11
150.7967674987769
 21
191.6254275161602
 31
0.0
  0
LINE
  5
272
330
1F
100
AcDbEntity
  8
0
  6
Continuous
 62
     7
370
    25
100
AcDbLine
 10
151.8779990289769
 20
194.0635847922602
 30
0.0
 11
151.0798230823769
 21
196.3053252532602
 31
0.0
  0
LINE
  5
273
330
1F
100
AcDbEntity
  8
0
  6
Continuous
 62
     7
370
    25
100
AcDbLine
 10
151.8811384648769
 20
197.0474793646602
 30
0.0
 11
152.7618825054769
 21
194.5738398621602
 31
0.0
  0
LINE
  5
274
330
1F
100
AcDbEntity
  8
0
  6
Continuous
 62
     7
370
    25
100
AcDbLine
 10
106.8232436655769
 20
186.8675400161602
 30
0.0
 11
106.8695822479769
 21
189.9598814054602
 31
0.0
  0
LINE
  5
275
330
1F
100
AcDbEntity
  8
0
  6
Continuous
 62
     7
370
    25
100
AcDbLine
 10
126.4949728172769
 20
178.6303845848602
 30
0.0
 11
106.8695822479769
 21
189.9598814054602
 31
0.0
  0
LINE
  5
276
330
1F
100
AcDbEntity
  8
0
  6
Continuous
 62
     7
370
    25
100
AcDbLine
 10
106.7695317895769
 20
123.7584108171602
 30
0.0
 11
125.5105970318769
 21
112.9394241414602
 31
0.0
  0
LINE
  5
277
330
1F
100
AcDbEntity
  8
0
  6
Continuous
 62
     7
370
    25
100
AcDbLine
 10
106.0559008193769
 20
124.9935863119602
 30
0.0
 11
106.7695317895769
 21
123.7584108171602
 31
0.0
  0
LINE
  5
278
330
1F
100
AcDbEntity
  8
0
  6
Continuous
 62
     7
370
    25
100
AcDbLine
 10
106.0559008193769
 20
124.9935863119602
 30
0.0
 11
106.0028665642769
 21
132.2020452663602
 31
0.0
  0
ELLIPSE
  5
279
330
1F
100
AcDbEntity
  8
0
  6
Continuous
 62
     7
370
    25
100
AcDbEllipse
 10
102.4669272069769
 20
134.1347686233602
 30
0.0
 11
-2.43306420633951
 21
4.368532434545614
 31
0.0
210
0.0
220
0.0
230
1.0
 40
0.5873670492999999
 41
3.962240274180537
 42
7.051572707748682
  0
LINE
  5
27A
330
1F
100
AcDbEntity
  8
0
  6
Continuous
 62
     7
370
    25
100
AcDbLine
 10
98.93421261627691
 20
136.2826923315602
 30
0.0
 11
98.66790407657692
 21
129.2585860484602
 31
0.0
  0
LINE
  5
27B
330
1F
100
AcDbEntity
  8
0
  6
Continuous
 62
     7
370
    25
100
AcDbLine
 10
97.92981332357692
 20
128.8614716659602
 30
0.0
 11
98.66790407657692
 21
129.2585860484602
 31
0.0
  0
LINE
  5
27C
330
1F
100
AcDbEntity
  8
0
  6
Continuous
 62
     7
370
    25
100
AcDbLine
 10
79.1887480852769
 20
139.6804583393602
 30
0.0
 11
97.92981332357692
 21
128.8614716659602
 31
0.0
  0
LINE
  5
27D
330
1F
100
AcDbEntity
  8
0
  6
Continuous
 62
     7
370
    25
100
AcDbLine
 10
80.17312387077692
 20
205.3714187828602
 30
0.0
 11
79.1887480852769
 21
139.6804583393602
 31
0.0
  0
ARC
  5
27E
330
1F
100
AcDbEntity
  8
0
  6
Continuous
 62
     7
370
    25
100
AcDbCircle
 10
123.7755291514769
 20
180.8477711430602
 30
0.0
 40
0.3216294438507038
100
AcDbArc
 50
289.1665719196012
 51
354.7682928201995
  0
SPLINE
  5
27F
330
1F
100
AcDbEntity
  8
0
  6
Continuous
 62
     7
370
    25
100
AcDbSpline
210
0.0
220
0.0
230
1.0
 70
     8
 71
     3
 72
    11
 73
     7
 74
     0
 42
0.000000001
 43
0.00000001
 40
0.0
 40
0.0
 40
0.0
 40
0.0
 40
0.3722441691282471
 40
0.7460867566289593
 40
0.9954707999249173
 40
1.0
 40
1.0
 40
1.0
 40
1.0
 10
123.8811251195371
 20
180.5439702367458
 30
0.0
 10
124.1879554871613
 20
180.312018472199
 30
0.0
 10
124.8029337535827
 20
179.847118941038
 30
0.0
 10
125.6809527640517
 20
179.1958791454056
 30
0.0
 10
126.2547746155486
 20
178.7940004930995
 30
0.0
 10
126.4907633472704
 20
178.6332519513294
 30
0.0
 10
126.4949728172738
 20
178.6303845849101
 30
0.0
  0
LINE
  5
280
330
1F
100
AcDbEntity
  8
0
  6
Continuous
 62
     7
370
    25
100
AcDbLine
 10
107.0463320192769
 20
190.2624894290602
 30
0.0
 11
123.8811251195769
 21
180.5439702367602
 31
0.0
  0
ARC
  5
281
330
1F
100
AcDbEntity
  8
0
  6
Continuous
 62
     7
370
    25
100
AcDbCircle
 10
107.2541530240769
 20
189.9381808970602
 30
0.0
 40
0.3851825462243998
100
AcDbArc
 50
122.6522619102982
 51
176.770346352598
  0
LINE
  5
282
330
1F
100
AcDbEntity
  8
0
  6
Continuous
 62
     7
370
    25
100
AcDbLine
 10
99.8015462327769
 20
193.2237345962602
 30
0.0
 11
98.91766275627691
 21
193.7339896660602
 31
0.0
  0
LINE
  5
283
330
1F
100
AcDbEntity
  8
0
  6
Continuous
 62
     7
370
    25
100
AcDbLine
 10
99.97526420747693
 20
194.3445299881602
 30
0.0
 11
98.91766275627691
 21
193.7339896660602
 31
0.0
  0
LINE
  5
284
330
1F
100
AcDbEntity
  8
0
  6
Continuous
 62
     7
370
    25
100
AcDbLine
 10
80.34987364207691
 20
205.6740268063602
 30
0.0
 11
99.97526420747693
 21
194.3445299881602
 31
0.0
  0
LWPOLYLINE
  5
285
330
1F
100
AcDbEntity
  8
0
  6
Continuous
 62
     7
370
    25
100
AcDbPolyline
 90
       14
 70
   128
 43
0.0
 10
77.6366913115769
 20
216.3052414842602
 10
76.97836241127692
 20
215.5056273959602
 10
76.45918803327692
 20
214.6725672799602
 10
76.08418355147691
 20
213.8141087371602
 10
75.85697161747692
 20
212.9385447243602
 10
75.77974716397691
 20
212.0543334423602
 10
75.85325620137692
 20
211.1700166270602
 10
76.07678861117691
 20
210.2941370335602
 10
76.44818500597691
 20
209.4351559113602
 10
76.96385758957692
 20
208.6013712655602
 10
77.61882481607691
 20
207.8008376962602
 10
78.4067595133769
 20
207.0412885883602
 10
79.32005000517691
 20
206.3300614051602
 10
80.34987364207691
 20
205.6740268063602
  0
LINE
  5
286
330
1F
100
AcDbEntity
  8
0
  6
Continuous
 62
     7
370
    25
100
AcDbLine
 10
76.1102916756769
 20
217.1864132377602
 30
0.0
 11
77.6366913115769
 21
216.3052414842602
 31
0.0
  0
LINE
  5
287
330
1F
100
AcDbEntity
  8
0
  6
Continuous
 62
     7
370
    25
100
AcDbLine
 10
76.9941751520769
 20
217.6966683076602
 30
0.0
 11
76.1102916756769
 21
217.1864132377602
 31
0.0
  0
LINE
  5
288
330
1F
100
AcDbEntity
  8
0
  6
Continuous
 62
     7
370
    25
100
AcDbLine
 10
78.24329513967692
 20
216.9755666878602
 30
0.0
 11
76.9941751520769
 21
217.6966683076602
 31
0.0
  0
SPLINE
  5
289
330
1F
100
AcDbEntity
  8
0
  6
Continuous
 62
     7
370
    25
100
AcDbSpline
210
0.0
220
0.0
230
1.0
 70
     8
 71
     3
 72
    11
 73
     7
 74
     0
 42
0.000000001
 43
0.00000001
 40
0.0
 40
0.0
 40
0.0
 40
0.0
 40
0.1128542513408057
 40
0.3654917547304887
 40
0.6181292580782861
 40
1.0
 40
1.0
 40
1.0
 40
1.0
 10
82.83948921742231
 20
219.6288930513289
 30
0.0
 10
82.63501576408152
 20
219.5497301915549
 30
0.0
 10
81.97280445729021
 20
219.2933519675664
 30
0.0
 10
80.9242954317701
 20
218.8018516113393
 30
0.0
 10
79.53644206246082
 20
218.0186964377009
 30
0.0
 10
78.7291522668522
 20
217.3674881428891
 30
0.0
 10
78.24329513970972
 20
216.9755666879051
 30
0.0
  0
LINE
  5
28A
330
1F
100
AcDbEntity
  8
0
  6
Continuous
 62
     7
370
    25
100
AcDbLine
 10
81.5903692298769
 20
220.3499946710602
 30
0.0
 11
82.83948921737692
 21
219.6288930513602
 31
0.0
  0
LINE
  5
28B
330
1F
100
AcDbEntity
  8
0
  6
Continuous
 62
     7
370
    25
100
AcDbLine
 10
82.4742527062769
 20
220.8602497409602
 30
0.0
 11
81.5903692298769
 21
220.3499946710602
 31
0.0
  0
LINE
  5
28C
330
1F
100
AcDbEntity
  8
0
  6
Continuous
 62
     7
370
    25
100
AcDbLine
 10
84.00065234217692
 20
219.9790779874602
 30
0.0
 11
82.4742527062769
 21
220.8602497409602
 31
0.0
  0
LWPOLYLINE
  5
28D
330
1F
100
AcDbEntity
  8
0
  6
Continuous
 62
     7
370
    25
100
AcDbPolyline
 90
       14
 70
   128
 43
0.0
 10
102.4164517006769
 20
218.4127911673602
 10
101.2800433117769
 20
219.0072956985602
 10
100.0480282033769
 20
219.5345270770601
 10
98.73230799667692
 20
219.9893920957602
 10
97.3455929279769
 20
220.3674966274602
 10
95.90127906447691
 20
220.6651880733602
 10
94.4133188944769
 20
220.8795906483602
 10
92.8960865419769
 20
221.0086331618602
 10
91.3642389088769
 20
221.0510690258602
 10
89.83257408477692
 20
221.0064882977602
 10
88.31588839337692
 20
220.8753216402602
 10
86.82883345547691
 20
220.6588361609602
 10
85.38577465047692
 20
220.3591231720602
 10
84.00065234217692
 20
219.9790779874602
  0
LINE
  5
28E
330
1F
100
AcDbEntity
  8
0
  6
Continuous
 62
     7
370
    25
100
AcDbLine
 10
122.0418422659769
 20
207.0832943490602
 30
0.0
 11
102.4164517006769
 21
218.4127911673602
 31
0.0
  0
LINE
  5
28F
330
1F
100
AcDbEntity
  8
0
  6
Continuous
 62
     7
370
    25
100
AcDbLine
 10
122.0418422659769
 20
207.0832943490602
 30
0.0
 11
123.0994437170769
 21
207.6938346711602
 31
0.0
  0
LINE
  5
290
330
1F
100
AcDbEntity
  8
0
  6
Continuous
 62
     7
370
    25
100
AcDbLine
 10
123.9833271935769
 20
207.1835796012602
 30
0.0
 11
123.0994437170769
 21
207.6938346711602
 31
0.0
  0
LINE
  5
291
330
1F
100
AcDbEntity
  8
0
  6
Continuous
 62
     7
370
    25
100
AcDbLine
 10
122.9257257424769
 20
206.5730392792602
 30
0.0
 11
123.9833271935769
 21
207.1835796012602
 31
0.0
  0
LINE
  5
292
330
1F
100
AcDbEntity
  8
0
  6
Continuous
 62
     7
370
    25
100
AcDbLine
 10
107.0463320192769
 20
190.2624894290602
 30
0.0
 11
105.9887305681769
 21
189.6519491069602
 31
0.0
  0
LINE
  5
293
330
1F
100
AcDbEntity
  8
0
  6
Continuous
 62
     7
370
    25
100
AcDbLine
 10
105.9887305681769
 20
189.6519491069602
 30
0.0
 11
105.1048470916769
 21
190.1622041768602
 31
0.0
  0
LINE
  5
294
330
1F
100
AcDbEntity
  8
0
  6
Continuous
 62
     7
370
    25
100
AcDbLine
 10
106.1624485427769
 20
190.7727444988602
 30
0.0
 11
105.1048470916769
 21
190.1622041768602
 31
0.0
  0
LINE
  5
295
330
1F
100
AcDbEntity
  8
0
  6
Continuous
 62
     7
370
    25
100
AcDbLine
 10
100.8591476838769
 20
193.8342749182602
 30
0.0
 11
106.1624485427769
 21
190.7727444988602
 31
0.0
  0
LINE
  5
296
330
1F
100
AcDbEntity
  8
0
  6
Continuous
 62
     7
370
    25
100
AcDbLine
 10
100.8591476838769
 20
193.8342749182602
 30
0.0
 11
99.8015462327769
 21
193.2237345962602
 31
0.0
  0
LINE
  5
297
330
1F
100
AcDbEntity
  8
0
  6
Continuous
 62
     7
370
    25
100
AcDbLine
 10
105.9393601890769
 20
186.3572849462602
 30
0.0
 11
106.8232436655769
 21
186.8675400161602
 31
0.0
  0
LINE
  5
298
330
1F
100
AcDbEntity
  8
0
  6
Continuous
 62
     7
370
    25
100
AcDbLine
 10
105.9887305681769
 20
189.6519491069602
 30
0.0
 11
105.9393601890769
 21
186.3572849462602
 31
0.0
  0
LINE
  5
299
330
1F
100
AcDbEntity
  8
0
  6
Continuous
 62
     7
370
    25
100
AcDbLine
 10
105.9393601890769
 20
186.3572849462602
 30
0.0
 11
98.86829237717689
 21
190.4393255053602
 31
0.0
  0
LINE
  5
29A
330
1F
100
AcDbEntity
  8
0
  6
Continuous
 62
     7
370
    25
100
AcDbLine
 10
98.91766275627691
 20
193.7339896660602
 30
0.0
 11
98.86829237717689
 21
190.4393255053602
 31
0.0
  0
LINE
  5
29B
330
1F
100
AcDbEntity
  8
0
  6
Continuous
 62
     7
370
    25
100
AcDbLine
 10
99.8015462327769
 20
193.2237345962602
 30
0.0
 11
99.7676040971769
 21
190.9586529856602
 31
0.0
  0
LINE
  5
29C
330
1F
100
AcDbEntity
  8
0
  6
Continuous
 62
     7
370
    25
100
AcDbLine
 10
105.0709049560769
 20
187.8971225663602
 30
0.0
 11
99.7676040971769
 21
190.9586529856602
 31
0.0
  0
LINE
  5
29D
330
1F
100
AcDbEntity
  8
0
  6
Continuous
 62
     7
370
    25
100
AcDbLine
 10
105.1048470916769
 20
190.1622041768602
 30
0.0
 11
105.0709049560769
 21
187.8971225663602
 31
0.0
  0
ARC
  5
29E
330
1F
100
AcDbEntity
  8
0
  6
Continuous
 62
     7
370
    25
100
AcDbCircle
 10
101.0669686886769
 20
193.5099663862602
 30
0.0
 40
0.3851825462242843
100
AcDbArc
 50
122.6522619103002
 51
176.7703463526013
  0
LINE
  5
29F
330
1F
100
AcDbEntity
  8
0
  6
Continuous
 62
     7
370
    25
100
AcDbLine
 10
105.0860660964769
 20
188.9088803660602
 30
0.0
 11
100.6514875736769
 21
191.4689080555602
 31
0.0
  0
LINE
  5
2A0
330
1F
100
AcDbEntity
  8
0
  6
Continuous
 62
     7
370
    25
100
AcDbLine
 10
100.6514875736769
 20
191.4689080555602
 30
0.0
 11
100.6823979125769
 21
193.5316668946602
 31
0.0
  0
LINE
  5
2A1
330
1F
100
AcDbEntity
  8
0
  6
Continuous
 62
     7
370
    25
100
AcDbLine
 10
99.7676040971769
 20
190.9586529856602
 30
0.0
 11
100.6514875736769
 21
191.4689080555602
 31
0.0
  0
ARC
  5
2A2
330
1F
100
AcDbEntity
  8
0
  6
Continuous
 62
     7
370
    25
100
AcDbCircle
 10
80.55769464687691
 20
205.3497182744602
 30
0.0
 40
0.3851825462243232
100
AcDbArc
 50
122.6522619103015
 51
176.7703463526015
  0
ARC
  5
2A3
330
1F
100
AcDbEntity
  8
0
  6
Continuous
 62
     7
370
    25
100
AcDbCircle
 10
122.9983087691769
 20
206.4773525760602
 30
0.0
 40
0.1201009613881305
100
AcDbArc
 50
64.12836919559113
 51
127.1820892335938
  0
SPLINE
  5
2A4
330
1F
100
AcDbEntity
  8
0
  6
Continuous
 62
     7
370
    25
100
AcDbSpline
210
0.0
220
0.0
230
1.0
 70
     8
 71
     3
 72
    16
 73
    12
 74
     0
 42
0.000000001
 43
0.00000001
 40
0.0
 40
0.0
 40
0.0
 40
0.0
 40
0.1417456400975739
 40
0.283389508179775
 40
0.4276289443490314
 40
0.5734894395193493
 40
0.7164508646567408
 40
0.785787677081705
 40
0.8551191990532873
 40
0.9244445144032009
 40
1.0
 40
1.0
 40
1.0
 40
1.0
 10
146.151091544958
 20
119.7788392627512
 30
0.0
 10
146.1880144793666
 20
120.1496383750832
 30
0.0
 10
146.2618338378696
 20
120.8909703695269
 30
0.0
 10
146.8261124499581
 20
122.0497865861028
 30
0.0
 10
147.6274513337587
 20
123.1126962428832
 30
0.0
 10
148.5809389038011
 20
123.9906397086013
 30
0.0
 10
149.3747155434061
 20
124.4839980631778
 30
0.0
 10
149.9443104335116
 20
124.7060625052746
 30
0.0
 10
150.3276905774098
 20
124.7798352760454
 30
0.0
 10
150.6926799028884
 20
124.7900579782394
 30
0.0
 10
150.8707485905813
 20
124.6682337325993
 30
0.0
 10
150.9636115929963
 20
124.6047022641324
 30
0.0
  0
ELLIPSE
  5
2A5
330
1F
100
AcDbEntity
  8
0
  6
Continuous
 62
     7
370
    25
100
AcDbEllipse
 10
131.0498677713769
 20
-3.225963907939821
 30
0.0
 11
13.30768842304275
 21
447.8297897385506
 31
0.0
210
0.0
220
0.0
230
1.0
 40
0.0265637472
 41
4.972799640361816
 42
4.991423338440494
  0
LINE
  5
2A6
330
1F
100
AcDbEntity
  8
0
  6
Continuous
 62
     7
370
    25
100
AcDbLine
 10
145.9712510190769
 20
111.7384970631602
 30
0.0
 11
145.9700222007769
 21
111.7380863130602
 31
0.0
  0
ELLIPSE
  5
2A7
330
1F
100
AcDbEntity
  8
0
  6
Continuous
 62
     7
370
    25
100
AcDbEllipse
 10
131.0595629967769
 20
-2.747250544139824
 30
0.0
 11
13.29217705630646
 21
447.4603424963707
 31
0.0
210
0.0
220
0.0
230
1.0
 40
0.0265897516
 41
4.971911663792118
 42
4.975463241672101
  0
ELLIPSE
  5
2A8
330
1F
100
AcDbEntity
  8
0
  6
Continuous
 62
     7
370
    25
100
AcDbEllipse
 10
137.8160315515769
 20
119.6134788053602
 30
0.0
 11
16.45201548996477
 21
-5.52115066508867
 31
0.0
210
0.0
220
0.0
230
1.0
 40
0.2375365524
 41
5.285467834257402
 42
5.311103081265647
  0
ELLIPSE
  5
2A9
330
1F
100
AcDbEntity
  8
0
  6
Continuous
 62
     7
370
    25
100
AcDbEllipse
 10
137.6125395295769
 20
123.9432086110602
 30
0.0
 11
14.82669094741931
 21
9.821205957762457
 31
0.0
210
0.0
220
0.0
230
1.0
 40
0.7158837901
 41
4.783403114259092
 42
4.808104252690415
  0
ELLIPSE
  5
2AA
330
1F
100
AcDbEntity
  8
0
  6
Continuous
 62
     7
370
    25
100
AcDbEllipse
 10
131.0595629967769
 20
-2.747250544039822
 30
0.0
 11
13.29217705630145
 21
447.4603424960398
 31
0.0
210
0.0
220
0.0
230
1.0
 40
0.0265897516
 41
4.977876464858635
 42
4.98513229875034
  0
ELLIPSE
  5
2AB
330
1F
100
AcDbEntity
  8
0
  6
Continuous
 62
     7
370
    25
100
AcDbEllipse
 10
137.8154331175769
 20
123.7748852584602
 30
0.0
 11
16.36333370262963
 21
-5.49138984280961
 31
0.0
210
0.0
220
0.0
230
1.0
 40
0.2375365524
 41
5.295447934836434
 42
5.320828558830274
  0
ELLIPSE
  5
2AC
330
1F
100
AcDbEntity
  8
0
  6
Continuous
 62
     7
370
    25
100
AcDbEllipse
 10
137.6130234411769
 20
127.9605397086602
 30
0.0
 11
14.74910204840984
 21
9.769811040319155
 31
0.0
210
0.0
220
0.0
230
1.0
 40
0.7158837901
 41
4.793328202229649
 42
4.81789205644088
  0
ELLIPSE
  5
2AD
330
1F
100
AcDbEntity
  8
0
  6
Continuous
 62
     7
370
    25
100
AcDbEllipse
 10
131.0595629965769
 20
-2.747250554339821
 30
0.0
 11
13.29217705646181
 21
447.4603425111541
 31
0.0
210
0.0
220
0.0
230
1.0
 40
0.0265897516
 41
4.987552330423295
 42
4.990732832249228
  0
SPLINE
  5
2AE
330
1F
100
AcDbEntity
  8
0
  6
Continuous
 62
     7
370
    25
100
AcDbSpline
210
0.0
220
0.0
230
1.0
 70
     8
 71
     3
 72
     9
 73
     5
 74
     0
 42
0.000000001
 43
0.00000001
 40
0.0
 40
0.0
 40
0.0
 40
0.0
 40
0.5029362480993058
 40
1.0
 40
1.0
 40
1.0
 40
1.0
 10
146.910247083539
 20
122.1127117283187
 30
0.0
 10
146.698673042522
 20
121.7344379069951
 30
0.0
 10
146.2779953884126
 20
120.982307149363
 30
0.0
 10
146.1936346135553
 20
120.2317935402065
 30
0.0
 10
146.1517019302914
 20
119.8587404297867
 30
0.0
  0
SPLINE
  5
2AF
330
1F
100
AcDbEntity
  8
0
  6
Continuous
 62
     7
370
    25
100
AcDbSpline
210
0.0
220
0.0
230
1.0
 70
     8
 71
     3
 72
    11
 73
     7
 74
     0
 42
0.000000001
 43
0.00000001
 40
0.0
 40
0.0
 40
0.0
 40
0.0
 40
0.3026653084814295
 40
0.6055336789125657
 40
0.9048962553103692
 40
1.0
 40
1.0
 40
1.0
 40
1.0
 10
150.5619991248124
 20
124.7769040495776
 30
0.0
 10
150.3127358493866
 20
124.7572055393231
 30
0.0
 10
149.8140420646787
 20
124.7177953028367
 30
0.0
 10
148.8844825050157
 20
124.206071317424
 30
0.0
 10
148.150351733729
 20
123.611898737144
 30
0.0
 10
147.7674777182122
 20
123.2077987554105
 30
0.0
 10
147.6751688171135
 20
123.110372386067
 30
0.0
  0
ELLIPSE
  5
2B0
330
1F
100
AcDbEntity
  8
0
  6
Continuous
 62
     7
370
    25
100
AcDbEllipse
 10
137.6162598409769
 20
129.7001543371602
 30
0.0
 11
14.83586522466186
 21
9.373588018102739
 31
0.0
210
0.0
220
0.0
230
1.0
 40
0.7167542823999999
 41
5.205982242107153
 42
5.251007911759558
  0
ELLIPSE
  5
2B1
330
1F
100
AcDbEntity
  8
0
  6
Continuous
 62
     7
370
    25
100
AcDbEllipse
 10
136.9532339619769
 20
117.2513072621602
 30
0.0
 11
10.76616632763279
 21
56.83937206921647
 31
0.0
210
0.0
220
0.0
230
1.0
 40
0.2206153688
 41
4.882858564909217
 42
4.898097446980949
  0
LINE
  5
2B2
330
1F
100
AcDbEntity
  8
0
  6
Continuous
 62
     7
370
    25
100
AcDbLine
 10
150.7710152344769
 20
124.6562416178602
 30
0.0
 11
151.1011240423769
 21
124.4746104337602
 31
0.0
  0
SPLINE
  5
2B3
330
1F
100
AcDbEntity
  8
0
  6
Continuous
 62
     7
370
    25
100
AcDbSpline
210
0.0
220
0.0
230
1.0
 70
     8
 71
     3
 72
    11
 73
     7
 74
     0
 42
0.000000001
 43
0.00000001
 40
0.0
 40
0.0
 40
0.0
 40
0.0
 40
0.3066189325824452
 40
0.6132385641211084
 40
0.7648896356092775
 40
1.0
 40
1.0
 40
1.0
 40
1.0
 10
147.8841849267907
 20
122.9897099543225
 30
0.0
 10
148.1627057788952
 20
123.3109612365205
 30
0.0
 10
148.7197481180095
 20
123.9534645332281
 30
0.0
 10
149.513215561977
 20
124.4318039345158
 30
0.0
 10
150.204897771327
 20
124.6699667266724
 30
0.0
 10
150.5569838489308
 20
124.6614306541246
 30
0.0
 10
150.7710152344908
 20
124.6562416178324
 30
0.0
  0
LINE
  5
2B4
330
1F
100
AcDbEntity
  8
0
  6
Continuous
 62
     7
370
    25
100
AcDbLine
 10
148.2035553558769
 20
122.8018796361602
 30
0.0
 11
147.8841849267769
 21
122.9897099543602
 31
0.0
  0
SPLINE
  5
2B5
330
1F
100
AcDbEntity
  8
0
  6
Continuous
 62
     7
370
    25
100
AcDbSpline
210
0.0
220
0.0
230
1.0
 70
     8
 71
     3
 72
     9
 73
     5
 74
     0
 42
0.000000001
 43
0.00000001
 40
0.0
 40
0.0
 40
0.0
 40
0.0
 40
0.980011015743195
 40
1.0
 40
1.0
 40
1.0
 40
1.0
 10
147.4484090289358
 20
121.804537327499
 30
0.0
 10
147.6822054097946
 20
122.1432819012303
 30
0.0
 10
147.9207704637613
 20
122.4889357441867
 30
0.0
 10
148.1980135482724
 20
122.7957467949235
 30
0.0
 10
148.203555355924
 20
122.8018796361864
 30
0.0
  0
LINE
  5
2B6
330
1F
100
AcDbEntity
  8
0
  6
Continuous
 62
     7
370
    25
100
AcDbLine
 10
147.2240110000769
 20
121.9315796747602
 30
0.0
 11
147.4484090289769
 21
121.8045373274602
 31
0.0
  0
SPLINE
  5
2B7
330
1F
100
AcDbEntity
  8
0
  6
Continuous
 62
     7
370
    25
100
AcDbSpline
210
0.0
220
0.0
230
1.0
 70
     8
 71
     3
 72
     9
 73
     5
 74
     0
 42
0.000000001
 43
0.00000001
 40
0.0
 40
0.0
 40
0.0
 40
0.0
 40
0.4924974875535814
 40
1.0
 40
1.0
 40
1.0
 40
1.0
 10
146.6050844588558
 20
119.5970082671722
 30
0.0
 10
146.6362976483506
 20
119.9710306985449
 30
0.0
 10
146.6996750061722
 20
120.7304709816428
 30
0.0
 10
147.0474926645848
 20
121.5272250057531
 30
0.0
 10
147.2240110001024
 20
121.9315796747908
 30
0.0
  0
SPLINE
  5
2B8
330
1F
100
AcDbEntity
  8
0
  6
Continuous
 62
     7
370
    25
100
AcDbSpline
210
0.0
220
0.0
230
1.0
 70
     8
 71
     3
 72
    14
 73
    10
 74
     0
 42
0.000000001
 43
0.00000001
 40
0.0
 40
0.0
 40
0.0
 40
0.0
 40
0.2635372384953875
 40
0.7183720572789277
 40
0.9464392832813979
 40
0.9749986895055519
 40
0.9893658437527661
 40
0.9961027741226683
 40
0.9999999999999999
 40
0.9999999999999999
 40
0.9999999999999999
 40
0.9999999999999999
 10
146.6968376829903
 20
119.5247961647581
 30
0.0
 10
146.6885373694541
 20
119.5303899147779
 30
0.0
 10
146.6659116739544
 20
119.5456378309076
 30
0.0
 10
146.6365263999232
 20
119.5670699361095
 30
0.0
 10
146.6139924711968
 20
119.5842262075648
 30
0.0
 10
146.6064984305624
 20
119.593398941127
 30
0.0
 10
146.6054123924471
 20
119.5953869992632
 30
0.0
 10
146.6051066566321
 20
119.5964455980222
 30
0.0
 10
146.6050904121607
 20
119.5968573628223
 30
0.0
 10
146.6050844588558
 20
119.5970082671722
 30
0.0
  0
LINE
  5
2B9
330
1F
100
AcDbEntity
  8
0
  6
Continuous
 62
     7
370
    25
100
AcDbLine
 10
146.6964844816769
 20
119.4749838155602
 30
0.0
 11
146.6968376829769
 21
119.5247961647602
 31
0.0
  0
LINE
  5
2BA
330
1F
100
AcDbEntity
  8
0
  6
Continuous
 62
     7
370
    25
100
AcDbLine
 10
146.1510915449769
 20
119.7788392627602
 30
0.0
 11
146.6964844816769
 21
119.4749838155602
 31
0.0
  0
SPLINE
  5
2BB
330
1F
100
AcDbEntity
  8
0
  6
Continuous
 62
     7
370
    25
100
AcDbSpline
210
0.0
220
0.0
230
1.0
 70
     8
 71
     3
 72
    10
 73
     6
 74
     0
 42
0.000000001
 43
0.00000001
 40
0.0
 40
0.0
 40
0.0
 40
0.0
 40
0.4235290639791603
 40
0.932895534557648
 40
1.0
 40
1.0
 40
1.0
 40
1.0
 10
151.1011240423906
 20
124.4746104338075
 30
0.0
 10
151.1924956095993
 20
124.4608232560423
 30
0.0
 10
151.3937571859209
 20
124.4304546280892
 30
0.0
 10
151.5736979789095
 20
124.3303328014516
 30
0.0
 10
151.6665136453479
 20
124.2546449532356
 30
0.0
 10
151.6773179119498
 20
124.2458344611923
 30
0.0
  0
SPLINE
  5
2BC
330
1F
100
AcDbEntity
  8
0
  6
Continuous
 62
     7
370
    25
100
AcDbSpline
210
0.0
220
0.0
230
1.0
 70
     8
 71
     3
 72
     9
 73
     5
 74
     0
 42
0.000000001
 43
0.00000001
 40
0.0
 40
0.0
 40
0.0
 40
0.0
 40
0.5094314799466461
 40
1.0
 40
1.0
 40
1.0
 40
1.0
 10
151.6767072660184
 20
124.2418230194717
 30
0.0
 10
151.8254253816346
 20
124.0693696819804
 30
0.0
 10
152.1173549569955
 20
123.7308485181344
 30
0.0
 10
152.1862643118368
 20
123.078331424341
 30
0.0
 10
152.2200690720591
 20
122.7582270793292
 30
0.0
  0
LINE
  5
2BD
330
1F
100
AcDbEntity
  8
0
  6
Continuous
 62
     7
370
    25
100
AcDbLine
 10
152.2214528806769
 20
122.7129860008602
 30
0.0
 11
152.2200690668769
 21
122.7582279653602
 31
0.0
  0
ELLIPSE
  5
2BE
330
1F
100
AcDbEntity
  8
0
  6
Continuous
 62
     7
370
    25
100
AcDbEllipse
 10
144.6981439206769
 20
-6.663876467439827
 30
0.0
 11
-14.36220700688523
 21
454.795987017123
 31
0.0
210
0.0
220
0.0
230
1.0
 40
0.0265925572
 41
4.982111392929635
 42
5.000005043507722
  0
ARC
  5
2BF
330
1F
100
AcDbEntity
  8
0
  6
Continuous
 62
     7
370
    25
100
AcDbCircle
 10
141.6449293286769
 20
126.8039869803602
 30
0.0
 40
16.13576218772549
100
AcDbArc
 50
287.5814289231
 51
312.4131945442001
  0
ELLIPSE
  5
2C0
330
1F
100
AcDbEntity
  8
0
  6
Continuous
 62
     7
370
    25
100
AcDbEllipse
 10
130.7032448188769
 20
-14.74295975023982
 30
0.0
 11
14.0007989491599
 21
471.154316982452
 31
0.0
210
0.0
220
0.0
230
1.0
 40
0.0265637472
 41
4.984264653708951
 42
5.00204953313656
  0
LINE
  5
2C1
330
1F
100
AcDbEntity
  8
0
  6
Continuous
 62
     7
370
    25
100
AcDbLine
 10
146.6968376829769
 20
119.5247961647602
 30
0.0
 11
146.6972519211769
 21
119.5438011237602
 31
0.0
  0
SPLINE
  5
2C2
330
1F
100
AcDbEntity
  8
0
  6
Continuous
 62
     7
370
    25
100
AcDbSpline
210
0.0
220
0.0
230
1.0
 70
     8
 71
     3
 72
     9
 73
     5
 74
     0
 42
0.000000001
 43
0.00000001
 40
0.0
 40
0.0
 40
0.0
 40
0.0
 40
0.4986936729065509
 40
1.0
 40
1.0
 40
1.0
 40
1.0
 10
146.6972519211757
 20
119.5438011237208
 30
0.0
 10
146.7389466963387
 20
119.9182866395439
 30
0.0
 10
146.8225546854275
 20
120.6692195993315
 30
0.0
 10
147.2400965316259
 20
121.4233883571563
 30
0.0
 10
147.4494129009514
 20
121.80145792715
 30
0.0
  0
LINE
  5
2C3
330
1F
100
AcDbEntity
  8
0
  6
Continuous
 62
     7
370
    25
100
AcDbLine
 10
147.4494129009769
 20
121.8014579271602
 30
0.0
 11
147.4484090289769
 21
121.8045373274602
 31
0.0
  0
ELLIPSE
  5
2C4
330
1F
100
AcDbEntity
  8
0
  6
Continuous
 62
     7
370
    25
100
AcDbEllipse
 10
137.7978513178769
 20
129.8029006688602
 30
0.0
 11
16.97534488373327
 21
-4.791745922764363
 31
0.0
210
0.0
220
0.0
230
1.0
 40
0.300727483
 41
5.454135456984847
 42
5.45458483565997
  0
SPLINE
  5
2C5
330
1F
100
AcDbEntity
  8
0
  6
Continuous
 62
     7
370
    25
100
AcDbSpline
210
0.0
220
0.0
230
1.0
 70
     8
 71
     3
 72
    11
 73
     7
 74
     0
 42
0.000000001
 43
0.00000001
 40
0.0
 40
0.0
 40
0.0
 40
0.0
 40
0.3030517701418406
 40
0.6062910851293576
 40
0.9063278432879652
 40
1.0
 40
1.0
 40
1.0
 40
1.0
 10
148.2096160913529
 20
122.801842541891
 30
0.0
 10
148.5124266651933
 20
123.102503306026
 30
0.0
 10
149.1182352084546
 20
123.7040108994577
 30
0.0
 10
150.0665955932617
 20
124.2763341109219
 30
0.0
 10
150.7148841677788
 20
124.4771721080721
 30
0.0
 10
151.0231120838574
 20
124.4700651174328
 30
0.0
 10
151.0964463990517
 20
124.4683742054016
 30
0.0
  0
ELLIPSE
  5
2C6
330
1F
100
AcDbEntity
  8
0
  6
Continuous
 62
     7
370
    25
100
AcDbEllipse
 10
137.6121719178769
 20
129.6957102328602
 30
0.0
 11
15.51920790006216
 21
9.80533720275716
 31
0.0
210
0.0
220
0.0
230
1.0
 40
0.7167542824
 41
5.200415952742035
 42
5.200865331417146
  0
LINE
  5
2C7
330
1F
100
AcDbEntity
  8
0
  6
Continuous
 62
     7
370
    25
100
AcDbLine
 10
151.6767072659769
 20
124.2418230194602
 30
0.0
 11
151.6773179119769
 21
124.2458344611602
 31
0.0
  0
LINE
  5
2C8
330
1F
100
AcDbEntity
  8
0
  6
Continuous
 62
     7
370
    25
100
AcDbLine
 10
147.6751688170769
 20
123.1103723860602
 30
0.0
 11
147.6182529623769
 21
123.1432292096602
 31
0.0
  0
LINE
  5
2C9
330
1F
100
AcDbEntity
  8
0
  6
Continuous
 62
     7
370
    25
100
AcDbLine
 10
146.6972519211769
 20
119.5438011237602
 30
0.0
 11
146.6050844588769
 21
119.5970082671602
 31
0.0
  0
LINE
  5
2CA
330
1F
100
AcDbEntity
  8
0
  6
Continuous
 62
     7
370
    25
100
AcDbLine
 10
147.4494129009769
 20
121.8014579271602
 30
0.0
 11
147.2240110000769
 21
121.9315796747602
 31
0.0
  0
LINE
  5
2CB
330
1F
100
AcDbEntity
  8
0
  6
Continuous
 62
     7
370
    25
100
AcDbLine
 10
148.2096160913769
 20
122.8018425418602
 30
0.0
 11
147.8841849267769
 21
122.9897099543602
 31
0.0
  0
LINE
  5
2CC
330
1F
100
AcDbEntity
  8
0
  6
Continuous
 62
     7
370
    25
100
AcDbLine
 10
151.0964463990769
 20
124.4683742053602
 30
0.0
 11
150.7710152344769
 21
124.6562416178602
 31
0.0
  0
LINE
  5
2CD
330
1F
100
AcDbEntity
  8
0
  6
Continuous
 62
     7
370
    25
100
AcDbLine
 10
150.5619991247769
 20
124.7769040495602
 30
0.0
 11
150.0624934587769
 21
125.0652625326602
 31
0.0
  0
LWPOLYLINE
  5
2CE
330
1F
100
AcDbEntity
  8
0
  6
Continuous
 62
     7
370
    25
100
AcDbPolyline
 90
        9
 70
   128
 43
0.0
 10
79.1887480852769
 20
139.6804583393602
 10
78.0323488201769
 20
140.4183601105602
 10
77.00932461227691
 20
141.2192169046602
 10
76.1298955060769
 20
142.0750281366602
 10
75.40284702657692
 20
142.9772442249602
 10
74.83544241127692
 20
143.9168520020602
 10
74.4333500503769
 20
144.8844647562602
 10
74.20058685947691
 20
145.8704160050602
 10
74.1389693887769
 20
146.8430022373602
  0
LWPOLYLINE
  5
2CF
330
1F
100
AcDbEntity
  8
0
  6
Continuous
 62
     7
370
    25
100
AcDbPolyline
 90
       12
 70
   128
 43
0.0
 10
77.5765926870769
 20
207.3448587404602
 10
77.39015562067692
 20
207.5411444608602
 10
76.7240348033769
 20
208.3580115358602
 10
76.20057797727691
 20
209.2087932497602
 10
75.82487947267691
 20
210.0852097160602
 10
75.60059562217691
 20
210.9787315684602
 10
75.5299091771769
 20
211.8806629695601
 10
75.6135080645769
 20
212.7822262392602
 10
75.85057869227691
 20
213.6746472803601
 10
76.23881386687691
 20
214.5492409685602
 10
76.77443524787691
 20
215.3974956769601
 10
77.45223011817691
 20
216.2111561120602
  0
LINE
  5
2D0
330
1F
100
AcDbEntity
  8
0
  6
Continuous
 62
     7
370
    25
100
AcDbLine
 10
145.9712510190769
 20
111.7384970631602
 30
0.0
 11
146.5189125092769
 21
111.4219484505602
 31
0.0
  0
SPLINE
  5
2D1
330
1F
100
AcDbEntity
  8
0
  6
Continuous
 62
     7
370
    25
100
AcDbSpline
210
0.0
220
0.0
230
1.0
 70
     8
 71
     3
 72
    12
 73
     8
 74
     0
 42
0.000000001
 43
0.00000001
 40
0.0
 40
0.0
 40
0.0
 40
0.0
 40
0.2060757310230191
 40
0.412015057709376
 40
0.6217667250770578
 40
0.8398301355565844
 40
1.0
 40
1.0
 40
1.0
 40
1.0
 10
77.45223011821932
 20
216.2111561120528
 30
0.0
 10
77.45450623369331
 20
216.2320707106914
 30
0.0
 10
77.4590569580495
 20
216.2738860643107
 30
0.0
 10
77.4898368666048
 20
216.3150769799664
 30
0.0
 10
77.5348177888595
 20
216.3344216100249
 30
0.0
 10
77.58644541719181
 20
216.3302638303606
 30
0.0
 10
77.62174363108352
 20
216.3126853965969
 30
0.0
 10
77.6366913115468
 20
216.3052414842292
 30
0.0
  0
LINE
  5
2D2
330
1F
100
AcDbEntity
  8
0
  6
Continuous
 62
     7
370
    25
100
AcDbLine
 10
146.1213743489769
 20
118.4894397358602
 30
0.0
 11
145.7873975007769
 21
118.6822404665602
 31
0.0
  0
LINE
  5
2D3
330
1F
100
AcDbEntity
  8
0
  6
Continuous
 62
     7
370
    25
100
AcDbLine
 10
145.7593460493769
 20
117.4931472036602
 30
0.0
 11
145.7624801634769
 21
117.4913345801602
 31
0.0
  0
LINE
  5
2D4
330
1F
100
AcDbEntity
  8
0
  6
Continuous
 62
     7
370
    25
100
AcDbLine
 10
151.7175787644769
 20
125.3410142655602
 30
0.0
 11
151.6665759341769
 21
125.3692871683602
 31
0.0
  0
LINE
  5
2D5
330
1F
100
AcDbEntity
  8
0
  6
Continuous
 62
     7
370
    25
100
AcDbLine
 10
123.9833271935769
 20
207.1835796012602
 30
0.0
 11
123.9850838860769
 21
207.0683773888602
 31
0.0
  0
LINE
  5
2D6
330
1F
100
AcDbEntity
  8
0
  6
Continuous
 62
     7
370
    25
100
AcDbLine
 10
146.0281748934769
 20
114.3162089851602
 30
0.0
 11
145.6886327556769
 21
114.5122224890602
 31
0.0
  0
LINE
  5
2D7
330
1F
100
AcDbEntity
  8
0
  6
Continuous
 62
     7
370
    25
100
AcDbLine
 10
145.6602290130769
 20
113.3214366505602
 30
0.0
 11
145.6619609350769
 21
113.3204349886602
 31
0.0
  0
LINE
  5
2D8
330
1F
100
AcDbEntity
  8
0
  6
Continuous
 62
     7
370
    25
100
AcDbLine
 10
145.9700222007769
 20
111.7380863130602
 30
0.0
 11
145.6117088218769
 21
111.9449362238602
 31
0.0
  0
LINE
  5
2D9
330
1F
100
AcDbEntity
  8
0
  6
Continuous
 62
     7
370
    25
100
AcDbLine
 10
152.8034867529769
 20
121.5555579855602
 30
0.0
 11
152.2545943786769
 21
121.8724268084602
 31
0.0
  0
LINE
  5
2DA
330
1F
100
AcDbEntity
  8
0
  6
Continuous
 62
     7
370
    25
100
AcDbLine
 10
152.8017303583769
 20
121.5550072199602
 30
0.0
 11
152.2546662141769
 21
121.8706035696602
 31
0.0
  0
LINE
  5
2DB
330
1F
100
AcDbEntity
  8
0
  6
Continuous
 62
     7
370
    25
100
AcDbLine
 10
152.2627203497769
 20
121.6661482414602
 30
0.0
 11
152.8094422492769
 21
121.3511276460602
 31
0.0
  0
LINE
  5
2DC
330
1F
100
AcDbEntity
  8
0
  6
Continuous
 62
     7
370
    25
100
AcDbLine
 10
152.9544266000769
 20
117.5300477988602
 30
0.0
 11
152.4128285353769
 21
117.8427057064602
 31
0.0
  0
LINE
  5
2DD
330
1F
100
AcDbEntity
  8
0
  6
Continuous
 62
     7
370
    25
100
AcDbLine
 10
152.9534772865769
 20
117.5297377808602
 30
0.0
 11
152.4128714781769
 21
117.8416083750602
 31
0.0
  0
LINE
  5
2DE
330
1F
100
AcDbEntity
  8
0
  6
Continuous
 62
     7
370
    25
100
AcDbLine
 10
152.4208204598769
 20
117.6384505403602
 30
0.0
 11
152.9610861184769
 21
117.3271500242602
 31
0.0
  0
LINE
  5
2DF
330
1F
100
AcDbEntity
  8
0
  6
Continuous
 62
     7
370
    25
100
AcDbLine
 10
152.4640360947769
 20
116.5327421077602
 30
0.0
 11
153.0032668152769
 21
116.2214508388602
 31
0.0
  0
LINE
  5
2E0
330
1F
100
AcDbEntity
  8
0
  6
Continuous
 62
     7
370
    25
100
AcDbLine
 10
76.06475697107692
 20
214.2002907802602
 30
0.0
 11
76.1102916756769
 21
217.1864132377602
 31
0.0
  0
LINE
  5
2E1
330
1F
100
AcDbEntity
  8
0
  6
Continuous
 62
     7
370
    25
100
AcDbLine
 10
98.93421261627691
 20
136.2826923315602
 30
0.0
 11
99.46462348627693
 21
136.5888920091602
 31
0.0
  0
ELLIPSE
  5
2E2
330
1F
100
AcDbEntity
  8
0
  6
Continuous
 62
     7
370
    25
100
AcDbEllipse
 10
102.9973380769769
 20
134.4409683009602
 30
0.0
 11
-2.433064206339566
 21
4.368532434545614
 31
0.0
210
0.0
220
0.0
230
1.0
 40
0.5873670493000002
 41
0.1134819555605654
 42
0.7683874005690869
  0
LINE
  5
2E3
330
1F
100
AcDbEntity
  8
0
  6
Continuous
 62
     7
370
    25
100
AcDbLine
 10
105.8739363059769
 20
126.4241027368602
 30
0.0
 11
106.0453043250769
 21
126.4338704194602
 31
0.0
  0
LINE
  5
2E4
330
1F
100
AcDbEntity
  8
0
  6
Continuous
 62
     7
370
    25
100
AcDbLine
 10
105.8739363059769
 20
126.4241027368602
 30
0.0
 11
105.8664048772769
 21
127.4477806364602
 31
0.0
  0
LINE
  5
2E5
330
1F
100
AcDbEntity
  8
0
  6
Continuous
 62
     7
370
    25
100
AcDbLine
 10
106.0392666509769
 20
127.2545159649602
 30
0.0
 11
105.8664048772769
 21
127.4477806364602
 31
0.0
  0
LINE
  5
2E6
330
1F
100
AcDbEntity
  8
0
  6
Continuous
 62
     7
370
    25
100
AcDbLine
 10
105.8430922832769
 20
130.6164473074602
 30
0.0
 11
106.0144603022769
 21
130.6262149899602
 31
0.0
  0
LINE
  5
2E7
330
1F
100
AcDbEntity
  8
0
  6
Continuous
 62
     7
370
    25
100
AcDbLine
 10
105.8430922832769
 20
130.6164473074602
 30
0.0
 11
105.8358437066769
 21
131.6016797195602
 31
0.0
  0
LINE
  5
2E8
330
1F
100
AcDbEntity
  8
0
  6
Continuous
 62
     7
370
    25
100
AcDbLine
 10
106.0087054803769
 20
131.4084150481602
 30
0.0
 11
105.8358437066769
 21
131.6016797195602
 31
0.0
  0
SPLINE
  5
2E9
330
1F
100
AcDbEntity
  8
0
  6
Continuous
 62
     7
370
    25
100
AcDbSpline
210
0.0
220
0.0
230
1.0
 70
     8
 71
     3
 72
    10
 73
     6
 74
     0
 42
0.000000001
 43
0.00000001
 40
0.0
 40
0.0
 40
0.0
 40
0.0
 40
0.1947546152032898
 40
0.6767906423502369
 40
1.0
 40
1.0
 40
1.0
 40
1.0
 10
82.7251988042106
 20
219.6452698806787
 30
0.0
 10
82.7311217148754
 20
219.6482929036264
 30
0.0
 10
82.75170438763632
 20
219.6587981932724
 30
0.0
 10
82.79273291641991
 20
219.6519668155691
 30
0.0
 10
82.8260973874759
 20
219.6355017847039
 30
0.0
 10
82.83948921742231
 20
219.6288930513289
 30
0.0
  0
LINE
  5
2EA
330
1F
100
AcDbEntity
  8
0
  6
Continuous
 62
     7
370
    25
100
AcDbLine
 10
99.34446873657691
 20
128.0448084791602
 30
0.0
 11
105.3548763765769
 21
124.5750740039602
 31
0.0
  0
LINE
  5
2EB
330
1F
100
AcDbEntity
  8
0
  6
Continuous
 62
     7
370
    25
100
AcDbLine
 10
99.41318361367689
 20
129.5338419887602
 30
0.0
 11
99.34446873657691
 21
128.0448084791602
 31
0.0
  0
LINE
  5
2EC
330
1F
100
AcDbEntity
  8
0
  6
Continuous
 62
     7
370
    25
100
AcDbLine
 10
99.40146684877692
 20
129.5481804660602
 30
0.0
 11
99.41318361367689
 21
129.5338419887602
 31
0.0
  0
LINE
  5
2ED
330
1F
100
AcDbEntity
  8
0
  6
Continuous
 62
     7
370
    25
100
AcDbLine
 10
99.40146684877692
 20
129.5481804660602
 30
0.0
 11
99.43928549607693
 21
130.5456783240602
 31
0.0
  0
LINE
  5
2EE
330
1F
100
AcDbEntity
  8
0
  6
Continuous
 62
     7
370
    25
100
AcDbLine
 10
99.45983436587693
 20
130.5447516517602
 30
0.0
 11
99.43928549607693
 21
130.5456783240602
 31
0.0
  0
LINE
  5
2EF
330
1F
100
AcDbEntity
  8
0
  6
Continuous
 62
     7
370
    25
100
AcDbLine
 10
99.59990322527693
 20
133.5800073938602
 30
0.0
 11
99.45983436587693
 21
130.5447516517602
 31
0.0
  0
LINE
  5
2F0
330
1F
100
AcDbEntity
  8
0
  6
Continuous
 62
     7
370
    25
100
AcDbLine
 10
99.5563483799769
 20
133.6333079566602
 30
0.0
 11
99.59990322527693
 21
133.5800073938602
 31
0.0
  0
LINE
  5
2F1
330
1F
100
AcDbEntity
  8
0
  6
Continuous
 62
     7
370
    25
100
AcDbLine
 10
99.5563483799769
 20
133.6333079566602
 30
0.0
 11
99.5927467011769
 21
134.5933435509602
 31
0.0
  0
LINE
  5
2F2
330
1F
100
AcDbEntity
  8
0
  6
Continuous
 62
     7
370
    25
100
AcDbLine
 10
99.64655397747691
 20
134.5909170568602
 30
0.0
 11
99.5927467011769
 21
134.5933435509602
 31
0.0
  0
LINE
  5
2F3
330
1F
100
AcDbEntity
  8
0
  6
Continuous
 62
     7
370
    25
100
AcDbLine
 10
99.70781309047692
 20
135.9183860981602
 30
0.0
 11
99.64655397747691
 21
134.5909170568602
 31
0.0
  0
ELLIPSE
  5
2F4
330
1F
100
AcDbEntity
  8
0
  6
Continuous
 62
     7
370
    25
100
AcDbEllipse
 10
102.4680574628769
 20
134.2101946939602
 30
0.0
 11
-1.901890471800812
 21
3.414817492841677
 31
0.0
210
0.0
220
0.0
230
1.0
 40
0.5873670493
 41
0.0944456756085516
 42
0.7591750167884476
  0
LINE
  5
2F5
330
1F
100
AcDbEntity
  8
0
  6
Continuous
 62
     7
370
    25
100
AcDbLine
 10
100.3787701802769
 20
137.5393867214602
 30
0.0
 11
100.3854900712769
 21
137.5044442245602
 31
0.0
  0
ELLIPSE
  5
2F6
330
1F
100
AcDbEntity
  8
0
  6
Continuous
 62
     7
370
    25
100
AcDbEllipse
 10
102.4669272069769
 20
134.1347686233602
 30
0.0
 11
-1.946617481021974
 21
3.495124206480284
 31
0.0
210
0.0
220
0.0
230
1.0
 40
0.5873670493
 41
6.046834486923106
 42
6.354609035635282
  0
LINE
  5
2F7
330
1F
100
AcDbEntity
  8
0
  6
Continuous
 62
     7
370
    25
100
AcDbLine
 10
101.0657802019769
 20
137.7887410752602
 30
0.0
 11
101.0551324593769
 21
137.8004541965602
 31
0.0
  0
ELLIPSE
  5
2F8
330
1F
100
AcDbEntity
  8
0
  6
Continuous
 62
     7
370
    25
100
AcDbEllipse
 10
102.4680574628769
 20
134.2101946939602
 30
0.0
 11
-1.901890471800812
 21
3.414817492841677
 31
0.0
210
0.0
220
0.0
230
1.0
 40
0.5873670493
 41
4.957382789971241
 42
6.056430191957763
  0
LINE
  5
2F9
330
1F
100
AcDbEntity
  8
0
  6
Continuous
 62
     7
370
    25
100
AcDbLine
 10
103.9634236432769
 20
136.1215334329602
 30
0.0
 11
103.9526105096769
 21
136.1222094117602
 31
0.0
  0
ELLIPSE
  5
2FA
330
1F
100
AcDbEntity
  8
0
  6
Continuous
 62
     7
370
    25
100
AcDbEllipse
 10
102.4669272069769
 20
134.1347686233602
 30
0.0
 11
-1.946617481021974
 21
3.495124206480284
 31
0.0
210
0.0
220
0.0
230
1.0
 40
0.5873670493
 41
4.65920394629099
 42
4.966978495004764
  0
LINE
  5
2FB
330
1F
100
AcDbEntity
  8
0
  6
Continuous
 62
     7
370
    25
100
AcDbLine
 10
104.6127844363769
 20
135.0640791322602
 30
0.0
 11
104.6204273036769
 21
135.0907301851602
 31
0.0
  0
ELLIPSE
  5
2FC
330
1F
100
AcDbEntity
  8
0
  6
Continuous
 62
     7
370
    25
100
AcDbEllipse
 10
102.4680574628769
 20
134.2101946939602
 30
0.0
 11
-1.901890471800812
 21
3.414817492841677
 31
0.0
210
0.0
220
0.0
230
1.0
 40
0.5873670493
 41
3.971452657960424
 42
4.636181999140859
  0
LINE
  5
2FD
330
1F
100
AcDbEntity
  8
0
  6
Continuous
 62
     7
370
    25
100
AcDbLine
 10
105.2524764116769
 20
131.3546869206602
 30
0.0
 11
105.2317109779769
 21
132.7295077248602
 31
0.0
  0
LINE
  5
2FE
330
1F
100
AcDbEntity
  8
0
  6
Continuous
 62
     7
370
    25
100
AcDbLine
 10
105.3054328365769
 20
131.2954800419602
 30
0.0
 11
105.2524764116769
 21
131.3546869206602
 31
0.0
  0
LINE
  5
2FF
330
1F
100
AcDbEntity
  8
0
  6
Continuous
 62
     7
370
    25
100
AcDbLine
 10
105.3054328365769
 20
131.2954800419602
 30
0.0
 11
105.3126814132769
 21
130.3102476298602
 31
0.0
  0
LINE
  5
300
330
1F
100
AcDbEntity
  8
0
  6
Continuous
 62
     7
370
    25
100
AcDbLine
 10
105.2682899461769
 20
130.3077173924602
 30
0.0
 11
105.3126814132769
 21
130.3102476298602
 31
0.0
  0
LINE
  5
301
330
1F
100
AcDbEntity
  8
0
  6
Continuous
 62
     7
370
    25
100
AcDbLine
 10
105.3157700754769
 20
127.1641919238602
 30
0.0
 11
105.2682899461769
 21
130.3077173924602
 31
0.0
  0
LINE
  5
302
330
1F
100
AcDbEntity
  8
0
  6
Continuous
 62
     7
370
    25
100
AcDbLine
 10
105.3359940072769
 20
127.1415809587602
 30
0.0
 11
105.3157700754769
 21
127.1641919238602
 31
0.0
  0
LINE
  5
303
330
1F
100
AcDbEntity
  8
0
  6
Continuous
 62
     7
370
    25
100
AcDbLine
 10
105.3359940072769
 20
127.1415809587602
 30
0.0
 11
105.3435254359769
 21
126.1179030592602
 31
0.0
  0
LINE
  5
304
330
1F
100
AcDbEntity
  8
0
  6
Continuous
 62
     7
370
    25
100
AcDbLine
 10
105.3315836099769
 20
126.1172223956602
 30
0.0
 11
105.3435254359769
 21
126.1179030592602
 31
0.0
  0
LINE
  5
305
330
1F
100
AcDbEntity
  8
0
  6
Continuous
 62
     7
370
    25
100
AcDbLine
 10
105.3548763765769
 20
124.5750740039602
 30
0.0
 11
105.3315836099769
 21
126.1172223956602
 31
0.0
  0
LINE
  5
306
330
1F
100
AcDbEntity
  8
0
  6
Continuous
 62
     7
370
    25
100
AcDbLine
 10
104.6127844363769
 20
135.0640791322602
 30
0.0
 11
105.1387636992769
 21
135.3677204975602
 31
0.0
  0
LINE
  5
307
330
1F
100
AcDbEntity
  8
0
  6
Continuous
 62
     7
370
    25
100
AcDbLine
 10
104.6204273036769
 20
135.0907301851602
 30
0.0
 11
105.1298096425769
 21
135.3847903501602
 31
0.0
  0
LINE
  5
308
330
1F
100
AcDbEntity
  8
0
  6
Continuous
 62
     7
370
    25
100
AcDbLine
 10
104.4844921136769
 20
136.4223398580602
 30
0.0
 11
103.9634236432769
 21
136.1215334329602
 31
0.0
  0
LINE
  5
309
330
1F
100
AcDbEntity
  8
0
  6
Continuous
 62
     7
370
    25
100
AcDbLine
 10
103.9526105096769
 20
136.1222094117602
 30
0.0
 11
104.4809425322769
 21
136.4272089963602
 31
0.0
  0
LINE
  5
30A
330
1F
100
AcDbEntity
  8
0
  6
Continuous
 62
     7
370
    25
100
AcDbLine
 10
101.0657802019769
 20
137.7887410752602
 30
0.0
 11
102.1266019420769
 21
138.4011404305602
 31
0.0
  0
ELLIPSE
  5
30B
330
1F
100
AcDbEntity
  8
0
  6
Continuous
 62
     7
370
    25
100
AcDbEllipse
 10
103.5288792029769
 20
134.8225940491602
 30
0.0
 11
-1.901890471800812
 21
3.414817492841677
 31
0.0
210
0.0
220
0.0
230
1.0
 40
0.5873670493
 41
6.014244458610933
 42
6.056430191957786
  0
LINE
  5
30C
330
1F
100
AcDbEntity
  8
0
  6
Continuous
 62
     7
370
    25
100
AcDbLine
 10
101.5855433293769
 20
138.1066538742602
 30
0.0
 11
101.0187766200769
 21
138.7301294296602
 31
0.0
  0
ELLIPSE
  5
30D
330
1F
100
AcDbEntity
  8
0
  6
Continuous
 62
     7
370
    25
100
AcDbEllipse
 10
102.9973380769769
 20
134.4409683009602
 30
0.0
 11
-1.946617481021974
 21
3.495124206480284
 31
0.0
210
0.0
220
0.0
230
1.0
 40
0.5873670493
 41
6.046834486923106
 42
6.29222339029995
  0
LINE
  5
30E
330
1F
100
AcDbEntity
  8
0
  6
Continuous
 62
     7
370
    25
100
AcDbLine
 10
100.7408820287769
 20
138.7207178531602
 30
0.0
 11
100.9076256590769
 21
137.8536742163602
 31
0.0
  0
ELLIPSE
  5
30F
330
1F
100
AcDbEntity
  8
0
  6
Continuous
 62
     7
370
    25
100
AcDbEllipse
 10
102.9984683328769
 20
134.5163943715602
 30
0.0
 11
-2.388503313068668
 21
4.288523979750806
 31
0.0
210
0.0
220
0.0
230
1.0
 40
0.5873670493
 41
0.0971163968850266
 42
0.759175016788828
  0
LINE
  5
310
330
1F
100
AcDbEntity
  8
0
  6
Continuous
 62
     7
370
    25
100
AcDbLine
 10
99.45207546737691
 20
134.9298063615602
 30
0.0
 11
99.53199488127689
 21
136.6616392680602
 31
0.0
  0
LINE
  5
311
330
1F
100
AcDbEntity
  8
0
  6
Continuous
 62
     7
370
    25
100
AcDbLine
 10
99.6617564454769
 20
134.9203505836602
 30
0.0
 11
99.45207546737691
 21
134.9298063615602
 31
0.0
  0
LINE
  5
312
330
1F
100
AcDbEntity
  8
0
  6
Continuous
 62
     7
370
    25
100
AcDbLine
 10
99.44274531697693
 20
134.7276244289602
 30
0.0
 11
99.5909610064769
 21
134.5462443870602
 31
0.0
  0
LINE
  5
313
330
1F
100
AcDbEntity
  8
0
  6
Continuous
 62
     7
370
    25
100
AcDbLine
 10
99.26535585577693
 20
130.8836409564602
 30
0.0
 11
99.44274531697693
 21
134.7276244289602
 31
0.0
  0
LINE
  5
314
330
1F
100
AcDbEntity
  8
0
  6
Continuous
 62
     7
370
    25
100
AcDbLine
 10
99.47503683387691
 20
130.8741851785602
 30
0.0
 11
99.26535585577693
 21
130.8836409564602
 31
0.0
  0
LINE
  5
315
330
1F
100
AcDbEntity
  8
0
  6
Continuous
 62
     7
370
    25
100
AcDbLine
 10
99.25602570537689
 20
130.6814590239602
 30
0.0
 11
99.43607947527693
 21
130.4611168965602
 31
0.0
  0
LINE
  5
316
330
1F
100
AcDbEntity
  8
0
  6
Continuous
 62
     7
370
    25
100
AcDbLine
 10
99.20465157647692
 20
129.5681950180602
 30
0.0
 11
99.25602570537689
 21
130.6814590239602
 31
0.0
  0
LINE
  5
317
330
1F
100
AcDbEntity
  8
0
  6
Continuous
 62
     7
370
    25
100
AcDbLine
 10
99.19831494667693
 20
129.5647857261602
 30
0.0
 11
99.20465157647692
 21
129.5681950180602
 31
0.0
  0
LINE
  5
318
330
1F
100
AcDbEntity
  8
0
  6
Continuous
 62
     7
370
    25
100
AcDbLine
 10
99.46462348627693
 20
136.5888920091602
 30
0.0
 11
99.19831494667693
 21
129.5647857261602
 31
0.0
  0
LINE
  5
319
330
1F
100
AcDbEntity
  8
0
  6
Continuous
 62
     7
370
    25
100
AcDbLine
 10
105.2524764116769
 20
131.3546869206602
 30
0.0
 11
106.0059007994769
 21
131.7896295616602
 31
0.0
  0
LINE
  5
31A
330
1F
100
AcDbEntity
  8
0
  6
Continuous
 62
     7
370
    25
100
AcDbLine
 10
105.8358437066769
 20
131.6016797195602
 30
0.0
 11
105.3054328365769
 21
131.2954800419602
 31
0.0
  0
LINE
  5
31B
330
1F
100
AcDbEntity
  8
0
  6
Continuous
 62
     7
370
    25
100
AcDbLine
 10
105.3126814132769
 20
130.3102476298602
 30
0.0
 11
105.8430922832769
 21
130.6164473074602
 31
0.0
  0
LINE
  5
31C
330
1F
100
AcDbEntity
  8
0
  6
Continuous
 62
     7
370
    25
100
AcDbLine
 10
81.5722486803769
 20
219.1616663382601
 30
0.0
 11
81.5903692298769
 21
220.3499946710602
 31
0.0
  0
LINE
  5
31D
330
1F
100
AcDbEntity
  8
0
  6
Continuous
 62
     7
370
    25
100
AcDbLine
 10
101.0551324593769
 20
137.8004541965602
 30
0.0
 11
101.5855433293769
 21
138.1066538742602
 31
0.0
  0
LINE
  5
31E
330
1F
100
AcDbEntity
  8
0
  6
Continuous
 62
     7
370
    25
100
AcDbLine
 10
102.1266019420769
 20
138.4011404305602
 30
0.0
 11
102.0414443386769
 21
138.4948186286602
 31
0.0
  0
LINE
  5
31F
330
1F
100
AcDbEntity
  8
0
  6
Continuous
 62
     7
370
    25
100
AcDbLine
 10
105.3157700754769
 20
127.1641919238602
 30
0.0
 11
106.0368685103769
 21
127.5804731894602
 31
0.0
  0
ELLIPSE
  5
320
330
1F
100
AcDbEntity
  8
0
  6
Continuous
 62
     7
370
    25
100
AcDbEllipse
 10
103.5288792029769
 20
134.8225940491602
 30
0.0
 11
-2.388503313068668
 21
4.288523979750806
 31
0.0
210
0.0
220
0.0
230
1.0
 40
0.5873670493
 41
0.2161940113818378
 42
0.7076314302606975
  0
LINE
  5
321
330
1F
100
AcDbEntity
  8
0
  6
Continuous
 62
     7
370
    25
100
AcDbLine
 10
105.8664048772769
 20
127.4477806364602
 30
0.0
 11
105.3359940072769
 21
127.1415809587602
 31
0.0
  0
LINE
  5
322
330
1F
100
AcDbEntity
  8
0
  6
Continuous
 62
     7
370
    25
100
AcDbLine
 10
105.3435254359769
 20
126.1179030592602
 30
0.0
 11
105.8739363059769
 21
126.4241027368602
 31
0.0
  0
LINE
  5
323
330
1F
100
AcDbEntity
  8
0
  6
Continuous
 62
     7
370
    25
100
AcDbLine
 10
105.3548763765769
 20
124.5750740039602
 30
0.0
 11
106.0618881647769
 21
124.9832232215602
 31
0.0
  0
LINE
  5
324
330
1F
100
AcDbEntity
  8
0
  6
Continuous
 62
     7
370
    25
100
AcDbLine
 10
98.66790407657692
 20
129.2585860484602
 30
0.0
 11
99.19831494667693
 21
129.5647857261602
 31
0.0
  0
LINE
  5
325
330
1F
100
AcDbEntity
  8
0
  6
Continuous
 62
     7
370
    25
100
AcDbLine
 10
99.5927467011769
 20
134.5933435509602
 30
0.0
 11
99.64814169107689
 21
134.6253223978602
 31
0.0
  0
LINE
  5
326
330
1F
100
AcDbEntity
  8
0
  6
Continuous
 62
     7
370
    25
100
AcDbLine
 10
99.45207546737691
 20
134.9298063615602
 30
0.0
 11
99.66794358907691
 21
135.0544243756602
 31
0.0
  0
LINE
  5
327
330
1F
100
AcDbEntity
  8
0
  6
Continuous
 62
     7
370
    25
100
AcDbLine
 10
99.26535585577693
 20
130.8836409564602
 30
0.0
 11
99.48122397747693
 21
131.0082589705602
 31
0.0
  0
LINE
  5
328
330
1F
100
AcDbEntity
  8
0
  6
Continuous
 62
     7
370
    25
100
AcDbLine
 10
99.43928549607693
 20
130.5456783240602
 30
0.0
 11
99.46044070987693
 21
130.5578909690602
 31
0.0
  0
LINE
  5
329
330
1F
100
AcDbEntity
  8
0
  6
Continuous
 62
     7
370
    25
100
AcDbLine
 10
99.20465157647692
 20
129.5681950180602
 30
0.0
 11
99.40664673987692
 21
129.6848043437602
 31
0.0
  0
LINE
  5
32A
330
1F
100
AcDbEntity
  8
0
  6
Continuous
 62
     8
370
    25
100
AcDbLine
 10
128.2531745786769
 20
207.4554502175602
 30
0.0
 11
128.2531745786769
 21
207.6880997358602
 31
0.0
  0
LINE
  5
32B
330
1F
100
AcDbEntity
  8
0
  6
Continuous
 62
     8
370
    25
100
AcDbLine
 10
129.0332718592769
 20
208.0399366975602
 30
0.0
 11
129.0332718592769
 21
207.8072871791602
 31
0.0
  0
LINE
  5
32C
330
1F
100
AcDbEntity
  8
0
  6
Continuous
 62
     8
370
    25
100
AcDbLine
 10
128.0407269942769
 20
207.8752430671602
 30
0.0
 11
128.0407269942769
 21
208.1102964208602
 31
0.0
  0
LINE
  5
32D
330
1F
100
AcDbEntity
  8
0
  6
Continuous
 62
     8
370
    25
100
AcDbLine
 10
146.6379508894769
 20
196.8421447638602
 30
0.0
 11
146.6379508894769
 21
197.0747942822602
 31
0.0
  0
LINE
  5
32E
330
1F
100
AcDbEntity
  8
0
  6
Continuous
 62
     8
370
    25
100
AcDbLine
 10
147.4180481701769
 20
197.4266312438602
 30
0.0
 11
147.4180481701769
 21
197.1939817254602
 31
0.0
  0
LINE
  5
32F
330
1F
100
AcDbEntity
  8
0
  6
Continuous
 62
     8
370
    25
100
AcDbLine
 10
146.4255033051769
 20
197.2619376135602
 30
0.0
 11
146.4255033051769
 21
197.4969909672602
 31
0.0
  0
LINE
  5
330
330
1F
100
AcDbEntity
  8
0
  6
Continuous
 62
     8
370
    25
100
AcDbLine
 10
123.4547788974769
 20
181.5038395470602
 30
0.0
 11
124.0958187161769
 21
180.8184437856602
 31
0.0
  0
LINE
  5
331
330
1F
100
AcDbEntity
  8
0
  6
Continuous
 62
     8
370
    25
100
AcDbLine
 10
99.62479468747694
 20
194.1422082407602
 30
0.0
 11
80.17312387077692
 21
205.3714187828602
 31
0.0
  0
LINE
  5
332
330
1F
100
AcDbEntity
  8
0
  6
Continuous
 62
     8
370
    25
100
AcDbLine
 10
123.2845850376769
 20
206.3658742177602
 30
0.0
 11
122.9257257424769
 21
206.5730392792602
 31
0.0
  0
LWPOLYLINE
  5
333
330
1F
100
AcDbEntity
  8
0
  6
Continuous
 62
     8
370
    25
100
AcDbPolyline
 90
        9
 70
   128
 43
0.0
 10
123.8811251195769
 20
180.5439702367602
 10
123.1409292257769
 20
181.3476671754602
 10
122.5405088836769
 20
182.1893185436602
 10
122.0856264945769
 20
183.0608467789602
 10
121.7806476911769
 20
183.9538875824602
 10
121.6284994400769
 20
184.8598701928602
 10
121.6306419502769
 20
185.7700996430602
 10
121.7870546594769
 20
186.6758402077602
 10
121.8916880077769
 20
187.0323702079602
  0
LINE
  5
334
330
1F
100
AcDbEntity
  8
0
  6
Continuous
 62
     8
370
    25
100
AcDbLine
 10
105.8119790228769
 20
190.5704227515602
 30
0.0
 11
100.6823979125769
 21
193.5316668946602
 31
0.0
  0
LINE
  5
335
330
1F
100
AcDbEntity
  8
0
  6
Continuous
 62
     8
370
    25
100
AcDbLine
 10
146.1517019302769
 20
119.8587404297602
 30
0.0
 11
145.8991853277769
 21
120.0045151614602
 31
0.0
  0
ARC
  5
336
330
1F
100
AcDbEntity
  8
0
  6
Continuous
 62
     8
370
    25
100
AcDbCircle
 10
86.03609075437691
 20
215.7804489584602
 30
0.0
 40
11.94664345649922
100
AcDbArc
 50
224.9189221196
 51
240.6092766665
  0
LINE
  5
337
330
1F
100
AcDbEntity
  8
0
  6
Continuous
 62
     8
370
    25
100
AcDbLine
 10
152.7385516652769
 20
123.2787406246602
 30
0.0
 11
152.0394830729769
 21
123.6823043329602
 31
0.0
  0
ARC
  5
338
330
1F
100
AcDbEntity
  8
0
  6
Continuous
 62
     8
370
    25
100
AcDbCircle
 10
102.4894199570769
 20
218.3132142030602
 30
0.0
 40
0.1234501448812524
100
AcDbArc
 50
65.07714963120303
 51
126.2333087979094
  0
LINE
  5
339
330
1F
100
AcDbEntity
  8
0
  6
Continuous
 62
     8
370
    25
100
AcDbLine
 10
105.2317109779769
 20
132.7295077248602
 30
0.0
 11
105.9168617570769
 21
133.1250368505602
 31
0.0
  0
LINE
  5
33A
330
1F
100
AcDbEntity
  8
0
  6
Continuous
 62
     8
370
    25
100
AcDbLine
 10
99.53199488127689
 20
136.6616392680602
 30
0.0
 11
99.91906130007692
 21
136.8850879554602
 31
0.0
  0
ENDSEC
  0
SECTION
  2
OBJECTS
  0
DICTIONARY
  5
C
330
0
100
AcDbDictionary
281
     1
  3
ACAD_DETAILVIEWSTYLE
350
348
  3
ACAD_GROUP
350
D
  3
ACAD_LAYOUT
350
1A
  3
ACAD_MATERIAL
350
43
  3
ACAD_MLEADERSTYLE
350
6B
  3
ACAD_MLINESTYLE
350
17
  3
ACAD_PLOTSETTINGS
350
19
  3
ACAD_PLOTSTYLENAME
350
E
  3
ACAD_SCALELIST
350
47
  3
ACAD_SECTIONVIEWSTYLE
350
349
  3
ACAD_TABLESTYLE
350
69
  3
ACAD_VISUALSTYLE
350
2A
  3
ACDB_RECOMPOSE_DATA
350
353
  3
AcDbVariableDictionary
350
341
  3
APPDATA
350
34C
  0
SUN
  5
6D
330
29
100
AcDbSun
 90
        1
290
     0
 63
     7
421
 16777215
 40
1.0
291
     1
 91
  2455826
 92
 54000000
292
     0
 70
     2
 71
   256
280
     1
  0
DICTIONARY
  5
34F
330
1F
100
AcDbDictionary
280
     1
281
     1
  3
DIM_BOUNDING_BOXES_V1
360
350
  0
DICTIONARY
  5
348
102
{ACAD_REACTORS
330
C
102
}
330
C
100
AcDbDictionary
281
     1
  0
DICTIONARY
  5
D
102
{ACAD_REACTORS
330
C
102
}
330
C
100
AcDbDictionary
281
     1
  0
DICTIONARY
  5
1A
102
{ACAD_REACTORS
330
C
102
}
330
C
100
AcDbDictionary
281
     1
  3
Layout1
350
1E
  3
Layout2
350
26
  3
Model
350
22
  0
DICTIONARY
  5
43
102
{ACAD_REACTORS
330
C
102
}
330
C
100
AcDbDictionary
281
     1
  3
ByBlock
350
45
  3
ByLayer
350
44
  3
Global
350
46
  0
DICTIONARY
  5
6B
102
{ACAD_REACTORS
330
C
102
}
330
C
100
AcDbDictionary
281
     1
  3
Standard
350
6C
  0
DICTIONARY
  5
17
102
{ACAD_REACTORS
330
C
102
}
330
C
100
AcDbDictionary
281
     1
  3
Standard
350
18
  0
DICTIONARY
  5
19
102
{ACAD_REACTORS
330
C
102
}
330
C
100
AcDbDictionary
281
     1
  0
ACDBDICTIONARYWDFLT
  5
E
102
{ACAD_REACTORS
330
C
102
}
330
C
100
AcDbDictionary
281
     1
  3
Normal
350
F
100
AcDbDictionaryWithDefault
340
F
  0
DICTIONARY
  5
47
102
{ACAD_REACTORS
330
C
102
}
330
C
100
AcDbDictionary
281
     1
  3
A0
350
48
  3
A1
350
49
  3
A2
350
4A
  3
A3
350
4B
  3
A4
350
4C
  3
A5
350
4D
  3
A6
350
4E
  3
A7
350
4F
  3
A8
350
50
  3
A9
350
51
  3
B0
350
52
  3
B1
350
53
  3
B2
350
54
  3
B3
350
55
  3
B4
350
56
  3
B5
350
57
  3
B6
350
58
  3
B7
350
59
  3
B8
350
5A
  3
B9
350
5B
  3
C0
350
5C
  3
C1
350
5D
  3
C2
350
5E
  3
C3
350
5F
  3
C4
350
60
  3
C5
350
61
  3
C6
350
62
  3
C7
350
63
  3
C8
350
64
  3
C9
350
65
  3
D0
350
66
  3
D1
350
67
  3
D2
350
68
  0
DICTIONARY
  5
349
102
{ACAD_REACTORS
330
C
102
}
330
C
100
AcDbDictionary
281
     1
  0
DICTIONARY
  5
69
102
{ACAD_REACTORS
330
C
102
}
330
C
100
AcDbDictionary
281
     1
  3
Standard
350
6A
  0
DICTIONARY
  5
2A
102
{ACAD_REACTORS
330
C
102
}
330
C
100
AcDbDictionary
281
     1
  3
2dWireframe
350
2F
  3
Basic
350
32
  3
Brighten
350
36
  3
ColorChange
350
3A
  3
Conceptual
350
34
  3
Dim
350
35
  3
EdgeColorOff
350
3D
  3
Facepattern
350
39
  3
Flat
350
2B
  3
FlatWithEdges
350
2C
  3
Gouraud
350
2D
  3
GouraudWithEdges
350
2E
  3
Hidden
350
31
  3
JitterOff
350
3B
  3
Linepattern
350
38
  3
OverhangOff
350
3C
  3
Realistic
350
33
  3
Shaded
350
42
  3
Shaded with edges
350
41
  3
Shades of Gray
350
3E
  3
Sketchy
350
3F
  3
Thicken
350
37
  3
Wireframe
350
30
  3
X-Ray
350
40
  0
XRECORD
  5
353
102
{ACAD_REACTORS
330
C
102
}
330
C
100
AcDbXrecord
280
     1
 90
        1
330
6A
  0
DICTIONARY
  5
341
102
{ACAD_REACTORS
330
C
102
}
330
C
100
AcDbDictionary
281
     1
  3
CANNOSCALE
350
342
  3
CENTEREXE
350
34A
  3
CENTERLTYPEFILE
350
34B
  3
CMLEADERSTYLE
350
347
  3
CTABLESTYLE
350
346
  0
DICTIONARY
  5
34C
102
{ACAD_REACTORS
330
C
102
}
330
C
100
AcDbDictionary
281
     1
  0
DICTIONARY
  5
350
102
{ACAD_REACTORS
330
34F
102
}
330
34F
100
AcDbDictionary
281
     1
  0
LAYOUT
  5
1E
102
{ACAD_REACTORS
330
1A
102
}
330
1A
100
AcDbPlotSettings
  1

  2
none_device
  4

  6

 40
0.0
 41
0.0
 42
0.0
 43
0.0
 44
0.0
 45
0.0
 46
0.0
 47
0.0
 48
0.0
 49
0.0
140
0.0
141
0.0
142
1.0
143
1.0
 70
   688
 72
     1
 73
     0
 74
     5
  7

 75
    16
 76
     0
 77
     2
 78
   300
147
1.0
148
0.0
149
0.0
100
AcDbLayout
  1
Layout1
 70
     1
 71
     1
 10
0.0
 20
0.0
 11
420.0
 21
297.0
 12
0.0
 22
0.0
 32
0.0
 14
1.000000000000000E+20
 24
1.000000000000000E+20
 34
1.000000000000000E+20
 15
-1.000000000000000E+20
 25
-1.000000000000000E+20
 35
-1.000000000000000E+20
146
0.0
 13
0.0
 23
0.0
 33
0.0
 16
1.0
 26
0.0
 36
0.0
 17
0.0
 27
1.0
 37
0.0
 76
     0
330
1B
  0
LAYOUT
  5
26
102
{ACAD_REACTORS
330
1A
102
}
330
1A
100
AcDbPlotSettings
  1

  2
none_device
  4

  6

 40
0.0
 41
0.0
 42
0.0
 43
0.0
 44
0.0
 45
0.0
 46
0.0
 47
0.0
 48
0.0
 49
0.0
140
0.0
141
0.0
142
1.0
143
1.0
 70
   688
 72
     1
 73
     0
 74
     5
  7

 75
    16
 76
     0
 77
     2
 78
   300
147
1.0
148
0.0
149
0.0
100
AcDbLayout
  1
Layout2
 70
     1
 71
     2
 10
0.0
 20
0.0
 11
0.0
 21
0.0
 12
0.0
 22
0.0
 32
0.0
 14
0.0
 24
0.0
 34
0.0
 15
0.0
 25
0.0
 35
0.0
146
0.0
 13
0.0
 23
0.0
 33
0.0
 16
1.0
 26
0.0
 36
0.0
 17
0.0
 27
1.0
 37
0.0
 76
     0
330
23
  0
LAYOUT
  5
22
102
{ACAD_REACTORS
330
1A
102
}
330
1A
100
AcDbPlotSettings
  1

  2
none_device
  4
Letter_(8.50_x_11.00_Inches)
  6

 40
6.35
 41
6.35
 42
6.35000508
 43
6.35000508
 44
215.9
 45
279.4
 46
0.0
 47
0.0
 48
0.0
 49
0.0
140
0.0
141
0.0
142
1.0
143
1.0
 70
  1712
 72
     1
 73
     0
 74
     0
  7

 75
     0
 76
     0
 77
     2
 78
   300
147
1.0
148
0.0
149
0.0
100
AcDbLayout
  1
Model
 70
     1
 71
     0
 10
0.0
 20
0.0
 11
210.0
 21
297.0
 12
0.0
 22
0.0
 32
0.0
 14
74.1389693887769
 24
110.0245426529602
 34
0.0
 15
181.7068022963655
 25
221.0997717985723
 35
0.0
146
0.0
 13
0.0
 23
0.0
 33
0.0
 16
1.0
 26
0.0
 36
0.0
 17
0.0
 27
1.0
 37
0.0
 76
     0
330
1F
331
29
  0
MATERIAL
  5
45
102
{ACAD_REACTORS
330
43
102
}
330
43
100
AcDbMaterial
  1
ByBlock
 72
     1
 94
      127
  0
MATERIAL
  5
44
102
{ACAD_REACTORS
330
43
102
}
330
43
100
AcDbMaterial
  1
ByLayer
 72
     1
 94
      127
  0
MATERIAL
  5
46
102
{ACAD_REACTORS
330
43
102
}
330
43
100
AcDbMaterial
  1
Global
 72
     1
 94
      127
  0
MLEADERSTYLE
  5
6C
102
{ACAD_REACTORS
330
6B
102
}
330
6B
100
AcDbMLeaderStyle
179
     2
170
     2
171
     1
172
     0
 90
        2
 40
0.0
 41
0.0
173
     1
 91
-1056964608
340
14
 92
       -2
290
     1
 42
2.0
291
     1
 43
8.0
  3
Standard
341
0
 44
4.0
300

342
11
174
     1
178
     6
175
     1
176
     0
 93
-1056964608
 45
4.0
292
     0
297
     0
 46
4.0
343
0
 94
-1056964608
 47
1.0
 49
1.0
140
1.0
293
     1
141
0.0
294
     1
177
     0
142
1.0
295
     0
296
     0
143
3.75
271
     0
272
     9
273
     9
298
     0
  0
MLINESTYLE
  5
18
102
{ACAD_REACTORS
330
17
102
}
330
17
100
AcDbMlineStyle
  2
Standard
 70
     0
  3

 62
   256
 51
90.0
 52
90.0
 71
     2
 49
0.5
 62
   256
  6
BYLAYER
 49
-0.5
 62
   256
  6
BYLAYER
  0
ACDBPLACEHOLDER
  5
F
102
{ACAD_REACTORS
330
E
102
}
330
E
  0
SCALE
  5
48
102
{ACAD_REACTORS
330
47
102
}
330
47
100
AcDbScale
 70
     0
300
1:1
140
1.0
141
1.0
290
     1
  0
SCALE
  5
49
102
{ACAD_REACTORS
330
47
102
}
330
47
100
AcDbScale
 70
     0
300
1:2
140
1.0
141
2.0
290
     0
  0
SCALE
  5
4A
102
{ACAD_REACTORS
330
47
102
}
330
47
100
AcDbScale
 70
     0
300
1:4
140
1.0
141
4.0
290
     0
  0
SCALE
  5
4B
102
{ACAD_REACTORS
330
47
102
}
330
47
100
AcDbScale
 70
     0
300
1:5
140
1.0
141
5.0
290
     0
  0
SCALE
  5
4C
102
{ACAD_REACTORS
330
47
102
}
330
47
100
AcDbScale
 70
     0
300
1:8
140
1.0
141
8.0
290
     0
  0
SCALE
  5
4D
102
{ACAD_REACTORS
330
47
102
}
330
47
100
AcDbScale
 70
     0
300
1:10
140
1.0
141
10.0
290
     0
  0
SCALE
  5
4E
102
{ACAD_REACTORS
330
47
102
}
330
47
100
AcDbScale
 70
     0
300
1:16
140
1.0
141
16.0
290
     0
  0
SCALE
  5
4F
102
{ACAD_REACTORS
330
47
102
}
330
47
100
AcDbScale
 70
     0
300
1:20
140
1.0
141
20.0
290
     0
  0
SCALE
  5
50
102
{ACAD_REACTORS
330
47
102
}
330
47
100
AcDbScale
 70
     0
300
1:30
140
1.0
141
30.0
290
     0
  0
SCALE
  5
51
102
{ACAD_REACTORS
330
47
102
}
330
47
100
AcDbScale
 70
     0
300
1:40
140
1.0
141
40.0
290
     0
  0
SCALE
  5
52
102
{ACAD_REACTORS
330
47
102
}
330
47
100
AcDbScale
 70
     0
300
1:50
140
1.0
141
50.0
290
     0
  0
SCALE
  5
53
102
{ACAD_REACTORS
330
47
102
}
330
47
100
AcDbScale
 70
     0
300
1:100
140
1.0
141
100.0
290
     0
  0
SCALE
  5
54
102
{ACAD_REACTORS
330
47
102
}
330
47
100
AcDbScale
 70
     0
300
2:1
140
2.0
141
1.0
290
     0
  0
SCALE
  5
55
102
{ACAD_REACTORS
330
47
102
}
330
47
100
AcDbScale
 70
     0
300
4:1
140
4.0
141
1.0
290
     0
  0
SCALE
  5
56
102
{ACAD_REACTORS
330
47
102
}
330
47
100
AcDbScale
 70
     0
300
8:1
140
8.0
141
1.0
290
     0
  0
SCALE
  5
57
102
{ACAD_REACTORS
330
47
102
}
330
47
100
AcDbScale
 70
     0
300
10:1
140
10.0
141
1.0
290
     0
  0
SCALE
  5
58
102
{ACAD_REACTORS
330
47
102
}
330
47
100
AcDbScale
 70
     0
300
100:1
140
100.0
141
1.0
290
     0
  0
SCALE
  5
59
102
{ACAD_REACTORS
330
47
102
}
330
47
100
AcDbScale
 70
     0
300
1/128" = 1'-0"
140
0.0078125
141
12.0
290
     0
  0
SCALE
  5
5A
102
{ACAD_REACTORS
330
47
102
}
330
47
100
AcDbScale
 70
     0
300
1/64" = 1'-0"
140
0.015625
141
12.0
290
     0
  0
SCALE
  5
5B
102
{ACAD_REACTORS
330
47
102
}
330
47
100
AcDbScale
 70
     0
300
1/32" = 1'-0"
140
0.03125
141
12.0
290
     0
  0
SCALE
  5
5C
102
{ACAD_REACTORS
330
47
102
}
330
47
100
AcDbScale
 70
     0
300
1/16" = 1'-0"
140
0.0625
141
12.0
290
     0
  0
SCALE
  5
5D
102
{ACAD_REACTORS
330
47
102
}
330
47
100
AcDbScale
 70
     0
300
3/32" = 1'-0"
140
0.09375
141
12.0
290
     0
  0
SCALE
  5
5E
102
{ACAD_REACTORS
330
47
102
}
330
47
100
AcDbScale
 70
     0
300
1/8" = 1'-0"
140
0.125
141
12.0
290
     0
  0
SCALE
  5
5F
102
{ACAD_REACTORS
330
47
102
}
330
47
100
AcDbScale
 70
     0
300
3/16" = 1'-0"
140
0.1875
141
12.0
290
     0
  0
SCALE
  5
60
102
{ACAD_REACTORS
330
47
102
}
330
47
100
AcDbScale
 70
     0
300
1/4" = 1'-0"
140
0.25
141
12.0
290
     0
  0
SCALE
  5
61
102
{ACAD_REACTORS
330
47
102
}
330
47
100
AcDbScale
 70
     0
300
3/8" = 1'-0"
140
0.375
141
12.0
290
     0
  0
SCALE
  5
62
102
{ACAD_REACTORS
330
47
102
}
330
47
100
AcDbScale
 70
     0
300
1/2" = 1'-0"
140
0.5
141
12.0
290
     0
  0
SCALE
  5
63
102
{ACAD_REACTORS
330
47
102
}
330
47
100
AcDbScale
 70
     0
300
3/4" = 1'-0"
140
0.75
141
12.0
290
     0
  0
SCALE
  5
64
102
{ACAD_REACTORS
330
47
102
}
330
47
100
AcDbScale
 70
     0
300
1" = 1'-0"
140
1.0
141
12.0
290
     0
  0
SCALE
  5
65
102
{ACAD_REACTORS
330
47
102
}
330
47
100
AcDbScale
 70
     0
300
1-1/2" = 1'-0"
140
1.5
141
12.0
290
     0
  0
SCALE
  5
66
102
{ACAD_REACTORS
330
47
102
}
330
47
100
AcDbScale
 70
     0
300
3" = 1'-0"
140
3.0
141
12.0
290
     0
  0
SCALE
  5
67
102
{ACAD_REACTORS
330
47
102
}
330
47
100
AcDbScale
 70
     0
300
6" = 1'-0"
140
6.0
141
12.0
290
     0
  0
SCALE
  5
68
102
{ACAD_REACTORS
330
47
102
}
330
47
100
AcDbScale
 70
     0
300
1'-0" = 1'-0"
140
12.0
141
12.0
290
     0
  0
TABLESTYLE
  5
6A
102
{ACAD_REACTORS
330
69
102
}
102
{ACAD_XDICTIONARY
360
351
102
}
330
69
100
AcDbTableStyle
  3
Standard
 70
     0
 71
     0
 40
0.06
 41
0.06
280
     0
281
     0
  7
Standard
140
4.5
170
     2
 62
     0
 63
   257
283
     0
 90
        4
 91
        0
  1

274
    -2
284
     1
 64
     0
275
    -2
285
     1
 65
     0
276
    -2
286
     1
 66
     0
277
    -2
287
     1
 67
     0
278
    -2
288
     1
 68
     0
279
    -2
289
     1
 69
     0
  7
Standard
140
6.0
170
     5
 62
     0
 63
   257
283
     0
 90
        4
 91
        0
  1

274
    -2
284
     1
 64
     0
275
    -2
285
     1
 65
     0
276
    -2
286
     1
 66
     0
277
    -2
287
     1
 67
     0
278
    -2
288
     1
 68
     0
279
    -2
289
     1
 69
     0
  7
Standard
140
4.5
170
     5
 62
     0
 63
   257
283
     0
 90
        4
 91
        0
  1

274
    -2
284
     1
 64
     0
275
    -2
285
     1
 65
     0
276
    -2
286
     1
 66
     0
277
    -2
287
     1
 67
     0
278
    -2
288
     1
 68
     0
279
    -2
289
     1
 69
     0
  0
VISUALSTYLE
  5
2F
102
{ACAD_REACTORS
330
2A
102
}
330
2A
100
AcDbVisualStyle
  2
2dWireframe
 70
     4
177
     3
291
     0
 70
    58
 90
        0
176
     1
 90
        2
176
     1
 90
        0
176
     1
 90
        0
176
     1
 40
0.6
176
     1
 40
30.0
176
     1
 62
     7
420
 16777215
176
     1
 90
        1
176
     1
 90
        4
176
     1
 62
     7
176
     1
 62
   257
176
     1
 90
        1
176
     1
 90
        1
176
     1
 40
1.0
176
     1
 90
        0
176
     1
 62
   257
176
     1
 40
1.0
176
     1
 90
        1
176
     1
 90
        6
176
     1
 90
        2
176
     1
 62
     7
176
     1
 90
        5
176
     1
 90
        0
176
     1
 90
        0
176
     1
290
     0
176
     1
 90
        1
176
     1
 40
0.0
176
     1
 90
        0
176
     1
290
     1
176
     1
290
     1
176
     1
290
     0
176
     1
290
     0
176
     1
290
     0
176
     1
290
     0
176
     1
290
     0
176
     1
290
     0
176
     1
290
     0
176
     1
 90
       50
176
     1
 40
0.0
176
     1
 40
1.0
176
     1
 90
        0
176
     1
 62
    18
420
        0
176
     1
 90
       50
176
     1
 90
        3
176
     1
 62
     5
420
      255
176
     1
290
     0
176
     1
 90
       50
176
     1
 90
       50
176
     1
 90
       50
176
     1
290
     0
176
     1
 90
       50
176
     1
 62
   256
176
     0
 40
1.0
176
     0
 90
        2
176
     1
  1
strokes_ogs.tif
176
     1
290
     0
176
     1
 40
1.0
176
     1
 40
1.0
176
     1
  0
VISUALSTYLE
  5
32
102
{ACAD_REACTORS
330
2A
102
}
330
2A
100
AcDbVisualStyle
  2
Basic
 70
     7
177
     3
291
     1
 70
    58
 90
        1
176
     1
 90
        0
176
     1
 90
        1
176
     1
 90
        0
176
     1
 40
0.6
176
     1
 40
30.0
176
     1
 62
     7
420
 16777215
176
     1
 90
        0
176
     1
 90
        4
176
     1
 62
     7
176
     1
 62
   257
176
     1
 90
        1
176
     1
 90
        1
176
     1
 40
1.0
176
     1
 90
        8
176
     1
 62
     7
176
     1
 40
1.0
176
     1
 90
        1
176
     1
 90
        6
176
     1
 90
        2
176
     1
 62
     7
176
     1
 90
        5
176
     1
 90
        0
176
     1
 90
        0
176
     1
290
     0
176
     1
 90
        1
176
     1
 40
0.0
176
     1
 90
        0
176
     1
290
     0
176
     1
290
     1
176
     1
290
     1
176
     1
290
     0
176
     1
290
     0
176
     1
290
     0
176
     1
290
     0
176
     1
290
     0
176
     1
290
     0
176
     1
 90
       50
176
     1
 40
0.0
176
     1
 40
1.0
176
     1
 90
        0
176
     1
 62
    18
420
        0
176
     1
 90
       50
176
     1
 90
        3
176
     1
 62
     5
420
      255
176
     1
290
     0
176
     1
 90
       50
176
     1
 90
       50
176
     1
 90
       50
176
     1
290
     0
176
     1
 90
       50
176
     1
 62
   256
176
     0
 40
1.0
176
     0
 90
        2
176
     1
  1
strokes_ogs.tif
176
     1
290
     0
176
     1
 40
1.0
176
     1
 40
1.0
176
     1
  0
VISUALSTYLE
  5
36
102
{ACAD_REACTORS
330
2A
102
}
330
2A
100
AcDbVisualStyle
  2
Brighten
 70
    12
177
     3
291
     1
 70
    58
 90
        2
176
     1
 90
        2
176
     1
 90
        0
176
     1
 90
        0
176
     1
 40
0.6
176
     1
 40
30.0
176
     1
 62
     7
420
 16777215
176
     1
 90
        1
176
     1
 90
        4
176
     1
 62
     7
176
     1
 62
   257
176
     1
 90
        1
176
     1
 90
        1
176
     1
 40
1.0
176
     1
 90
        8
176
     1
 62
     7
176
     1
 40
1.0
176
     1
 90
        1
176
     1
 90
        6
176
     1
 90
        2
176
     1
 62
     7
176
     1
 90
        5
176
     1
 90
        0
176
     1
 90
        0
176
     1
290
     0
176
     1
 90
        1
176
     1
 40
50.0
176
     1
 90
        0
176
     1
290
     0
176
     1
290
     1
176
     1
290
     1
176
     1
290
     0
176
     1
290
     0
176
     1
290
     0
176
     1
290
     0
176
     1
290
     0
176
     1
290
     0
176
     1
 90
       50
176
     1
 40
0.0
176
     1
 40
1.0
176
     1
 90
        0
176
     1
 62
    18
420
        0
176
     1
 90
       50
176
     1
 90
        3
176
     1
 62
     5
420
      255
176
     1
290
     0
176
     1
 90
       50
176
     1
 90
       50
176
     1
 90
       50
176
     1
290
     0
176
     1
 90
       50
176
     1
 62
   256
176
     0
 40
1.0
176
     0
 90
        2
176
     1
  1
strokes_ogs.tif
176
     1
290
     0
176
     1
 40
1.0
176
     1
 40
1.0
176
     1
  0
VISUALSTYLE
  5
3A
102
{ACAD_REACTORS
330
2A
102
}
330
2A
100
AcDbVisualStyle
  2
ColorChange
 70
    16
177
     3
291
     1
 70
    58
 90
        2
176
     1
 90
        2
176
     1
 90
        3
176
     1
 90
        0
176
     1
 40
0.6
176
     1
 40
30.0
176
     1
 62
     8
420
  8421504
176
     1
 90
        1
176
     1
 90
        4
176
     1
 62
     7
176
     1
 62
   257
176
     1
 90
        1
176
     1
 90
        1
176
     1
 40
1.0
176
     1
 90
        8
176
     1
 62
     8
420
  8421504
176
     1
 40
1.0
176
     1
 90
        1
176
     1
 90
        6
176
     1
 90
        2
176
     1
 62
     7
176
     1
 90
        5
176
     1
 90
        0
176
     1
 90
        0
176
     1
290
     0
176
     1
 90
        1
176
     1
 40
0.0
176
     1
 90
        0
176
     1
290
     0
176
     1
290
     1
176
     1
290
     1
176
     1
290
     0
176
     1
290
     0
176
     1
290
     0
176
     1
290
     0
176
     1
290
     0
176
     1
290
     0
176
     1
 90
       50
176
     1
 40
0.0
176
     1
 40
1.0
176
     1
 90
        0
176
     1
 62
    18
420
        0
176
     1
 90
       50
176
     1
 90
        3
176
     1
 62
     5
420
      255
176
     1
290
     0
176
     1
 90
       50
176
     1
 90
       50
176
     1
 90
       50
176
     1
290
     0
176
     1
 90
       50
176
     1
 62
   256
176
     0
 40
1.0
176
     0
 90
        2
176
     1
  1
strokes_ogs.tif
176
     1
290
     0
176
     1
 40
1.0
176
     1
 40
1.0
176
     1
  0
VISUALSTYLE
  5
34
102
{ACAD_REACTORS
330
2A
102
}
330
2A
100
AcDbVisualStyle
  2
Conceptual
 70
     9
177
     3
291
     0
 70
    58
 90
        3
176
     1
 90
        2
176
     1
 90
        0
176
     1
 90
        0
176
     1
 40
0.6
176
     1
 40
30.0
176
     1
 62
     7
420
 16777215
176
     1
 90
        2
176
     1
 90
        2
176
     1
 62
     7
176
     1
 62
   257
176
     1
 90
        1
176
     1
 90
        1
176
     1
 40
179.0
176
     1
 90
        8
176
     1
 62
     7
176
     1
 40
1.0
176
     1
 90
        1
176
     1
 90
        6
176
     1
 90
        2
176
     1
 62
     7
176
     1
 90
        3
176
     1
 90
        0
176
     1
 90
        0
176
     1
290
     0
176
     1
 90
        1
176
     1
 40
0.0
176
     1
 90
        0
176
     1
290
     0
176
     1
290
     1
176
     1
290
     1
176
     1
290
     0
176
     1
290
     0
176
     1
290
     0
176
     1
290
     0
176
     1
290
     0
176
     1
290
     0
176
     1
 90
       50
176
     1
 40
0.0
176
     1
 40
1.0
176
     1
 90
        0
176
     1
 62
    18
420
        0
176
     1
 90
       50
176
     1
 90
        3
176
     1
 62
     5
420
      255
176
     1
290
     0
176
     1
 90
       50
176
     1
 90
       50
176
     1
 90
       50
176
     1
290
     0
176
     1
 90
       50
176
     1
 62
   256
176
     0
 40
1.0
176
     0
 90
        2
176
     1
  1
strokes_ogs.tif
176
     1
290
     0
176
     1
 40
1.0
176
     1
 40
1.0
176
     1
  0
VISUALSTYLE
  5
35
102
{ACAD_REACTORS
330
2A
102
}
330
2A
100
AcDbVisualStyle
  2
Dim
 70
    11
177
     3
291
     1
 70
    58
 90
        2
176
     1
 90
        2
176
     1
 90
        0
176
     1
 90
        0
176
     1
 40
0.6
176
     1
 40
30.0
176
     1
 62
     7
420
 16777215
176
     1
 90
        1
176
     1
 90
        4
176
     1
 62
     7
176
     1
 62
   257
176
     1
 90
        1
176
     1
 90
        1
176
     1
 40
1.0
176
     1
 90
        8
176
     1
 62
     7
176
     1
 40
1.0
176
     1
 90
        1
176
     1
 90
        6
176
     1
 90
        2
176
     1
 62
     7
176
     1
 90
        5
176
     1
 90
        0
176
     1
 90
        0
176
     1
290
     0
176
     1
 90
        1
176
     1
 40
-50.0
176
     1
 90
        0
176
     1
290
     0
176
     1
290
     1
176
     1
290
     1
176
     1
290
     0
176
     1
290
     0
176
     1
290
     0
176
     1
290
     0
176
     1
290
     0
176
     1
290
     0
176
     1
 90
       50
176
     1
 40
0.0
176
     1
 40
1.0
176
     1
 90
        0
176
     1
 62
    18
420
        0
176
     1
 90
       50
176
     1
 90
        3
176
     1
 62
     5
420
      255
176
     1
290
     0
176
     1
 90
       50
176
     1
 90
       50
176
     1
 90
       50
176
     1
290
     0
176
     1
 90
       50
176
     1
 62
   256
176
     0
 40
1.0
176
     0
 90
        2
176
     1
  1
strokes_ogs.tif
176
     1
290
     0
176
     1
 40
1.0
176
     1
 40
1.0
176
     1
  0
VISUALSTYLE
  5
3D
102
{ACAD_REACTORS
330
2A
102
}
330
2A
100
AcDbVisualStyle
  2
EdgeColorOff
 70
    22
177
     3
291
     1
 70
    58
 90
        2
176
     0
 90
        2
176
     0
 90
        0
176
     0
 90
        0
176
     0
 40
0.6
176
     0
 40
30.0
176
     0
 62
     7
420
 16777215
176
     0
 90
        1
176
     0
 90
        4
176
     0
 62
     7
176
     0
 62
   257
176
     0
 90
        1
176
     0
 90
        1
176
     0
 40
1.0
176
     0
 90
        8
176
     2
 62
     7
176
     0
 40
1.0
176
     0
 90
        1
176
     0
 90
        6
176
     0
 90
        2
176
     0
 62
     7
176
     0
 90
        5
176
     0
 90
        0
176
     0
 90
        0
176
     0
290
     0
176
     0
 90
        1
176
     0
 40
0.0
176
     0
 90
        0
176
     0
290
     0
176
     0
290
     1
176
     0
290
     1
176
     0
290
     0
176
     0
290
     0
176
     0
290
     0
176
     0
290
     0
176
     0
290
     0
176
     0
290
     0
176
     0
 90
       50
176
     0
 40
0.0
176
     0
 40
1.0
176
     0
 90
        0
176
     0
 62
    18
420
        0
176
     0
 90
       50
176
     0
 90
        3
176
     0
 62
     5
420
      255
176
     0
290
     0
176
     0
 90
       50
176
     0
 90
       50
176
     0
 90
       50
176
     0
290
     0
176
     0
 90
       50
176
     0
 62
   256
176
     0
 40
1.0
176
     0
 90
        2
176
     0
  1
strokes_ogs.tif
176
     0
290
     0
176
     0
 40
1.0
176
     0
 40
1.0
176
     0
  0
VISUALSTYLE
  5
39
102
{ACAD_REACTORS
330
2A
102
}
330
2A
100
AcDbVisualStyle
  2
Facepattern
 70
    15
177
     3
291
     1
 70
    58
 90
        2
176
     1
 90
        2
176
     1
 90
        0
176
     1
 90
        0
176
     1
 40
0.6
176
     1
 40
30.0
176
     1
 62
     7
420
 16777215
176
     1
 90
        1
176
     1
 90
        4
176
     1
 62
     7
176
     1
 62
   257
176
     1
 90
        1
176
     1
 90
        1
176
     1
 40
1.0
176
     1
 90
        8
176
     1
 62
     7
176
     1
 40
1.0
176
     1
 90
        1
176
     1
 90
        6
176
     1
 90
        2
176
     1
 62
     7
176
     1
 90
        5
176
     1
 90
        0
176
     1
 90
        0
176
     1
290
     0
176
     1
 90
        1
176
     1
 40
0.0
176
     1
 90
        0
176
     1
290
     0
176
     1
290
     1
176
     1
290
     1
176
     1
290
     0
176
     1
290
     0
176
     1
290
     0
176
     1
290
     0
176
     1
290
     0
176
     1
290
     0
176
     1
 90
       50
176
     1
 40
0.0
176
     1
 40
1.0
176
     1
 90
        0
176
     1
 62
    18
420
        0
176
     1
 90
       50
176
     1
 90
        3
176
     1
 62
     5
420
      255
176
     1
290
     0
176
     1
 90
       50
176
     1
 90
       50
176
     1
 90
       50
176
     1
290
     0
176
     1
 90
       50
176
     1
 62
   256
176
     0
 40
1.0
176
     0
 90
        2
176
     1
  1
strokes_ogs.tif
176
     1
290
     0
176
     1
 40
1.0
176
     1
 40
1.0
176
     1
  0
VISUALSTYLE
  5
2B
102
{ACAD_REACTORS
330
2A
102
}
330
2A
100
AcDbVisualStyle
  2
Flat
 70
     0
177
     3
291
     1
 70
    58
 90
        2
176
     1
 90
        1
176
     1
 90
        1
176
     1
 90
        2
176
     1
 40
0.6
176
     1
 40
30.0
176
     1
 62
     7
420
 16777215
176
     1
 90
        0
176
     1
 90
        0
176
     1
 62
     7
176
     1
 62
   257
176
     1
 90
        1
176
     1
 90
        1
176
     1
 40
1.0
176
     1
 90
        8
176
     1
 62
     7
176
     1
 40
1.0
176
     1
 90
        1
176
     1
 90
        6
176
     1
 90
        2
176
     1
 62
     7
176
     1
 90
        5
176
     1
 90
        0
176
     1
 90
        0
176
     1
290
     0
176
     1
 90
       13
176
     1
 40
0.0
176
     1
 90
        0
176
     1
290
     0
176
     1
290
     1
176
     1
290
     1
176
     1
290
     0
176
     1
290
     0
176
     1
290
     0
176
     1
290
     0
176
     1
290
     0
176
     1
290
     0
176
     1
 90
       50
176
     1
 40
0.0
176
     1
 40
1.0
176
     1
 90
        0
176
     1
 62
    18
420
        0
176
     1
 90
       50
176
     1
 90
        3
176
     1
 62
     5
420
      255
176
     1
290
     0
176
     1
 90
       50
176
     1
 90
       50
176
     1
 90
       50
176
     1
290
     0
176
     1
 90
       50
176
     1
 62
   256
176
     0
 40
1.0
176
     0
 90
        2
176
     1
  1
strokes_ogs.tif
176
     1
290
     0
176
     1
 40
1.0
176
     1
 40
1.0
176
     1
  0
VISUALSTYLE
  5
2C
102
{ACAD_REACTORS
330
2A
102
}
330
2A
100
AcDbVisualStyle
  2
FlatWithEdges
 70
     1
177
     3
291
     1
 70
    58
 90
        2
176
     1
 90
        1
176
     1
 90
        1
176
     1
 90
        2
176
     1
 40
0.6
176
     1
 40
30.0
176
     1
 62
     7
420
 16777215
176
     1
 90
        1
176
     1
 90
        0
176
     1
 62
     7
176
     1
 62
   257
176
     1
 90
        1
176
     1
 90
        1
176
     1
 40
1.0
176
     1
 90
        0
176
     1
 62
   257
176
     1
 40
1.0
176
     1
 90
        1
176
     1
 90
        6
176
     1
 90
        2
176
     1
 62
     7
176
     1
 90
        5
176
     1
 90
        0
176
     1
 90
        0
176
     1
290
     0
176
     1
 90
       13
176
     1
 40
0.0
176
     1
 90
        0
176
     1
290
     0
176
     1
290
     1
176
     1
290
     1
176
     1
290
     0
176
     1
290
     0
176
     1
290
     0
176
     1
290
     0
176
     1
290
     0
176
     1
290
     0
176
     1
 90
       50
176
     1
 40
0.0
176
     1
 40
1.0
176
     1
 90
        0
176
     1
 62
    18
420
        0
176
     1
 90
       50
176
     1
 90
        3
176
     1
 62
     5
420
      255
176
     1
290
     0
176
     1
 90
       50
176
     1
 90
       50
176
     1
 90
       50
176
     1
290
     0
176
     1
 90
       50
176
     1
 62
   256
176
     0
 40
1.0
176
     0
 90
        2
176
     1
  1
strokes_ogs.tif
176
     1
290
     0
176
     1
 40
1.0
176
     1
 40
1.0
176
     1
  0
VISUALSTYLE
  5
2D
102
{ACAD_REACTORS
330
2A
102
}
330
2A
100
AcDbVisualStyle
  2
Gouraud
 70
     2
177
     3
291
     1
 70
    58
 90
        2
176
     1
 90
        2
176
     1
 90
        1
176
     1
 90
        2
176
     1
 40
0.6
176
     1
 40
30.0
176
     1
 62
     7
420
 16777215
176
     1
 90
        0
176
     1
 90
        0
176
     1
 62
     7
176
     1
 62
   257
176
     1
 90
        1
176
     1
 90
        1
176
     1
 40
1.0
176
     1
 90
        0
176
     1
 62
     7
176
     1
 40
1.0
176
     1
 90
        1
176
     1
 90
        6
176
     1
 90
        2
176
     1
 62
     7
176
     1
 90
        5
176
     1
 90
        0
176
     1
 90
        0
176
     1
290
     0
176
     1
 90
       13
176
     1
 40
0.0
176
     1
 90
        0
176
     1
290
     0
176
     1
290
     1
176
     1
290
     1
176
     1
290
     0
176
     1
290
     0
176
     1
290
     0
176
     1
290
     0
176
     1
290
     0
176
     1
290
     0
176
     1
 90
       50
176
     1
 40
0.0
176
     1
 40
1.0
176
     1
 90
        0
176
     1
 62
    18
420
        0
176
     1
 90
       50
176
     1
 90
        3
176
     1
 62
     5
420
      255
176
     1
290
     0
176
     1
 90
       50
176
     1
 90
       50
176
     1
 90
       50
176
     1
290
     0
176
     1
 90
       50
176
     1
 62
   256
176
     0
 40
1.0
176
     0
 90
        2
176
     1
  1
strokes_ogs.tif
176
     1
290
     0
176
     1
 40
1.0
176
     1
 40
1.0
176
     1
  0
VISUALSTYLE
  5
2E
102
{ACAD_REACTORS
330
2A
102
}
330
2A
100
AcDbVisualStyle
  2
GouraudWithEdges
 70
     3
177
     3
291
     1
 70
    58
 90
        2
176
     1
 90
        2
176
     1
 90
        1
176
     1
 90
        2
176
     1
 40
0.6
176
     1
 40
30.0
176
     1
 62
     7
420
 16777215
176
     1
 90
        1
176
     1
 90
        0
176
     1
 62
     7
176
     1
 62
   257
176
     1
 90
        1
176
     1
 90
        1
176
     1
 40
1.0
176
     1
 90
        0
176
     1
 62
   257
176
     1
 40
1.0
176
     1
 90
        1
176
     1
 90
        6
176
     1
 90
        2
176
     1
 62
     7
176
     1
 90
        5
176
     1
 90
        0
176
     1
 90
        0
176
     1
290
     0
176
     1
 90
       13
176
     1
 40
0.0
176
     1
 90
        0
176
     1
290
     0
176
     1
290
     1
176
     1
290
     1
176
     1
290
     0
176
     1
290
     0
176
     1
290
     0
176
     1
290
     0
176
     1
290
     0
176
     1
290
     0
176
     1
 90
       50
176
     1
 40
0.0
176
     1
 40
1.0
176
     1
 90
        0
176
     1
 62
    18
420
        0
176
     1
 90
       50
176
     1
 90
        3
176
     1
 62
     5
420
      255
176
     1
290
     0
176
     1
 90
       50
176
     1
 90
       50
176
     1
 90
       50
176
     1
290
     0
176
     1
 90
       50
176
     1
 62
   256
176
     0
 40
1.0
176
     0
 90
        2
176
     1
  1
strokes_ogs.tif
176
     1
290
     0
176
     1
 40
1.0
176
     1
 40
1.0
176
     1
  0
VISUALSTYLE
  5
31
102
{ACAD_REACTORS
330
2A
102
}
330
2A
100
AcDbVisualStyle
  2
Hidden
 70
     6
177
     3
291
     0
 70
    58
 90
        1
176
     1
 90
        2
176
     1
 90
        2
176
     1
 90
        0
176
     1
 40
0.6
176
     1
 40
30.0
176
     1
 62
     7
420
 16777215
176
     1
 90
        2
176
     1
 90
        2
176
     1
 62
     7
176
     1
 62
   257
176
     1
 90
        2
176
     1
 90
        1
176
     1
 40
40.0
176
     1
 90
        0
176
     1
 62
   257
176
     1
 40
1.0
176
     1
 90
        1
176
     1
 90
        6
176
     1
 90
        2
176
     1
 62
     7
176
     1
 90
        3
176
     1
 90
        0
176
     1
 90
        0
176
     1
290
     0
176
     1
 90
        1
176
     1
 40
0.0
176
     1
 90
        0
176
     1
290
     0
176
     1
290
     1
176
     1
290
     1
176
     1
290
     0
176
     1
290
     0
176
     1
290
     0
176
     1
290
     0
176
     1
290
     0
176
     1
290
     0
176
     1
 90
       50
176
     1
 40
0.0
176
     1
 40
1.0
176
     1
 90
        0
176
     1
 62
    18
420
        0
176
     1
 90
       50
176
     1
 90
        3
176
     1
 62
     5
420
      255
176
     1
290
     0
176
     1
 90
       50
176
     1
 90
       50
176
     1
 90
       50
176
     1
290
     0
176
     1
 90
       50
176
     1
 62
   256
176
     0
 40
1.0
176
     0
 90
        2
176
     1
  1
strokes_ogs.tif
176
     1
290
     0
176
     1
 40
1.0
176
     1
 40
1.0
176
     1
  0
VISUALSTYLE
  5
3B
102
{ACAD_REACTORS
330
2A
102
}
330
2A
100
AcDbVisualStyle
  2
JitterOff
 70
    20
177
     3
291
     1
 70
    58
 90
        2
176
     0
 90
        2
176
     0
 90
        0
176
     0
 90
        0
176
     0
 40
0.6
176
     0
 40
30.0
176
     0
 62
     7
420
 16777215
176
     0
 90
        1
176
     0
 90
        4
176
     0
 62
     7
176
     0
 62
   257
176
     0
 90
        1
176
     0
 90
        1
176
     0
 40
1.0
176
     0
 90
       10
176
     2
 62
     7
176
     0
 40
1.0
176
     0
 90
        1
176
     0
 90
        6
176
     0
 90
        2
176
     0
 62
     7
176
     0
 90
        5
176
     0
 90
        0
176
     0
 90
        0
176
     0
290
     0
176
     0
 90
        1
176
     0
 40
0.0
176
     0
 90
        0
176
     0
290
     0
176
     0
290
     1
176
     0
290
     1
176
     0
290
     0
176
     0
290
     0
176
     0
290
     0
176
     0
290
     0
176
     0
290
     0
176
     0
290
     0
176
     0
 90
       50
176
     0
 40
0.0
176
     0
 40
1.0
176
     0
 90
        0
176
     0
 62
    18
420
        0
176
     0
 90
       50
176
     0
 90
        3
176
     0
 62
     5
420
      255
176
     0
290
     0
176
     0
 90
       50
176
     0
 90
       50
176
     0
 90
       50
176
     0
290
     0
176
     0
 90
       50
176
     0
 62
   256
176
     0
 40
1.0
176
     0
 90
        2
176
     0
  1
strokes_ogs.tif
176
     0
290
     0
176
     0
 40
1.0
176
     0
 40
1.0
176
     0
  0
VISUALSTYLE
  5
38
102
{ACAD_REACTORS
330
2A
102
}
330
2A
100
AcDbVisualStyle
  2
Linepattern
 70
    14
177
     3
291
     1
 70
    58
 90
        2
176
     1
 90
        2
176
     1
 90
        0
176
     1
 90
        0
176
     1
 40
0.6
176
     1
 40
30.0
176
     1
 62
     7
420
 16777215
176
     1
 90
        1
176
     1
 90
        4
176
     1
 62
     7
176
     1
 62
   257
176
     1
 90
        7
176
     1
 90
        7
176
     1
 40
1.0
176
     1
 90
        8
176
     1
 62
     7
176
     1
 40
1.0
176
     1
 90
        1
176
     1
 90
        6
176
     1
 90
        2
176
     1
 62
     7
176
     1
 90
        5
176
     1
 90
        0
176
     1
 90
        0
176
     1
290
     0
176
     1
 90
        1
176
     1
 40
0.0
176
     1
 90
        0
176
     1
290
     0
176
     1
290
     1
176
     1
290
     1
176
     1
290
     0
176
     1
290
     0
176
     1
290
     0
176
     1
290
     0
176
     1
290
     0
176
     1
290
     0
176
     1
 90
       50
176
     1
 40
0.0
176
     1
 40
1.0
176
     1
 90
        0
176
     1
 62
    18
420
        0
176
     1
 90
       50
176
     1
 90
        3
176
     1
 62
     5
420
      255
176
     1
290
     0
176
     1
 90
       50
176
     1
 90
       50
176
     1
 90
       50
176
     1
290
     0
176
     1
 90
       50
176
     1
 62
   256
176
     0
 40
1.0
176
     0
 90
        2
176
     1
  1
strokes_ogs.tif
176
     1
290
     0
176
     1
 40
1.0
176
     1
 40
1.0
176
     1
  0
VISUALSTYLE
  5
3C
102
{ACAD_REACTORS
330
2A
102
}
330
2A
100
AcDbVisualStyle
  2
OverhangOff
 70
    21
177
     3
291
     1
 70
    58
 90
        2
176
     0
 90
        2
176
     0
 90
        0
176
     0
 90
        0
176
     0
 40
0.6
176
     0
 40
30.0
176
     0
 62
     7
420
 16777215
176
     0
 90
        1
176
     0
 90
        4
176
     0
 62
     7
176
     0
 62
   257
176
     0
 90
        1
176
     0
 90
        1
176
     0
 40
1.0
176
     0
 90
        9
176
     2
 62
     7
176
     0
 40
1.0
176
     0
 90
        1
176
     0
 90
        6
176
     0
 90
        2
176
     0
 62
     7
176
     0
 90
        5
176
     0
 90
        0
176
     0
 90
        0
176
     0
290
     0
176
     0
 90
        1
176
     0
 40
0.0
176
     0
 90
        0
176
     0
290
     0
176
     0
290
     1
176
     0
290
     1
176
     0
290
     0
176
     0
290
     0
176
     0
290
     0
176
     0
290
     0
176
     0
290
     0
176
     0
290
     0
176
     0
 90
       50
176
     0
 40
0.0
176
     0
 40
1.0
176
     0
 90
        0
176
     0
 62
    18
420
        0
176
     0
 90
       50
176
     0
 90
        3
176
     0
 62
     5
420
      255
176
     0
290
     0
176
     0
 90
       50
176
     0
 90
       50
176
     0
 90
       50
176
     0
290
     0
176
     0
 90
       50
176
     0
 62
   256
176
     0
 40
1.0
176
     0
 90
        2
176
     0
  1
strokes_ogs.tif
176
     0
290
     0
176
     0
 40
1.0
176
     0
 40
1.0
176
     0
  0
VISUALSTYLE
  5
33
102
{ACAD_REACTORS
330
2A
102
}
330
2A
100
AcDbVisualStyle
  2
Realistic
 70
     8
177
     3
291
     0
 70
    58
 90
        2
176
     1
 90
        3
176
     1
 90
        0
176
     1
 90
        2
176
     1
 40
0.6
176
     1
 40
30.0
176
     1
 62
     7
420
 16777215
176
     1
 90
        0
176
     1
 90
        0
176
     1
 62
     7
176
     1
 62
   257
176
     1
 90
        1
176
     1
 90
        1
176
     1
 40
1.0
176
     1
 90
        8
176
     1
 62
   257
176
     1
 40
1.0
176
     1
 90
        1
176
     1
 90
        6
176
     1
 90
        2
176
     1
 62
     7
176
     1
 90
        3
176
     1
 90
        0
176
     1
 90
        0
176
     1
290
     0
176
     1
 90
       13
176
     1
 40
0.0
176
     1
 90
        0
176
     1
290
     0
176
     1
290
     1
176
     1
290
     1
176
     1
290
     0
176
     1
290
     0
176
     1
290
     0
176
     1
290
     0
176
     1
290
     0
176
     1
290
     0
176
     1
 90
       50
176
     1
 40
0.0
176
     1
 40
1.0
176
     1
 90
        0
176
     1
 62
    18
420
        0
176
     1
 90
       50
176
     1
 90
        3
176
     1
 62
     5
420
      255
176
     1
290
     0
176
     1
 90
       50
176
     1
 90
       50
176
     1
 90
       50
176
     1
290
     0
176
     1
 90
       50
176
     1
 62
   256
176
     0
 40
1.0
176
     0
 90
        2
176
     1
  1
strokes_ogs.tif
176
     1
290
     0
176
     1
 40
1.0
176
     1
 40
1.0
176
     1
  0
VISUALSTYLE
  5
42
102
{ACAD_REACTORS
330
2A
102
}
330
2A
100
AcDbVisualStyle
  2
Shaded
 70
    27
177
     3
291
     0
 70
    58
 90
        2
176
     1
 90
        2
176
     1
 90
        1
176
     1
 90
        2
176
     1
 40
0.6
176
     1
 40
30.0
176
     1
 62
     7
420
 16777215
176
     1
 90
        0
176
     1
 90
        4
176
     1
 62
     7
176
     1
 62
   257
176
     1
 90
        1
176
     1
 90
        1
176
     1
 40
1.0
176
     1
 90
        8
176
     1
 62
   257
176
     1
 40
1.0
176
     1
 90
        1
176
     1
 90
        6
176
     1
 90
        2
176
     1
 62
     8
420
  7895160
176
     1
 90
        3
176
     1
 90
        0
176
     1
 90
        0
176
     1
290
     0
176
     1
 90
        5
176
     1
 40
0.0
176
     1
 90
        0
176
     1
290
     0
176
     1
290
     1
176
     1
290
     1
176
     1
290
     0
176
     1
290
     0
176
     1
290
     0
176
     1
290
     0
176
     1
290
     0
176
     1
290
     0
176
     1
 90
       50
176
     1
 40
0.0
176
     1
 40
1.0
176
     1
 90
        0
176
     1
 62
    18
420
        0
176
     1
 90
       50
176
     1
 90
        3
176
     1
 62
     5
420
      255
176
     1
290
     0
176
     1
 90
       50
176
     1
 90
       50
176
     1
 90
       50
176
     1
290
     0
176
     1
 90
       50
176
     1
 62
   256
176
     0
 40
1.0
176
     0
 90
        2
176
     1
  1
strokes_ogs.tif
176
     1
290
     0
176
     1
 40
1.0
176
     1
 40
1.0
176
     1
  0
VISUALSTYLE
  5
41
102
{ACAD_REACTORS
330
2A
102
}
330
2A
100
AcDbVisualStyle
  2
Shaded with edges
 70
    26
177
     3
291
     0
 70
    58
 90
        2
176
     1
 90
        2
176
     1
 90
        1
176
     1
 90
        2
176
     1
 40
0.6
176
     1
 40
30.0
176
     1
 62
     7
420
 16777215
176
     1
 90
        1
176
     1
 90
       10
176
     1
 62
     7
176
     1
 62
   257
176
     1
 90
        2
176
     1
 90
        1
176
     1
 40
1.0
176
     1
 90
        8
176
     1
 62
   257
176
     1
 40
1.0
176
     1
 90
        1
176
     1
 90
        6
176
     1
 90
        2
176
     1
 62
     7
176
     1
 90
        3
176
     1
 90
        0
176
     1
 90
        0
176
     1
290
     0
176
     1
 90
        5
176
     1
 40
0.0
176
     1
 90
        0
176
     1
290
     0
176
     1
290
     1
176
     1
290
     1
176
     1
290
     0
176
     1
290
     0
176
     1
290
     0
176
     1
290
     0
176
     1
290
     0
176
     1
290
     0
176
     1
 90
       50
176
     1
 40
0.0
176
     1
 40
1.0
176
     1
 90
        0
176
     1
 62
    18
420
        0
176
     1
 90
       50
176
     1
 90
        3
176
     1
 62
     5
420
      255
176
     1
290
     0
176
     1
 90
       50
176
     1
 90
       50
176
     1
 90
       50
176
     1
290
     0
176
     1
 90
       50
176
     1
 62
   256
176
     0
 40
1.0
176
     0
 90
        2
176
     1
  1
strokes_ogs.tif
176
     1
290
     0
176
     1
 40
1.0
176
     1
 40
1.0
176
     1
  0
VISUALSTYLE
  5
3E
102
{ACAD_REACTORS
330
2A
102
}
330
2A
100
AcDbVisualStyle
  2
Shades of Gray
 70
    23
177
     3
291
     0
 70
    58
 90
        2
176
     1
 90
        2
176
     1
 90
        3
176
     1
 90
        0
176
     1
 40
0.6
176
     1
 40
30.0
176
     1
 62
     7
420
 16777215
176
     1
 90
        2
176
     1
 90
        2
176
     1
 62
     7
176
     1
 62
     7
176
     1
 90
        1
176
     1
 90
        1
176
     1
 40
40.0
176
     1
 90
        8
176
     1
 62
     7
176
     1
 40
1.0
176
     1
 90
        1
176
     1
 90
        6
176
     1
 90
        2
176
     1
 62
     7
176
     1
 90
        3
176
     1
 90
        0
176
     1
 90
        0
176
     1
290
     0
176
     1
 90
        1
176
     1
 40
0.0
176
     1
 90
        0
176
     1
290
     0
176
     1
290
     1
176
     1
290
     1
176
     1
290
     0
176
     1
290
     0
176
     1
290
     0
176
     1
290
     0
176
     1
290
     0
176
     1
290
     0
176
     1
 90
       50
176
     1
 40
0.0
176
     1
 40
1.0
176
     1
 90
        0
176
     1
 62
    18
420
        0
176
     1
 90
       50
176
     1
 90
        3
176
     1
 62
     5
420
      255
176
     1
290
     0
176
     1
 90
       50
176
     1
 90
       50
176
     1
 90
       50
176
     1
290
     0
176
     1
 90
       50
176
     1
 62
   256
176
     0
 40
1.0
176
     0
 90
        2
176
     1
  1
strokes_ogs.tif
176
     1
290
     0
176
     1
 40
1.0
176
     1
 40
1.0
176
     1
  0
VISUALSTYLE
  5
3F
102
{ACAD_REACTORS
330
2A
102
}
330
2A
100
AcDbVisualStyle
  2
Sketchy
 70
    24
177
     3
291
     0
 70
    58
 90
        1
176
     1
 90
        2
176
     1
 90
        2
176
     1
 90
        0
176
     1
 40
0.6
176
     1
 40
30.0
176
     1
 62
     7
420
 16777215
176
     1
 90
        2
176
     1
 90
        2
176
     1
 62
     7
176
     1
 62
     7
176
     1
 90
        1
176
     1
 90
        1
176
     1
 40
40.0
176
     1
 90
       11
176
     1
 62
     7
176
     1
 40
1.0
176
     1
 90
        1
176
     1
 90
        6
176
     1
 90
        2
176
     1
 62
     7
176
     1
 90
        6
176
     1
 90
        0
176
     1
 90
        0
176
     1
290
     0
176
     1
 90
        1
176
     1
 40
0.0
176
     1
 90
        0
176
     1
290
     0
176
     1
290
     1
176
     1
290
     1
176
     1
290
     0
176
     1
290
     0
176
     1
290
     0
176
     1
290
     0
176
     1
290
     0
176
     1
290
     0
176
     1
 90
       50
176
     1
 40
0.0
176
     1
 40
1.0
176
     1
 90
        0
176
     1
 62
    18
420
        0
176
     1
 90
       50
176
     1
 90
        3
176
     1
 62
     5
420
      255
176
     1
290
     0
176
     1
 90
       50
176
     1
 90
       50
176
     1
 90
       50
176
     1
290
     0
176
     1
 90
       50
176
     1
 62
   256
176
     0
 40
1.0
176
     0
 90
        2
176
     1
  1
strokes_ogs.tif
176
     1
290
     0
176
     1
 40
1.0
176
     1
 40
1.0
176
     1
  0
VISUALSTYLE
  5
37
102
{ACAD_REACTORS
330
2A
102
}
330
2A
100
AcDbVisualStyle
  2
Thicken
 70
    13
177
     3
291
     1
 70
    58
 90
        2
176
     1
 90
        2
176
     1
 90
        0
176
     1
 90
        0
176
     1
 40
0.6
176
     1
 40
30.0
176
     1
 62
     7
420
 16777215
176
     1
 90
        1
176
     1
 90
        4
176
     1
 62
     7
176
     1
 62
   257
176
     1
 90
        1
176
     1
 90
        1
176
     1
 40
1.0
176
     1
 90
       12
176
     1
 62
     7
176
     1
 40
1.0
176
     1
 90
        1
176
     1
 90
        6
176
     1
 90
        2
176
     1
 62
     7
176
     1
 90
        5
176
     1
 90
        0
176
     1
 90
        0
176
     1
290
     0
176
     1
 90
        1
176
     1
 40
0.0
176
     1
 90
        0
176
     1
290
     0
176
     1
290
     1
176
     1
290
     1
176
     1
290
     0
176
     1
290
     0
176
     1
290
     0
176
     1
290
     0
176
     1
290
     0
176
     1
290
     0
176
     1
 90
       50
176
     1
 40
0.0
176
     1
 40
1.0
176
     1
 90
        0
176
     1
 62
    18
420
        0
176
     1
 90
       50
176
     1
 90
        3
176
     1
 62
     5
420
      255
176
     1
290
     0
176
     1
 90
       50
176
     1
 90
       50
176
     1
 90
       50
176
     1
290
     0
176
     1
 90
       50
176
     1
 62
   256
176
     0
 40
1.0
176
     0
 90
        2
176
     1
  1
strokes_ogs.tif
176
     1
290
     0
176
     1
 40
1.0
176
     1
 40
1.0
176
     1
  0
VISUALSTYLE
  5
30
102
{ACAD_REACTORS
330
2A
102
}
330
2A
100
AcDbVisualStyle
  2
Wireframe
 70
     5
177
     3
291
     0
 70
    58
 90
        0
176
     1
 90
        2
176
     1
 90
        0
176
     1
 90
        0
176
     1
 40
0.6
176
     1
 40
30.0
176
     1
 62
     7
420
 16777215
176
     1
 90
        1
176
     1
 90
        4
176
     1
 62
     7
176
     1
 62
   257
176
     1
 90
        1
176
     1
 90
        1
176
     1
 40
1.0
176
     1
 90
        0
176
     1
 62
   257
176
     1
 40
1.0
176
     1
 90
        1
176
     1
 90
        6
176
     1
 90
        2
176
     1
 62
     7
176
     1
 90
        3
176
     1
 90
        0
176
     1
 90
        0
176
     1
290
     0
176
     1
 90
        1
176
     1
 40
0.0
176
     1
 90
        0
176
     1
290
     0
176
     1
290
     1
176
     1
290
     1
176
     1
290
     0
176
     1
290
     0
176
     1
290
     0
176
     1
290
     0
176
     1
290
     0
176
     1
290
     0
176
     1
 90
       50
176
     1
 40
0.0
176
     1
 40
1.0
176
     1
 90
        0
176
     1
 62
    18
420
        0
176
     1
 90
       50
176
     1
 90
        3
176
     1
 62
     5
420
      255
176
     1
290
     0
176
     1
 90
       50
176
     1
 90
       50
176
     1
 90
       50
176
     1
290
     0
176
     1
 90
       50
176
     1
 62
   256
176
     0
 40
1.0
176
     0
 90
        2
176
     1
  1
strokes_ogs.tif
176
     1
290
     0
176
     1
 40
1.0
176
     1
 40
1.0
176
     1
  0
VISUALSTYLE
  5
40
102
{ACAD_REACTORS
330
2A
102
}
330
2A
100
AcDbVisualStyle
  2
X-Ray
 70
    25
177
     3
291
     0
 70
    58
 90
        2
176
     1
 90
        2
176
     1
 90
        1
176
     1
 90
        1
176
     1
 40
0.5
176
     1
 40
30.0
176
     1
 62
     7
420
 16777215
176
     1
 90
        1
176
     1
 90
        0
176
     1
 62
     7
176
     1
 62
   257
176
     1
 90
        1
176
     1
 90
        1
176
     1
 40
1.0
176
     1
 90
        8
176
     1
 62
     7
176
     1
 40
1.0
176
     1
 90
        1
176
     1
 90
        6
176
     1
 90
        2
176
     1
 62
     7
176
     1
 90
        3
176
     1
 90
        0
176
     1
 90
        0
176
     1
290
     0
176
     1
 90
       13
176
     1
 40
0.0
176
     1
 90
        0
176
     1
290
     0
176
     1
290
     1
176
     1
290
     1
176
     1
290
     0
176
     1
290
     0
176
     1
290
     0
176
     1
290
     0
176
     1
290
     0
176
     1
290
     0
176
     1
 90
       50
176
     1
 40
0.0
176
     1
 40
1.0
176
     1
 90
        0
176
     1
 62
    18
420
        0
176
     1
 90
       50
176
     1
 90
        3
176
     1
 62
     5
420
      255
176
     1
290
     0
176
     1
 90
       50
176
     1
 90
       50
176
     1
 90
       50
176
     1
290
     0
176
     1
 90
       50
176
     1
 62
   256
176
     0
 40
1.0
176
     0
 90
        2
176
     1
  1
strokes_ogs.tif
176
     1
290
     0
176
     1
 40
1.0
176
     1
 40
1.0
176
     1
  0
DICTIONARYVAR
  5
342
102
{ACAD_REACTORS
330
341
102
}
330
341
100
DictionaryVariables
280
     0
  1
1:1
  0
DICTIONARYVAR
  5
34A
102
{ACAD_REACTORS
330
341
102
}
330
341
100
DictionaryVariables
280
     0
  1
3.500000
  0
DICTIONARYVAR
  5
34B
102
{ACAD_REACTORS
330
341
102
}
330
341
100
DictionaryVariables
280
     0
  1
acadiso.lin
  0
DICTIONARYVAR
  5
347
102
{ACAD_REACTORS
330
341
102
}
330
341
100
DictionaryVariables
280
     0
  1
Standard
  0
DICTIONARYVAR
  5
346
102
{ACAD_REACTORS
330
341
102
}
330
341
100
DictionaryVariables
280
     0
  1
Standard
  0
DICTIONARY
  5
351
330
6A
100
AcDbDictionary
280
     1
281
     1
  3
ACAD_ROUNDTRIP_2008_TABLESTYLE_CELLSTYLEMAP
360
352
  0
CELLSTYLEMAP
  5
352
102
{ACAD_REACTORS
330
351
102
}
330
351
100
AcDbCellStyleMap
 90
        3
300
CELLSTYLE
  1
TABLEFORMAT_BEGIN
 90
        5
170
     1
 91
        0
 92
    32768
 62
   257
 93
        1
300
CONTENTFORMAT
  1
CONTENTFORMAT_BEGIN
 90
        0
 91
        0
 92
        4
 93
        0
300

 40
0.0
140
1.0
 94
        5
 62
     0
340
11
144
6.0
309
CONTENTFORMAT_END
171
     1
301
MARGIN
  1
CELLMARGIN_BEGIN
 40
1.5
 40
1.5
 40
1.5
 40
1.5
 40
1.5
 40
1.5
309
CELLMARGIN_END
 94
        6
 95
        1
302
GRIDFORMAT
  1
GRIDFORMAT_BEGIN
 90
        0
 91
        1
 62
     0
 92
       -2
340
14
 93
        0
 40
0.045
309
GRIDFORMAT_END
 95
        2
302
GRIDFORMAT
  1
GRIDFORMAT_BEGIN
 90
        0
 91
        1
 62
     0
 92
       -2
340
14
 93
        0
 40
0.045
309
GRIDFORMAT_END
 95
        4
302
GRIDFORMAT
  1
GRIDFORMAT_BEGIN
 90
        0
 91
        1
 62
     0
 92
       -2
340
14
 93
        0
 40
0.045
309
GRIDFORMAT_END
 95
        8
302
GRIDFORMAT
  1
GRIDFORMAT_BEGIN
 90
        0
 91
        1
 62
     0
 92
       -2
340
14
 93
        0
 40
0.045
309
GRIDFORMAT_END
 95
       16
302
GRIDFORMAT
  1
GRIDFORMAT_BEGIN
 90
        0
 91
        1
 62
     0
 92
       -2
340
14
 93
        0
 40
0.045
309
GRIDFORMAT_END
 95
       32
302
GRIDFORMAT
  1
GRIDFORMAT_BEGIN
 90
        0
 91
        1
 62
     0
 92
       -2
340
14
 93
        0
 40
0.045
309
GRIDFORMAT_END
309
TABLEFORMAT_END
  1
CELLSTYLE_BEGIN
 90
        1
 91
        1
300
_TITLE
309
CELLSTYLE_END
300
CELLSTYLE
  1
TABLEFORMAT_BEGIN
 90
        5
170
     1
 91
        0
 92
        0
 62
   257
 93
        1
300
CONTENTFORMAT
  1
CONTENTFORMAT_BEGIN
 90
        0
 91
        0
 92
        4
 93
        0
300

 40
0.0
140
1.0
 94
        5
 62
     0
340
11
144
4.5
309
CONTENTFORMAT_END
171
     1
301
MARGIN
  1
CELLMARGIN_BEGIN
 40
1.5
 40
1.5
 40
1.5
 40
1.5
 40
1.5
 40
1.5
309
CELLMARGIN_END
 94
        6
 95
        1
302
GRIDFORMAT
  1
GRIDFORMAT_BEGIN
 90
        0
 91
        1
 62
     0
 92
       -2
340
14
 93
        0
 40
0.045
309
GRIDFORMAT_END
 95
        2
302
GRIDFORMAT
  1
GRIDFORMAT_BEGIN
 90
        0
 91
        1
 62
     0
 92
       -2
340
14
 93
        0
 40
0.045
309
GRIDFORMAT_END
 95
        4
302
GRIDFORMAT
  1
GRIDFORMAT_BEGIN
 90
        0
 91
        1
 62
     0
 92
       -2
340
14
 93
        0
 40
0.045
309
GRIDFORMAT_END
 95
        8
302
GRIDFORMAT
  1
GRIDFORMAT_BEGIN
 90
        0
 91
        1
 62
     0
 92
       -2
340
14
 93
        0
 40
0.045
309
GRIDFORMAT_END
 95
       16
302
GRIDFORMAT
  1
GRIDFORMAT_BEGIN
 90
        0
 91
        1
 62
     0
 92
       -2
340
14
 93
        0
 40
0.045
309
GRIDFORMAT_END
 95
       32
302
GRIDFORMAT
  1
GRIDFORMAT_BEGIN
 90
        0
 91
        1
 62
     0
 92
       -2
340
14
 93
        0
 40
0.045
309
GRIDFORMAT_END
309
TABLEFORMAT_END
  1
CELLSTYLE_BEGIN
 90
        2
 91
        1
300
_HEADER
309
CELLSTYLE_END
300
CELLSTYLE
  1
TABLEFORMAT_BEGIN
 90
        5
170
     1
 91
        0
 92
        0
 62
   257
 93
        1
300
CONTENTFORMAT
  1
CONTENTFORMAT_BEGIN
 90
        0
 91
        0
 92
        4
 93
        0
300

 40
0.0
140
1.0
 94
        2
 62
     0
340
11
144
4.5
309
CONTENTFORMAT_END
171
     1
301
MARGIN
  1
CELLMARGIN_BEGIN
 40
1.5
 40
1.5
 40
1.5
 40
1.5
 40
1.5
 40
1.5
309
CELLMARGIN_END
 94
        6
 95
        1
302
GRIDFORMAT
  1
GRIDFORMAT_BEGIN
 90
        0
 91
        1
 62
     0
 92
       -2
340
14
 93
        0
 40
0.045
309
GRIDFORMAT_END
 95
        2
302
GRIDFORMAT
  1
GRIDFORMAT_BEGIN
 90
        0
 91
        1
 62
     0
 92
       -2
340
14
 93
        0
 40
0.045
309
GRIDFORMAT_END
 95
        4
302
GRIDFORMAT
  1
GRIDFORMAT_BEGIN
 90
        0
 91
        1
 62
     0
 92
       -2
340
14
 93
        0
 40
0.045
309
GRIDFORMAT_END
 95
        8
302
GRIDFORMAT
  1
GRIDFORMAT_BEGIN
 90
        0
 91
        1
 62
     0
 92
       -2
340
14
 93
        0
 40
0.045
309
GRIDFORMAT_END
 95
       16
302
GRIDFORMAT
  1
GRIDFORMAT_BEGIN
 90
        0
 91
        1
 62
     0
 92
       -2
340
14
 93
        0
 40
0.045
309
GRIDFORMAT_END
 95
       32
302
GRIDFORMAT
  1
GRIDFORMAT_BEGIN
 90
        0
 91
        1
 62
     0
 92
       -2
340
14
 93
        0
 40
0.045
309
GRIDFORMAT_END
309
TABLEFORMAT_END
  1
CELLSTYLE_BEGIN
 90
        3
 91
        2
300
_DATA
309
CELLSTYLE_END
  0
ENDSEC
  0
EOF
