  0
SECTION
  2
HEADER
  9
$ACADVER
  1
AC1032
  9
$ACADMAINTVER
 90
       55
  9
$DWGCODEPAGE
  3
ANSI_932
  9
$LASTSAVEDBY
  1
9257
  9
$REQUIREDVERSIONS
160
                 0
  9
$INSBASE
 10
0.0
 20
0.0
 30
0.0
  9
$EXTMIN
 10
62.1958163594
 20
98.14537218779999
 30
0.0
  9
$EXTMAX
 10
182.2247288309333
 20
214.4011715667833
 30
0.0
  9
$LIMMIN
 10
0.0
 20
0.0
  9
$LIMMAX
 10
210.0
 20
297.0
  9
$ORTHOMODE
 70
     0
  9
$REGENMODE
 70
     1
  9
$FILLMODE
 70
     1
  9
$QTEXTMODE
 70
     0
  9
$MIRRTEXT
 70
     1
  9
$LTSCALE
 40
1.0
  9
$ATTMODE
 70
     1
  9
$TEXTSIZE
 40
3.5
  9
$TRACEWID
 40
1.0
  9
$TEXTSTYLE
  7
Standard
  9
$CLAYER
  8
0
  9
$CELTYPE
  6
ByLayer
  9
$CECOLOR
 62
   256
  9
$CELTSCALE
 40
1.0
  9
$DISPSILH
 70
     0
  9
$DIMSCALE
 40
1.0
  9
$DIMASZ
 40
1.5
  9
$DIMEXO
 40
1.0
  9
$DIMDLI
 40
3.75
  9
$DIMRND
 40
0.0
  9
$DIMDLE
 40
0.0
  9
$DIMEXE
 40
1.0
  9
$DIMTP
 40
0.0
  9
$DIMTM
 40
0.0
  9
$DIMTXT
 40
3.5
  9
$DIMCEN
 40
2.5
  9
$DIMTSZ
 40
0.0
  9
$DIMTOL
 70
     0
  9
$DIMLIM
 70
     0
  9
$DIMTIH
 70
     1
  9
$DIMTOH
 70
     1
  9
$DIMSE1
 70
     0
  9
$DIMSE2
 70
     0
  9
$DIMTAD
 70
     1
  9
$DIMZIN
 70
     0
  9
$DIMBLK
  1

  9
$DIMASO
 70
     1
  9
$DIMSHO
 70
     1
  9
$DIMPOST
  1

  9
$DIMAPOST
  1

  9
$DIMALT
 70
     0
  9
$DIMALTD
 70
     3
  9
$DIMALTF
 40
0.0393700787
  9
$DIMLFAC
 40
5.0
  9
$DIMTOFL
 70
     1
  9
$DIMTVP
 40
0.0
  9
$DIMTIX
 70
     0
  9
$DIMSOXD
 70
     0
  9
$DIMSAH
 70
     0
  9
$DIMBLK1
  1

  9
$DIMBLK2
  1

  9
$DIMSTYLE
  2
ISO-25
  9
$DIMCLRD
 70
     0
  9
$DIMCLRE
 70
     0
  9
$DIMCLRT
 70
     0
  9
$DIMTFAC
 40
1.0
  9
$DIMGAP
 40
1.5
  9
$DIMJUST
 70
     0
  9
$DIMSD1
 70
     0
  9
$DIMSD2
 70
     0
  9
$DIMTOLJ
 70
     0
  9
$DIMTZIN
 70
     0
  9
$DIMALTZ
 70
     0
  9
$DIMALTTZ
 70
     0
  9
$DIMUPT
 70
     0
  9
$DIMDEC
 70
     1
  9
$DIMTDEC
 70
     1
  9
$DIMALTU
 70
     2
  9
$DIMALTTD
 70
     3
  9
$DIMTXSTY
  7
Standard
  9
$DIMAUNIT
 70
     0
  9
$DIMADEC
 70
     2
  9
$DIMALTRND
 40
0.0
  9
$DIMAZIN
 70
     0
  9
$DIMDSEP
 70
    44
  9
$DIMATFIT
 70
     3
  9
$DIMFRAC
 70
     0
  9
$DIMLDRBLK
  1

  9
$DIMLUNIT
 70
     2
  9
$DIMLWD
 70
    -2
  9
$DIMLWE
 70
    -2
  9
$DIMTMOVE
 70
     0
  9
$DIMFXL
 40
1.0
  9
$DIMFXLON
 70
     0
  9
$DIMJOGANG
 40
0.7853981634
  9
$DIMTFILL
 70
     0
  9
$DIMTFILLCLR
 70
     0
  9
$DIMARCSYM
 70
     0
  9
$DIMLTYPE
  6

  9
$DIMLTEX1
  6

  9
$DIMLTEX2
  6

  9
$DIMTXTDIRECTION
 70
     0
  9
$LUNITS
 70
     2
  9
$LUPREC
 70
     2
  9
$SKETCHINC
 40
1.0
  9
$FILLETRAD
 40
10.0
  9
$AUNITS
 70
     0
  9
$AUPREC
 70
     2
  9
$MENU
  1
.
  9
$ELEVATION
 40
0.0
  9
$PELEVATION
 40
0.0
  9
$THICKNESS
 40
0.0
  9
$LIMCHECK
 70
     0
  9
$CHAMFERA
 40
0.0
  9
$CHAMFERB
 40
0.0
  9
$CHAMFERC
 40
0.0
  9
$CHAMFERD
 40
0.0
  9
$SKPOLY
 70
     0
  9
$TDCREATE
 40
2460018.759921343
  9
$TDUCREATE
 40
2460018.384921343
  9
$TDUPDATE
 40
2460018.762494144
  9
$TDUUPDATE
 40
2460018.387494144
  9
$TDINDWG
 40
0.0005434259
  9
$TDUSRTIMER
 40
0.0005434144
  9
$USRTIMER
 70
     1
  9
$ANGBASE
 50
0.0
  9
$ANGDIR
 70
     0
  9
$PDMODE
 70
     0
  9
$PDSIZE
 40
-1.0
  9
$PLINEWID
 40
0.0
  9
$SPLFRAME
 70
     0
  9
$SPLINETYPE
 70
     6
  9
$SPLINESEGS
 70
     8
  9
$HANDSEED
  5
352
  9
$SURFTAB1
 70
     6
  9
$SURFTAB2
 70
     6
  9
$SURFTYPE
 70
     6
  9
$SURFU
 70
     6
  9
$SURFV
 70
     6
  9
$UCSBASE
  2

  9
$UCSNAME
  2

  9
$UCSORG
 10
0.0
 20
0.0
 30
0.0
  9
$UCSXDIR
 10
1.0
 20
0.0
 30
0.0
  9
$UCSYDIR
 10
0.0
 20
1.0
 30
0.0
  9
$UCSORTHOREF
  2

  9
$UCSORTHOVIEW
 70
     0
  9
$UCSORGTOP
 10
0.0
 20
0.0
 30
0.0
  9
$UCSORGBOTTOM
 10
0.0
 20
0.0
 30
0.0
  9
$UCSORGLEFT
 10
0.0
 20
0.0
 30
0.0
  9
$UCSORGRIGHT
 10
0.0
 20
0.0
 30
0.0
  9
$UCSORGFRONT
 10
0.0
 20
0.0
 30
0.0
  9
$UCSORGBACK
 10
0.0
 20
0.0
 30
0.0
  9
$PUCSBASE
  2

  9
$PUCSNAME
  2

  9
$PUCSORG
 10
0.0
 20
0.0
 30
0.0
  9
$PUCSXDIR
 10
1.0
 20
0.0
 30
0.0
  9
$PUCSYDIR
 10
0.0
 20
1.0
 30
0.0
  9
$PUCSORTHOREF
  2

  9
$PUCSORTHOVIEW
 70
     0
  9
$PUCSORGTOP
 10
0.0
 20
0.0
 30
0.0
  9
$PUCSORGBOTTOM
 10
0.0
 20
0.0
 30
0.0
  9
$PUCSORGLEFT
 10
0.0
 20
0.0
 30
0.0
  9
$PUCSORGRIGHT
 10
0.0
 20
0.0
 30
0.0
  9
$PUCSORGFRONT
 10
0.0
 20
0.0
 30
0.0
  9
$PUCSORGBACK
 10
0.0
 20
0.0
 30
0.0
  9
$USERI1
 70
     0
  9
$USERI2
 70
     0
  9
$USERI3
 70
     0
  9
$USERI4
 70
     0
  9
$USERI5
 70
     0
  9
$USERR1
 40
0.0
  9
$USERR2
 40
0.0
  9
$USERR3
 40
0.0
  9
$USERR4
 40
0.0
  9
$USERR5
 40
0.0
  9
$WORLDVIEW
 70
     1
  9
$SHADEDGE
 70
     3
  9
$SHADEDIF
 70
    70
  9
$TILEMODE
 70
     1
  9
$MAXACTVP
 70
    64
  9
$PINSBASE
 10
0.0
 20
0.0
 30
0.0
  9
$PLIMCHECK
 70
     0
  9
$PEXTMIN
 10
1.000000000000000E+20
 20
1.000000000000000E+20
 30
1.000000000000000E+20
  9
$PEXTMAX
 10
-1.000000000000000E+20
 20
-1.000000000000000E+20
 30
-1.000000000000000E+20
  9
$PLIMMIN
 10
0.0
 20
0.0
  9
$PLIMMAX
 10
0.0
 20
0.0
  9
$UNITMODE
 70
     0
  9
$VISRETAIN
 70
     1
  9
$PLINEGEN
 70
     0
  9
$PSLTSCALE
 70
     1
  9
$TREEDEPTH
 70
  3020
  9
$CMLSTYLE
  2
Standard
  9
$CMLJUST
 70
     0
  9
$CMLSCALE
 40
20.0
  9
$PROXYGRAPHICS
 70
     1
  9
$MEASUREMENT
 70
     1
  9
$CELWEIGHT
370
    -1
  9
$ENDCAPS
280
     0
  9
$JOINSTYLE
280
     0
  9
$LWDISPLAY
290
     1
  9
$INSUNITS
 70
     4
  9
$HYPERLINKBASE
  1

  9
$STYLESHEET
  1

  9
$XEDIT
290
     1
  9
$CEPSNTYPE
380
     0
  9
$PSTYLEMODE
290
     1
  9
$FINGERPRINTGUID
  2
{1d51674f-2901-4a0a-9945-e51b6c848fae}
  9
$VERSIONGUID
  2
{FAEB1C32-E019-11D5-929B-00C0DF256EC4}
  9
$EXTNAMES
290
     1
  9
$PSVPSCALE
 40
0.0
  9
$OLESTARTUP
290
     0
  9
$SORTENTS
280
   127
  9
$INDEXCTL
280
     0
  9
$HIDETEXT
280
     1
  9
$XCLIPFRAME
280
     2
  9
$HALOGAP
280
     0
  9
$OBSCOLOR
 70
   257
  9
$OBSLTYPE
280
     0
  9
$INTERSECTIONDISPLAY
280
     0
  9
$INTERSECTIONCOLOR
 70
   257
  9
$DIMASSOC
280
     2
  9
$PROJECTNAME
  1

  9
$CAMERADISPLAY
290
     0
  9
$LENSLENGTH
 40
50.0
  9
$CAMERAHEIGHT
 40
0.0
  9
$STEPSPERSEC
 40
2.0
  9
$STEPSIZE
 40
6.0
  9
$3DDWFPREC
 40
2.0
  9
$PSOLWIDTH
 40
5.0
  9
$PSOLHEIGHT
 40
80.0
  9
$LOFTANG1
 40
1.5707963268
  9
$LOFTANG2
 40
1.5707963268
  9
$LOFTMAG1
 40
0.0
  9
$LOFTMAG2
 40
0.0
  9
$LOFTPARAM
 70
     7
  9
$LOFTNORMALS
280
     1
  9
$LATITUDE
 40
37.795
  9
$LONGITUDE
 40
-122.394
  9
$NORTHDIRECTION
 40
0.0
  9
$TIMEZONE
 70
 -8000
  9
$LIGHTGLYPHDISPLAY
280
     1
  9
$TILEMODELIGHTSYNCH
280
     1
  9
$CMATERIAL
347
44
  9
$SOLIDHIST
280
     0
  9
$SHOWHIST
280
     1
  9
$DWFFRAME
280
     2
  9
$DGNFRAME
280
     2
  9
$REALWORLDSCALE
290
     1
  9
$INTERFERECOLOR
 62
   256
  9
$CSHADOW
280
     0
  9
$SHADOWPLANELOCATION
 40
0.0
  0
ENDSEC
  0
SECTION
  2
CLASSES
  0
CLASS
  1
ACDBDICTIONARYWDFLT
  2
AcDbDictionaryWithDefault
  3
ObjectDBX Classes
 90
        0
 91
        3
280
     0
281
     0
  0
CLASS
  1
VISUALSTYLE
  2
AcDbVisualStyle
  3
ObjectDBX Classes
 90
     4095
 91
        3
280
     0
281
     0
  0
CLASS
  1
MATERIAL
  2
AcDbMaterial
  3
ObjectDBX Classes
 90
     1153
 91
        3
280
     0
281
     0
  0
CLASS
  1
SCALE
  2
AcDbScale
  3
ObjectDBX Classes
 90
     1153
 91
        3
280
     0
281
     0
  0
CLASS
  1
TABLESTYLE
  2
AcDbTableStyle
  3
ObjectDBX Classes
 90
     4095
 91
        3
280
     0
281
     0
  0
CLASS
  1
MLEADERSTYLE
  2
AcDbMLeaderStyle
  3
ACDB_MLEADERSTYLE_CLASS
 90
     4095
 91
        3
280
     0
281
     0
  0
CLASS
  1
SUN
  2
AcDbSun
  3
SCENEOE
 90
     1153
 91
        3
280
     0
281
     0
  0
CLASS
  1
DICTIONARYVAR
  2
AcDbDictionaryVar
  3
ObjectDBX Classes
 90
        0
 91
        3
280
     0
281
     0
  0
CLASS
  1
CELLSTYLEMAP
  2
AcDbCellStyleMap
  3
ObjectDBX Classes
 90
     1152
 91
        3
280
     0
281
     0
  0
ENDSEC
  0
SECTION
  2
TABLES
  0
TABLE
  2
VPORT
  5
8
330
0
100
AcDbSymbolTable
 70
     1
  0
VPORT
  5
29
330
8
100
AcDbSymbolTableRecord
100
AcDbViewportTableRecord
  2
*Active
 70
     0
 10
0.0
 20
0.0
 11
1.0
 21
1.0
 12
122.2102725951667
 22
156.2732718772917
 13
0.0
 23
0.0
 14
10.0
 24
10.0
 15
10.0
 25
10.0
 16
0.0
 26
0.0
 36
1.0
 17
0.0
 27
0.0
 37
0.0
 40
118.580915366563
 41
2.082738944365193
 42
50.0
 43
0.0
 44
0.0
 50
0.0
 51
0.0
 71
    16
 72
  2000
 73
     1
 74
     3
 75
     0
 76
     0
 77
     0
 78
     0
281
     0
 65
     1
110
0.0
120
0.0
130
0.0
111
1.0
121
0.0
131
0.0
112
0.0
122
1.0
132
0.0
 79
     0
146
0.0
348
2F
 60
     3
 61
     5
292
     1
282
     1
141
0.0
142
0.0
 63
   250
361
6D
  0
ENDTAB
  0
TABLE
  2
LTYPE
  5
5
330
0
100
AcDbSymbolTable
 70
     6
  0
LTYPE
  5
14
330
5
100
AcDbSymbolTableRecord
100
AcDbLinetypeTableRecord
  2
ByBlock
 70
     0
  3

 72
    65
 73
     0
 40
0.0
  0
LTYPE
  5
15
330
5
100
AcDbSymbolTableRecord
100
AcDbLinetypeTableRecord
  2
ByLayer
 70
     0
  3

 72
    65
 73
     0
 40
0.0
  0
LTYPE
  5
16
330
5
100
AcDbSymbolTableRecord
100
AcDbLinetypeTableRecord
  2
Continuous
 70
     0
  3
Solid line
 72
    65
 73
     0
 40
0.0
  0
LTYPE
  5
6E
330
5
100
AcDbSymbolTableRecord
100
AcDbLinetypeTableRecord
  2
HIDDEN
 70
     0
  3
Hidden __ __ __ __ __ __ __ __ __ __ __ __ __ __
 72
    65
 73
     2
 40
1.905
 49
1.27
 74
     0
 49
-0.635
 74
     0
  0
LTYPE
  5
6F
330
5
100
AcDbSymbolTableRecord
100
AcDbLinetypeTableRecord
  2
PHANTOM
 70
     0
  3
Phantom ______  __  __  ______  __  __  ______
 72
    65
 73
     6
 40
12.7
 49
6.35
 74
     0
 49
-1.27
 74
     0
 49
1.27
 74
     0
 49
-1.27
 74
     0
 49
1.27
 74
     0
 49
-1.27
 74
     0
  0
LTYPE
  5
70
330
5
100
AcDbSymbolTableRecord
100
AcDbLinetypeTableRecord
  2
CENTER
 70
     0
  3
Center ____ _ ____ _ ____ _ ____ _ ____ _ ____
 72
    65
 73
     4
 40
10.16
 49
6.35
 74
     0
 49
-1.27
 74
     0
 49
1.27
 74
     0
 49
-1.27
 74
     0
  0
LTYPE
  5
71
330
5
100
AcDbSymbolTableRecord
100
AcDbLinetypeTableRecord
  2
CENTERX2
 70
     0
  3
Center (2x) ________  __  ________  __  _____
 72
    65
 73
     4
 40
20.32
 49
12.7
 74
     0
 49
-2.54
 74
     0
 49
2.54
 74
     0
 49
-2.54
 74
     0
  0
LTYPE
  5
72
330
5
100
AcDbSymbolTableRecord
100
AcDbLinetypeTableRecord
  2
DOT2
 70
     0
  3
Dot (.5x) ........................................
 72
    65
 73
     2
 40
0.635
 49
0.0
 74
     0
 49
-0.635
 74
     0
  0
ENDTAB
  0
TABLE
  2
LAYER
  5
2
330
0
100
AcDbSymbolTable
 70
     1
  0
LAYER
  5
10
330
2
100
AcDbSymbolTableRecord
100
AcDbLayerTableRecord
  2
0
 70
     0
 62
     7
  6
Continuous
370
    -3
390
F
347
46
348
0
  0
ENDTAB
  0
TABLE
  2
STYLE
  5
3
330
0
100
AcDbSymbolTable
 70
     2
  0
STYLE
  5
11
330
3
100
AcDbSymbolTableRecord
100
AcDbTextStyleTableRecord
  2
Standard
 70
     0
 40
0.0
 41
1.0
 50
0.0
 71
     0
 42
3.5
  3
txt
  4
bigfont
  0
STYLE
  5
76
330
3
100
AcDbSymbolTableRecord
100
AcDbTextStyleTableRecord
  2
SLDTEXTSTYLE0
 70
     0
 40
0.0
 41
0.7
 50
0.0
 71
     0
 42
3.5
  3
TXT
  4
bigfont
  0
ENDTAB
  0
TABLE
  2
VIEW
  5
6
330
0
100
AcDbSymbolTable
 70
     0
  0
ENDTAB
  0
TABLE
  2
UCS
  5
7
330
0
100
AcDbSymbolTable
 70
     0
  0
ENDTAB
  0
TABLE
  2
APPID
  5
9
330
0
100
AcDbSymbolTable
 70
     1
  0
APPID
  5
12
330
9
100
AcDbSymbolTableRecord
100
AcDbRegAppTableRecord
  2
ACAD
 70
     0
  0
ENDTAB
  0
TABLE
  2
DIMSTYLE
  5
A
330
0
100
AcDbSymbolTable
 70
     1
100
AcDbDimStyleTable
  0
DIMSTYLE
105
27
330
A
100
AcDbSymbolTableRecord
100
AcDbDimStyleTableRecord
  2
ISO-25
 70
     0
 41
2.5
 42
0.625
 43
3.75
 44
1.25
 73
     0
 74
     0
 77
     1
 78
     8
140
2.5
141
2.5
143
0.0393700787
147
0.625
171
     3
172
     1
178
     0
271
     2
272
     2
274
     3
278
    44
283
     0
284
     8
340
11
  0
ENDTAB
  0
TABLE
  2
BLOCK_RECORD
  5
1
330
0
100
AcDbSymbolTable
 70
     6
  0
BLOCK_RECORD
  5
1F
102
{ACAD_XDICTIONARY
360
34D
102
}
330
1
100
AcDbSymbolTableRecord
100
AcDbBlockTableRecord
  2
*Model_Space
340
22
 70
     0
280
     1
281
     0
  0
BLOCK_RECORD
  5
1B
330
1
100
AcDbSymbolTableRecord
100
AcDbBlockTableRecord
  2
*Paper_Space
340
1E
 70
     0
280
     1
281
     0
  0
BLOCK_RECORD
  5
23
330
1
100
AcDbSymbolTableRecord
100
AcDbBlockTableRecord
  2
*Paper_Space0
340
26
 70
     0
280
     1
281
     0
  0
BLOCK_RECORD
  5
73
330
1
100
AcDbSymbolTableRecord
100
AcDbBlockTableRecord
  2
SW_NOTE_0
340
0
102
{BLKREFS
331
0
102
}
 70
     0
280
     1
281
     0
  0
BLOCK_RECORD
  5
7A
330
1
100
AcDbSymbolTableRecord
100
AcDbBlockTableRecord
  2
SW_NOTE_0_1
340
0
102
{BLKREFS
331
0
102
}
 70
     0
280
     1
281
     0
  0
BLOCK_RECORD
  5
80
330
1
100
AcDbSymbolTableRecord
100
AcDbBlockTableRecord
  2
SW_NOTE_0_2
340
0
102
{BLKREFS
331
0
102
}
 70
     0
280
     1
281
     0
  0
BLOCK_RECORD
  5
1DF
330
1
100
AcDbSymbolTableRecord
100
AcDbBlockTableRecord
  2
SW_NOTE_0_3
340
0
102
{BLKREFS
331
1E4
102
}
 70
     0
280
     1
281
     0
  0
BLOCK_RECORD
  5
33B
330
1
100
AcDbSymbolTableRecord
100
AcDbBlockTableRecord
  2
SW_NOTE_0_4
340
0
102
{BLKREFS
331
0
102
}
 70
     0
280
     1
281
     0
  0
ENDTAB
  0
ENDSEC
  0
SECTION
  2
BLOCKS
  0
BLOCK
  5
20
330
1F
100
AcDbEntity
  8
0
100
AcDbBlockBegin
  2
*Model_Space
 70
     0
 10
0.0
 20
0.0
 30
0.0
  3
*Model_Space
  1

  0
ENDBLK
  5
21
330
1F
100
AcDbEntity
  8
0
100
AcDbBlockEnd
  0
BLOCK
  5
1C
330
1B
100
AcDbEntity
 67
     1
  8
0
100
AcDbBlockBegin
  2
*Paper_Space
 70
     0
 10
0.0
 20
0.0
 30
0.0
  3
*Paper_Space
  1

  0
ENDBLK
  5
1D
330
1B
100
AcDbEntity
 67
     1
  8
0
100
AcDbBlockEnd
  0
BLOCK
  5
24
330
23
100
AcDbEntity
  8
0
100
AcDbBlockBegin
  2
*Paper_Space0
 70
     0
 10
0.0
 20
0.0
 30
0.0
  3
*Paper_Space0
  1

  0
ENDBLK
  5
25
330
23
100
AcDbEntity
  8
0
100
AcDbBlockEnd
  0
BLOCK
  5
74
330
73
100
AcDbEntity
  8
0
100
AcDbBlockBegin
  2
SW_NOTE_0
 70
     0
 10
0.0
 20
0.0
 30
0.0
  3
SW_NOTE_0
  1

  0
MTEXT
  5
77
330
73
100
AcDbEntity
  8
0
  6
Continuous
 62
     0
370
     0
100
AcDbMText
 10
0.0
 20
4.5117370892
 30
0.0
 40
3.5
 41
0.0
 46
0.0
 71
     1
 72
     1
  1
HBD-D51S
  7
SLDTEXTSTYLE0
 73
     1
 44
1.0
  0
MTEXT
  5
78
330
73
100
AcDbEntity
  8
0
  6
Continuous
 62
     0
370
     0
100
AcDbMText
 10
0.0
 20
0.0117372829
 30
0.0
 40
3.5
 41
0.0
 46
0.0
 71
     1
 72
     1
  1
HBD-D53S
  7
SLDTEXTSTYLE0
 73
     1
 44
1.0
  0
ENDBLK
  5
75
330
73
100
AcDbEntity
  8
0
100
AcDbBlockEnd
  0
BLOCK
  5
7B
330
7A
100
AcDbEntity
  8
0
100
AcDbBlockBegin
  2
SW_NOTE_0_1
 70
     0
 10
0.0
 20
0.0
 30
0.0
  3
SW_NOTE_0_1
  1

  0
MTEXT
  5
7D
330
7A
100
AcDbEntity
  8
0
  6
Continuous
 62
     0
370
     0
100
AcDbMText
 10
0.0
 20
4.5117370892
 30
0.0
 40
3.5
 41
0.0
 46
0.0
 71
     1
 72
     1
  1
HFF-D49S
  7
SLDTEXTSTYLE0
 73
     1
 44
1.0
  0
MTEXT
  5
7E
330
7A
100
AcDbEntity
  8
0
  6
Continuous
 62
     0
370
     0
100
AcDbMText
 10
0.0
 20
0.0117372829
 30
0.0
 40
3.5
 41
0.0
 46
0.0
 71
     1
 72
     1
  1
HFF-D51S
  7
SLDTEXTSTYLE0
 73
     1
 44
1.0
  0
ENDBLK
  5
7C
330
7A
100
AcDbEntity
  8
0
100
AcDbBlockEnd
  0
BLOCK
  5
81
330
80
100
AcDbEntity
  8
0
100
AcDbBlockBegin
  2
SW_NOTE_0_2
 70
     0
 10
0.0
 20
0.0
 30
0.0
  3
SW_NOTE_0_2
  1

  0
MTEXT
  5
83
330
80
100
AcDbEntity
  8
0
  6
Continuous
 62
     0
370
     0
100
AcDbMText
 10
0.0
 20
4.5117370892
 30
0.0
 40
3.5
 41
0.0
 46
0.0
 71
     1
 72
     1
  1
HFF-D48S
  7
SLDTEXTSTYLE0
 73
     1
 44
1.0
  0
MTEXT
  5
84
330
80
100
AcDbEntity
  8
0
  6
Continuous
 62
     0
370
     0
100
AcDbMText
 10
0.0
 20
0.0117372829
 30
0.0
 40
3.5
 41
0.0
 46
0.0
 71
     1
 72
     1
  1
HFF-D50S
  7
SLDTEXTSTYLE0
 73
     1
 44
1.0
  0
ENDBLK
  5
82
330
80
100
AcDbEntity
  8
0
100
AcDbBlockEnd
  0
BLOCK
  5
1E0
330
1DF
100
AcDbEntity
  8
0
100
AcDbBlockBegin
  2
SW_NOTE_0_3
 70
     0
 10
0.0
 20
0.0
 30
0.0
  3
SW_NOTE_0_3
  1

  0
MTEXT
  5
1E2
330
1DF
100
AcDbEntity
  8
0
  6
Continuous
 62
     0
370
     0
100
AcDbMText
 10
0.0
 20
4.5117370892
 30
0.0
 40
3.5
 41
0.0
 46
0.0
 71
     1
 72
     1
  1
HBD-D52S
  7
SLDTEXTSTYLE0
 73
     1
 44
1.0
  0
MTEXT
  5
1E3
330
1DF
100
AcDbEntity
  8
0
  6
Continuous
 62
     0
370
     0
100
AcDbMText
 10
0.0
 20
0.0117372829
 30
0.0
 40
3.5
 41
0.0
 46
0.0
 71
     1
 72
     1
  1
HBD-D54S
  7
SLDTEXTSTYLE0
 73
     1
 44
1.0
  0
ENDBLK
  5
1E1
330
1DF
100
AcDbEntity
  8
0
100
AcDbBlockEnd
  0
BLOCK
  5
33C
330
33B
100
AcDbEntity
  8
0
100
AcDbBlockBegin
  2
SW_NOTE_0_4
 70
     0
 10
0.0
 20
0.0
 30
0.0
  3
SW_NOTE_0_4
  1

  0
MTEXT
  5
33E
330
33B
100
AcDbEntity
  8
0
  6
Continuous
 62
     0
370
     0
100
AcDbMText
 10
0.0
 20
4.5117370892
 30
0.0
 40
3.5
 41
0.0
 46
0.0
 71
     1
 72
     1
  1
HBD-D52S
  7
SLDTEXTSTYLE0
 73
     1
 44
1.0
  0
MTEXT
  5
33F
330
33B
100
AcDbEntity
  8
0
  6
Continuous
 62
     0
370
     0
100
AcDbMText
 10
0.0
 20
0.0117372829
 30
0.0
 40
3.5
 41
0.0
 46
0.0
 71
     1
 72
     1
  1
HBD-D54S
  7
SLDTEXTSTYLE0
 73
     1
 44
1.0
  0
ENDBLK
  5
33D
330
33B
100
AcDbEntity
  8
0
100
AcDbBlockEnd
  0
ENDSEC
  0
SECTION
  2
ENTITIES
  0
LINE
  5
86
330
1F
100
AcDbEntity
  8
0
  6
Continuous
 62
     7
370
    25
100
AcDbLine
 10
115.0694704331
 20
201.2619195232
 30
0.0
 11
115.0694704331
 21
201.2006789622
 31
0.0
  0
LINE
  5
87
330
1F
100
AcDbEntity
  8
0
  6
Continuous
 62
     7
370
    25
100
AcDbLine
 10
118.069470433
 20
201.2006789622
 30
0.0
 11
118.069470433
 21
201.2619195232
 31
0.0
  0
LINE
  5
88
330
1F
100
AcDbEntity
  8
0
  6
Continuous
 62
     7
370
    25
100
AcDbLine
 10
116.3122580898
 20
200.756691428
 30
0.0
 11
116.3122580898
 21
201.0106074077
 31
0.0
  0
LINE
  5
89
330
1F
100
AcDbEntity
  8
0
  6
Continuous
 62
     7
370
    25
100
AcDbLine
 10
116.8266827764
 20
201.5132316386
 30
0.0
 11
116.8266827764
 21
201.1559950334
 31
0.0
  0
LINE
  5
8A
330
1F
100
AcDbEntity
  8
0
  6
Continuous
 62
     7
370
    25
100
AcDbLine
 10
133.454246744
 20
190.6486140695
 30
0.0
 11
133.454246744
 21
190.5873735085
 31
0.0
  0
LINE
  5
8B
330
1F
100
AcDbEntity
  8
0
  6
Continuous
 62
     7
370
    25
100
AcDbLine
 10
136.4542467438
 20
190.5873735085
 30
0.0
 11
136.4542467438
 21
190.6486140695
 31
0.0
  0
LINE
  5
8C
330
1F
100
AcDbEntity
  8
0
  6
Continuous
 62
     7
370
    25
100
AcDbLine
 10
134.6970344006
 20
190.1433859743
 30
0.0
 11
134.6970344006
 21
190.397301954
 31
0.0
  0
LINE
  5
8D
330
1F
100
AcDbEntity
  8
0
  6
Continuous
 62
     7
370
    25
100
AcDbLine
 10
135.2114590872
 20
190.8999261849
 30
0.0
 11
135.2114590872
 21
190.5426895797
 31
0.0
  0
LINE
  5
8E
330
1F
100
AcDbEntity
  8
0
  6
Continuous
 62
     7
370
    25
100
AcDbLine
 10
131.7732428508
 20
199.3019562662
 30
0.0
 11
131.6671595991
 21
199.3632167304
 31
0.0
  0
LINE
  5
8F
330
1F
100
AcDbEntity
  8
0
  6
Continuous
 62
     7
370
    25
100
AcDbLine
 10
119.8565575779
 20
199.3632167304
 30
0.0
 11
119.7504743262
 21
199.3019562662
 31
0.0
  0
LINE
  5
90
330
1F
100
AcDbEntity
  8
0
  6
Continuous
 62
     7
370
    25
100
AcDbLine
 10
134.2618585885
 20
194.9068730511
 30
0.0
 11
134.2618585885
 21
195.8327856745
 31
0.0
  0
LINE
  5
91
330
1F
100
AcDbEntity
  8
0
  6
Continuous
 62
     7
370
    25
100
AcDbLine
 10
117.2618585885
 20
195.8327856745
 30
0.0
 11
117.2618585885
 21
194.9068730511
 31
0.0
  0
LINE
  5
92
330
1F
100
AcDbEntity
  8
0
  6
Continuous
 62
     7
370
    25
100
AcDbLine
 10
137.2542108546
 20
201.9750990832
 30
0.0
 11
136.7237945962
 21
202.2814014046
 31
0.0
  0
LINE
  5
93
330
1F
100
AcDbEntity
  8
0
  6
Continuous
 62
     7
370
    25
100
AcDbLine
 10
114.7999225808
 20
202.2814014046
 30
0.0
 11
114.2695063224
 21
201.9750990832
 31
0.0
  0
LINE
  5
94
330
1F
100
AcDbEntity
  8
0
  6
Continuous
 62
     7
370
    25
100
AcDbLine
 10
142.0118585885
 20
194.9345907814
 30
0.0
 11
142.0118585885
 21
195.3428611874
 31
0.0
  0
LINE
  5
95
330
1F
100
AcDbEntity
  8
0
  6
Continuous
 62
     7
370
    25
100
AcDbLine
 10
109.5118585885
 20
195.3428611874
 30
0.0
 11
109.5118585885
 21
194.9345907814
 31
0.0
  0
LINE
  5
96
330
1F
100
AcDbEntity
  8
0
  6
Continuous
 62
     7
370
    25
100
AcDbLine
 10
143.0060518711
 20
113.4033677942
 30
0.0
 11
141.3208979665
 21
192.2281767336
 31
0.0
  0
LINE
  5
97
330
1F
100
AcDbEntity
  8
0
  6
Continuous
 62
     7
370
    25
100
AcDbLine
 10
110.2028192105
 20
192.2281767336
 30
0.0
 11
109.9182514483
 21
178.9172266635
 31
0.0
  0
LINE
  5
98
330
1F
100
AcDbEntity
  8
0
  6
Continuous
 62
     7
370
    25
100
AcDbLine
 10
111.3917610646
 20
199.722751739
 30
0.0
 11
111.1075625546
 21
199.8868160466
 31
0.0
  0
LINE
  5
99
330
1F
100
AcDbEntity
  8
0
  6
Continuous
 62
     7
370
    25
100
AcDbLine
 10
139.583133564
 20
117.6514773555
 30
0.0
 11
139.0455550131
 21
117.9509791642
 31
0.0
  0
LINE
  5
9A
330
1F
100
AcDbEntity
  8
0
  6
Continuous
 62
     7
370
    25
100
AcDbLine
 10
63.5878279387
 20
205.257176847
 30
0.0
 11
62.1958163594
 21
140.1444019922
 31
0.0
  0
LINE
  5
9B
330
1F
100
AcDbEntity
  8
0
  6
Continuous
 62
     7
370
    25
100
AcDbLine
 10
110.1719041263
 20
200.42696016
 30
0.0
 11
90.5982885128
 21
211.7265679348
 31
0.0
  0
SPLINE
  5
9C
330
1F
100
AcDbEntity
  8
0
  6
Continuous
 62
     7
370
    25
100
AcDbSpline
210
0.0
220
0.0
230
1.0
 70
     8
 71
     3
 72
    14
 73
    10
 74
     0
 42
0.000000001
 43
0.00000001
 40
0.0
 40
0.0
 40
0.0
 40
0.0
 40
0.017045878588012
 40
0.1998971079809118
 40
0.3827580196207415
 40
0.5656406226005838
 40
0.7485593223521665
 40
0.9315283269625019
 40
1.0
 40
1.0
 40
1.0
 40
1.0
 10
79.56735772349091
 20
214.3947806908777
 30
0.0
 10
79.52232276640076
 20
214.3960587454476
 30
0.0
 10
78.99419758740915
 20
214.4110464981206
 30
0.0
 10
77.98058152718802
 20
214.3671307814998
 30
0.0
 10
76.54180563364258
 20
214.2574513926998
 30
0.0
 10
75.1263571717353
 20
214.0639689598137
 30
0.0
 10
73.74820181154242
 20
213.7968228842105
 30
0.0
 10
72.6912836577053
 20
213.5316036322179
 30
0.0
 10
72.10364379731811
 20
213.3503866544636
 30
0.0
 10
71.94361923502119
 20
213.3010381172033
 30
0.0
  0
SPLINE
  5
9D
330
1F
100
AcDbEntity
  8
0
  6
Continuous
 62
     7
370
    25
100
AcDbSpline
210
0.0
220
0.0
230
1.0
 70
     8
 71
     3
 72
    10
 73
     6
 74
     0
 42
0.000000001
 43
0.00000001
 40
0.0
 40
0.0
 40
0.0
 40
0.0
 40
0.0956682876494607
 40
0.5699600885654021
 40
1.0
 40
1.0
 40
1.0
 40
1.0
 10
82.60412141334439
 20
214.2066088718095
 30
0.0
 10
82.50923067505587
 20
214.2198020070383
 30
0.0
 10
81.94390296900214
 20
214.2984023531735
 30
0.0
 10
80.92722019575189
 20
214.3703113885323
 30
0.0
 10
80.00561279929616
 20
214.3868947493409
 30
0.0
 10
79.56735772349091
 20
214.3947806908777
 30
0.0
  0
SPLINE
  5
9E
330
1F
100
AcDbEntity
  8
0
  6
Continuous
 62
     7
370
    25
100
AcDbSpline
210
0.0
220
0.0
230
1.0
 70
     8
 71
     3
 72
    14
 73
    10
 74
     0
 42
0.000000001
 43
0.00000001
 40
0.0
 40
0.0
 40
0.0
 40
0.0
 40
0.0833147151806602
 40
0.2414916204755643
 40
0.3996592231096461
 40
0.5577787782966328
 40
0.7158485196316461
 40
0.8738735007683898
 40
1.0
 40
1.0
 40
1.0
 40
1.0
 10
90.5982885128287
 20
211.7265679347512
 30
0.0
 10
90.41428806591337
 20
211.8297231270009
 30
0.0
 10
89.88095411647284
 20
212.1287233034143
 30
0.0
 10
88.92954057548394
 20
212.5794294652479
 30
0.0
 10
87.72543107272259
 20
213.0544302129493
 30
0.0
 10
86.45112121659014
 20
213.4627972506178
 30
0.0
 10
85.11796660487597
 20
213.7992981227811
 30
0.0
 10
83.83318101423131
 20
214.0535229208193
 30
0.0
 10
82.98195544908283
 20
214.1595476205604
 30
0.0
 10
82.60412141334439
 20
214.2066088718095
 30
0.0
  0
SPLINE
  5
9F
330
1F
100
AcDbEntity
  8
0
  6
Continuous
 62
     7
370
    25
100
AcDbSpline
210
0.0
220
0.0
230
1.0
 70
     8
 71
     3
 72
    13
 73
     9
 74
     0
 42
0.000000001
 43
0.00000001
 40
0.0
 40
0.0
 40
0.0
 40
0.0
 40
0.0633271330976169
 40
0.2741158378291755
 40
0.4964371028024788
 40
0.718977745173321
 40
0.9334546007974538
 40
1.0
 40
1.0
 40
1.0
 40
1.0
 10
70.78137540782484
 20
212.9475090001895
 30
0.0
 10
70.66556863102534
 20
212.9039408257521
 30
0.0
 10
70.16429105700732
 20
212.7153529953164
 30
0.0
 10
69.30004819214328
 20
212.3321631093223
 30
0.0
 10
68.23357313090493
 20
211.7750910943113
 30
0.0
 10
67.2578226710317
 20
211.1560049736759
 30
0.0
 10
66.58276638302958
 20
210.6459735184979
 30
0.0
 10
66.24510705610031
 20
210.3493354653475
 30
0.0
 10
66.16515013340451
 20
210.2790922823734
 30
0.0
  0
LINE
  5
A0
330
1F
100
AcDbEntity
  8
0
  6
Continuous
 62
     7
370
    25
100
AcDbLine
 10
89.0890928565
 20
131.2270156968
 30
0.0
 11
88.5586819864
 21
130.9208160191
 31
0.0
  0
LWPOLYLINE
  5
A1
330
1F
100
AcDbEntity
  8
0
  6
Continuous
 62
     7
370
    25
100
AcDbPolyline
 90
       20
 70
   128
 43
0.0
 10
116.3866507007
 20
200.4024435918
 10
116.8799745643
 20
200.4147437212
 10
117.3396504873
 20
200.518848494
 10
117.7158654509
 20
200.7034765428
 10
117.9678507261
 20
200.9486205537
 10
118.0682997985
 20
201.2277153692
 10
118.0063274524
 20
201.5105167355
 10
117.7886493531
 20
201.7663787365
 10
117.4388543003
 20
201.9675747542
 10
116.9948480156
 20
202.0923020783
 10
116.5047454695
 20
202.1270445678
 10
116.0216568774
 20
202.0680373349
 10
115.5979323844
 20
201.921674729
 10
115.2794891138
 20
201.7038174093
 10
115.1008353353
 20
201.4380735968
 10
115.0813309579
 20
201.1532407572
 10
115.2230895835
 20
200.8801849483
 10
115.5107494653
 20
200.6484960037
 10
115.9131381918
 20
200.4832810157
 10
116.3866507007
 20
200.4024435918
  0
LINE
  5
A2
330
1F
100
AcDbEntity
  8
0
  6
Continuous
 62
     7
370
    25
100
AcDbLine
 10
116.2612696206
 20
200.760305909
 30
0.0
 11
116.6582875666
 21
200.7321620196
 31
0.0
  0
LINE
  5
A3
330
1F
100
AcDbEntity
  8
0
  6
Continuous
 62
     7
370
    25
100
AcDbLine
 10
116.6582875666
 20
200.7321620196
 30
0.0
 11
116.7070394953
 21
200.9613556013
 31
0.0
  0
ARC
  5
A4
330
1F
100
AcDbEntity
  8
0
  6
Continuous
 62
     7
370
    25
100
AcDbCircle
 10
116.9754058876
 20
200.8123613764
 30
0.0
 40
0.3069524386978931
100
AcDbArc
 50
77.5909252908
 51
150.9614217062
  0
LINE
  5
A5
330
1F
100
AcDbEntity
  8
0
  6
Continuous
 62
     7
370
    25
100
AcDbLine
 10
117.0413669013
 20
201.1121428706
 30
0.0
 11
117.4383848473
 21
201.0839989813
 31
0.0
  0
LINE
  5
A6
330
1F
100
AcDbEntity
  8
0
  6
Continuous
 62
     7
370
    25
100
AcDbLine
 10
117.4383848473
 20
201.0839989813
 30
0.0
 11
117.4871367759
 21
201.313192563
 31
0.0
  0
LINE
  5
A7
330
1F
100
AcDbEntity
  8
0
  6
Continuous
 62
     7
370
    25
100
AcDbLine
 10
117.4871367759
 20
201.313192563
 30
0.0
 11
117.0901188299
 21
201.3413364523
 31
0.0
  0
LWPOLYLINE
  5
A8
330
1F
100
AcDbEntity
  8
0
  6
Continuous
 62
     7
370
    25
100
AcDbPolyline
 90
        9
 70
   128
 43
0.0
 10
116.8289193169
 20
201.5343395556
 10
116.8275074861
 20
201.5003988857
 10
116.8375927941
 20
201.4669513712
 10
116.8587876679
 20
201.4352823815
 10
116.8902776005
 20
201.406608938
 10
116.9308524514
 20
201.3820329451
 10
116.9789529519
 20
201.3624988444
 10
117.0327306267
 20
201.3487573205
 10
117.0901188299
 20
201.3413364523
  0
LINE
  5
A9
330
1F
100
AcDbEntity
  8
0
  6
Continuous
 62
     7
370
    25
100
AcDbLine
 10
116.8289193169
 20
201.5343395556
 30
0.0
 11
116.8776712455
 21
201.7635331373
 31
0.0
  0
LINE
  5
AA
330
1F
100
AcDbEntity
  8
0
  6
Continuous
 62
     7
370
    25
100
AcDbLine
 10
116.8776712455
 20
201.7635331373
 30
0.0
 11
116.4806532995
 21
201.7916770267
 31
0.0
  0
LINE
  5
AB
330
1F
100
AcDbEntity
  8
0
  6
Continuous
 62
     7
370
    25
100
AcDbLine
 10
116.4806532995
 20
201.7916770267
 30
0.0
 11
116.4319013708
 21
201.562483445
 31
0.0
  0
ARC
  5
AC
330
1F
100
AcDbEntity
  8
0
  6
Continuous
 62
     7
370
    25
100
AcDbCircle
 10
116.1635349785
 20
201.7114776699
 30
0.0
 40
0.3069524386978931
100
AcDbArc
 50
257.5909252908
 51
330.9614217062
  0
LINE
  5
AD
330
1F
100
AcDbEntity
  8
0
  6
Continuous
 62
     7
370
    25
100
AcDbLine
 10
116.0975739649
 20
201.4116961757
 30
0.0
 11
115.7005560189
 21
201.439840065
 31
0.0
  0
LINE
  5
AE
330
1F
100
AcDbEntity
  8
0
  6
Continuous
 62
     7
370
    25
100
AcDbLine
 10
115.7005560189
 20
201.439840065
 30
0.0
 11
115.6518040902
 21
201.2106464833
 31
0.0
  0
LINE
  5
AF
330
1F
100
AcDbEntity
  8
0
  6
Continuous
 62
     7
370
    25
100
AcDbLine
 10
115.6518040902
 20
201.2106464833
 30
0.0
 11
116.0488220362
 21
201.182502594
 31
0.0
  0
LWPOLYLINE
  5
B0
330
1F
100
AcDbEntity
  8
0
  6
Continuous
 62
     7
370
    25
100
AcDbPolyline
 90
        9
 70
   128
 43
0.0
 10
116.3100215493
 20
200.9894994907
 10
116.31143338
 20
201.0234401606
 10
116.3013480721
 20
201.0568876751
 10
116.2801531983
 20
201.0885566648
 10
116.2486632657
 20
201.1172301083
 10
116.2080884147
 20
201.1418061012
 10
116.1599879142
 20
201.1613402019
 10
116.1062102395
 20
201.1750817258
 10
116.0488220362
 20
201.182502594
  0
LINE
  5
B1
330
1F
100
AcDbEntity
  8
0
  6
Continuous
 62
     7
370
    25
100
AcDbLine
 10
116.3100215493
 20
200.9894994907
 30
0.0
 11
116.2612696206
 21
200.760305909
 31
0.0
  0
ARC
  5
B2
330
1F
100
AcDbEntity
  8
0
  6
Continuous
 62
     7
370
    25
100
AcDbCircle
 10
116.2372934573
 20
201.2799272701
 30
0.0
 40
0.2084452127054539
100
AcDbArc
 50
284.2705240679001
 51
339.0057863211999
  0
LINE
  5
B3
330
1F
100
AcDbEntity
  8
0
  6
Continuous
 62
     7
370
    25
100
AcDbLine
 10
116.4806532995
 20
201.4344404215
 30
0.0
 11
116.4319013708
 21
201.2052468398
 31
0.0
  0
LINE
  5
B4
330
1F
100
AcDbEntity
  8
0
  6
Continuous
 62
     7
370
    25
100
AcDbLine
 10
116.8266827764
 20
201.4099110132
 30
0.0
 11
116.4806532995
 21
201.4344404215
 31
0.0
  0
ARC
  5
B5
330
1F
100
AcDbEntity
  8
0
  6
Continuous
 62
     7
370
    25
100
AcDbCircle
 10
116.9397186725
 20
201.1578155216
 30
0.0
 40
0.1130505550706039
100
AcDbArc
 50
180.9226916244
 51
217.6959831183
  0
LINE
  5
B6
330
1F
100
AcDbEntity
  8
0
  6
Continuous
 62
     7
370
    25
100
AcDbLine
 10
115.7005560189
 20
201.2071905466
 30
0.0
 11
115.7005560189
 21
201.439840065
 31
0.0
  0
LINE
  5
B7
330
1F
100
AcDbEntity
  8
0
  6
Continuous
 62
     7
370
    25
100
AcDbLine
 10
116.4319013708
 20
201.562483445
 30
0.0
 11
116.4319013708
 21
201.2052468398
 31
0.0
  0
LINE
  5
B8
330
1F
100
AcDbEntity
  8
0
  6
Continuous
 62
     7
370
    25
100
AcDbLine
 10
116.4806532995
 20
201.4344404215
 30
0.0
 11
116.4806532995
 21
201.7916770267
 31
0.0
  0
LWPOLYLINE
  5
B9
330
1F
100
AcDbEntity
  8
0
  6
Continuous
 62
     7
370
    25
100
AcDbPolyline
 90
       20
 70
   128
 43
0.0
 10
134.7714270115
 20
189.7891381381
 10
135.2647508751
 20
189.8014382675
 10
135.7244267982
 20
189.9055430403
 10
136.1006417617
 20
190.0901710891
 10
136.352627037
 20
190.3353151
 10
136.4530761093
 20
190.6144099155
 10
136.3911037632
 20
190.8972112818
 10
136.1734256639
 20
191.1530732828
 10
135.8236306112
 20
191.3542693005
 10
135.3796243265
 20
191.4789966246
 10
134.8895217803
 20
191.5137391141
 10
134.4064331883
 20
191.4547318812
 10
133.9827086952
 20
191.3083692753
 10
133.6642654247
 20
191.0905119556
 10
133.4856116462
 20
190.8247681432
 10
133.4661072687
 20
190.5399353036
 10
133.6078658943
 20
190.2668794946
 10
133.8955257762
 20
190.03519055
 10
134.2979145027
 20
189.869975562
 10
134.7714270115
 20
189.7891381381
  0
LINE
  5
BA
330
1F
100
AcDbEntity
  8
0
  6
Continuous
 62
     7
370
    25
100
AcDbLine
 10
134.6460459315
 20
190.1470004553
 30
0.0
 11
135.0430638775
 21
190.1188565659
 31
0.0
  0
LINE
  5
BB
330
1F
100
AcDbEntity
  8
0
  6
Continuous
 62
     7
370
    25
100
AcDbLine
 10
135.0430638775
 20
190.1188565659
 30
0.0
 11
135.0918158061
 21
190.3480501477
 31
0.0
  0
ARC
  5
BC
330
1F
100
AcDbEntity
  8
0
  6
Continuous
 62
     7
370
    25
100
AcDbCircle
 10
135.3601821985
 20
190.1990559227
 30
0.0
 40
0.306952438698002
100
AcDbArc
 50
77.5909252908
 51
150.9614217062
  0
LINE
  5
BD
330
1F
100
AcDbEntity
  8
0
  6
Continuous
 62
     7
370
    25
100
AcDbLine
 10
135.4261432121
 20
190.4988374169
 30
0.0
 11
135.8231611581
 21
190.4706935276
 31
0.0
  0
LINE
  5
BE
330
1F
100
AcDbEntity
  8
0
  6
Continuous
 62
     7
370
    25
100
AcDbLine
 10
135.8231611581
 20
190.4706935276
 30
0.0
 11
135.8719130868
 21
190.6998871093
 31
0.0
  0
LINE
  5
BF
330
1F
100
AcDbEntity
  8
0
  6
Continuous
 62
     7
370
    25
100
AcDbLine
 10
135.8719130868
 20
190.6998871093
 30
0.0
 11
135.4748951407
 21
190.7280309986
 31
0.0
  0
LWPOLYLINE
  5
C0
330
1F
100
AcDbEntity
  8
0
  6
Continuous
 62
     7
370
    25
100
AcDbPolyline
 90
        9
 70
   128
 43
0.0
 10
135.2136956277
 20
190.9210341019
 10
135.212283797
 20
190.887093432
 10
135.2223691049
 20
190.8536459175
 10
135.2435639787
 20
190.8219769278
 10
135.2750539113
 20
190.7933034843
 10
135.3156287622
 20
190.7687274914
 10
135.3637292627
 20
190.7491933907
 10
135.4175069375
 20
190.7354518668
 10
135.4748951407
 20
190.7280309986
  0
LINE
  5
C1
330
1F
100
AcDbEntity
  8
0
  6
Continuous
 62
     7
370
    25
100
AcDbLine
 10
135.2136956277
 20
190.9210341019
 30
0.0
 11
135.2624475563
 21
191.1502276836
 31
0.0
  0
LINE
  5
C2
330
1F
100
AcDbEntity
  8
0
  6
Continuous
 62
     7
370
    25
100
AcDbLine
 10
135.2624475563
 20
191.1502276836
 30
0.0
 11
134.8654296103
 21
191.178371573
 31
0.0
  0
LINE
  5
C3
330
1F
100
AcDbEntity
  8
0
  6
Continuous
 62
     7
370
    25
100
AcDbLine
 10
134.8654296103
 20
191.178371573
 30
0.0
 11
134.8166776817
 21
190.9491779913
 31
0.0
  0
ARC
  5
C4
330
1F
100
AcDbEntity
  8
0
  6
Continuous
 62
     7
370
    25
100
AcDbCircle
 10
134.5483112893
 20
191.0981722163
 30
0.0
 40
0.3069524386978694
100
AcDbArc
 50
257.5909252908
 51
330.9614217062
  0
LINE
  5
C5
330
1F
100
AcDbEntity
  8
0
  6
Continuous
 62
     7
370
    25
100
AcDbLine
 10
134.4823502757
 20
190.798390722
 30
0.0
 11
134.0853323297
 21
190.8265346113
 31
0.0
  0
LINE
  5
C6
330
1F
100
AcDbEntity
  8
0
  6
Continuous
 62
     7
370
    25
100
AcDbLine
 10
134.0853323297
 20
190.8265346113
 30
0.0
 11
134.0365804011
 21
190.5973410296
 31
0.0
  0
LINE
  5
C7
330
1F
100
AcDbEntity
  8
0
  6
Continuous
 62
     7
370
    25
100
AcDbLine
 10
134.0365804011
 20
190.5973410296
 30
0.0
 11
134.4335983471
 21
190.5691971403
 31
0.0
  0
LWPOLYLINE
  5
C8
330
1F
100
AcDbEntity
  8
0
  6
Continuous
 62
     7
370
    25
100
AcDbPolyline
 90
        9
 70
   128
 43
0.0
 10
134.6947978601
 20
190.376194037
 10
134.6962096908
 20
190.4101347069
 10
134.6861243829
 20
190.4435822214
 10
134.6649295091
 20
190.4752512111
 10
134.6334395765
 20
190.5039246546
 10
134.5928647256
 20
190.5285006475
 10
134.5447642251
 20
190.5480347482
 10
134.4909865503
 20
190.5617762721
 10
134.4335983471
 20
190.5691971403
  0
LINE
  5
C9
330
1F
100
AcDbEntity
  8
0
  6
Continuous
 62
     7
370
    25
100
AcDbLine
 10
134.6947978601
 20
190.376194037
 30
0.0
 11
134.6460459315
 21
190.1470004553
 31
0.0
  0
ARC
  5
CA
330
1F
100
AcDbEntity
  8
0
  6
Continuous
 62
     7
370
    25
100
AcDbCircle
 10
134.6220697681
 20
190.6666218164
 30
0.0
 40
0.2084452127053297
100
AcDbArc
 50
284.2705240679001
 51
339.0057863211999
  0
LINE
  5
CB
330
1F
100
AcDbEntity
  8
0
  6
Continuous
 62
     7
370
    25
100
AcDbLine
 10
134.8654296103
 20
190.8211349678
 30
0.0
 11
134.8166776817
 21
190.5919413861
 31
0.0
  0
LINE
  5
CC
330
1F
100
AcDbEntity
  8
0
  6
Continuous
 62
     7
370
    25
100
AcDbLine
 10
135.2114590872
 20
190.7966055595
 30
0.0
 11
134.8654296103
 21
190.8211349678
 31
0.0
  0
ARC
  5
CD
330
1F
100
AcDbEntity
  8
0
  6
Continuous
 62
     7
370
    25
100
AcDbCircle
 10
135.3244949834
 20
190.5445100679
 30
0.0
 40
0.1130505550705497
100
AcDbArc
 50
180.9226916245
 51
217.6959831184
  0
LINE
  5
CE
330
1F
100
AcDbEntity
  8
0
  6
Continuous
 62
     7
370
    25
100
AcDbLine
 10
134.0853323297
 20
190.5938850929
 30
0.0
 11
134.0853323297
 21
190.8265346113
 31
0.0
  0
LINE
  5
CF
330
1F
100
AcDbEntity
  8
0
  6
Continuous
 62
     7
370
    25
100
AcDbLine
 10
134.8166776817
 20
190.9491779913
 30
0.0
 11
134.8166776817
 21
190.5919413861
 31
0.0
  0
LINE
  5
D0
330
1F
100
AcDbEntity
  8
0
  6
Continuous
 62
     7
370
    25
100
AcDbLine
 10
134.8654296103
 20
190.8211349678
 30
0.0
 11
134.8654296103
 21
191.178371573
 31
0.0
  0
LWPOLYLINE
  5
D1
330
1F
100
AcDbEntity
  8
0
  6
Continuous
 62
     7
370
    25
100
AcDbPolyline
 90
       37
 70
   128
 43
0.0
 10
131.7722662286
 20
199.3025201498
 10
132.5197472301
 20
198.8090910587
 10
133.1466335487
 20
198.2625497274
 10
133.6417383833
 20
197.6726491992
 10
133.9962265762
 20
197.0499162627
 10
134.2037722772
 20
196.405463602
 10
134.2606718286
 20
195.7507914902
 10
134.1659098563
 20
195.0975825665
 10
133.92117739
 20
194.4574933597
 10
133.5308416864
 20
193.8419462768
 10
133.0018682954
 20
193.2619257702
 10
132.3436967597
 20
192.7277823195
 10
131.5680721658
 20
192.2490477271
 10
130.6888355532
 20
191.8342650234
 10
129.7216769198
 20
191.4908360154
 10
128.6838552346
 20
191.2248892019
 10
127.5938904499
 20
191.0411704102
 10
126.4712330133
 20
190.9429581063
 10
125.3359167733
 20
190.9320048913
 10
124.2082014751
 20
191.0085062254
 10
123.1082112248
 20
191.1710969406
 10
122.0555753746
 20
191.4168756017
 10
121.0690782362
 20
191.7414562826
 10
120.1663238743
 20
192.1390468335
 10
119.363421962
 20
192.6025522415
 10
118.6747003029
 20
193.1237012416
 10
118.1124491512
 20
193.6931939177
 10
117.6867018922
 20
194.3008676593
 10
117.4050559958
 20
194.9358785141
 10
117.2725374395
 20
195.5868946985
 10
117.2915110203
 20
196.2422988132
 10
117.4616381541
 20
196.8903951563
 10
117.7798829182
 20
197.5196184331
 10
118.2405662273
 20
198.1187401393
 10
118.8354671767
 20
198.677068934
 10
119.5539697449
 20
199.1846414265
 10
119.7504743262
 20
199.3019562662
  0
LWPOLYLINE
  5
D2
330
1F
100
AcDbEntity
  8
0
  6
Continuous
 62
     7
370
    25
100
AcDbPolyline
 90
       48
 70
   128
 43
0.0
 10
131.6662002114
 20
199.3637706632
 10
130.8265469349
 20
199.7876673498
 10
129.8965141749
 20
200.1431747578
 10
128.892698388
 20
200.423948849
 10
127.8330126907
 20
200.6249792032
 10
126.7363671994
 20
200.7426784287
 10
125.6223315789
 20
200.7749461803
 10
124.5107858211
 20
200.7212066391
 10
123.4215654865
 20
200.5824187885
 10
122.3741077378
 20
200.361059301
 10
121.3871044832
 20
200.0610783419
 10
120.4781688193
 20
199.6878290784
 10
119.6635207245
 20
199.2479721526
 10
118.9576976134
 20
198.7493568218
 10
118.373294916
 20
198.2008808882
 10
117.9207413124
 20
197.6123319179
 10
117.6081126324
 20
196.9942125813
 10
117.4409877421
 20
196.3575532326
 10
117.4223489892
 20
195.7137150728
 10
117.5525289827
 20
195.0741874093
 10
117.8292046574
 20
194.4503826284
 10
118.2474387295
 20
193.853432541
 10
118.799767802
 20
193.2939897358
 10
119.4763355495
 20
192.7820374827
 10
120.2650686046
 20
192.3267115819
 10
121.1518920071
 20
191.9361373349
 10
122.1209803725
 20
191.6172845483
 10
123.1550402959
 20
191.3758431577
 10
124.2356189535
 20
191.2161216904
 10
125.3434333936
 20
191.1409703798
 10
126.4587146411
 20
191.1517303028
 10
127.5615604759
 20
191.2482094484
 10
128.6322905879
 20
191.4286861438
 10
129.6517977728
 20
191.6899397782
 10
130.6018889009
 20
192.0273082743
 10
131.4656095733
 20
192.4347712833
 10
132.2275466743
 20
192.9050576181
 10
132.8741034183
 20
193.4297750079
 10
133.3937419847
 20
193.9995598586
 10
133.7771894112
 20
194.6042443459
 10
134.0176030692
 20
195.2330378608
 10
134.1106927714
 20
195.8747195682
 10
134.0547973298
 20
196.5178386427
 10
133.8509141999
 20
197.1509186094
 10
133.502681681
 20
197.7626621411
 10
133.0163139906
 20
198.3421526601
 10
132.4004903717
 20
198.8790491442
 10
131.6662002114
 20
199.3637706632
  0
LINE
  5
D3
330
1F
100
AcDbEntity
  8
0
  6
Continuous
 62
     7
370
    25
100
AcDbLine
 10
117.2709013534
 20
195.1102717569
 30
0.0
 11
117.2434374238
 21
195.004387061
 31
0.0
  0
LINE
  5
D4
330
1F
100
AcDbEntity
  8
0
  6
Continuous
 62
     7
370
    25
100
AcDbLine
 10
134.2854894341
 20
194.9823452125
 30
0.0
 11
134.2618585885
 21
195.077086812
 31
0.0
  0
LWPOLYLINE
  5
D5
330
1F
100
AcDbEntity
  8
0
  6
Continuous
 62
     7
370
    25
100
AcDbPolyline
 90
       18
 70
   128
 43
0.0
 10
114.2713733942
 20
188.7095452788
 10
113.2160233971
 20
189.3807193475
 10
112.2778104828
 20
190.1075603282
 10
111.4654944926
 20
190.8832819024
 10
110.7866598021
 20
191.7006413668
 10
110.2476445077
 20
192.5520072563
 10
109.8534812502
 20
193.429430597
 10
109.6078502256
 20
194.3247191236
 10
109.5130448246
 20
195.2295137684
 10
109.5699502197
 20
196.1353667074
 10
109.7780351006
 20
197.0338202359
 10
110.1353566348
 20
197.9164857354
 10
110.6385786074
 20
198.7751219959
 10
111.2830025704
 20
199.6017121621
 10
112.062611711
 20
200.3885385841
 10
112.9701270286
 20
201.1282548758
 10
113.9970752972
 20
201.8139545054
 10
114.2695063224
 20
201.9750990832
  0
LWPOLYLINE
  5
D6
330
1F
100
AcDbEntity
  8
0
  6
Continuous
 62
     7
370
    25
100
AcDbPolyline
 90
       34
 70
   128
 43
0.0
 10
137.2542108546
 20
201.9750990832
 10
137.7940696746
 20
201.6479529786
 10
138.7920165058
 20
200.9481282174
 10
139.6683042634
 20
200.1959685881
 10
140.4147512846
 20
199.3984968027
 10
141.0243881946
 20
198.5631586402
 10
141.491522978
 20
197.6977534281
 10
141.8117941232
 20
196.8103612216
 10
141.9822113446
 20
195.9092673627
 10
142.0011835027
 20
195.002885122
 10
141.8685334596
 20
194.0996771462
 10
141.5854997328
 20
193.2080764448
 10
141.1547249322
 20
192.3364076533
 10
140.5802310859
 20
191.4928093085
 10
139.8673820881
 20
190.6851578607
 10
139.022833618
 20
189.920994134
 10
138.054470997
 20
189.207452919
 10
136.971335566
 20
188.551196358
 10
135.7835402687
 20
187.9583517416
 10
134.5021752297
 20
187.4344543002
 10
133.1392042093
 20
186.9843955231
 10
131.7073529004
 20
186.6123774879
 10
130.2199901131
 20
186.3218736266
 10
128.691002953
 20
186.1155962957
 10
127.1346671611
 20
185.9954714509
 10
125.5655138254
 20
185.9626206655
 10
123.998193708
 20
186.0173506586
 10
122.4473404543
 20
186.1591504308
 10
120.9274339633
 20
186.3866960359
 10
119.4526651926
 20
186.6978629419
 10
118.0368036606
 20
187.0897458673
 10
116.6930688851
 20
187.5586859068
 10
115.4340069557
 20
188.1003046935
 10
114.2713733942
 20
188.7095452788
  0
LWPOLYLINE
  5
D7
330
1F
100
AcDbEntity
  8
0
  6
Continuous
 62
     7
370
    25
100
AcDbPolyline
 90
       65
 70
   128
 43
0.0
 10
114.8017034801
 20
189.6281039297
 10
115.9287626839
 20
189.0384005377
 10
117.1505199767
 20
188.5153103489
 10
118.4552091677
 20
188.0638710078
 10
119.8302653868
 20
187.688430122
 10
121.262446091
 20
187.3926033925
 10
122.7379585972
 20
187.1792397925
 10
124.2425929134
 20
187.0503941299
 10
125.7618585885
 20
187.007307259
 10
127.2811242636
 20
187.0503941299
 10
128.7857585797
 20
187.1792397925
 10
130.2612710859
 20
187.3926033925
 10
131.6934517901
 20
187.688430122
 10
133.0685080093
 20
188.0638710078
 10
134.3731972003
 20
188.5153103489
 10
135.594954493
 20
189.0384005377
 10
136.7220136969
 20
189.6281039297
 10
137.7435206156
 20
190.2787413589
 10
138.6496375792
 20
190.9840468311
 10
139.4316381859
 20
191.7372278692
 10
140.0819913424
 20
192.5310309279
 10
140.5944337923
 20
193.3578112499
 10
140.9640304347
 20
194.2096064888
 10
141.1872218519
 20
195.0782133907
 10
141.2618585885
 20
195.9552667963
 10
141.1872218519
 20
196.8323202019
 10
140.9640304347
 20
197.7009271038
 10
140.5944337923
 20
198.5527223427
 10
140.0819913424
 20
199.3795026647
 10
139.4316381859
 20
200.1733057235
 10
138.6496375792
 20
200.9264867615
 10
137.7435206156
 20
201.6317922338
 10
136.7220136969
 20
202.2824296629
 10
135.594954493
 20
202.8721330549
 10
134.3731972003
 20
203.3952232437
 10
133.0685080093
 20
203.8466625848
 10
131.6934517901
 20
204.2221034706
 10
130.2612710859
 20
204.5179302001
 10
128.7857585797
 20
204.7312938002
 10
127.2811242636
 20
204.8601394627
 10
125.7618585885
 20
204.9032263336
 10
124.2425929134
 20
204.8601394627
 10
122.7379585972
 20
204.7312938002
 10
121.262446091
 20
204.5179302001
 10
119.8302653868
 20
204.2221034706
 10
118.4552091677
 20
203.8466625848
 10
117.1505199767
 20
203.3952232437
 10
115.9287626839
 20
202.8721330549
 10
114.8017034801
 20
202.2824296629
 10
113.7801965614
 20
201.6317922338
 10
112.8740795978
 20
200.9264867615
 10
112.0920789911
 20
200.1733057235
 10
111.4417258346
 20
199.3795026647
 10
110.9292833846
 20
198.5527223427
 10
110.5596867422
 20
197.7009271038
 10
110.3364953251
 20
196.8323202019
 10
110.2618585885
 20
195.9552667963
 10
110.3364953251
 20
195.0782133907
 10
110.5596867422
 20
194.2096064888
 10
110.9292833846
 20
193.3578112499
 10
111.4417258346
 20
192.5310309279
 10
112.0920789911
 20
191.7372278692
 10
112.8740795978
 20
190.9840468311
 10
113.7801965614
 20
190.2787413589
 10
114.8017034801
 20
189.6281039297
  0
LWPOLYLINE
  5
D8
330
1F
100
AcDbEntity
  8
0
  6
Continuous
 62
     7
370
    25
100
AcDbPolyline
 90
       34
 70
   128
 43
0.0
 10
142.0118585885
 20
194.9345907814
 10
141.9537669573
 20
194.1420852614
 10
141.7456820764
 20
193.2436317329
 10
141.3883605422
 20
192.3609662334
 10
140.8851385696
 20
191.5023299729
 10
140.2407146065
 20
190.6757398068
 10
139.461105466
 20
189.8889133847
 10
138.5535901484
 20
189.149197093
 10
137.5266418798
 20
188.4634974634
 10
136.3898489994
 20
187.8382166886
 10
135.1538254361
 20
187.2791928466
 10
133.8301116089
 20
186.7916453926
 10
132.4310666771
 20
186.3801264256
 10
130.9697531463
 20
186.0484781875
 10
129.4598149072
 20
185.7997971884
 10
127.9153498463
 20
185.6364052958
 10
126.3507782178
 20
185.5598280559
 10
124.7807080054
 20
185.5707804496
 10
123.2197985316
 20
185.6691602175
 10
121.6826235876
 20
185.8540488141
 10
120.1835353618
 20
186.1237199845
 10
118.7365304369
 20
186.4756558815
 10
117.3551191081
 20
186.9065705745
 10
116.0521992408
 20
187.4124407292
 10
114.8399358466
 20
187.9885431722
 10
113.7296475024
 20
188.6294989902
 10
112.7317006711
 20
189.3293237515
 10
111.8554129136
 20
190.0814833807
 10
111.1089658924
 20
190.8789551662
 10
110.4993289823
 20
191.7142933286
 10
110.0321941989
 20
192.5796985407
 10
109.7119230538
 20
193.4670907472
 10
109.5415058324
 20
194.3681846061
 10
109.5118585885
 20
194.9345907814
  0
LWPOLYLINE
  5
D9
330
1F
100
AcDbEntity
  8
0
  6
Continuous
 62
     7
370
    25
100
AcDbPolyline
 90
       21
 70
   128
 43
0.0
 10
115.4557772527
 20
200.6189981351
 10
115.854435396
 20
200.4517913126
 10
116.3230861506
 20
200.3638854839
 10
116.8158547155
 20
200.3638854839
 10
117.2845054701
 20
200.4517913126
 10
117.6831636134
 20
200.6189981351
 10
117.9728057087
 20
200.8491385825
 10
118.1250795695
 20
201.1196849045
 10
118.1250795695
 20
201.4041541419
 10
117.9728057087
 20
201.6747004638
 10
117.6831636134
 20
201.9048409112
 10
117.2845054701
 20
202.0720477337
 10
116.8158547155
 20
202.1599535624
 10
116.3230861506
 20
202.1599535624
 10
115.854435396
 20
202.0720477337
 10
115.4557772527
 20
201.9048409112
 10
115.1661351575
 20
201.6747004638
 10
115.0138612966
 20
201.4041541419
 10
115.0138612966
 20
201.1196849045
 10
115.1661351575
 20
200.8491385825
 10
115.4557772527
 20
200.6189981351
  0
LWPOLYLINE
  5
DA
330
1F
100
AcDbEntity
  8
0
  6
Continuous
 62
     7
370
    25
100
AcDbPolyline
 90
       21
 70
   128
 43
0.0
 10
133.8405535635
 20
190.0056926814
 10
134.2392117068
 20
189.8384858589
 10
134.7078624615
 20
189.7505800302
 10
135.2006310263
 20
189.7505800302
 10
135.669281781
 20
189.8384858589
 10
136.0679399243
 20
190.0056926814
 10
136.3575820195
 20
190.2358331288
 10
136.5098558803
 20
190.5063794508
 10
136.5098558803
 20
190.7908486882
 10
136.3575820195
 20
191.0613950101
 10
136.0679399243
 20
191.2915354575
 10
135.669281781
 20
191.45874228
 10
135.2006310263
 20
191.5466481087
 10
134.7078624615
 20
191.5466481087
 10
134.2392117068
 20
191.45874228
 10
133.8405535635
 20
191.2915354575
 10
133.5509114683
 20
191.0613950101
 10
133.3986376075
 20
190.7908486882
 10
133.3986376075
 20
190.5063794508
 10
133.5509114683
 20
190.2358331288
 10
133.8405535635
 20
190.0056926814
  0
LWPOLYLINE
  5
DB
330
1F
100
AcDbEntity
  8
0
  6
Continuous
 62
     7
370
    25
100
AcDbPolyline
 90
       49
 70
   128
 43
0.0
 10
119.539318914
 20
192.3630711043
 10
118.7803491939
 20
192.8626784618
 10
118.1408350352
 20
193.4152008631
 10
117.6317187024
 20
194.0111844968
 10
117.2617113171
 20
194.6404319177
 10
117.0371438084
 20
195.2921765278
 10
116.9618585885
 20
195.9552667963
 10
117.0371438084
 20
196.6183570648
 10
117.2617113171
 20
197.2701016749
 10
117.6317187024
 20
197.8993490958
 10
118.1408350352
 20
198.4953327295
 10
118.7803491939
 20
199.0478551308
 10
119.539318914
 20
199.5474624883
 10
120.4047580132
 20
199.9856063816
 10
121.3618585885
 20
200.3547900471
 10
122.3942443837
 20
200.6486966501
 10
123.4842509916
 20
200.862297367
 10
124.6132280969
 20
200.9919374303
 10
125.7618585885
 20
201.0353986627
 10
126.91048908
 20
200.9919374303
 10
128.0394661854
 20
200.862297367
 10
129.1294727933
 20
200.6486966501
 10
130.1618585885
 20
200.3547900471
 10
131.1189591638
 20
199.9856063816
 10
131.9843982629
 20
199.5474624883
 10
132.743367983
 20
199.0478551308
 10
133.3828821418
 20
198.4953327295
 10
133.8919984746
 20
197.8993490958
 10
134.2620058598
 20
197.2701016749
 10
134.4865733686
 20
196.6183570648
 10
134.5618585885
 20
195.9552667963
 10
134.4865733686
 20
195.2921765278
 10
134.2620058598
 20
194.6404319177
 10
133.8919984746
 20
194.0111844968
 10
133.3828821418
 20
193.4152008631
 10
132.743367983
 20
192.8626784618
 10
131.9843982629
 20
192.3630711043
 10
131.1189591638
 20
191.924927211
 10
130.1618585885
 20
191.5557435455
 10
129.1294727933
 20
191.2618369425
 10
128.0394661854
 20
191.0482362256
 10
126.91048908
 20
190.9185961623
 10
125.7618585885
 20
190.87513493
 10
124.6132280969
 20
190.9185961623
 10
123.4842509916
 20
191.0482362256
 10
122.3942443837
 20
191.2618369425
 10
121.3618585885
 20
191.5557435455
 10
120.4047580132
 20
191.924927211
 10
119.539318914
 20
192.3630711043
  0
LWPOLYLINE
  5
DC
330
1F
100
AcDbEntity
  8
0
  6
Continuous
 62
     7
370
    25
100
AcDbPolyline
 90
       38
 70
   128
 43
0.0
 10
131.8793261024
 20
192.3023944254
 10
132.624364982
 20
192.7929119139
 10
133.2529783312
 20
193.3360163198
 10
133.7534165447
 20
193.9218411415
 10
134.1171169859
 20
194.540362754
 10
134.3378566394
 20
195.1809980811
 10
134.4118585885
 20
195.8327856745
 10
134.3378566394
 20
196.484573268
 10
134.1171169859
 20
197.125208595
 10
133.7534165447
 20
197.7437302075
 10
133.2529783312
 20
198.3295550293
 10
132.624364982
 20
198.8726594352
 10
131.8783322457
 20
199.3637507582
 10
131.0276449494
 20
199.7944262896
 10
130.0868585885
 20
200.1573170518
 10
129.0720702784
 20
200.4462138831
 10
128.0006433286
 20
200.6561736786
 10
126.8909101512
 20
200.7836039682
 10
125.7618585885
 20
200.8263243841
 10
124.6328070258
 20
200.7836039682
 10
123.5230738483
 20
200.6561736786
 10
122.4516468985
 20
200.4462138831
 10
121.4368585885
 20
200.1573170518
 10
120.4960722276
 20
199.7944262896
 10
119.6453849312
 20
199.3637507582
 10
118.899352195
 20
198.8726594352
 10
118.2707388457
 20
198.3295550293
 10
117.7703006323
 20
197.7437302075
 10
117.4066001911
 20
197.125208595
 10
117.1858605376
 20
196.484573268
 10
117.1118585885
 20
195.8327856745
 10
117.1858605376
 20
195.1809980811
 10
117.4066001911
 20
194.540362754
 10
117.7703006323
 20
193.9218411415
 10
118.2707388457
 20
193.3360163198
 10
118.899352195
 20
192.7929119139
 10
119.6453849312
 20
192.3018205909
 10
119.6453849312
 20
192.3018205909
  0
LINE
  5
DD
330
1F
100
AcDbEntity
  8
0
  6
Continuous
 62
     7
370
    25
100
AcDbLine
 10
134.2684815195
 20
195.2276009656
 30
0.0
 11
134.3123377363
 21
195.0774854235
 31
0.0
  0
LINE
  5
DE
330
1F
100
AcDbEntity
  8
0
  6
Continuous
 62
     7
370
    25
100
AcDbLine
 10
117.2119887245
 20
195.0797805166
 30
0.0
 11
117.2618585885
 21
195.248097796
 31
0.0
  0
LINE
  5
DF
330
1F
100
AcDbEntity
  8
0
  6
Continuous
 62
     7
370
    25
100
AcDbLine
 10
114.5518197879
 20
171.9317843397
 30
0.0
 11
113.5674440024
 21
106.2408238963
 31
0.0
  0
SPLINE
  5
E0
330
1F
100
AcDbEntity
  8
0
  6
Continuous
 62
     7
370
    25
100
AcDbSpline
210
0.0
220
0.0
230
1.0
 70
     8
 71
     3
 72
    14
 73
    10
 74
     0
 42
0.000000001
 43
0.00000001
 40
0.0
 40
0.0
 40
0.0
 40
0.0
 40
0.1845913819903928
 40
0.3702871594941875
 40
0.5582528125811427
 40
0.7467427240229959
 40
0.8710655193110228
 40
0.9955043170406239
 40
1.0
 40
1.0
 40
1.0
 40
1.0
 10
112.1526656867377
 20
174.1198435404463
 30
0.0
 10
112.2802062537375
 20
173.9948261107787
 30
0.0
 10
112.5360504527753
 20
173.7440432821347
 30
0.0
 10
112.9552050036446
 20
173.3331742840327
 30
0.0
 10
113.400537980662
 20
172.9131645032512
 30
0.0
 10
113.8197955138784
 20
172.5374071236543
 30
0.0
 10
114.2014248017647
 20
172.2131849149835
 30
0.0
 10
114.429620914739
 20
172.0281608009298
 30
0.0
 10
114.5477025224925
 20
171.9350315665723
 30
0.0
 10
114.5518197878582
 20
171.9317843396886
 30
0.0
  0
ARC
  5
E1
330
1F
100
AcDbEntity
  8
0
  6
Continuous
 62
     7
370
    25
100
AcDbCircle
 10
116.1941375259
 20
178.9843949841
 30
0.0
 40
6.276245505286674
100
AcDbArc
 50
180.6131906014
 51
221.7490072637
  0
ARC
  5
E2
330
1F
100
AcDbEntity
  8
0
  6
Continuous
 62
     7
370
    25
100
AcDbCircle
 10
136.5202872945
 20
113.3696749978
 30
0.0
 40
6.485852091014156
100
AcDbArc
 50
320.8068673044999
 51
0.297642267
  0
ELLIPSE
  5
E3
330
1F
100
AcDbEntity
  8
0
  6
Continuous
 62
     7
370
    25
100
AcDbEllipse
 10
125.9661232248
 20
118.0973645916
 30
0.0
 11
17.14322344956178
 21
-9.557250246872599
 31
0.0
210
0.0
220
0.0
230
1.0
 40
0.0152284264
 41
5.797651537794003
 42
5.861348424909834
  0
ELLIPSE
  5
E4
330
1F
100
AcDbEntity
  8
0
  6
Continuous
 62
     7
370
    25
100
AcDbEllipse
 10
132.5255301488
 20
17.5423866362
 30
0.0
 11
-13.89515380360381
 21
439.6041867531993
 31
0.0
210
0.0
220
0.0
230
1.0
 40
0.026585623
 41
4.922340881201389
 42
4.924917846388603
  0
ELLIPSE
  5
E5
330
1F
100
AcDbEntity
  8
0
  6
Continuous
 62
     7
370
    25
100
AcDbEllipse
 10
125.6457924689
 20
112.7806088228
 30
0.0
 11
14.82021178990867
 21
12.54535726531404
 31
0.0
210
0.0
220
0.0
230
1.0
 40
0.704323012
 41
5.274110852838404
 42
5.274219908541137
  0
ELLIPSE
  5
E6
330
1F
100
AcDbEntity
  8
0
  6
Continuous
 62
     7
370
    25
100
AcDbEllipse
 10
132.4384643741
 20
20.7852584281
 30
0.0
 11
-13.83913646961628
 21
434.143773981994
 31
0.0
210
0.0
220
0.0
230
1.0
 40
0.0269095157
 41
4.919981045072427
 42
4.920458031316957
  0
ELLIPSE
  5
E7
330
1F
100
AcDbEntity
  8
0
  6
Continuous
 62
     7
370
    25
100
AcDbEllipse
 10
125.8585580444
 20
117.3515859719
 30
0.0
 11
17.09841078547855
 21
-4.960643702448962
 31
0.0
210
0.0
220
0.0
230
1.0
 40
0.291387156
 41
5.878944292086388
 42
5.87906217182802
  0
ELLIPSE
  5
E8
330
1F
100
AcDbEntity
  8
0
  6
Continuous
 62
     7
370
    25
100
AcDbEllipse
 10
132.5255301488
 20
17.542386636
 30
0.0
 11
-13.8951538036046
 21
439.604186753409
 31
0.0
210
0.0
220
0.0
230
1.0
 40
0.026585623
 41
4.925386019409933
 42
4.934297036673835
  0
ELLIPSE
  5
E9
330
1F
100
AcDbEntity
  8
0
  6
Continuous
 62
     7
370
    25
100
AcDbEllipse
 10
125.6463909029
 20
116.9427062131
 30
0.0
 11
14.74379914430951
 21
12.48067371340346
 31
0.0
210
0.0
220
0.0
230
1.0
 40
0.704323012
 41
5.264833524136453
 42
5.265036696364838
  0
ELLIPSE
  5
EA
330
1F
100
AcDbEntity
  8
0
  6
Continuous
 62
     7
370
    25
100
AcDbEllipse
 10
132.4384643741
 20
20.7852584281
 30
0.0
 11
-13.83913646961628
 21
434.143773981994
 31
0.0
210
0.0
220
0.0
230
1.0
 40
0.0269095157
 41
4.929464544319522
 42
4.929945559977049
  0
ELLIPSE
  5
EB
330
1F
100
AcDbEntity
  8
0
  6
Continuous
 62
     7
370
    25
100
AcDbEllipse
 10
125.8580741328
 20
121.3683583571
 30
0.0
 11
17.01284547399464
 21
-4.935819230228475
 31
0.0
210
0.0
220
0.0
230
1.0
 40
0.291387156
 41
5.86961242796051
 42
5.86982786923135
  0
ELLIPSE
  5
EC
330
1F
100
AcDbEntity
  8
0
  6
Continuous
 62
     7
370
    25
100
AcDbEllipse
 10
132.525530149
 20
17.5423866285
 30
0.0
 11
-13.89515380371605
 21
439.604186764998
 31
0.0
210
0.0
220
0.0
230
1.0
 40
0.026585623
 41
4.934766257353243
 42
4.938787677421999
  0
SPLINE
  5
ED
330
1F
100
AcDbEntity
  8
0
  6
Continuous
 62
     7
370
    25
100
AcDbSpline
210
0.0
220
0.0
230
1.0
 70
     8
 71
     3
 72
    10
 73
     6
 74
     0
 42
0.000000001
 43
0.00000001
 40
0.0
 40
0.0
 40
0.0
 40
0.0
 40
0.4782393066553173
 40
0.9560310663585191
 40
1.0
 40
1.0
 40
1.0
 40
1.0
 10
140.7953986358724
 20
116.5801403794643
 30
0.0
 10
140.7518632239527
 20
116.9812069836199
 30
0.0
 10
140.6648331415174
 20
117.7829648649057
 30
0.0
 10
140.3644657883052
 20
118.3182428754618
 30
0.0
 10
140.1337584543367
 20
118.4612204572543
 30
0.0
 10
140.11431667655
 20
118.4732692219202
 30
0.0
  0
LINE
  5
EE
330
1F
100
AcDbEntity
  8
0
  6
Continuous
 62
     7
370
    25
100
AcDbLine
 10
139.9904501125
 20
118.5528060204
 30
0.0
 11
139.8943831235
 21
118.6144922455
 31
0.0
  0
ELLIPSE
  5
EF
330
1F
100
AcDbEntity
  8
0
  6
Continuous
 62
     7
370
    25
100
AcDbEllipse
 10
124.97585445
 20
110.3874406519
 30
0.0
 11
11.25632189709808
 21
59.42712094256687
 31
0.0
210
0.0
220
0.0
230
1.0
 40
0.2206153688
 41
4.892634172694185
 42
4.892915820465196
  0
LINE
  5
F0
330
1F
100
AcDbEntity
  8
0
  6
Continuous
 62
     7
370
    25
100
AcDbLine
 10
139.891926724
 20
118.5979008212
 30
0.0
 11
139.7744257351
 21
118.6424140203
 31
0.0
  0
ELLIPSE
  5
F1
330
1F
100
AcDbEntity
  8
0
  6
Continuous
 62
     7
370
    25
100
AcDbEllipse
 10
125.6690188885
 20
122.9971099876
 30
0.0
 11
15.5192079000622
 21
9.805337202757146
 31
0.0
210
0.0
220
0.0
230
1.0
 40
0.7167542824
 41
5.262614806619643
 42
5.263612525769066
  0
SPLINE
  5
F2
330
1F
100
AcDbEntity
  8
0
  6
Continuous
 62
     7
370
    25
100
AcDbSpline
210
0.0
220
0.0
230
1.0
 70
     8
 71
     3
 72
    24
 73
    20
 74
     0
 42
0.000000001
 43
0.00000001
 40
0.0
 40
0.0
 40
0.0
 40
0.0
 40
0.0599792776405431
 40
0.1203608403569948
 40
0.1820240861403982
 40
0.2441381416622368
 40
0.3041251618249358
 40
0.364541901169873
 40
0.4263323952086502
 40
0.4886048623664365
 40
0.547261843674562
 40
0.6063324207020379
 40
0.6666995004827186
 40
0.7275099154381551
 40
0.7860220412381786
 40
0.8449247764820439
 40
0.9050376516147066
 40
0.9655603843837962
 40
1.0
 40
1.0
 40
1.0
 40
1.0
 10
139.783950787203
 20
118.6565582198161
 30
0.0
 10
139.7216969147299
 20
118.6733477218217
 30
0.0
 10
139.5967716288462
 20
118.7070393341596
 30
0.0
 10
139.3877259869863
 20
118.721436543658
 30
0.0
 10
139.1617441688062
 20
118.7087607211698
 30
0.0
 10
138.9208690049869
 20
118.6662144825479
 30
0.0
 10
138.6679984786525
 20
118.5958890752214
 30
0.0
 10
138.4032734833131
 20
118.4985065368286
 30
0.0
 10
138.1241518450668
 20
118.3728428306506
 30
0.0
 10
137.8384006409172
 20
118.2221774399771
 30
0.0
 10
137.5500505548429
 20
118.0497750611564
 30
0.0
 10
137.2601669069434
 20
117.8572715782768
 30
0.0
 10
136.9643255901345
 20
117.6412583295328
 30
0.0
 10
136.6693526837997
 20
117.4059536846078
 30
0.0
 10
136.3792342330605
 20
117.1545607921717
 30
0.0
 10
136.0949202120969
 20
116.8879684134789
 30
0.0
 10
135.8148504545017
 20
116.6030425708429
 30
0.0
 10
135.5807930366376
 20
116.3454773633652
 30
0.0
 10
135.4437626164265
 20
116.181720807689
 30
0.0
 10
135.3940663412181
 20
116.1223318716736
 30
0.0
  0
ELLIPSE
  5
F3
330
1F
100
AcDbEntity
  8
0
  6
Continuous
 62
     7
370
    25
100
AcDbEllipse
 10
125.8546982885
 20
123.1043004236
 30
0.0
 11
16.97534488373334
 21
-4.791745922764362
 31
0.0
210
0.0
220
0.0
230
1.0
 40
0.300727483
 41
5.391388262632936
 42
5.392385981782334
  0
LINE
  5
F4
330
1F
100
AcDbEntity
  8
0
  6
Continuous
 62
     7
370
    25
100
AcDbLine
 10
135.4081446114
 20
116.1218135802
 30
0.0
 11
135.2406123639
 21
115.9127541961
 31
0.0
  0
ELLIPSE
  5
F5
330
1F
100
AcDbEntity
  8
0
  6
Continuous
 62
     7
370
    25
100
AcDbEllipse
 10
126.547862727
 20
111.2949417135
 30
0.0
 11
-14.60836715604469
 21
45.39017257012049
 31
0.0
210
0.0
220
0.0
230
1.0
 40
0.2033404049
 41
4.748733102239995
 42
4.749014750011007
  0
SPLINE
  5
F6
330
1F
100
AcDbEntity
  8
0
  6
Continuous
 62
     7
370
    25
100
AcDbSpline
210
0.0
220
0.0
230
1.0
 70
     8
 71
     3
 72
    11
 73
     7
 74
     0
 42
0.000000001
 43
0.00000001
 40
0.0
 40
0.0
 40
0.0
 40
0.0
 40
0.4208061426567765
 40
0.6290451859855994
 40
0.8436264658229545
 40
1.0
 40
1.0
 40
1.0
 40
1.0
 10
135.236405866022
 20
115.9254992116363
 30
0.0
 10
134.9192277652866
 20
115.4711510250762
 30
0.0
 10
134.445091726996
 20
114.7919652657798
 30
0.0
 10
134.0632457922804
 20
113.8227677329953
 30
0.0
 10
133.8951150265011
 20
113.1588180448837
 30
0.0
 10
133.8691258850232
 20
112.748380811176
 30
0.0
 10
133.8581703353185
 20
112.5753637256227
 30
0.0
  0
ELLIPSE
  5
F7
330
1F
100
AcDbEntity
  8
0
  6
Continuous
 62
     7
370
    25
100
AcDbEllipse
 10
118.998187028
 20
9.7332176677
 30
0.0
 11
13.52864570282546
 21
455.4206894892379
 31
0.0
210
0.0
220
0.0
230
1.0
 40
0.0265897516
 41
4.936939905047936
 42
4.940961325116674
  0
ELLIPSE
  5
F8
330
1F
100
AcDbEntity
  8
0
  6
Continuous
 62
     7
370
    25
100
AcDbEllipse
 10
125.6656430441
 20
121.2572702542
 30
0.0
 11
15.42690520785642
 21
10.21878812167566
 31
0.0
210
0.0
220
0.0
230
1.0
 40
0.7158837901
 41
4.767255472778825
 42
4.767470914049713
  0
ELLIPSE
  5
F9
330
1F
100
AcDbEntity
  8
0
  6
Continuous
 62
     7
370
    25
100
AcDbEllipse
 10
119.0769345223
 20
13.07181143
 30
0.0
 11
13.48568972301556
 21
449.9029820729788
 31
0.0
210
0.0
220
0.0
230
1.0
 40
0.0268801833
 41
4.931663231615513
 42
4.932144247273039
  0
ELLIPSE
  5
FA
330
1F
100
AcDbEntity
  8
0
  6
Continuous
 62
     7
370
    25
100
AcDbEllipse
 10
125.8773262741
 20
117.0760223652
 30
0.0
 11
17.11112669862408
 21
-5.742342548251755
 31
0.0
210
0.0
220
0.0
230
1.0
 40
0.2375365524
 41
5.272409958292143
 42
5.272613130520527
  0
ELLIPSE
  5
FB
330
1F
100
AcDbEntity
  8
0
  6
Continuous
 62
     7
370
    25
100
AcDbEllipse
 10
118.9981870281
 20
9.7332176752
 30
0.0
 11
13.52864570270923
 21
455.4206894777578
 31
0.0
210
0.0
220
0.0
230
1.0
 40
0.0265897516
 41
4.927559667104937
 42
4.936470684368804
  0
ELLIPSE
  5
FC
330
1F
100
AcDbEntity
  8
0
  6
Continuous
 62
     7
370
    25
100
AcDbEllipse
 10
125.6651591326
 20
117.2399391566
 30
0.0
 11
15.5044941068659
 21
10.27018303911897
 31
0.0
210
0.0
220
0.0
230
1.0
 40
0.7158837901
 41
4.758021170182182
 42
4.758139049923854
  0
ELLIPSE
  5
FD
330
1F
100
AcDbEntity
  8
0
  6
Continuous
 62
     7
370
    25
100
AcDbEllipse
 10
119.0769345223
 20
13.07181143
 30
0.0
 11
13.48568972301556
 21
449.9029820729788
 31
0.0
210
0.0
220
0.0
230
1.0
 40
0.0268801833
 41
4.922179732368416
 42
4.922656718612948
  0
LINE
  5
FE
330
1F
100
AcDbEntity
  8
0
  6
Continuous
 62
     7
370
    25
100
AcDbLine
 10
133.712042917
 20
106.4122201111
 30
0.0
 11
133.7137194218
 21
106.4119169825
 31
0.0
  0
ELLIPSE
  5
FF
330
1F
100
AcDbEntity
  8
0
  6
Continuous
 62
     7
370
    25
100
AcDbEllipse
 10
118.9981870281
 20
9.7332176752
 30
0.0
 11
13.52864570271026
 21
455.4206894778255
 31
0.0
210
0.0
220
0.0
230
1.0
 40
0.0265897516
 41
4.924514528896688
 42
4.927091494083871
  0
ELLIPSE
  5
100
330
1F
100
AcDbEntity
  8
0
  6
Continuous
 62
     7
370
    25
100
AcDbEllipse
 10
125.5575939522
 20
117.8615256625
 30
0.0
 11
12.23430614919687
 21
20.44688677269524
 31
0.0
210
0.0
220
0.0
230
1.0
 40
0.5873611199
 41
4.366439166925442
 42
4.430136054041253
  0
LWPOLYLINE
  5
101
330
1F
100
AcDbEntity
  8
0
  6
Continuous
 62
     7
370
    25
100
AcDbPolyline
 90
       13
 70
   128
 43
0.0
 10
113.5674440024
 20
106.2408238963
 10
114.8456658591
 20
105.5732488102
 10
116.2329408302
 20
104.9826695058
 10
117.7154099943
 20
104.4749858892
 10
119.2782634371
 20
104.0552697359
 10
120.9058882028
 20
103.7277140237
 10
122.5820242679
 20
103.4955910446
 10
124.2899269795
 20
103.3612197147
 10
126.0125343349
 20
103.3259424077
 10
127.7326374317
 20
103.3901115453
 10
129.4330523847
 20
103.5530860755
 10
131.0967919944
 20
103.8132378776
 10
132.7072354488
 20
104.1679680269
  0
LWPOLYLINE
  5
102
330
1F
100
AcDbEntity
  8
0
  6
Continuous
 62
     7
370
    25
100
AcDbPolyline
 90
        3
 70
   128
 43
0.0
 10
133.1646652889
 20
180.863148846
 10
133.1527934684
 20
181.6221122378
 10
133.0753414818
 20
186.5717906649
  0
LINE
  5
103
330
1F
100
AcDbEntity
  8
0
  6
Continuous
 62
     7
370
    25
100
AcDbLine
 10
139.4558038404
 20
117.7666570411
 30
0.0
 11
139.2164960864
 21
118.0018093899
 31
0.0
  0
SPLINE
  5
104
330
1F
100
AcDbEntity
  8
0
  6
Continuous
 62
     7
370
    25
100
AcDbSpline
210
0.0
220
0.0
230
1.0
 70
     8
 71
     3
 72
     9
 73
     5
 74
     0
 42
0.000000001
 43
0.00000001
 40
0.0
 40
0.0
 40
0.0
 40
0.0
 40
0.5810298776942646
 40
1.0
 40
1.0
 40
1.0
 40
1.0
 10
139.6205710253344
 20
117.6287850992127
 30
0.0
 10
139.5994037336628
 20
117.8923926617093
 30
0.0
 10
139.5629730913082
 20
118.3460828635673
 30
0.0
 10
139.3888118426906
 20
118.5771824174212
 30
0.0
 10
139.3158434830563
 20
118.6740062257641
 30
0.0
  0
LINE
  5
105
330
1F
100
AcDbEntity
  8
0
  6
Continuous
 62
     7
370
    25
100
AcDbLine
 10
133.1646652889
 20
180.863148846
 30
0.0
 11
134.5164861188
 21
180.0827592919
 31
0.0
  0
LINE
  5
106
330
1F
100
AcDbEntity
  8
0
  6
Continuous
 62
     7
370
    25
100
AcDbLine
 10
134.4547684454
 20
184.2014031137
 30
0.0
 11
133.5632062266
 21
186.7054263279
 31
0.0
  0
LINE
  5
107
330
1F
100
AcDbEntity
  8
0
  6
Continuous
 62
     7
370
    25
100
AcDbLine
 10
134.5164861188
 20
180.0827592919
 30
0.0
 11
134.4547684454
 21
184.2014031137
 31
0.0
  0
LINE
  5
108
330
1F
100
AcDbEntity
  8
0
  6
Continuous
 62
     7
370
    25
100
AcDbLine
 10
134.5131236095
 20
187.0302199336
 30
0.0
 11
135.3386519219
 21
184.7116581836
 31
0.0
  0
LINE
  5
109
330
1F
100
AcDbEntity
  8
0
  6
Continuous
 62
     7
370
    25
100
AcDbLine
 10
135.3386519219
 20
184.7116581836
 30
0.0
 11
134.4547684454
 21
184.2014031137
 31
0.0
  0
ARC
  5
10A
330
1F
100
AcDbEntity
  8
0
  6
Continuous
 62
     7
370
    25
100
AcDbCircle
 10
129.763691867
 20
195.4822801759
 30
0.0
 40
13.92997770807198
100
AcDbArc
 50
293.7248799334
 51
310.7336801324
  0
LINE
  5
10B
330
1F
100
AcDbEntity
  8
0
  6
Continuous
 62
     7
370
    25
100
AcDbLine
 10
138.7876934409
 20
189.325976194
 30
0.0
 11
138.8536144694
 21
184.9268272709
 31
0.0
  0
LINE
  5
10C
330
1F
100
AcDbEntity
  8
0
  6
Continuous
 62
     7
370
    25
100
AcDbLine
 10
134.5164861188
 20
180.0827592919
 30
0.0
 11
140.8804471495
 21
183.7565957951
 31
0.0
  0
LINE
  5
10D
330
1F
100
AcDbEntity
  8
0
  6
Continuous
 62
     7
370
    25
100
AcDbLine
 10
135.3849413519
 20
181.6225969121
 30
0.0
 11
139.9811354296
 21
184.2759232755
 31
0.0
  0
LINE
  5
10E
330
1F
100
AcDbEntity
  8
0
  6
Continuous
 62
     7
370
    25
100
AcDbLine
 10
139.9348459996
 20
187.364984547
 30
0.0
 11
139.9811354296
 21
184.2759232755
 31
0.0
  0
LINE
  5
10F
330
1F
100
AcDbEntity
  8
0
  6
Continuous
 62
     7
370
    25
100
AcDbLine
 10
140.818729476
 20
187.8752396169
 30
0.0
 11
139.9348459996
 21
187.364984547
 31
0.0
  0
LINE
  5
110
330
1F
100
AcDbEntity
  8
0
  6
Continuous
 62
     7
370
    25
100
AcDbLine
 10
140.8804471495
 20
183.7565957951
 30
0.0
 11
140.818729476
 21
187.8752396169
 31
0.0
  0
LINE
  5
111
330
1F
100
AcDbEntity
  8
0
  6
Continuous
 62
     7
370
    25
100
AcDbLine
 10
135.3386519219
 20
184.7116581836
 30
0.0
 11
135.3849413519
 21
181.6225969121
 31
0.0
  0
LINE
  5
112
330
1F
100
AcDbEntity
  8
0
  6
Continuous
 62
     7
370
    25
100
AcDbLine
 10
139.9811354296
 20
184.2759232755
 30
0.0
 11
138.8536144694
 21
184.9268272709
 31
0.0
  0
LINE
  5
113
330
1F
100
AcDbEntity
  8
0
  6
Continuous
 62
     7
370
    25
100
AcDbLine
 10
139.9348459996
 20
187.364984547
 30
0.0
 11
139.136670053
 21
189.6067250081
 31
0.0
  0
LINE
  5
114
330
1F
100
AcDbEntity
  8
0
  6
Continuous
 62
     7
370
    25
100
AcDbLine
 10
139.9379854355
 20
190.3488791195
 30
0.0
 11
140.818729476
 21
187.8752396169
 31
0.0
  0
LINE
  5
115
330
1F
100
AcDbEntity
  8
0
  6
Continuous
 62
     7
370
    25
100
AcDbLine
 10
94.8800906361
 20
180.1689397709
 30
0.0
 11
94.9264292185
 21
183.2612811602
 31
0.0
  0
LINE
  5
116
330
1F
100
AcDbEntity
  8
0
  6
Continuous
 62
     7
370
    25
100
AcDbLine
 10
114.5518197879
 20
171.9317843397
 30
0.0
 11
94.9264292185
 21
183.2612811602
 31
0.0
  0
LINE
  5
117
330
1F
100
AcDbEntity
  8
0
  6
Continuous
 62
     7
370
    25
100
AcDbLine
 10
94.8263787602
 20
117.059810572
 30
0.0
 11
113.5674440024
 21
106.2408238963
 31
0.0
  0
LINE
  5
118
330
1F
100
AcDbEntity
  8
0
  6
Continuous
 62
     7
370
    25
100
AcDbLine
 10
94.11274779
 20
118.2949860667
 30
0.0
 11
94.8263787602
 21
117.059810572
 31
0.0
  0
LINE
  5
119
330
1F
100
AcDbEntity
  8
0
  6
Continuous
 62
     7
370
    25
100
AcDbLine
 10
94.11274779
 20
118.2949860667
 30
0.0
 11
94.0597135348
 21
125.5034450212
 31
0.0
  0
ELLIPSE
  5
11A
330
1F
100
AcDbEntity
  8
0
  6
Continuous
 62
     7
370
    25
100
AcDbEllipse
 10
90.5237741775
 20
127.4361683781
 30
0.0
 11
-2.433064206339495
 21
4.368532434545628
 31
0.0
210
0.0
220
0.0
230
1.0
 40
0.5873670493
 41
3.962240274180553
 42
7.05157270774869
  0
LINE
  5
11B
330
1F
100
AcDbEntity
  8
0
  6
Continuous
 62
     7
370
    25
100
AcDbLine
 10
86.9910595868
 20
129.5840920864
 30
0.0
 11
86.7247510472
 21
122.5599858033
 31
0.0
  0
LINE
  5
11C
330
1F
100
AcDbEntity
  8
0
  6
Continuous
 62
     7
370
    25
100
AcDbLine
 10
85.9866602941
 20
122.1628714207
 30
0.0
 11
86.7247510472
 21
122.5599858033
 31
0.0
  0
LINE
  5
11D
330
1F
100
AcDbEntity
  8
0
  6
Continuous
 62
     7
370
    25
100
AcDbLine
 10
67.2455950559
 20
132.9818580942
 30
0.0
 11
85.9866602941
 21
122.1628714207
 31
0.0
  0
LINE
  5
11E
330
1F
100
AcDbEntity
  8
0
  6
Continuous
 62
     7
370
    25
100
AcDbLine
 10
68.2299708413
 20
198.6728185376
 30
0.0
 11
67.2455950559
 21
132.9818580942
 31
0.0
  0
ARC
  5
11F
330
1F
100
AcDbEntity
  8
0
  6
Continuous
 62
     7
370
    25
100
AcDbCircle
 10
111.832376122
 20
174.1491708978
 30
0.0
 40
0.3216294438508578
100
AcDbArc
 50
289.1665719197
 51
354.7682928201999
  0
SPLINE
  5
120
330
1F
100
AcDbEntity
  8
0
  6
Continuous
 62
     7
370
    25
100
AcDbSpline
210
0.0
220
0.0
230
1.0
 70
     8
 71
     3
 72
    11
 73
     7
 74
     0
 42
0.000000001
 43
0.00000001
 40
0.0
 40
0.0
 40
0.0
 40
0.0
 40
0.3722441691282471
 40
0.7460867566289593
 40
0.9954707999249173
 40
1.0
 40
1.0
 40
1.0
 40
1.0
 10
111.9379720901216
 20
173.8453699915244
 30
0.0
 10
112.2448024577457
 20
173.6134182269775
 30
0.0
 10
112.8597807241672
 20
173.1485186958165
 30
0.0
 10
113.7377997346362
 20
172.4972789001841
 30
0.0
 10
114.311621586133
 20
172.095400247878
 30
0.0
 10
114.5476103178549
 20
171.934651706108
 30
0.0
 10
114.5518197878582
 20
171.9317843396886
 30
0.0
  0
LINE
  5
121
330
1F
100
AcDbEntity
  8
0
  6
Continuous
 62
     7
370
    25
100
AcDbLine
 10
95.1031789899
 20
183.5638891838
 30
0.0
 11
111.9379720901
 21
173.8453699915
 31
0.0
  0
ARC
  5
122
330
1F
100
AcDbEntity
  8
0
  6
Continuous
 62
     7
370
    25
100
AcDbCircle
 10
95.3109999947
 20
183.2395806519
 30
0.0
 40
0.3851825462243568
100
AcDbArc
 50
122.6522619103
 51
176.7703463526
  0
LINE
  5
123
330
1F
100
AcDbEntity
  8
0
  6
Continuous
 62
     7
370
    25
100
AcDbLine
 10
87.8583932034
 20
186.525134351
 30
0.0
 11
86.9745097269
 21
187.0353894209
 31
0.0
  0
LINE
  5
124
330
1F
100
AcDbEntity
  8
0
  6
Continuous
 62
     7
370
    25
100
AcDbLine
 10
88.032111178
 20
187.6459297429
 30
0.0
 11
86.9745097269
 21
187.0353894209
 31
0.0
  0
LINE
  5
125
330
1F
100
AcDbEntity
  8
0
  6
Continuous
 62
     7
370
    25
100
AcDbLine
 10
68.4067206127
 20
198.9754265611
 30
0.0
 11
88.032111178
 21
187.6459297429
 31
0.0
  0
LWPOLYLINE
  5
126
330
1F
100
AcDbEntity
  8
0
  6
Continuous
 62
     7
370
    25
100
AcDbPolyline
 90
       14
 70
   128
 43
0.0
 10
65.6935382821
 20
209.606641239
 10
65.0352093819
 20
208.8070271507
 10
64.5160350038
 20
207.9739670348
 10
64.1410305221
 20
207.1155084919
 10
63.9138185881
 20
206.2399444792
 10
63.8365941345
 20
205.3557331972
 10
63.9101031719
 20
204.4714163818
 10
64.1336355818
 20
203.5955367884
 10
64.5050319766
 20
202.7365556661
 10
65.0207045601
 20
201.9027710204
 10
65.6756717867
 20
201.102237451
 10
66.463606484
 20
200.3426883431
 10
67.3768969758
 20
199.63146116
 10
68.4067206127
 20
198.9754265611
  0
LINE
  5
127
330
1F
100
AcDbEntity
  8
0
  6
Continuous
 62
     7
370
    25
100
AcDbLine
 10
64.1671386462
 20
210.4878129925
 30
0.0
 11
65.6935382821
 21
209.606641239
 31
0.0
  0
LINE
  5
128
330
1F
100
AcDbEntity
  8
0
  6
Continuous
 62
     7
370
    25
100
AcDbLine
 10
65.0510221227
 20
210.9980680624
 30
0.0
 11
64.1671386462
 21
210.4878129925
 31
0.0
  0
LINE
  5
129
330
1F
100
AcDbEntity
  8
0
  6
Continuous
 62
     7
370
    25
100
AcDbLine
 10
66.3001421103
 20
210.2769664427
 30
0.0
 11
65.0510221227
 21
210.9980680624
 31
0.0
  0
SPLINE
  5
12A
330
1F
100
AcDbEntity
  8
0
  6
Continuous
 62
     7
370
    25
100
AcDbSpline
210
0.0
220
0.0
230
1.0
 70
     8
 71
     3
 72
    11
 73
     7
 74
     0
 42
0.000000001
 43
0.00000001
 40
0.0
 40
0.0
 40
0.0
 40
0.0
 40
0.1128542513408057
 40
0.3654917547304887
 40
0.6181292580782861
 40
1.0
 40
1.0
 40
1.0
 40
1.0
 10
70.89633618800676
 20
212.9302928061074
 30
0.0
 10
70.69186273466593
 20
212.8511299463334
 30
0.0
 10
70.02965142787468
 20
212.5947517223449
 30
0.0
 10
68.98114240235458
 20
212.1032513661179
 30
0.0
 10
67.59328903304527
 20
211.3200961924795
 30
0.0
 10
66.78599923743668
 20
210.6688878976676
 30
0.0
 10
66.30014211029419
 20
210.2769664426836
 30
0.0
  0
LINE
  5
12B
330
1F
100
AcDbEntity
  8
0
  6
Continuous
 62
     7
370
    25
100
AcDbLine
 10
69.6472162004
 20
213.6513944259
 30
0.0
 11
70.896336188
 21
212.9302928061
 31
0.0
  0
LINE
  5
12C
330
1F
100
AcDbEntity
  8
0
  6
Continuous
 62
     7
370
    25
100
AcDbLine
 10
70.5310996769
 20
214.1616494958
 30
0.0
 11
69.6472162004
 21
213.6513944259
 31
0.0
  0
LINE
  5
12D
330
1F
100
AcDbEntity
  8
0
  6
Continuous
 62
     7
370
    25
100
AcDbLine
 10
72.0574993128
 20
213.2804777422
 30
0.0
 11
70.5310996769
 21
214.1616494958
 31
0.0
  0
LWPOLYLINE
  5
12E
330
1F
100
AcDbEntity
  8
0
  6
Continuous
 62
     7
370
    25
100
AcDbPolyline
 90
       14
 70
   128
 43
0.0
 10
90.4732986712
 20
211.7141909221
 10
89.3368902823
 20
212.3086954533
 10
88.104875174
 20
212.8359268318
 10
86.7891549672
 20
213.2907918505
 10
85.4024398985
 20
213.6688963822
 10
83.9581260351
 20
213.9665878281
 10
82.4701658651
 20
214.1809904032
 10
80.9529335126
 20
214.3100329166
 10
79.4210858795
 20
214.3524687807
 10
77.8894210554
 20
214.3078880525
 10
76.3727353639
 20
214.176721395
 10
74.8856804261
 20
213.9602359157
 10
73.442621621
 20
213.6605229268
 10
72.0574993128
 20
213.2804777422
  0
LINE
  5
12F
330
1F
100
AcDbEntity
  8
0
  6
Continuous
 62
     7
370
    25
100
AcDbLine
 10
110.0986892366
 20
200.3846941039
 30
0.0
 11
90.4732986712
 21
211.7141909221
 31
0.0
  0
LINE
  5
130
330
1F
100
AcDbEntity
  8
0
  6
Continuous
 62
     7
370
    25
100
AcDbLine
 10
110.0986892366
 20
200.3846941039
 30
0.0
 11
111.1562906877
 21
200.9952344259
 31
0.0
  0
LINE
  5
131
330
1F
100
AcDbEntity
  8
0
  6
Continuous
 62
     7
370
    25
100
AcDbLine
 10
112.0401741642
 20
200.484979356
 30
0.0
 11
111.1562906877
 21
200.9952344259
 31
0.0
  0
LINE
  5
132
330
1F
100
AcDbEntity
  8
0
  6
Continuous
 62
     7
370
    25
100
AcDbLine
 10
110.9825727131
 20
199.874439034
 30
0.0
 11
112.0401741642
 21
200.484979356
 31
0.0
  0
LINE
  5
133
330
1F
100
AcDbEntity
  8
0
  6
Continuous
 62
     7
370
    25
100
AcDbLine
 10
95.1031789899
 20
183.5638891838
 30
0.0
 11
94.0455775388
 21
182.9533488618
 31
0.0
  0
LINE
  5
134
330
1F
100
AcDbEntity
  8
0
  6
Continuous
 62
     7
370
    25
100
AcDbLine
 10
94.0455775388
 20
182.9533488618
 30
0.0
 11
93.1616940623
 21
183.4636039317
 31
0.0
  0
LINE
  5
135
330
1F
100
AcDbEntity
  8
0
  6
Continuous
 62
     7
370
    25
100
AcDbLine
 10
94.2192955134
 20
184.0741442537
 30
0.0
 11
93.1616940623
 21
183.4636039317
 31
0.0
  0
LINE
  5
136
330
1F
100
AcDbEntity
  8
0
  6
Continuous
 62
     7
370
    25
100
AcDbLine
 10
88.9159946545
 20
187.135674673
 30
0.0
 11
94.2192955134
 21
184.0741442537
 31
0.0
  0
LINE
  5
137
330
1F
100
AcDbEntity
  8
0
  6
Continuous
 62
     7
370
    25
100
AcDbLine
 10
88.9159946545
 20
187.135674673
 30
0.0
 11
87.8583932034
 21
186.525134351
 31
0.0
  0
LINE
  5
138
330
1F
100
AcDbEntity
  8
0
  6
Continuous
 62
     7
370
    25
100
AcDbLine
 10
93.9962071596
 20
179.658684701
 30
0.0
 11
94.8800906361
 21
180.1689397709
 31
0.0
  0
LINE
  5
139
330
1F
100
AcDbEntity
  8
0
  6
Continuous
 62
     7
370
    25
100
AcDbLine
 10
94.0455775388
 20
182.9533488618
 30
0.0
 11
93.9962071596
 21
179.658684701
 31
0.0
  0
LINE
  5
13A
330
1F
100
AcDbEntity
  8
0
  6
Continuous
 62
     7
370
    25
100
AcDbLine
 10
93.9962071596
 20
179.658684701
 30
0.0
 11
86.9251393478
 21
183.7407252601
 31
0.0
  0
LINE
  5
13B
330
1F
100
AcDbEntity
  8
0
  6
Continuous
 62
     7
370
    25
100
AcDbLine
 10
86.9745097269
 20
187.0353894209
 30
0.0
 11
86.9251393478
 21
183.7407252601
 31
0.0
  0
LINE
  5
13C
330
1F
100
AcDbEntity
  8
0
  6
Continuous
 62
     7
370
    25
100
AcDbLine
 10
87.8583932034
 20
186.525134351
 30
0.0
 11
87.8244510677
 21
184.2600527405
 31
0.0
  0
LINE
  5
13D
330
1F
100
AcDbEntity
  8
0
  6
Continuous
 62
     7
370
    25
100
AcDbLine
 10
93.1277519266
 20
181.1985223211
 30
0.0
 11
87.8244510677
 21
184.2600527405
 31
0.0
  0
LINE
  5
13E
330
1F
100
AcDbEntity
  8
0
  6
Continuous
 62
     7
370
    25
100
AcDbLine
 10
93.1616940623
 20
183.4636039317
 30
0.0
 11
93.1277519266
 21
181.1985223211
 31
0.0
  0
ARC
  5
13F
330
1F
100
AcDbEntity
  8
0
  6
Continuous
 62
     7
370
    25
100
AcDbCircle
 10
89.1238156593
 20
186.8113661411
 30
0.0
 40
0.3851825462243232
100
AcDbArc
 50
122.6522619103
 51
176.7703463526
  0
LINE
  5
140
330
1F
100
AcDbEntity
  8
0
  6
Continuous
 62
     7
370
    25
100
AcDbLine
 10
93.1429130671
 20
182.2102801208
 30
0.0
 11
88.7083345442
 21
184.7703078104
 31
0.0
  0
LINE
  5
141
330
1F
100
AcDbEntity
  8
0
  6
Continuous
 62
     7
370
    25
100
AcDbLine
 10
88.7083345442
 20
184.7703078104
 30
0.0
 11
88.7392448832
 21
186.8330666495
 31
0.0
  0
LINE
  5
142
330
1F
100
AcDbEntity
  8
0
  6
Continuous
 62
     7
370
    25
100
AcDbLine
 10
87.8244510677
 20
184.2600527405
 30
0.0
 11
88.7083345442
 21
184.7703078104
 31
0.0
  0
ARC
  5
143
330
1F
100
AcDbEntity
  8
0
  6
Continuous
 62
     7
370
    25
100
AcDbCircle
 10
68.6145416175
 20
198.6511180292
 30
0.0
 40
0.3851825462242609
100
AcDbArc
 50
122.6522619103
 51
176.7703463526
  0
ARC
  5
144
330
1F
100
AcDbEntity
  8
0
  6
Continuous
 62
     7
370
    25
100
AcDbCircle
 10
111.0551557397
 20
199.7787523308
 30
0.0
 40
0.1201009613850704
100
AcDbArc
 50
64.1283691947
 51
127.1820892344
  0
SPLINE
  5
145
330
1F
100
AcDbEntity
  8
0
  6
Continuous
 62
     7
370
    25
100
AcDbSpline
210
0.0
220
0.0
230
1.0
 70
     8
 71
     3
 72
    35
 73
    31
 74
     0
 42
0.000000001
 43
0.00000001
 40
0.0
 40
0.0
 40
0.0
 40
0.0
 40
0.0347982095911041
 40
0.0612569190763095
 40
0.0878232280761837
 40
0.1418660792966781
 40
0.176664296669132
 40
0.2031059894990174
 40
0.2296496123597233
 40
0.2835975077512213
 40
0.319030741883893
 40
0.3459555408527052
 40
0.3729849954521785
 40
0.4279350531825599
 40
0.4637372624364056
 40
0.5182705024113994
 40
0.5739078140845258
 40
0.6089957207906709
 40
0.6356797163932364
 40
0.6624744326152325
 40
0.7170064516625841
 40
0.7514620055347943
 40
0.7861550566357036
 40
0.8206100062488682
 40
0.8552969857839775
 40
0.889751167834446
 40
0.9244311994839838
 40
0.9588572857592553
 40
0.984998237240794
 40
0.9999999999999999
 40
0.9999999999999999
 40
0.9999999999999999
 40
0.9999999999999999
 10
134.2079385155425
 20
113.0802390175298
 30
0.0
 10
134.2100219299305
 20
113.1688795636935
 30
0.0
 10
134.2136894619119
 20
113.324917671028
 30
0.0
 10
134.2408894977034
 20
113.5547055170872
 30
0.0
 10
134.2901414459631
 20
113.8378570424805
 30
0.0
 10
134.37192025897
 20
114.1475714219324
 30
0.0
 10
134.4824920736106
 20
114.4572226871478
 30
0.0
 10
134.5811322843573
 20
114.6921690394157
 30
0.0
 10
134.7156995539771
 20
114.9764838340886
 30
0.0
 10
134.884231697955
 20
115.2805440981573
 30
0.0
 10
135.0748815067318
 20
115.5771902012836
 30
0.0
 10
135.2317903741606
 20
115.7997970373922
 30
0.0
 10
135.4328157767994
 20
116.0644530344873
 30
0.0
 10
135.6650197635012
 20
116.3389820417396
 30
0.0
 10
135.9659076476943
 20
116.6572011754013
 30
0.0
 10
136.2798689163569
 20
116.9548134961821
 30
0.0
 10
136.5998189698358
 20
117.219522163671
 30
0.0
 10
136.8589704048717
 20
117.4096688145398
 30
0.0
 10
137.0534789885099
 20
117.54010907677
 30
0.0
 10
137.2885744547462
 20
117.6848159240315
 30
0.0
 10
137.5358405353615
 20
117.8157031090107
 30
0.0
 10
137.7902174140526
 20
117.9248520295903
 30
0.0
 10
137.9959241235783
 20
117.9958040876081
 30
0.0
 10
138.1934771833555
 20
118.0457924134258
 30
0.0
 10
138.3810444711559
 20
118.0742030994722
 30
0.0
 10
138.5585886707349
 20
118.0807717720767
 30
0.0
 10
138.7247817051056
 20
118.065578337468
 30
0.0
 10
138.8665362667576
 20
118.0304973534794
 30
0.0
 10
138.9724873404669
 20
117.9906524240228
 30
0.0
 10
139.0253995899953
 20
117.9604389256985
 30
0.0
 10
139.044692848331
 20
117.9494222550108
 30
0.0
  0
ELLIPSE
  5
146
330
1F
100
AcDbEntity
  8
0
  6
Continuous
 62
     7
370
    25
100
AcDbEllipse
 10
119.106714742
 20
-9.9245641532
 30
0.0
 11
13.30768842304272
 21
447.8297897385507
 31
0.0
210
0.0
220
0.0
230
1.0
 40
0.0265637472
 41
4.97279964036182
 42
4.991423338440495
  0
LINE
  5
147
330
1F
100
AcDbEntity
  8
0
  6
Continuous
 62
     7
370
    25
100
AcDbLine
 10
134.0280979897
 20
105.039896818
 30
0.0
 11
134.0268691714
 21
105.0394860679
 31
0.0
  0
ELLIPSE
  5
148
330
1F
100
AcDbEntity
  8
0
  6
Continuous
 62
     7
370
    25
100
AcDbEllipse
 10
119.1164099673
 20
-9.4458507894
 30
0.0
 11
13.29217705630646
 21
447.4603424963707
 31
0.0
210
0.0
220
0.0
230
1.0
 40
0.0265897516
 41
4.971911663792116
 42
4.975463241672101
  0
ELLIPSE
  5
149
330
1F
100
AcDbEntity
  8
0
  6
Continuous
 62
     7
370
    25
100
AcDbEllipse
 10
125.8728785222
 20
112.9148785602
 30
0.0
 11
16.45201548996471
 21
-5.521150665088641
 31
0.0
210
0.0
220
0.0
230
1.0
 40
0.2375365524
 41
5.285467834257407
 42
5.311103081265647
  0
ELLIPSE
  5
14A
330
1F
100
AcDbEntity
  8
0
  6
Continuous
 62
     7
370
    25
100
AcDbEllipse
 10
125.6693865002
 20
117.2446083658
 30
0.0
 11
14.82669094741929
 21
9.821205957762473
 31
0.0
210
0.0
220
0.0
230
1.0
 40
0.7158837901
 41
4.783403114259092
 42
4.808104252690415
  0
ELLIPSE
  5
14B
330
1F
100
AcDbEntity
  8
0
  6
Continuous
 62
     7
370
    25
100
AcDbEllipse
 10
119.1164099673
 20
-9.4458507892
 30
0.0
 11
13.29217705630143
 21
447.4603424960399
 31
0.0
210
0.0
220
0.0
230
1.0
 40
0.0265897516
 41
4.977876464858638
 42
4.98513229875034
  0
ELLIPSE
  5
14C
330
1F
100
AcDbEntity
  8
0
  6
Continuous
 62
     7
370
    25
100
AcDbEllipse
 10
125.8722800881
 20
117.0762850133
 30
0.0
 11
16.36333370262963
 21
-5.491389842809596
 31
0.0
210
0.0
220
0.0
230
1.0
 40
0.2375365524
 41
5.295447934836437
 42
5.32082855883028
  0
ELLIPSE
  5
14D
330
1F
100
AcDbEntity
  8
0
  6
Continuous
 62
     7
370
    25
100
AcDbEllipse
 10
125.6698704118
 20
121.2619394634
 30
0.0
 11
14.74910204840984
 21
9.769811040319155
 31
0.0
210
0.0
220
0.0
230
1.0
 40
0.7158837901
 41
4.793328202229652
 42
4.817892056440883
  0
ELLIPSE
  5
14E
330
1F
100
AcDbEntity
  8
0
  6
Continuous
 62
     7
370
    25
100
AcDbEllipse
 10
119.1164099671
 20
-9.4458507996
 30
0.0
 11
13.29217705646188
 21
447.4603425111541
 31
0.0
210
0.0
220
0.0
230
1.0
 40
0.0265897516
 41
4.987552330423297
 42
4.99073283224923
  0
SPLINE
  5
14F
330
1F
100
AcDbEntity
  8
0
  6
Continuous
 62
     7
370
    25
100
AcDbSpline
210
0.0
220
0.0
230
1.0
 70
     8
 71
     3
 72
     9
 73
     5
 74
     0
 42
0.000000001
 43
0.00000001
 40
0.0
 40
0.0
 40
0.0
 40
0.0
 40
0.5029362480993058
 40
1.0
 40
1.0
 40
1.0
 40
1.0
 10
134.9670940541235
 20
115.4141114830972
 30
0.0
 10
134.7555200131065
 20
115.0358376617736
 30
0.0
 10
134.3348423589971
 20
114.2837069041415
 30
0.0
 10
134.2504815841397
 20
113.533193294985
 30
0.0
 10
134.2085489008759
 20
113.1601401845653
 30
0.0
  0
SPLINE
  5
150
330
1F
100
AcDbEntity
  8
0
  6
Continuous
 62
     7
370
    25
100
AcDbSpline
210
0.0
220
0.0
230
1.0
 70
     8
 71
     3
 72
    11
 73
     7
 74
     0
 42
0.000000001
 43
0.00000001
 40
0.0
 40
0.0
 40
0.0
 40
0.0
 40
0.3026653084814295
 40
0.6055336789125657
 40
0.9048962553103692
 40
1.0
 40
1.0
 40
1.0
 40
1.0
 10
138.6188460953968
 20
118.0783038043562
 30
0.0
 10
138.369582819971
 20
118.0586052941017
 30
0.0
 10
137.8708890352631
 20
118.0191950576152
 30
0.0
 10
136.9413294756001
 20
117.5074710722025
 30
0.0
 10
136.2071987043135
 20
116.9132984919225
 30
0.0
 10
135.8243246887966
 20
116.5091985101891
 30
0.0
 10
135.732015787698
 20
116.4117721408455
 30
0.0
  0
ELLIPSE
  5
151
330
1F
100
AcDbEntity
  8
0
  6
Continuous
 62
     7
370
    25
100
AcDbEllipse
 10
125.6731068116
 20
123.0015540919
 30
0.0
 11
14.83586522466187
 21
9.373588018102721
 31
0.0
210
0.0
220
0.0
230
1.0
 40
0.7167542824
 41
5.205982242107153
 42
5.251007911759558
  0
ELLIPSE
  5
152
330
1F
100
AcDbEntity
  8
0
  6
Continuous
 62
     7
370
    25
100
AcDbEllipse
 10
125.0100809326
 20
110.5527070169
 30
0.0
 11
10.7661663276328
 21
56.83937206921648
 31
0.0
210
0.0
220
0.0
230
1.0
 40
0.2206153688
 41
4.882858564909217
 42
4.89809744698095
  0
LINE
  5
153
330
1F
100
AcDbEntity
  8
0
  6
Continuous
 62
     7
370
    25
100
AcDbLine
 10
138.8278622051
 20
117.9576413726
 30
0.0
 11
139.157971013
 21
117.7760101886
 31
0.0
  0
SPLINE
  5
154
330
1F
100
AcDbEntity
  8
0
  6
Continuous
 62
     7
370
    25
100
AcDbSpline
210
0.0
220
0.0
230
1.0
 70
     8
 71
     3
 72
    11
 73
     7
 74
     0
 42
0.000000001
 43
0.00000001
 40
0.0
 40
0.0
 40
0.0
 40
0.0
 40
0.3066189325824452
 40
0.6132385641211084
 40
0.7648896356092775
 40
1.0
 40
1.0
 40
1.0
 40
1.0
 10
135.9410318973751
 20
116.291109709101
 30
0.0
 10
136.2195527494797
 20
116.612360991299
 30
0.0
 10
136.776595088594
 20
117.2548642880066
 30
0.0
 10
137.5700625325614
 20
117.7332036892943
 30
0.0
 10
138.2617447419114
 20
117.9713664814509
 30
0.0
 10
138.6138308195153
 20
117.9628304089031
 30
0.0
 10
138.8278622050753
 20
117.9576413726109
 30
0.0
  0
LINE
  5
155
330
1F
100
AcDbEntity
  8
0
  6
Continuous
 62
     7
370
    25
100
AcDbLine
 10
136.2604023265
 20
116.103279391
 30
0.0
 11
135.9410318974
 21
116.2911097091
 31
0.0
  0
SPLINE
  5
156
330
1F
100
AcDbEntity
  8
0
  6
Continuous
 62
     7
370
    25
100
AcDbSpline
210
0.0
220
0.0
230
1.0
 70
     8
 71
     3
 72
     9
 73
     5
 74
     0
 42
0.000000001
 43
0.00000001
 40
0.0
 40
0.0
 40
0.0
 40
0.0
 40
0.980011015743195
 40
1.0
 40
1.0
 40
1.0
 40
1.0
 10
135.5052559995203
 20
115.1059370822775
 30
0.0
 10
135.739052380379
 20
115.4446816560088
 30
0.0
 10
135.9776174343457
 20
115.7903354989652
 30
0.0
 10
136.2548605188568
 20
116.097146549702
 30
0.0
 10
136.2604023265084
 20
116.103279390965
 30
0.0
  0
LINE
  5
157
330
1F
100
AcDbEntity
  8
0
  6
Continuous
 62
     7
370
    25
100
AcDbLine
 10
135.2808579707
 20
115.2329794296
 30
0.0
 11
135.5052559995
 21
115.1059370823
 31
0.0
  0
SPLINE
  5
158
330
1F
100
AcDbEntity
  8
0
  6
Continuous
 62
     7
370
    25
100
AcDbSpline
210
0.0
220
0.0
230
1.0
 70
     8
 71
     3
 72
     9
 73
     5
 74
     0
 42
0.000000001
 43
0.00000001
 40
0.0
 40
0.0
 40
0.0
 40
0.0
 40
0.4924974875535814
 40
1.0
 40
1.0
 40
1.0
 40
1.0
 10
134.6619314294402
 20
112.8984080219508
 30
0.0
 10
134.6931446189351
 20
113.2724304533235
 30
0.0
 10
134.7565219767567
 20
114.0318707364214
 30
0.0
 10
135.1043396351693
 20
114.8286247605316
 30
0.0
 10
135.2808579706869
 20
115.2329794295694
 30
0.0
  0
SPLINE
  5
159
330
1F
100
AcDbEntity
  8
0
  6
Continuous
 62
     7
370
    25
100
AcDbSpline
210
0.0
220
0.0
230
1.0
 70
     8
 71
     3
 72
    14
 73
    10
 74
     0
 42
0.000000001
 43
0.00000001
 40
0.0
 40
0.0
 40
0.0
 40
0.0
 40
0.2635372384953875
 40
0.7183720572789277
 40
0.9464392832813979
 40
0.9749986895055519
 40
0.9893658437527661
 40
0.9961027741226683
 40
0.9999999999999999
 40
0.9999999999999999
 40
0.9999999999999999
 40
0.9999999999999999
 10
134.7536846535747
 20
112.8261959195366
 30
0.0
 10
134.7453843400386
 20
112.8317896695564
 30
0.0
 10
134.7227586445389
 20
112.8470375856862
 30
0.0
 10
134.6933733705077
 20
112.868469690888
 30
0.0
 10
134.6708394417813
 20
112.8856259623433
 30
0.0
 10
134.6633454011468
 20
112.8947986959055
 30
0.0
 10
134.6622593630315
 20
112.8967867540417
 30
0.0
 10
134.6619536272166
 20
112.8978453528007
 30
0.0
 10
134.6619373827451
 20
112.8982571176009
 30
0.0
 10
134.6619314294402
 20
112.8984080219508
 30
0.0
  0
LINE
  5
15A
330
1F
100
AcDbEntity
  8
0
  6
Continuous
 62
     7
370
    25
100
AcDbLine
 10
134.7533314523
 20
112.7763835704
 30
0.0
 11
134.7536846536
 21
112.8261959195
 31
0.0
  0
LINE
  5
15B
330
1F
100
AcDbEntity
  8
0
  6
Continuous
 62
     7
370
    25
100
AcDbLine
 10
134.2079385155
 20
113.0802390175
 30
0.0
 11
134.7533314523
 21
112.7763835704
 31
0.0
  0
SPLINE
  5
15C
330
1F
100
AcDbEntity
  8
0
  6
Continuous
 62
     7
370
    25
100
AcDbSpline
210
0.0
220
0.0
230
1.0
 70
     8
 71
     3
 72
    17
 73
    13
 74
     0
 42
0.000000001
 43
0.00000001
 40
0.0
 40
0.0
 40
0.0
 40
0.0
 40
0.1055691093059329
 40
0.2112583639992061
 40
0.3173097778615498
 40
0.4234821478764547
 40
0.5503294814151024
 40
0.6773829721786425
 40
0.805061386199971
 40
0.9329497164944847
 40
0.966472961018326
 40
0.9999999999999999
 40
0.9999999999999999
 40
0.9999999999999999
 40
0.9999999999999999
 10
139.1579710129751
 20
117.776010188586
 30
0.0
 10
139.1813365273672
 20
117.7737222491555
 30
0.0
 10
139.2280941478202
 20
117.7691437664518
 30
0.0
 10
139.2957861335066
 20
117.7573201998025
 30
0.0
 10
139.3616909332845
 20
117.7418322989264
 30
0.0
 10
139.4297035942065
 20
117.7210418820816
 30
0.0
 10
139.4992942249443
 20
117.6941030976167
 30
0.0
 10
139.5699258961129
 20
117.6599185158785
 30
0.0
 10
139.6375844170061
 20
117.6200139868893
 30
0.0
 10
139.6862496961065
 20
117.5855719117001
 30
0.0
 10
139.7180442225571
 20
117.5606018678763
 30
0.0
 10
139.7287911264817
 20
117.5516902680454
 30
0.0
 10
139.7341648825342
 20
117.5472342159708
 30
0.0
  0
SPLINE
  5
15D
330
1F
100
AcDbEntity
  8
0
  6
Continuous
 62
     7
370
    25
100
AcDbSpline
210
0.0
220
0.0
230
1.0
 70
     8
 71
     3
 72
     9
 73
     5
 74
     0
 42
0.000000001
 43
0.00000001
 40
0.0
 40
0.0
 40
0.0
 40
0.0
 40
0.5094314799466461
 40
1.0
 40
1.0
 40
1.0
 40
1.0
 10
139.7335542366028
 20
117.5432227742502
 30
0.0
 10
139.8822723522191
 20
117.3707694367589
 30
0.0
 10
140.17420192758
 20
117.0322482729129
 30
0.0
 10
140.2431112824213
 20
116.3797311791195
 30
0.0
 10
140.2769160426435
 20
116.0596268341078
 30
0.0
  0
LINE
  5
15E
330
1F
100
AcDbEntity
  8
0
  6
Continuous
 62
     7
370
    25
100
AcDbLine
 10
140.2782998513
 20
116.0143857557
 30
0.0
 11
140.2769160375
 21
116.0596277202
 31
0.0
  0
ELLIPSE
  5
15F
330
1F
100
AcDbEntity
  8
0
  6
Continuous
 62
     7
370
    25
100
AcDbEllipse
 10
132.7549908912
 20
-13.3624767126
 30
0.0
 11
-14.36220700688522
 21
454.7959870171228
 31
0.0
210
0.0
220
0.0
230
1.0
 40
0.0265925572
 41
4.982111392929633
 42
5.000005043507719
  0
ARC
  5
160
330
1F
100
AcDbEntity
  8
0
  6
Continuous
 62
     7
370
    25
100
AcDbCircle
 10
129.7017762992
 20
120.1053867352
 30
0.0
 40
16.13576218772455
100
AcDbArc
 50
287.5814289231
 51
312.4131945442
  0
ELLIPSE
  5
161
330
1F
100
AcDbEntity
  8
0
  6
Continuous
 62
     7
370
    25
100
AcDbEllipse
 10
118.7600917894
 20
-21.4415599955
 30
0.0
 11
14.00079894915989
 21
471.154316982452
 31
0.0
210
0.0
220
0.0
230
1.0
 40
0.0265637472
 41
4.984264653708952
 42
5.002049533136562
  0
LINE
  5
162
330
1F
100
AcDbEntity
  8
0
  6
Continuous
 62
     7
370
    25
100
AcDbLine
 10
134.7536846536
 20
112.8261959196
 30
0.0
 11
134.7540988918
 21
112.8452008785
 31
0.0
  0
SPLINE
  5
163
330
1F
100
AcDbEntity
  8
0
  6
Continuous
 62
     7
370
    25
100
AcDbSpline
210
0.0
220
0.0
230
1.0
 70
     8
 71
     3
 72
     9
 73
     5
 74
     0
 42
0.000000001
 43
0.00000001
 40
0.0
 40
0.0
 40
0.0
 40
0.0
 40
0.4986936729065509
 40
1.0
 40
1.0
 40
1.0
 40
1.0
 10
134.7540988917601
 20
112.8452008784994
 30
0.0
 10
134.7957936669232
 20
113.2196863943225
 30
0.0
 10
134.879401656012
 20
113.9706193541101
 30
0.0
 10
135.2969435022104
 20
114.7247881119348
 30
0.0
 10
135.5062598715359
 20
115.1028576819285
 30
0.0
  0
LINE
  5
164
330
1F
100
AcDbEntity
  8
0
  6
Continuous
 62
     7
370
    25
100
AcDbLine
 10
135.5062598715
 20
115.1028576819
 30
0.0
 11
135.5052559995
 21
115.1059370823
 31
0.0
  0
ELLIPSE
  5
165
330
1F
100
AcDbEntity
  8
0
  6
Continuous
 62
     7
370
    25
100
AcDbEllipse
 10
125.8546982885
 20
123.1043004236
 30
0.0
 11
16.97534488373334
 21
-4.791745922764362
 31
0.0
210
0.0
220
0.0
230
1.0
 40
0.300727483
 41
5.454135456984849
 42
5.454584835659968
  0
SPLINE
  5
166
330
1F
100
AcDbEntity
  8
0
  6
Continuous
 62
     7
370
    25
100
AcDbSpline
210
0.0
220
0.0
230
1.0
 70
     8
 71
     3
 72
    11
 73
     7
 74
     0
 42
0.000000001
 43
0.00000001
 40
0.0
 40
0.0
 40
0.0
 40
0.0
 40
0.3030517701418406
 40
0.6062910851293576
 40
0.9063278432879652
 40
1.0
 40
1.0
 40
1.0
 40
1.0
 10
136.2664630619373
 20
116.1032422966695
 30
0.0
 10
136.5692736357778
 20
116.4039030608045
 30
0.0
 10
137.175082179039
 20
117.0054106542362
 30
0.0
 10
138.1234425638462
 20
117.5777338657004
 30
0.0
 10
138.7717311383632
 20
117.7785718628506
 30
0.0
 10
139.0799590544419
 20
117.7714648722113
 30
0.0
 10
139.1532933696362
 20
117.7697739601802
 30
0.0
  0
ELLIPSE
  5
167
330
1F
100
AcDbEntity
  8
0
  6
Continuous
 62
     7
370
    25
100
AcDbEllipse
 10
125.6690188885
 20
122.9971099876
 30
0.0
 11
15.5192079000622
 21
9.805337202757146
 31
0.0
210
0.0
220
0.0
230
1.0
 40
0.7167542824
 41
5.200415952742036
 42
5.200865331417146
  0
LINE
  5
168
330
1F
100
AcDbEntity
  8
0
  6
Continuous
 62
     7
370
    25
100
AcDbLine
 10
139.7335542366
 20
117.5432227743
 30
0.0
 11
139.7341648825
 21
117.547234216
 31
0.0
  0
LINE
  5
169
330
1F
100
AcDbEntity
  8
0
  6
Continuous
 62
     7
370
    25
100
AcDbLine
 10
135.7320157877
 20
116.4117721408
 30
0.0
 11
135.675099933
 21
116.4446289644
 31
0.0
  0
LINE
  5
16A
330
1F
100
AcDbEntity
  8
0
  6
Continuous
 62
     7
370
    25
100
AcDbLine
 10
134.7540988918
 20
112.8452008785
 30
0.0
 11
134.6619314294
 21
112.898408022
 31
0.0
  0
LINE
  5
16B
330
1F
100
AcDbEntity
  8
0
  6
Continuous
 62
     7
370
    25
100
AcDbLine
 10
135.5062598715
 20
115.1028576819
 30
0.0
 11
135.2808579707
 21
115.2329794296
 31
0.0
  0
LINE
  5
16C
330
1F
100
AcDbEntity
  8
0
  6
Continuous
 62
     7
370
    25
100
AcDbLine
 10
136.2664630619
 20
116.1032422967
 30
0.0
 11
135.9410318974
 21
116.2911097091
 31
0.0
  0
LINE
  5
16D
330
1F
100
AcDbEntity
  8
0
  6
Continuous
 62
     7
370
    25
100
AcDbLine
 10
139.1532933696
 20
117.7697739602
 30
0.0
 11
138.8278622051
 21
117.9576413726
 31
0.0
  0
LINE
  5
16E
330
1F
100
AcDbEntity
  8
0
  6
Continuous
 62
     7
370
    25
100
AcDbLine
 10
138.6188460954
 20
118.0783038044
 30
0.0
 11
138.1193404294
 21
118.3666622875
 31
0.0
  0
LWPOLYLINE
  5
16F
330
1F
100
AcDbEntity
  8
0
  6
Continuous
 62
     7
370
    25
100
AcDbPolyline
 90
        9
 70
   128
 43
0.0
 10
67.2455950559
 20
132.9818580942
 10
66.0891957908
 20
133.7197598654
 10
65.0661715829
 20
134.5206166594
 10
64.1867424767
 20
135.3764278914
 10
63.4596939972
 20
136.2786439798
 10
62.8922893818
 20
137.2182517569
 10
62.490197021
 20
138.185864511
 10
62.2574338301
 20
139.1718157599
 10
62.1958163594
 20
140.1444019922
  0
LWPOLYLINE
  5
170
330
1F
100
AcDbEntity
  8
0
  6
Continuous
 62
     7
370
    25
100
AcDbPolyline
 90
       12
 70
   128
 43
0.0
 10
65.6334396577
 20
200.6462584953
 10
65.4470025913
 20
200.8425442157
 10
64.780881774
 20
201.6594112906
 10
64.2574249479
 20
202.5101930045
 10
63.8817264432
 20
203.3866094708
 10
63.6574425928
 20
204.2801313233
 10
63.5867561477
 20
205.1820627243
 10
63.6703550351
 20
206.0836259941
 10
63.9074256628
 20
206.9760470352
 10
64.2956608375
 20
207.8506407233
 10
64.8312822185
 20
208.6988954317
 10
65.5090770888
 20
209.5125558668
  0
LINE
  5
171
330
1F
100
AcDbEntity
  8
0
  6
Continuous
 62
     7
370
    25
100
AcDbLine
 10
134.0280979897
 20
105.039896818
 30
0.0
 11
134.5757594798
 21
104.7233482053
 31
0.0
  0
SPLINE
  5
172
330
1F
100
AcDbEntity
  8
0
  6
Continuous
 62
     7
370
    25
100
AcDbSpline
210
0.0
220
0.0
230
1.0
 70
     8
 71
     3
 72
    12
 73
     8
 74
     0
 42
0.000000001
 43
0.00000001
 40
0.0
 40
0.0
 40
0.0
 40
0.0
 40
0.2060757310230191
 40
0.412015057709376
 40
0.6217667250770578
 40
0.8398301355565844
 40
1.0
 40
1.0
 40
1.0
 40
1.0
 10
65.50907708880379
 20
209.5125558668313
 30
0.0
 10
65.51135320427778
 20
209.53347046547
 30
0.0
 10
65.5159039286339
 20
209.5752858190893
 30
0.0
 10
65.54668383718925
 20
209.616476734745
 30
0.0
 10
65.591664759444
 20
209.6358213648035
 30
0.0
 10
65.6432923877762
 20
209.6316635851392
 30
0.0
 10
65.67859060166798
 20
209.6140851513754
 30
0.0
 10
65.69353828213129
 20
209.6066412390077
 30
0.0
  0
LINE
  5
173
330
1F
100
AcDbEntity
  8
0
  6
Continuous
 62
     7
370
    25
100
AcDbLine
 10
134.1782213196
 20
111.7908394907
 30
0.0
 11
133.8442444713
 21
111.9836402213
 31
0.0
  0
LINE
  5
174
330
1F
100
AcDbEntity
  8
0
  6
Continuous
 62
     7
370
    25
100
AcDbLine
 10
133.8161930199
 20
110.7945469584
 30
0.0
 11
133.8193271341
 21
110.7927343349
 31
0.0
  0
LINE
  5
175
330
1F
100
AcDbEntity
  8
0
  6
Continuous
 62
     7
370
    25
100
AcDbLine
 10
139.7744257351
 20
118.6424140203
 30
0.0
 11
139.7234229047
 21
118.6706869232
 31
0.0
  0
LINE
  5
176
330
1F
100
AcDbEntity
  8
0
  6
Continuous
 62
     7
370
    25
100
AcDbLine
 10
112.0401741642
 20
200.484979356
 30
0.0
 11
112.0419308566
 21
200.3697771437
 31
0.0
  0
LINE
  5
177
330
1F
100
AcDbEntity
  8
0
  6
Continuous
 62
     7
370
    25
100
AcDbLine
 10
134.085021864
 20
107.6176087399
 30
0.0
 11
133.7454797262
 21
107.8136222438
 31
0.0
  0
LINE
  5
178
330
1F
100
AcDbEntity
  8
0
  6
Continuous
 62
     7
370
    25
100
AcDbLine
 10
133.7170759836
 20
106.6228364053
 30
0.0
 11
133.7188079057
 21
106.6218347434
 31
0.0
  0
LINE
  5
179
330
1F
100
AcDbEntity
  8
0
  6
Continuous
 62
     7
370
    25
100
AcDbLine
 10
134.0268691714
 20
105.0394860679
 30
0.0
 11
133.6685557925
 21
105.2463359786
 31
0.0
  0
LINE
  5
17A
330
1F
100
AcDbEntity
  8
0
  6
Continuous
 62
     7
370
    25
100
AcDbLine
 10
140.8603337235
 20
114.8569577403
 30
0.0
 11
140.3114413492
 21
115.1738265633
 31
0.0
  0
LINE
  5
17B
330
1F
100
AcDbEntity
  8
0
  6
Continuous
 62
     7
370
    25
100
AcDbLine
 10
140.858577329
 20
114.8564069747
 30
0.0
 11
140.3115131848
 21
115.1720033244
 31
0.0
  0
LINE
  5
17C
330
1F
100
AcDbEntity
  8
0
  6
Continuous
 62
     7
370
    25
100
AcDbLine
 10
140.3195673204
 20
114.9675479963
 30
0.0
 11
140.8662892199
 21
114.6525274008
 31
0.0
  0
LINE
  5
17D
330
1F
100
AcDbEntity
  8
0
  6
Continuous
 62
     7
370
    25
100
AcDbLine
 10
141.0112735706
 20
110.8314475537
 30
0.0
 11
140.469675506
 21
111.1441054613
 31
0.0
  0
LINE
  5
17E
330
1F
100
AcDbEntity
  8
0
  6
Continuous
 62
     7
370
    25
100
AcDbLine
 10
141.0103242572
 20
110.8311375356
 30
0.0
 11
140.4697184488
 21
111.1430081298
 31
0.0
  0
LINE
  5
17F
330
1F
100
AcDbEntity
  8
0
  6
Continuous
 62
     7
370
    25
100
AcDbLine
 10
140.4776674305
 20
110.9398502951
 30
0.0
 11
141.0179330891
 21
110.628549779
 31
0.0
  0
LINE
  5
180
330
1F
100
AcDbEntity
  8
0
  6
Continuous
 62
     7
370
    25
100
AcDbLine
 10
140.5208830653
 20
109.8341418626
 30
0.0
 11
141.0601137859
 21
109.5228505936
 31
0.0
  0
LINE
  5
181
330
1F
100
AcDbEntity
  8
0
  6
Continuous
 62
     7
370
    25
100
AcDbLine
 10
64.1216039417
 20
207.501690535
 30
0.0
 11
64.1671386462
 21
210.4878129925
 31
0.0
  0
LINE
  5
182
330
1F
100
AcDbEntity
  8
0
  6
Continuous
 62
     7
370
    25
100
AcDbLine
 10
86.9910595868
 20
129.5840920864
 30
0.0
 11
87.5214704569
 21
129.890291764
 31
0.0
  0
ELLIPSE
  5
183
330
1F
100
AcDbEntity
  8
0
  6
Continuous
 62
     7
370
    25
100
AcDbEllipse
 10
91.0541850476
 20
127.7423680558
 30
0.0
 11
-2.433064206339509
 21
4.368532434545628
 31
0.0
210
0.0
220
0.0
230
1.0
 40
0.5873670493
 41
0.1134819555605774
 42
0.7683874005690976
  0
LINE
  5
184
330
1F
100
AcDbEntity
  8
0
  6
Continuous
 62
     7
370
    25
100
AcDbLine
 10
93.9307832766
 20
119.7255024916
 30
0.0
 11
94.1021512956
 21
119.7352701742
 31
0.0
  0
LINE
  5
185
330
1F
100
AcDbEntity
  8
0
  6
Continuous
 62
     7
370
    25
100
AcDbLine
 10
93.9307832766
 20
119.7255024916
 30
0.0
 11
93.9232518478
 21
120.7491803912
 31
0.0
  0
LINE
  5
186
330
1F
100
AcDbEntity
  8
0
  6
Continuous
 62
     7
370
    25
100
AcDbLine
 10
94.0961136216
 20
120.5559157198
 30
0.0
 11
93.9232518478
 21
120.7491803912
 31
0.0
  0
LINE
  5
187
330
1F
100
AcDbEntity
  8
0
  6
Continuous
 62
     7
370
    25
100
AcDbLine
 10
93.8999392539
 20
123.9178470622
 30
0.0
 11
94.0713072729
 21
123.9276147448
 31
0.0
  0
LINE
  5
188
330
1F
100
AcDbEntity
  8
0
  6
Continuous
 62
     7
370
    25
100
AcDbLine
 10
93.8999392539
 20
123.9178470622
 30
0.0
 11
93.8926906772
 21
124.9030794743
 31
0.0
  0
LINE
  5
189
330
1F
100
AcDbEntity
  8
0
  6
Continuous
 62
     7
370
    25
100
AcDbLine
 10
94.065552451
 20
124.7098148029
 30
0.0
 11
93.8926906772
 21
124.9030794743
 31
0.0
  0
SPLINE
  5
18A
330
1F
100
AcDbEntity
  8
0
  6
Continuous
 62
     7
370
    25
100
AcDbSpline
210
0.0
220
0.0
230
1.0
 70
     8
 71
     3
 72
    11
 73
     7
 74
     0
 42
0.000000001
 43
0.00000001
 40
0.0
 40
0.0
 40
0.0
 40
0.0
 40
0.1945527405715629
 40
0.4326339026488625
 40
0.6773723983660195
 40
0.9999999999999999
 40
0.9999999999999999
 40
0.9999999999999999
 40
0.9999999999999999
 10
70.78079375815908
 20
212.9491664974992
 30
0.0
 10
70.78719001613212
 20
212.9512743565931
 30
0.0
 10
70.80141360425068
 20
212.9559616784132
 30
0.0
 10
70.82698897085268
 20
212.9555262379327
 30
0.0
 10
70.85911591231881
 20
212.9491302813074
 30
0.0
 10
70.88284363374368
 20
212.9371214942785
 30
0.0
 10
70.89633618800676
 20
212.9302928061074
 30
0.0
  0
LINE
  5
18B
330
1F
100
AcDbEntity
  8
0
  6
Continuous
 62
     7
370
    25
100
AcDbLine
 10
87.4013157071
 20
121.346208234
 30
0.0
 11
93.4117233472
 21
117.8764737587
 31
0.0
  0
LINE
  5
18C
330
1F
100
AcDbEntity
  8
0
  6
Continuous
 62
     7
370
    25
100
AcDbLine
 10
87.4700305842
 20
122.8352417436
 30
0.0
 11
87.4013157071
 21
121.346208234
 31
0.0
  0
LINE
  5
18D
330
1F
100
AcDbEntity
  8
0
  6
Continuous
 62
     7
370
    25
100
AcDbLine
 10
87.4583138194
 20
122.8495802209
 30
0.0
 11
87.4700305842
 21
122.8352417436
 31
0.0
  0
LINE
  5
18E
330
1F
100
AcDbEntity
  8
0
  6
Continuous
 62
     7
370
    25
100
AcDbLine
 10
87.4583138194
 20
122.8495802209
 30
0.0
 11
87.4961324666
 21
123.8470780788
 31
0.0
  0
LINE
  5
18F
330
1F
100
AcDbEntity
  8
0
  6
Continuous
 62
     7
370
    25
100
AcDbLine
 10
87.5166813364
 20
123.8461514066
 30
0.0
 11
87.4961324666
 21
123.8470780788
 31
0.0
  0
LINE
  5
190
330
1F
100
AcDbEntity
  8
0
  6
Continuous
 62
     7
370
    25
100
AcDbLine
 10
87.6567501958
 20
126.8814071486
 30
0.0
 11
87.5166813364
 21
123.8461514066
 31
0.0
  0
LINE
  5
191
330
1F
100
AcDbEntity
  8
0
  6
Continuous
 62
     7
370
    25
100
AcDbLine
 10
87.6131953505
 20
126.9347077114
 30
0.0
 11
87.6567501958
 21
126.8814071486
 31
0.0
  0
LINE
  5
192
330
1F
100
AcDbEntity
  8
0
  6
Continuous
 62
     7
370
    25
100
AcDbLine
 10
87.6131953505
 20
126.9347077114
 30
0.0
 11
87.6495936718
 21
127.8947433057
 31
0.0
  0
LINE
  5
193
330
1F
100
AcDbEntity
  8
0
  6
Continuous
 62
     7
370
    25
100
AcDbLine
 10
87.703400948
 20
127.8923168116
 30
0.0
 11
87.6495936718
 21
127.8947433057
 31
0.0
  0
LINE
  5
194
330
1F
100
AcDbEntity
  8
0
  6
Continuous
 62
     7
370
    25
100
AcDbLine
 10
87.764660061
 20
129.219785853
 30
0.0
 11
87.703400948
 21
127.8923168116
 31
0.0
  0
ELLIPSE
  5
195
330
1F
100
AcDbEntity
  8
0
  6
Continuous
 62
     7
370
    25
100
AcDbEllipse
 10
90.5249044335
 20
127.5115944487
 30
0.0
 11
-1.901890471800797
 21
3.414817492841678
 31
0.0
210
0.0
220
0.0
230
1.0
 40
0.5873670493
 41
0.0944456756085719
 42
0.7591750167884439
  0
LINE
  5
196
330
1F
100
AcDbEntity
  8
0
  6
Continuous
 62
     7
370
    25
100
AcDbLine
 10
88.4356171508
 20
130.8407864762
 30
0.0
 11
88.4423370419
 21
130.8058439793
 31
0.0
  0
ELLIPSE
  5
197
330
1F
100
AcDbEntity
  8
0
  6
Continuous
 62
     7
370
    25
100
AcDbEllipse
 10
90.5237741775
 20
127.4361683781
 30
0.0
 11
-1.94661748102196
 21
3.495124206480298
 31
0.0
210
0.0
220
0.0
230
1.0
 40
0.5873670493
 41
6.04683448692309
 42
6.354609035635272
  0
LINE
  5
198
330
1F
100
AcDbEntity
  8
0
  6
Continuous
 62
     7
370
    25
100
AcDbLine
 10
89.1226271726
 20
131.0901408301
 30
0.0
 11
89.11197943
 21
131.1018539514
 31
0.0
  0
ELLIPSE
  5
199
330
1F
100
AcDbEntity
  8
0
  6
Continuous
 62
     7
370
    25
100
AcDbEllipse
 10
90.5249044335
 20
127.5115944487
 30
0.0
 11
-1.901890471800797
 21
3.414817492841678
 31
0.0
210
0.0
220
0.0
230
1.0
 40
0.5873670493
 41
4.95738278997124
 42
6.056430191957795
  0
LINE
  5
19A
330
1F
100
AcDbEntity
  8
0
  6
Continuous
 62
     7
370
    25
100
AcDbLine
 10
92.0202706139
 20
129.4229331877
 30
0.0
 11
92.0094574803
 21
129.4236091666
 31
0.0
  0
ELLIPSE
  5
19B
330
1F
100
AcDbEntity
  8
0
  6
Continuous
 62
     7
370
    25
100
AcDbEllipse
 10
90.5237741775
 20
127.4361683781
 30
0.0
 11
-1.94661748102196
 21
3.495124206480298
 31
0.0
210
0.0
220
0.0
230
1.0
 40
0.5873670493
 41
4.65920394629099
 42
4.966978495004763
  0
LINE
  5
19C
330
1F
100
AcDbEntity
  8
0
  6
Continuous
 62
     7
370
    25
100
AcDbLine
 10
92.6696314069
 20
128.365478887
 30
0.0
 11
92.6772742743
 21
128.39212994
 31
0.0
  0
ELLIPSE
  5
19D
330
1F
100
AcDbEntity
  8
0
  6
Continuous
 62
     7
370
    25
100
AcDbEllipse
 10
90.5249044335
 20
127.5115944487
 30
0.0
 11
-1.901890471800797
 21
3.414817492841678
 31
0.0
210
0.0
220
0.0
230
1.0
 40
0.5873670493
 41
3.971452657960409
 42
4.636181999140854
  0
LINE
  5
19E
330
1F
100
AcDbEntity
  8
0
  6
Continuous
 62
     7
370
    25
100
AcDbLine
 10
93.3093233822
 20
124.6560866754
 30
0.0
 11
93.2885579486
 21
126.0309074796
 31
0.0
  0
LINE
  5
19F
330
1F
100
AcDbEntity
  8
0
  6
Continuous
 62
     7
370
    25
100
AcDbLine
 10
93.3622798072
 20
124.5968797967
 30
0.0
 11
93.3093233822
 21
124.6560866754
 31
0.0
  0
LINE
  5
1A0
330
1F
100
AcDbEntity
  8
0
  6
Continuous
 62
     7
370
    25
100
AcDbLine
 10
93.3622798072
 20
124.5968797967
 30
0.0
 11
93.3695283838
 21
123.6116473846
 31
0.0
  0
LINE
  5
1A1
330
1F
100
AcDbEntity
  8
0
  6
Continuous
 62
     7
370
    25
100
AcDbLine
 10
93.3251369168
 20
123.6091171473
 30
0.0
 11
93.3695283838
 21
123.6116473846
 31
0.0
  0
LINE
  5
1A2
330
1F
100
AcDbEntity
  8
0
  6
Continuous
 62
     7
370
    25
100
AcDbLine
 10
93.3726170461
 20
120.4655916786
 30
0.0
 11
93.3251369168
 21
123.6091171473
 31
0.0
  0
LINE
  5
1A3
330
1F
100
AcDbEntity
  8
0
  6
Continuous
 62
     7
370
    25
100
AcDbLine
 10
93.3928409778
 20
120.4429807136
 30
0.0
 11
93.3726170461
 21
120.4655916786
 31
0.0
  0
LINE
  5
1A4
330
1F
100
AcDbEntity
  8
0
  6
Continuous
 62
     7
370
    25
100
AcDbLine
 10
93.3928409778
 20
120.4429807136
 30
0.0
 11
93.4003724066
 21
119.419302814
 31
0.0
  0
LINE
  5
1A5
330
1F
100
AcDbEntity
  8
0
  6
Continuous
 62
     7
370
    25
100
AcDbLine
 10
93.3884305806
 20
119.4186221505
 30
0.0
 11
93.4003724066
 21
119.419302814
 31
0.0
  0
LINE
  5
1A6
330
1F
100
AcDbEntity
  8
0
  6
Continuous
 62
     7
370
    25
100
AcDbLine
 10
93.4117233472
 20
117.8764737587
 30
0.0
 11
93.3884305806
 21
119.4186221505
 31
0.0
  0
LINE
  5
1A7
330
1F
100
AcDbEntity
  8
0
  6
Continuous
 62
     7
370
    25
100
AcDbLine
 10
92.6696314069
 20
128.365478887
 30
0.0
 11
93.1956106699
 21
128.6691202523
 31
0.0
  0
LINE
  5
1A8
330
1F
100
AcDbEntity
  8
0
  6
Continuous
 62
     7
370
    25
100
AcDbLine
 10
92.6772742743
 20
128.39212994
 30
0.0
 11
93.1866566131
 21
128.6861901049
 31
0.0
  0
LINE
  5
1A9
330
1F
100
AcDbEntity
  8
0
  6
Continuous
 62
     7
370
    25
100
AcDbLine
 10
92.5413390843
 20
129.7237396129
 30
0.0
 11
92.0202706139
 21
129.4229331877
 31
0.0
  0
LINE
  5
1AA
330
1F
100
AcDbEntity
  8
0
  6
Continuous
 62
     7
370
    25
100
AcDbLine
 10
92.0094574803
 20
129.4236091666
 30
0.0
 11
92.5377895029
 21
129.7286087511
 31
0.0
  0
LINE
  5
1AB
330
1F
100
AcDbEntity
  8
0
  6
Continuous
 62
     7
370
    25
100
AcDbLine
 10
89.1226271726
 20
131.0901408301
 30
0.0
 11
90.1834489126
 21
131.7025401853
 31
0.0
  0
ELLIPSE
  5
1AC
330
1F
100
AcDbEntity
  8
0
  6
Continuous
 62
     7
370
    25
100
AcDbEllipse
 10
91.5857261735
 20
128.123993804
 30
0.0
 11
-1.901890471800797
 21
3.414817492841678
 31
0.0
210
0.0
220
0.0
230
1.0
 40
0.5873670493
 41
6.014244458610961
 42
6.056430191957806
  0
LINE
  5
1AD
330
1F
100
AcDbEntity
  8
0
  6
Continuous
 62
     7
370
    25
100
AcDbLine
 10
89.6423903
 20
131.408053629
 30
0.0
 11
89.0756235906
 21
132.0315291845
 31
0.0
  0
ELLIPSE
  5
1AE
330
1F
100
AcDbEntity
  8
0
  6
Continuous
 62
     7
370
    25
100
AcDbEllipse
 10
91.0541850476
 20
127.7423680558
 30
0.0
 11
-1.946617481021974
 21
3.495124206480297
 31
0.0
210
0.0
220
0.0
230
1.0
 40
0.5873670493
 41
6.0468344869231
 42
6.292223390299946
  0
LINE
  5
1AF
330
1F
100
AcDbEntity
  8
0
  6
Continuous
 62
     7
370
    25
100
AcDbLine
 10
88.7977289993
 20
132.022117608
 30
0.0
 11
88.9644726297
 21
131.1550739711
 31
0.0
  0
ELLIPSE
  5
1B0
330
1F
100
AcDbEntity
  8
0
  6
Continuous
 62
     7
370
    25
100
AcDbEllipse
 10
91.0553153035
 20
127.8177941263
 30
0.0
 11
-2.388503313068697
 21
4.288523979750806
 31
0.0
210
0.0
220
0.0
230
1.0
 40
0.5873670493
 41
0.0971163968850105
 42
0.7591750167888286
  0
LINE
  5
1B1
330
1F
100
AcDbEntity
  8
0
  6
Continuous
 62
     7
370
    25
100
AcDbLine
 10
87.508922438
 20
128.2312061163
 30
0.0
 11
87.5888418518
 21
129.9630390229
 31
0.0
  0
LINE
  5
1B2
330
1F
100
AcDbEntity
  8
0
  6
Continuous
 62
     7
370
    25
100
AcDbLine
 10
87.718603416
 20
128.2217503384
 30
0.0
 11
87.508922438
 21
128.2312061163
 31
0.0
  0
LINE
  5
1B3
330
1F
100
AcDbEntity
  8
0
  6
Continuous
 62
     7
370
    25
100
AcDbLine
 10
87.4995922875
 20
128.0290241837
 30
0.0
 11
87.6478079771
 21
127.8476441418
 31
0.0
  0
LINE
  5
1B4
330
1F
100
AcDbEntity
  8
0
  6
Continuous
 62
     7
370
    25
100
AcDbLine
 10
87.3222028264
 20
124.1850407113
 30
0.0
 11
87.4995922875
 21
128.0290241837
 31
0.0
  0
LINE
  5
1B5
330
1F
100
AcDbEntity
  8
0
  6
Continuous
 62
     7
370
    25
100
AcDbLine
 10
87.5318838044
 20
124.1755849334
 30
0.0
 11
87.3222028264
 21
124.1850407113
 31
0.0
  0
LINE
  5
1B6
330
1F
100
AcDbEntity
  8
0
  6
Continuous
 62
     7
370
    25
100
AcDbLine
 10
87.3128726759
 20
123.9828587787
 30
0.0
 11
87.4929264459
 21
123.7625166513
 31
0.0
  0
LINE
  5
1B7
330
1F
100
AcDbEntity
  8
0
  6
Continuous
 62
     7
370
    25
100
AcDbLine
 10
87.2614985471
 20
122.8695947728
 30
0.0
 11
87.3128726759
 21
123.9828587787
 31
0.0
  0
LINE
  5
1B8
330
1F
100
AcDbEntity
  8
0
  6
Continuous
 62
     7
370
    25
100
AcDbLine
 10
87.2551619172
 20
122.8661854809
 30
0.0
 11
87.2614985471
 21
122.8695947728
 31
0.0
  0
LINE
  5
1B9
330
1F
100
AcDbEntity
  8
0
  6
Continuous
 62
     7
370
    25
100
AcDbLine
 10
87.5214704569
 20
129.890291764
 30
0.0
 11
87.2551619172
 21
122.8661854809
 31
0.0
  0
LINE
  5
1BA
330
1F
100
AcDbEntity
  8
0
  6
Continuous
 62
     7
370
    25
100
AcDbLine
 10
93.3093233822
 20
124.6560866754
 30
0.0
 11
94.06274777
 21
125.0910293165
 31
0.0
  0
LINE
  5
1BB
330
1F
100
AcDbEntity
  8
0
  6
Continuous
 62
     7
370
    25
100
AcDbLine
 10
93.8926906772
 20
124.9030794743
 30
0.0
 11
93.3622798072
 21
124.5968797967
 31
0.0
  0
LINE
  5
1BC
330
1F
100
AcDbEntity
  8
0
  6
Continuous
 62
     7
370
    25
100
AcDbLine
 10
93.3695283838
 20
123.6116473846
 30
0.0
 11
93.8999392539
 21
123.9178470622
 31
0.0
  0
LINE
  5
1BD
330
1F
100
AcDbEntity
  8
0
  6
Continuous
 62
     7
370
    25
100
AcDbLine
 10
69.629095651
 20
212.463066093
 30
0.0
 11
69.6472162004
 21
213.6513944259
 31
0.0
  0
LINE
  5
1BE
330
1F
100
AcDbEntity
  8
0
  6
Continuous
 62
     7
370
    25
100
AcDbLine
 10
89.11197943
 20
131.1018539514
 30
0.0
 11
89.6423903
 21
131.408053629
 31
0.0
  0
LINE
  5
1BF
330
1F
100
AcDbEntity
  8
0
  6
Continuous
 62
     7
370
    25
100
AcDbLine
 10
90.1834489126
 20
131.7025401853
 30
0.0
 11
90.0982913092
 21
131.7962183834
 31
0.0
  0
LINE
  5
1C0
330
1F
100
AcDbEntity
  8
0
  6
Continuous
 62
     7
370
    25
100
AcDbLine
 10
93.3726170461
 20
120.4655916786
 30
0.0
 11
94.0937154809
 21
120.8818729443
 31
0.0
  0
ELLIPSE
  5
1C1
330
1F
100
AcDbEntity
  8
0
  6
Continuous
 62
     7
370
    25
100
AcDbEllipse
 10
91.5857261735
 20
128.123993804
 30
0.0
 11
-2.388503313068697
 21
4.288523979750806
 31
0.0
210
0.0
220
0.0
230
1.0
 40
0.5873670493
 41
0.2161940113818252
 42
0.7076314302607022
  0
LINE
  5
1C2
330
1F
100
AcDbEntity
  8
0
  6
Continuous
 62
     7
370
    25
100
AcDbLine
 10
93.9232518478
 20
120.7491803912
 30
0.0
 11
93.3928409778
 21
120.4429807136
 31
0.0
  0
LINE
  5
1C3
330
1F
100
AcDbEntity
  8
0
  6
Continuous
 62
     7
370
    25
100
AcDbLine
 10
93.4003724066
 20
119.419302814
 30
0.0
 11
93.9307832766
 21
119.7255024916
 31
0.0
  0
LINE
  5
1C4
330
1F
100
AcDbEntity
  8
0
  6
Continuous
 62
     7
370
    25
100
AcDbLine
 10
93.4117233472
 20
117.8764737587
 30
0.0
 11
94.1187351354
 21
118.2846229763
 31
0.0
  0
LINE
  5
1C5
330
1F
100
AcDbEntity
  8
0
  6
Continuous
 62
     7
370
    25
100
AcDbLine
 10
86.7247510472
 20
122.5599858033
 30
0.0
 11
87.2551619172
 21
122.8661854809
 31
0.0
  0
LINE
  5
1C6
330
1F
100
AcDbEntity
  8
0
  6
Continuous
 62
     7
370
    25
100
AcDbLine
 10
87.6495936718
 20
127.8947433057
 30
0.0
 11
87.7049886616
 21
127.9267221526
 31
0.0
  0
LINE
  5
1C7
330
1F
100
AcDbEntity
  8
0
  6
Continuous
 62
     7
370
    25
100
AcDbLine
 10
87.508922438
 20
128.2312061163
 30
0.0
 11
87.7247905596
 21
128.3558241304
 31
0.0
  0
LINE
  5
1C8
330
1F
100
AcDbEntity
  8
0
  6
Continuous
 62
     7
370
    25
100
AcDbLine
 10
87.3222028264
 20
124.1850407113
 30
0.0
 11
87.538070948
 21
124.3096587254
 31
0.0
  0
LINE
  5
1C9
330
1F
100
AcDbEntity
  8
0
  6
Continuous
 62
     7
370
    25
100
AcDbLine
 10
87.4961324666
 20
123.8470780788
 30
0.0
 11
87.5172876804
 21
123.8592907238
 31
0.0
  0
LINE
  5
1CA
330
1F
100
AcDbEntity
  8
0
  6
Continuous
 62
     7
370
    25
100
AcDbLine
 10
87.2614985471
 20
122.8695947728
 30
0.0
 11
87.4634937104
 21
122.9862040985
 31
0.0
  0
LINE
  5
1CB
330
1F
100
AcDbEntity
  8
0
  6
Continuous
 62
     8
370
    25
100
AcDbLine
 10
116.3100215493
 20
200.7568499723
 30
0.0
 11
116.3100215493
 21
200.9894994907
 31
0.0
  0
LINE
  5
1CC
330
1F
100
AcDbEntity
  8
0
  6
Continuous
 62
     8
370
    25
100
AcDbLine
 10
117.0901188299
 20
201.3413364523
 30
0.0
 11
117.0901188299
 21
201.1086869339
 31
0.0
  0
LINE
  5
1CD
330
1F
100
AcDbEntity
  8
0
  6
Continuous
 62
     8
370
    25
100
AcDbLine
 10
116.0975739649
 20
201.176642822
 30
0.0
 11
116.0975739649
 21
201.4116961757
 31
0.0
  0
LINE
  5
1CE
330
1F
100
AcDbEntity
  8
0
  6
Continuous
 62
     8
370
    25
100
AcDbLine
 10
134.6947978601
 20
190.1435445186
 30
0.0
 11
134.6947978601
 21
190.376194037
 31
0.0
  0
LINE
  5
1CF
330
1F
100
AcDbEntity
  8
0
  6
Continuous
 62
     8
370
    25
100
AcDbLine
 10
135.4748951407
 20
190.7280309986
 30
0.0
 11
135.4748951407
 21
190.4953814802
 31
0.0
  0
LINE
  5
1D0
330
1F
100
AcDbEntity
  8
0
  6
Continuous
 62
     8
370
    25
100
AcDbLine
 10
134.4823502757
 20
190.5633373683
 30
0.0
 11
134.4823502757
 21
190.798390722
 31
0.0
  0
LINE
  5
1D1
330
1F
100
AcDbEntity
  8
0
  6
Continuous
 62
     8
370
    25
100
AcDbLine
 10
111.5116258681
 20
174.8052393018
 30
0.0
 11
112.1526656867
 21
174.1198435404
 31
0.0
  0
LINE
  5
1D2
330
1F
100
AcDbEntity
  8
0
  6
Continuous
 62
     8
370
    25
100
AcDbLine
 10
87.6816416581
 20
187.4436079956
 30
0.0
 11
68.2299708413
 21
198.6728185376
 31
0.0
  0
LINE
  5
1D3
330
1F
100
AcDbEntity
  8
0
  6
Continuous
 62
     8
370
    25
100
AcDbLine
 10
111.3414320082
 20
199.6672739725
 30
0.0
 11
110.9825727131
 21
199.874439034
 31
0.0
  0
LWPOLYLINE
  5
1D4
330
1F
100
AcDbEntity
  8
0
  6
Continuous
 62
     8
370
    25
100
AcDbPolyline
 90
        9
 70
   128
 43
0.0
 10
111.9379720901
 20
173.8453699915
 10
111.1977761963
 20
174.6490669302
 10
110.5973558543
 20
175.4907182984
 10
110.1424734652
 20
176.3622465338
 10
109.8374946618
 20
177.2552873372
 10
109.6853464107
 20
178.1612699477
 10
109.6874889208
 20
179.0714993979
 10
109.8439016301
 20
179.9772399625
 10
109.9485349783
 20
180.3337699627
  0
LINE
  5
1D5
330
1F
100
AcDbEntity
  8
0
  6
Continuous
 62
     8
370
    25
100
AcDbLine
 10
93.8688259934
 20
183.8718225063
 30
0.0
 11
88.7392448832
 21
186.8330666495
 31
0.0
  0
LINE
  5
1D6
330
1F
100
AcDbEntity
  8
0
  6
Continuous
 62
     8
370
    25
100
AcDbLine
 10
134.2085489009
 20
113.1601401846
 30
0.0
 11
133.9560322984
 21
113.3059149163
 31
0.0
  0
ARC
  5
1D7
330
1F
100
AcDbEntity
  8
0
  6
Continuous
 62
     8
370
    25
100
AcDbCircle
 10
74.0929377249
 20
209.0818487133
 30
0.0
 40
11.94664345650054
100
AcDbArc
 50
224.9189221196
 51
240.6092766665
  0
LINE
  5
1D8
330
1F
100
AcDbEntity
  8
0
  6
Continuous
 62
     8
370
    25
100
AcDbLine
 10
140.7953986359
 20
116.5801403795
 30
0.0
 11
140.0963300435
 21
116.9837040877
 31
0.0
  0
ARC
  5
1D9
330
1F
100
AcDbEntity
  8
0
  6
Continuous
 62
     8
370
    25
100
AcDbCircle
 10
90.5462669277
 20
211.6146139578
 30
0.0
 40
0.1234501448811395
100
AcDbArc
 50
65.0771496312
 51
126.2333087979
  0
LINE
  5
1DA
330
1F
100
AcDbEntity
  8
0
  6
Continuous
 62
     8
370
    25
100
AcDbLine
 10
93.2885579486
 20
126.0309074796
 30
0.0
 11
93.9737087277
 21
126.4264366053
 31
0.0
  0
LINE
  5
1DB
330
1F
100
AcDbEntity
  8
0
  6
Continuous
 62
     8
370
    25
100
AcDbLine
 10
87.5888418518
 20
129.9630390229
 30
0.0
 11
87.9759082707
 21
130.1864877102
 31
0.0
  0
SPLINE
  5
1DC
330
1F
100
AcDbEntity
  8
0
  6
Continuous
 62
     7
370
    25
100
AcDbSpline
210
0.0
220
0.0
230
1.0
 70
     8
 71
     3
 72
     9
 73
     5
 74
     0
 42
0.000000001
 43
0.00000001
 40
0.0
 40
0.0
 40
0.0
 40
0.0
 40
0.6043599797402507
 40
1.0
 40
1.0
 40
1.0
 40
1.0
 10
123.4390536833642
 20
200.585354563017
 30
0.0
 10
123.9439800810932
 20
197.5148160603397
 30
0.0
 10
128.0335896202535
 20
195.5398084509226
 30
0.0
 10
132.2444232116787
 20
194.7899755441225
 30
0.0
 10
133.9524027519829
 20
195.0177319467342
 30
0.0
  0
SPLINE
  5
1DD
330
1F
100
AcDbEntity
  8
0
  6
Continuous
 62
     7
370
    25
100
AcDbSpline
210
0.0
220
0.0
230
1.0
 70
     8
 71
     3
 72
    12
 73
     8
 74
     0
 42
0.000000001
 43
0.00000001
 40
0.0
 40
0.0
 40
0.0
 40
0.0
 40
0.2777151700493555
 40
0.396816360987843
 40
0.6472366565104881
 40
0.783366115550589
 40
1.0
 40
1.0
 40
1.0
 40
1.0
 10
123.4390536833642
 20
200.585354563017
 30
0.0
 10
121.8743914244035
 20
200.9639162192636
 30
0.0
 10
115.8139246995388
 20
197.8020195767576
 30
0.0
 10
119.3754203982795
 20
191.7429549781158
 30
0.0
 10
124.4639763388675
 20
190.9258896142015
 30
0.0
 10
129.9180546839682
 20
191.4276653332815
 30
0.0
 10
133.2095817734187
 20
193.0855629373036
 30
0.0
 10
133.9524027519829
 20
195.0177319467342
 30
0.0
  0
HATCH
  5
1DE
330
1F
100
AcDbEntity
  8
0
  6
Continuous
 62
     7
100
AcDbHatch
 10
0.0
 20
0.0
 30
0.0
210
0.0
220
0.0
230
1.0
  2
SOLID
 70
     1
 71
     0
 91
        1
 92
        0
 93
        2
 72
     4
 94
        3
 73
     1
 74
     0
 95
       12
 96
        8
 40
0.0
 40
0.0
 40
0.0
 40
0.0
 40
0.2777151700493555
 40
0.396816360987843
 40
0.6472366565104881
 40
0.783366115550589
 40
1.0
 40
1.0
 40
1.0
 40
1.0
 10
123.4390536833642
 20
200.585354563017
 42
1.0
 10
121.8743914244035
 20
200.9639162192636
 42
1.0
 10
115.8139246995388
 20
197.8020195767576
 42
1.0
 10
119.3754203982795
 20
191.7429549781158
 42
1.0
 10
124.4639763388675
 20
190.9258896142015
 42
1.0
 10
129.9180546839682
 20
191.4276653332815
 42
1.0
 10
133.2095817734187
 20
193.0855629373036
 42
1.0
 10
133.9524027519829
 20
195.0177319467342
 42
1.0
 97
        0
 72
     4
 94
        3
 73
     1
 74
     0
 95
        9
 96
        5
 40
0.0
 40
0.0
 40
0.0
 40
0.0
 40
0.3956400202597493
 40
1.0
 40
1.0
 40
1.0
 40
1.0
 10
133.9524027519829
 20
195.0177319467342
 42
1.0
 10
132.2444232116787
 20
194.7899755441225
 42
1.0
 10
128.0335896202535
 20
195.5398084509226
 42
1.0
 10
123.9439800810932
 20
197.5148160603397
 42
1.0
 10
123.4390536833642
 20
200.585354563017
 42
1.0
 97
        0
 97
        0
 75
     0
 76
     1
 98
        1
 10
0.0
 20
0.0
  0
INSERT
  5
1E4
330
1F
100
AcDbEntity
  8
0
  6
Continuous
 62
     7
370
     0
100
AcDbBlockReference
  2
SW_NOTE_0_3
 10
163.4413954976
 20
101.6336349049
 30
0.0
  0
ENDSEC
  0
SECTION
  2
OBJECTS
  0
DICTIONARY
  5
C
330
0
100
AcDbDictionary
281
     1
  3
ACAD_DETAILVIEWSTYLE
350
348
  3
ACAD_GROUP
350
D
  3
ACAD_LAYOUT
350
1A
  3
ACAD_MATERIAL
350
43
  3
ACAD_MLEADERSTYLE
350
6B
  3
ACAD_MLINESTYLE
350
17
  3
ACAD_PLOTSETTINGS
350
19
  3
ACAD_PLOTSTYLENAME
350
E
  3
ACAD_SCALELIST
350
47
  3
ACAD_SECTIONVIEWSTYLE
350
349
  3
ACAD_TABLESTYLE
350
69
  3
ACAD_VISUALSTYLE
350
2A
  3
ACDB_RECOMPOSE_DATA
350
351
  3
AcDbVariableDictionary
350
341
  3
APPDATA
350
34C
  0
SUN
  5
6D
330
29
100
AcDbSun
 90
        1
290
     0
 63
     7
421
 16777215
 40
1.0
291
     1
 91
  2455826
 92
 54000000
292
     0
 70
     2
 71
   256
280
     1
  0
DICTIONARY
  5
34D
330
1F
100
AcDbDictionary
280
     1
281
     1
  3
DIM_BOUNDING_BOXES_V1
360
34E
  0
DICTIONARY
  5
348
102
{ACAD_REACTORS
330
C
102
}
330
C
100
AcDbDictionary
281
     1
  0
DICTIONARY
  5
D
102
{ACAD_REACTORS
330
C
102
}
330
C
100
AcDbDictionary
281
     1
  0
DICTIONARY
  5
1A
102
{ACAD_REACTORS
330
C
102
}
330
C
100
AcDbDictionary
281
     1
  3
Layout1
350
1E
  3
Layout2
350
26
  3
Model
350
22
  0
DICTIONARY
  5
43
102
{ACAD_REACTORS
330
C
102
}
330
C
100
AcDbDictionary
281
     1
  3
ByBlock
350
45
  3
ByLayer
350
44
  3
Global
350
46
  0
DICTIONARY
  5
6B
102
{ACAD_REACTORS
330
C
102
}
330
C
100
AcDbDictionary
281
     1
  3
Standard
350
6C
  0
DICTIONARY
  5
17
102
{ACAD_REACTORS
330
C
102
}
330
C
100
AcDbDictionary
281
     1
  3
Standard
350
18
  0
DICTIONARY
  5
19
102
{ACAD_REACTORS
330
C
102
}
330
C
100
AcDbDictionary
281
     1
  0
ACDBDICTIONARYWDFLT
  5
E
102
{ACAD_REACTORS
330
C
102
}
330
C
100
AcDbDictionary
281
     1
  3
Normal
350
F
100
AcDbDictionaryWithDefault
340
F
  0
DICTIONARY
  5
47
102
{ACAD_REACTORS
330
C
102
}
330
C
100
AcDbDictionary
281
     1
  3
A0
350
48
  3
A1
350
49
  3
A2
350
4A
  3
A3
350
4B
  3
A4
350
4C
  3
A5
350
4D
  3
A6
350
4E
  3
A7
350
4F
  3
A8
350
50
  3
A9
350
51
  3
B0
350
52
  3
B1
350
53
  3
B2
350
54
  3
B3
350
55
  3
B4
350
56
  3
B5
350
57
  3
B6
350
58
  3
B7
350
59
  3
B8
350
5A
  3
B9
350
5B
  3
C0
350
5C
  3
C1
350
5D
  3
C2
350
5E
  3
C3
350
5F
  3
C4
350
60
  3
C5
350
61
  3
C6
350
62
  3
C7
350
63
  3
C8
350
64
  3
C9
350
65
  3
D0
350
66
  3
D1
350
67
  3
D2
350
68
  0
DICTIONARY
  5
349
102
{ACAD_REACTORS
330
C
102
}
330
C
100
AcDbDictionary
281
     1
  0
DICTIONARY
  5
69
102
{ACAD_REACTORS
330
C
102
}
330
C
100
AcDbDictionary
281
     1
  3
Standard
350
6A
  0
DICTIONARY
  5
2A
102
{ACAD_REACTORS
330
C
102
}
330
C
100
AcDbDictionary
281
     1
  3
2dWireframe
350
2F
  3
Basic
350
32
  3
Brighten
350
36
  3
ColorChange
350
3A
  3
Conceptual
350
34
  3
Dim
350
35
  3
EdgeColorOff
350
3D
  3
Facepattern
350
39
  3
Flat
350
2B
  3
FlatWithEdges
350
2C
  3
Gouraud
350
2D
  3
GouraudWithEdges
350
2E
  3
Hidden
350
31
  3
JitterOff
350
3B
  3
Linepattern
350
38
  3
OverhangOff
350
3C
  3
Realistic
350
33
  3
Shaded
350
42
  3
Shaded with edges
350
41
  3
Shades of Gray
350
3E
  3
Sketchy
350
3F
  3
Thicken
350
37
  3
Wireframe
350
30
  3
X-Ray
350
40
  0
XRECORD
  5
351
102
{ACAD_REACTORS
330
C
102
}
330
C
100
AcDbXrecord
280
     1
 90
        1
330
6A
  0
DICTIONARY
  5
341
102
{ACAD_REACTORS
330
C
102
}
330
C
100
AcDbDictionary
281
     1
  3
CANNOSCALE
350
342
  3
CENTEREXE
350
34A
  3
CENTERLTYPEFILE
350
34B
  3
CMLEADERSTYLE
350
347
  3
CTABLESTYLE
350
346
  0
DICTIONARY
  5
34C
102
{ACAD_REACTORS
330
C
102
}
330
C
100
AcDbDictionary
281
     1
  0
DICTIONARY
  5
34E
102
{ACAD_REACTORS
330
34D
102
}
330
34D
100
AcDbDictionary
281
     1
  0
LAYOUT
  5
1E
102
{ACAD_REACTORS
330
1A
102
}
330
1A
100
AcDbPlotSettings
  1

  2
none_device
  4

  6

 40
0.0
 41
0.0
 42
0.0
 43
0.0
 44
0.0
 45
0.0
 46
0.0
 47
0.0
 48
0.0
 49
0.0
140
0.0
141
0.0
142
1.0
143
1.0
 70
   688
 72
     1
 73
     0
 74
     5
  7

 75
    16
 76
     0
 77
     2
 78
   300
147
1.0
148
0.0
149
0.0
100
AcDbLayout
  1
Layout1
 70
     1
 71
     1
 10
0.0
 20
0.0
 11
420.0
 21
297.0
 12
0.0
 22
0.0
 32
0.0
 14
1.000000000000000E+20
 24
1.000000000000000E+20
 34
1.000000000000000E+20
 15
-1.000000000000000E+20
 25
-1.000000000000000E+20
 35
-1.000000000000000E+20
146
0.0
 13
0.0
 23
0.0
 33
0.0
 16
1.0
 26
0.0
 36
0.0
 17
0.0
 27
1.0
 37
0.0
 76
     0
330
1B
  0
LAYOUT
  5
26
102
{ACAD_REACTORS
330
1A
102
}
330
1A
100
AcDbPlotSettings
  1

  2
none_device
  4

  6

 40
0.0
 41
0.0
 42
0.0
 43
0.0
 44
0.0
 45
0.0
 46
0.0
 47
0.0
 48
0.0
 49
0.0
140
0.0
141
0.0
142
1.0
143
1.0
 70
   688
 72
     1
 73
     0
 74
     5
  7

 75
    16
 76
     0
 77
     2
 78
   300
147
1.0
148
0.0
149
0.0
100
AcDbLayout
  1
Layout2
 70
     1
 71
     2
 10
0.0
 20
0.0
 11
0.0
 21
0.0
 12
0.0
 22
0.0
 32
0.0
 14
0.0
 24
0.0
 34
0.0
 15
0.0
 25
0.0
 35
0.0
146
0.0
 13
0.0
 23
0.0
 33
0.0
 16
1.0
 26
0.0
 36
0.0
 17
0.0
 27
1.0
 37
0.0
 76
     0
330
23
  0
LAYOUT
  5
22
102
{ACAD_REACTORS
330
1A
102
}
330
1A
100
AcDbPlotSettings
  1

  2
none_device
  4
Letter_(8.50_x_11.00_Inches)
  6

 40
6.35
 41
6.35
 42
6.35000508
 43
6.35000508
 44
215.9
 45
279.4
 46
0.0
 47
0.0
 48
0.0
 49
0.0
140
0.0
141
0.0
142
1.0
143
1.0
 70
  1712
 72
     1
 73
     0
 74
     0
  7

 75
     0
 76
     0
 77
     2
 78
   300
147
1.0
148
0.0
149
0.0
100
AcDbLayout
  1
Model
 70
     1
 71
     0
 10
0.0
 20
0.0
 11
210.0
 21
297.0
 12
0.0
 22
0.0
 32
0.0
 14
62.1958163594
 24
98.14537218779999
 34
0.0
 15
182.2247288309333
 25
214.4011715667833
 35
0.0
146
0.0
 13
0.0
 23
0.0
 33
0.0
 16
1.0
 26
0.0
 36
0.0
 17
0.0
 27
1.0
 37
0.0
 76
     0
330
1F
331
29
  0
MATERIAL
  5
45
102
{ACAD_REACTORS
330
43
102
}
330
43
100
AcDbMaterial
  1
ByBlock
 72
     1
 94
      127
  0
MATERIAL
  5
44
102
{ACAD_REACTORS
330
43
102
}
330
43
100
AcDbMaterial
  1
ByLayer
 72
     1
 94
      127
  0
MATERIAL
  5
46
102
{ACAD_REACTORS
330
43
102
}
330
43
100
AcDbMaterial
  1
Global
 72
     1
 94
      127
  0
MLEADERSTYLE
  5
6C
102
{ACAD_REACTORS
330
6B
102
}
330
6B
100
AcDbMLeaderStyle
179
     2
170
     2
171
     1
172
     0
 90
        2
 40
0.0
 41
0.0
173
     1
 91
-1056964608
340
14
 92
       -2
290
     1
 42
2.0
291
     1
 43
8.0
  3
Standard
341
0
 44
4.0
300

342
11
174
     1
178
     6
175
     1
176
     0
 93
-1056964608
 45
4.0
292
     0
297
     0
 46
4.0
343
0
 94
-1056964608
 47
1.0
 49
1.0
140
1.0
293
     1
141
0.0
294
     1
177
     0
142
1.0
295
     0
296
     0
143
3.75
271
     0
272
     9
273
     9
298
     0
  0
MLINESTYLE
  5
18
102
{ACAD_REACTORS
330
17
102
}
330
17
100
AcDbMlineStyle
  2
Standard
 70
     0
  3

 62
   256
 51
90.0
 52
90.0
 71
     2
 49
0.5
 62
   256
  6
BYLAYER
 49
-0.5
 62
   256
  6
BYLAYER
  0
ACDBPLACEHOLDER
  5
F
102
{ACAD_REACTORS
330
E
102
}
330
E
  0
SCALE
  5
48
102
{ACAD_REACTORS
330
47
102
}
330
47
100
AcDbScale
 70
     0
300
1:1
140
1.0
141
1.0
290
     1
  0
SCALE
  5
49
102
{ACAD_REACTORS
330
47
102
}
330
47
100
AcDbScale
 70
     0
300
1:2
140
1.0
141
2.0
290
     0
  0
SCALE
  5
4A
102
{ACAD_REACTORS
330
47
102
}
330
47
100
AcDbScale
 70
     0
300
1:4
140
1.0
141
4.0
290
     0
  0
SCALE
  5
4B
102
{ACAD_REACTORS
330
47
102
}
330
47
100
AcDbScale
 70
     0
300
1:5
140
1.0
141
5.0
290
     0
  0
SCALE
  5
4C
102
{ACAD_REACTORS
330
47
102
}
330
47
100
AcDbScale
 70
     0
300
1:8
140
1.0
141
8.0
290
     0
  0
SCALE
  5
4D
102
{ACAD_REACTORS
330
47
102
}
330
47
100
AcDbScale
 70
     0
300
1:10
140
1.0
141
10.0
290
     0
  0
SCALE
  5
4E
102
{ACAD_REACTORS
330
47
102
}
330
47
100
AcDbScale
 70
     0
300
1:16
140
1.0
141
16.0
290
     0
  0
SCALE
  5
4F
102
{ACAD_REACTORS
330
47
102
}
330
47
100
AcDbScale
 70
     0
300
1:20
140
1.0
141
20.0
290
     0
  0
SCALE
  5
50
102
{ACAD_REACTORS
330
47
102
}
330
47
100
AcDbScale
 70
     0
300
1:30
140
1.0
141
30.0
290
     0
  0
SCALE
  5
51
102
{ACAD_REACTORS
330
47
102
}
330
47
100
AcDbScale
 70
     0
300
1:40
140
1.0
141
40.0
290
     0
  0
SCALE
  5
52
102
{ACAD_REACTORS
330
47
102
}
330
47
100
AcDbScale
 70
     0
300
1:50
140
1.0
141
50.0
290
     0
  0
SCALE
  5
53
102
{ACAD_REACTORS
330
47
102
}
330
47
100
AcDbScale
 70
     0
300
1:100
140
1.0
141
100.0
290
     0
  0
SCALE
  5
54
102
{ACAD_REACTORS
330
47
102
}
330
47
100
AcDbScale
 70
     0
300
2:1
140
2.0
141
1.0
290
     0
  0
SCALE
  5
55
102
{ACAD_REACTORS
330
47
102
}
330
47
100
AcDbScale
 70
     0
300
4:1
140
4.0
141
1.0
290
     0
  0
SCALE
  5
56
102
{ACAD_REACTORS
330
47
102
}
330
47
100
AcDbScale
 70
     0
300
8:1
140
8.0
141
1.0
290
     0
  0
SCALE
  5
57
102
{ACAD_REACTORS
330
47
102
}
330
47
100
AcDbScale
 70
     0
300
10:1
140
10.0
141
1.0
290
     0
  0
SCALE
  5
58
102
{ACAD_REACTORS
330
47
102
}
330
47
100
AcDbScale
 70
     0
300
100:1
140
100.0
141
1.0
290
     0
  0
SCALE
  5
59
102
{ACAD_REACTORS
330
47
102
}
330
47
100
AcDbScale
 70
     0
300
1/128" = 1'-0"
140
0.0078125
141
12.0
290
     0
  0
SCALE
  5
5A
102
{ACAD_REACTORS
330
47
102
}
330
47
100
AcDbScale
 70
     0
300
1/64" = 1'-0"
140
0.015625
141
12.0
290
     0
  0
SCALE
  5
5B
102
{ACAD_REACTORS
330
47
102
}
330
47
100
AcDbScale
 70
     0
300
1/32" = 1'-0"
140
0.03125
141
12.0
290
     0
  0
SCALE
  5
5C
102
{ACAD_REACTORS
330
47
102
}
330
47
100
AcDbScale
 70
     0
300
1/16" = 1'-0"
140
0.0625
141
12.0
290
     0
  0
SCALE
  5
5D
102
{ACAD_REACTORS
330
47
102
}
330
47
100
AcDbScale
 70
     0
300
3/32" = 1'-0"
140
0.09375
141
12.0
290
     0
  0
SCALE
  5
5E
102
{ACAD_REACTORS
330
47
102
}
330
47
100
AcDbScale
 70
     0
300
1/8" = 1'-0"
140
0.125
141
12.0
290
     0
  0
SCALE
  5
5F
102
{ACAD_REACTORS
330
47
102
}
330
47
100
AcDbScale
 70
     0
300
3/16" = 1'-0"
140
0.1875
141
12.0
290
     0
  0
SCALE
  5
60
102
{ACAD_REACTORS
330
47
102
}
330
47
100
AcDbScale
 70
     0
300
1/4" = 1'-0"
140
0.25
141
12.0
290
     0
  0
SCALE
  5
61
102
{ACAD_REACTORS
330
47
102
}
330
47
100
AcDbScale
 70
     0
300
3/8" = 1'-0"
140
0.375
141
12.0
290
     0
  0
SCALE
  5
62
102
{ACAD_REACTORS
330
47
102
}
330
47
100
AcDbScale
 70
     0
300
1/2" = 1'-0"
140
0.5
141
12.0
290
     0
  0
SCALE
  5
63
102
{ACAD_REACTORS
330
47
102
}
330
47
100
AcDbScale
 70
     0
300
3/4" = 1'-0"
140
0.75
141
12.0
290
     0
  0
SCALE
  5
64
102
{ACAD_REACTORS
330
47
102
}
330
47
100
AcDbScale
 70
     0
300
1" = 1'-0"
140
1.0
141
12.0
290
     0
  0
SCALE
  5
65
102
{ACAD_REACTORS
330
47
102
}
330
47
100
AcDbScale
 70
     0
300
1-1/2" = 1'-0"
140
1.5
141
12.0
290
     0
  0
SCALE
  5
66
102
{ACAD_REACTORS
330
47
102
}
330
47
100
AcDbScale
 70
     0
300
3" = 1'-0"
140
3.0
141
12.0
290
     0
  0
SCALE
  5
67
102
{ACAD_REACTORS
330
47
102
}
330
47
100
AcDbScale
 70
     0
300
6" = 1'-0"
140
6.0
141
12.0
290
     0
  0
SCALE
  5
68
102
{ACAD_REACTORS
330
47
102
}
330
47
100
AcDbScale
 70
     0
300
1'-0" = 1'-0"
140
12.0
141
12.0
290
     0
  0
TABLESTYLE
  5
6A
102
{ACAD_REACTORS
330
69
102
}
102
{ACAD_XDICTIONARY
360
34F
102
}
330
69
100
AcDbTableStyle
  3
Standard
 70
     0
 71
     0
 40
0.06
 41
0.06
280
     0
281
     0
  7
Standard
140
4.5
170
     2
 62
     0
 63
   257
283
     0
 90
        4
 91
        0
  1

274
    -2
284
     1
 64
     0
275
    -2
285
     1
 65
     0
276
    -2
286
     1
 66
     0
277
    -2
287
     1
 67
     0
278
    -2
288
     1
 68
     0
279
    -2
289
     1
 69
     0
  7
Standard
140
6.0
170
     5
 62
     0
 63
   257
283
     0
 90
        4
 91
        0
  1

274
    -2
284
     1
 64
     0
275
    -2
285
     1
 65
     0
276
    -2
286
     1
 66
     0
277
    -2
287
     1
 67
     0
278
    -2
288
     1
 68
     0
279
    -2
289
     1
 69
     0
  7
Standard
140
4.5
170
     5
 62
     0
 63
   257
283
     0
 90
        4
 91
        0
  1

274
    -2
284
     1
 64
     0
275
    -2
285
     1
 65
     0
276
    -2
286
     1
 66
     0
277
    -2
287
     1
 67
     0
278
    -2
288
     1
 68
     0
279
    -2
289
     1
 69
     0
  0
VISUALSTYLE
  5
2F
102
{ACAD_REACTORS
330
2A
102
}
330
2A
100
AcDbVisualStyle
  2
2dWireframe
 70
     4
177
     3
291
     0
 70
    58
 90
        0
176
     1
 90
        2
176
     1
 90
        0
176
     1
 90
        0
176
     1
 40
0.6
176
     1
 40
30.0
176
     1
 62
     7
420
 16777215
176
     1
 90
        1
176
     1
 90
        4
176
     1
 62
     7
176
     1
 62
   257
176
     1
 90
        1
176
     1
 90
        1
176
     1
 40
1.0
176
     1
 90
        0
176
     1
 62
   257
176
     1
 40
1.0
176
     1
 90
        1
176
     1
 90
        6
176
     1
 90
        2
176
     1
 62
     7
176
     1
 90
        5
176
     1
 90
        0
176
     1
 90
        0
176
     1
290
     0
176
     1
 90
        1
176
     1
 40
0.0
176
     1
 90
        0
176
     1
290
     1
176
     1
290
     1
176
     1
290
     0
176
     1
290
     0
176
     1
290
     0
176
     1
290
     0
176
     1
290
     0
176
     1
290
     0
176
     1
290
     0
176
     1
 90
       50
176
     1
 40
0.0
176
     1
 40
1.0
176
     1
 90
        0
176
     1
 62
    18
420
        0
176
     1
 90
       50
176
     1
 90
        3
176
     1
 62
     5
420
      255
176
     1
290
     0
176
     1
 90
       50
176
     1
 90
       50
176
     1
 90
       50
176
     1
290
     0
176
     1
 90
       50
176
     1
 62
   256
176
     0
 40
1.0
176
     0
 90
        2
176
     1
  1
strokes_ogs.tif
176
     1
290
     0
176
     1
 40
1.0
176
     1
 40
1.0
176
     1
  0
VISUALSTYLE
  5
32
102
{ACAD_REACTORS
330
2A
102
}
330
2A
100
AcDbVisualStyle
  2
Basic
 70
     7
177
     3
291
     1
 70
    58
 90
        1
176
     1
 90
        0
176
     1
 90
        1
176
     1
 90
        0
176
     1
 40
0.6
176
     1
 40
30.0
176
     1
 62
     7
420
 16777215
176
     1
 90
        0
176
     1
 90
        4
176
     1
 62
     7
176
     1
 62
   257
176
     1
 90
        1
176
     1
 90
        1
176
     1
 40
1.0
176
     1
 90
        8
176
     1
 62
     7
176
     1
 40
1.0
176
     1
 90
        1
176
     1
 90
        6
176
     1
 90
        2
176
     1
 62
     7
176
     1
 90
        5
176
     1
 90
        0
176
     1
 90
        0
176
     1
290
     0
176
     1
 90
        1
176
     1
 40
0.0
176
     1
 90
        0
176
     1
290
     0
176
     1
290
     1
176
     1
290
     1
176
     1
290
     0
176
     1
290
     0
176
     1
290
     0
176
     1
290
     0
176
     1
290
     0
176
     1
290
     0
176
     1
 90
       50
176
     1
 40
0.0
176
     1
 40
1.0
176
     1
 90
        0
176
     1
 62
    18
420
        0
176
     1
 90
       50
176
     1
 90
        3
176
     1
 62
     5
420
      255
176
     1
290
     0
176
     1
 90
       50
176
     1
 90
       50
176
     1
 90
       50
176
     1
290
     0
176
     1
 90
       50
176
     1
 62
   256
176
     0
 40
1.0
176
     0
 90
        2
176
     1
  1
strokes_ogs.tif
176
     1
290
     0
176
     1
 40
1.0
176
     1
 40
1.0
176
     1
  0
VISUALSTYLE
  5
36
102
{ACAD_REACTORS
330
2A
102
}
330
2A
100
AcDbVisualStyle
  2
Brighten
 70
    12
177
     3
291
     1
 70
    58
 90
        2
176
     1
 90
        2
176
     1
 90
        0
176
     1
 90
        0
176
     1
 40
0.6
176
     1
 40
30.0
176
     1
 62
     7
420
 16777215
176
     1
 90
        1
176
     1
 90
        4
176
     1
 62
     7
176
     1
 62
   257
176
     1
 90
        1
176
     1
 90
        1
176
     1
 40
1.0
176
     1
 90
        8
176
     1
 62
     7
176
     1
 40
1.0
176
     1
 90
        1
176
     1
 90
        6
176
     1
 90
        2
176
     1
 62
     7
176
     1
 90
        5
176
     1
 90
        0
176
     1
 90
        0
176
     1
290
     0
176
     1
 90
        1
176
     1
 40
50.0
176
     1
 90
        0
176
     1
290
     0
176
     1
290
     1
176
     1
290
     1
176
     1
290
     0
176
     1
290
     0
176
     1
290
     0
176
     1
290
     0
176
     1
290
     0
176
     1
290
     0
176
     1
 90
       50
176
     1
 40
0.0
176
     1
 40
1.0
176
     1
 90
        0
176
     1
 62
    18
420
        0
176
     1
 90
       50
176
     1
 90
        3
176
     1
 62
     5
420
      255
176
     1
290
     0
176
     1
 90
       50
176
     1
 90
       50
176
     1
 90
       50
176
     1
290
     0
176
     1
 90
       50
176
     1
 62
   256
176
     0
 40
1.0
176
     0
 90
        2
176
     1
  1
strokes_ogs.tif
176
     1
290
     0
176
     1
 40
1.0
176
     1
 40
1.0
176
     1
  0
VISUALSTYLE
  5
3A
102
{ACAD_REACTORS
330
2A
102
}
330
2A
100
AcDbVisualStyle
  2
ColorChange
 70
    16
177
     3
291
     1
 70
    58
 90
        2
176
     1
 90
        2
176
     1
 90
        3
176
     1
 90
        0
176
     1
 40
0.6
176
     1
 40
30.0
176
     1
 62
     8
420
  8421504
176
     1
 90
        1
176
     1
 90
        4
176
     1
 62
     7
176
     1
 62
   257
176
     1
 90
        1
176
     1
 90
        1
176
     1
 40
1.0
176
     1
 90
        8
176
     1
 62
     8
420
  8421504
176
     1
 40
1.0
176
     1
 90
        1
176
     1
 90
        6
176
     1
 90
        2
176
     1
 62
     7
176
     1
 90
        5
176
     1
 90
        0
176
     1
 90
        0
176
     1
290
     0
176
     1
 90
        1
176
     1
 40
0.0
176
     1
 90
        0
176
     1
290
     0
176
     1
290
     1
176
     1
290
     1
176
     1
290
     0
176
     1
290
     0
176
     1
290
     0
176
     1
290
     0
176
     1
290
     0
176
     1
290
     0
176
     1
 90
       50
176
     1
 40
0.0
176
     1
 40
1.0
176
     1
 90
        0
176
     1
 62
    18
420
        0
176
     1
 90
       50
176
     1
 90
        3
176
     1
 62
     5
420
      255
176
     1
290
     0
176
     1
 90
       50
176
     1
 90
       50
176
     1
 90
       50
176
     1
290
     0
176
     1
 90
       50
176
     1
 62
   256
176
     0
 40
1.0
176
     0
 90
        2
176
     1
  1
strokes_ogs.tif
176
     1
290
     0
176
     1
 40
1.0
176
     1
 40
1.0
176
     1
  0
VISUALSTYLE
  5
34
102
{ACAD_REACTORS
330
2A
102
}
330
2A
100
AcDbVisualStyle
  2
Conceptual
 70
     9
177
     3
291
     0
 70
    58
 90
        3
176
     1
 90
        2
176
     1
 90
        0
176
     1
 90
        0
176
     1
 40
0.6
176
     1
 40
30.0
176
     1
 62
     7
420
 16777215
176
     1
 90
        2
176
     1
 90
        2
176
     1
 62
     7
176
     1
 62
   257
176
     1
 90
        1
176
     1
 90
        1
176
     1
 40
179.0
176
     1
 90
        8
176
     1
 62
     7
176
     1
 40
1.0
176
     1
 90
        1
176
     1
 90
        6
176
     1
 90
        2
176
     1
 62
     7
176
     1
 90
        3
176
     1
 90
        0
176
     1
 90
        0
176
     1
290
     0
176
     1
 90
        1
176
     1
 40
0.0
176
     1
 90
        0
176
     1
290
     0
176
     1
290
     1
176
     1
290
     1
176
     1
290
     0
176
     1
290
     0
176
     1
290
     0
176
     1
290
     0
176
     1
290
     0
176
     1
290
     0
176
     1
 90
       50
176
     1
 40
0.0
176
     1
 40
1.0
176
     1
 90
        0
176
     1
 62
    18
420
        0
176
     1
 90
       50
176
     1
 90
        3
176
     1
 62
     5
420
      255
176
     1
290
     0
176
     1
 90
       50
176
     1
 90
       50
176
     1
 90
       50
176
     1
290
     0
176
     1
 90
       50
176
     1
 62
   256
176
     0
 40
1.0
176
     0
 90
        2
176
     1
  1
strokes_ogs.tif
176
     1
290
     0
176
     1
 40
1.0
176
     1
 40
1.0
176
     1
  0
VISUALSTYLE
  5
35
102
{ACAD_REACTORS
330
2A
102
}
330
2A
100
AcDbVisualStyle
  2
Dim
 70
    11
177
     3
291
     1
 70
    58
 90
        2
176
     1
 90
        2
176
     1
 90
        0
176
     1
 90
        0
176
     1
 40
0.6
176
     1
 40
30.0
176
     1
 62
     7
420
 16777215
176
     1
 90
        1
176
     1
 90
        4
176
     1
 62
     7
176
     1
 62
   257
176
     1
 90
        1
176
     1
 90
        1
176
     1
 40
1.0
176
     1
 90
        8
176
     1
 62
     7
176
     1
 40
1.0
176
     1
 90
        1
176
     1
 90
        6
176
     1
 90
        2
176
     1
 62
     7
176
     1
 90
        5
176
     1
 90
        0
176
     1
 90
        0
176
     1
290
     0
176
     1
 90
        1
176
     1
 40
-50.0
176
     1
 90
        0
176
     1
290
     0
176
     1
290
     1
176
     1
290
     1
176
     1
290
     0
176
     1
290
     0
176
     1
290
     0
176
     1
290
     0
176
     1
290
     0
176
     1
290
     0
176
     1
 90
       50
176
     1
 40
0.0
176
     1
 40
1.0
176
     1
 90
        0
176
     1
 62
    18
420
        0
176
     1
 90
       50
176
     1
 90
        3
176
     1
 62
     5
420
      255
176
     1
290
     0
176
     1
 90
       50
176
     1
 90
       50
176
     1
 90
       50
176
     1
290
     0
176
     1
 90
       50
176
     1
 62
   256
176
     0
 40
1.0
176
     0
 90
        2
176
     1
  1
strokes_ogs.tif
176
     1
290
     0
176
     1
 40
1.0
176
     1
 40
1.0
176
     1
  0
VISUALSTYLE
  5
3D
102
{ACAD_REACTORS
330
2A
102
}
330
2A
100
AcDbVisualStyle
  2
EdgeColorOff
 70
    22
177
     3
291
     1
 70
    58
 90
        2
176
     0
 90
        2
176
     0
 90
        0
176
     0
 90
        0
176
     0
 40
0.6
176
     0
 40
30.0
176
     0
 62
     7
420
 16777215
176
     0
 90
        1
176
     0
 90
        4
176
     0
 62
     7
176
     0
 62
   257
176
     0
 90
        1
176
     0
 90
        1
176
     0
 40
1.0
176
     0
 90
        8
176
     2
 62
     7
176
     0
 40
1.0
176
     0
 90
        1
176
     0
 90
        6
176
     0
 90
        2
176
     0
 62
     7
176
     0
 90
        5
176
     0
 90
        0
176
     0
 90
        0
176
     0
290
     0
176
     0
 90
        1
176
     0
 40
0.0
176
     0
 90
        0
176
     0
290
     0
176
     0
290
     1
176
     0
290
     1
176
     0
290
     0
176
     0
290
     0
176
     0
290
     0
176
     0
290
     0
176
     0
290
     0
176
     0
290
     0
176
     0
 90
       50
176
     0
 40
0.0
176
     0
 40
1.0
176
     0
 90
        0
176
     0
 62
    18
420
        0
176
     0
 90
       50
176
     0
 90
        3
176
     0
 62
     5
420
      255
176
     0
290
     0
176
     0
 90
       50
176
     0
 90
       50
176
     0
 90
       50
176
     0
290
     0
176
     0
 90
       50
176
     0
 62
   256
176
     0
 40
1.0
176
     0
 90
        2
176
     0
  1
strokes_ogs.tif
176
     0
290
     0
176
     0
 40
1.0
176
     0
 40
1.0
176
     0
  0
VISUALSTYLE
  5
39
102
{ACAD_REACTORS
330
2A
102
}
330
2A
100
AcDbVisualStyle
  2
Facepattern
 70
    15
177
     3
291
     1
 70
    58
 90
        2
176
     1
 90
        2
176
     1
 90
        0
176
     1
 90
        0
176
     1
 40
0.6
176
     1
 40
30.0
176
     1
 62
     7
420
 16777215
176
     1
 90
        1
176
     1
 90
        4
176
     1
 62
     7
176
     1
 62
   257
176
     1
 90
        1
176
     1
 90
        1
176
     1
 40
1.0
176
     1
 90
        8
176
     1
 62
     7
176
     1
 40
1.0
176
     1
 90
        1
176
     1
 90
        6
176
     1
 90
        2
176
     1
 62
     7
176
     1
 90
        5
176
     1
 90
        0
176
     1
 90
        0
176
     1
290
     0
176
     1
 90
        1
176
     1
 40
0.0
176
     1
 90
        0
176
     1
290
     0
176
     1
290
     1
176
     1
290
     1
176
     1
290
     0
176
     1
290
     0
176
     1
290
     0
176
     1
290
     0
176
     1
290
     0
176
     1
290
     0
176
     1
 90
       50
176
     1
 40
0.0
176
     1
 40
1.0
176
     1
 90
        0
176
     1
 62
    18
420
        0
176
     1
 90
       50
176
     1
 90
        3
176
     1
 62
     5
420
      255
176
     1
290
     0
176
     1
 90
       50
176
     1
 90
       50
176
     1
 90
       50
176
     1
290
     0
176
     1
 90
       50
176
     1
 62
   256
176
     0
 40
1.0
176
     0
 90
        2
176
     1
  1
strokes_ogs.tif
176
     1
290
     0
176
     1
 40
1.0
176
     1
 40
1.0
176
     1
  0
VISUALSTYLE
  5
2B
102
{ACAD_REACTORS
330
2A
102
}
330
2A
100
AcDbVisualStyle
  2
Flat
 70
     0
177
     3
291
     1
 70
    58
 90
        2
176
     1
 90
        1
176
     1
 90
        1
176
     1
 90
        2
176
     1
 40
0.6
176
     1
 40
30.0
176
     1
 62
     7
420
 16777215
176
     1
 90
        0
176
     1
 90
        0
176
     1
 62
     7
176
     1
 62
   257
176
     1
 90
        1
176
     1
 90
        1
176
     1
 40
1.0
176
     1
 90
        8
176
     1
 62
     7
176
     1
 40
1.0
176
     1
 90
        1
176
     1
 90
        6
176
     1
 90
        2
176
     1
 62
     7
176
     1
 90
        5
176
     1
 90
        0
176
     1
 90
        0
176
     1
290
     0
176
     1
 90
       13
176
     1
 40
0.0
176
     1
 90
        0
176
     1
290
     0
176
     1
290
     1
176
     1
290
     1
176
     1
290
     0
176
     1
290
     0
176
     1
290
     0
176
     1
290
     0
176
     1
290
     0
176
     1
290
     0
176
     1
 90
       50
176
     1
 40
0.0
176
     1
 40
1.0
176
     1
 90
        0
176
     1
 62
    18
420
        0
176
     1
 90
       50
176
     1
 90
        3
176
     1
 62
     5
420
      255
176
     1
290
     0
176
     1
 90
       50
176
     1
 90
       50
176
     1
 90
       50
176
     1
290
     0
176
     1
 90
       50
176
     1
 62
   256
176
     0
 40
1.0
176
     0
 90
        2
176
     1
  1
strokes_ogs.tif
176
     1
290
     0
176
     1
 40
1.0
176
     1
 40
1.0
176
     1
  0
VISUALSTYLE
  5
2C
102
{ACAD_REACTORS
330
2A
102
}
330
2A
100
AcDbVisualStyle
  2
FlatWithEdges
 70
     1
177
     3
291
     1
 70
    58
 90
        2
176
     1
 90
        1
176
     1
 90
        1
176
     1
 90
        2
176
     1
 40
0.6
176
     1
 40
30.0
176
     1
 62
     7
420
 16777215
176
     1
 90
        1
176
     1
 90
        0
176
     1
 62
     7
176
     1
 62
   257
176
     1
 90
        1
176
     1
 90
        1
176
     1
 40
1.0
176
     1
 90
        0
176
     1
 62
   257
176
     1
 40
1.0
176
     1
 90
        1
176
     1
 90
        6
176
     1
 90
        2
176
     1
 62
     7
176
     1
 90
        5
176
     1
 90
        0
176
     1
 90
        0
176
     1
290
     0
176
     1
 90
       13
176
     1
 40
0.0
176
     1
 90
        0
176
     1
290
     0
176
     1
290
     1
176
     1
290
     1
176
     1
290
     0
176
     1
290
     0
176
     1
290
     0
176
     1
290
     0
176
     1
290
     0
176
     1
290
     0
176
     1
 90
       50
176
     1
 40
0.0
176
     1
 40
1.0
176
     1
 90
        0
176
     1
 62
    18
420
        0
176
     1
 90
       50
176
     1
 90
        3
176
     1
 62
     5
420
      255
176
     1
290
     0
176
     1
 90
       50
176
     1
 90
       50
176
     1
 90
       50
176
     1
290
     0
176
     1
 90
       50
176
     1
 62
   256
176
     0
 40
1.0
176
     0
 90
        2
176
     1
  1
strokes_ogs.tif
176
     1
290
     0
176
     1
 40
1.0
176
     1
 40
1.0
176
     1
  0
VISUALSTYLE
  5
2D
102
{ACAD_REACTORS
330
2A
102
}
330
2A
100
AcDbVisualStyle
  2
Gouraud
 70
     2
177
     3
291
     1
 70
    58
 90
        2
176
     1
 90
        2
176
     1
 90
        1
176
     1
 90
        2
176
     1
 40
0.6
176
     1
 40
30.0
176
     1
 62
     7
420
 16777215
176
     1
 90
        0
176
     1
 90
        0
176
     1
 62
     7
176
     1
 62
   257
176
     1
 90
        1
176
     1
 90
        1
176
     1
 40
1.0
176
     1
 90
        0
176
     1
 62
     7
176
     1
 40
1.0
176
     1
 90
        1
176
     1
 90
        6
176
     1
 90
        2
176
     1
 62
     7
176
     1
 90
        5
176
     1
 90
        0
176
     1
 90
        0
176
     1
290
     0
176
     1
 90
       13
176
     1
 40
0.0
176
     1
 90
        0
176
     1
290
     0
176
     1
290
     1
176
     1
290
     1
176
     1
290
     0
176
     1
290
     0
176
     1
290
     0
176
     1
290
     0
176
     1
290
     0
176
     1
290
     0
176
     1
 90
       50
176
     1
 40
0.0
176
     1
 40
1.0
176
     1
 90
        0
176
     1
 62
    18
420
        0
176
     1
 90
       50
176
     1
 90
        3
176
     1
 62
     5
420
      255
176
     1
290
     0
176
     1
 90
       50
176
     1
 90
       50
176
     1
 90
       50
176
     1
290
     0
176
     1
 90
       50
176
     1
 62
   256
176
     0
 40
1.0
176
     0
 90
        2
176
     1
  1
strokes_ogs.tif
176
     1
290
     0
176
     1
 40
1.0
176
     1
 40
1.0
176
     1
  0
VISUALSTYLE
  5
2E
102
{ACAD_REACTORS
330
2A
102
}
330
2A
100
AcDbVisualStyle
  2
GouraudWithEdges
 70
     3
177
     3
291
     1
 70
    58
 90
        2
176
     1
 90
        2
176
     1
 90
        1
176
     1
 90
        2
176
     1
 40
0.6
176
     1
 40
30.0
176
     1
 62
     7
420
 16777215
176
     1
 90
        1
176
     1
 90
        0
176
     1
 62
     7
176
     1
 62
   257
176
     1
 90
        1
176
     1
 90
        1
176
     1
 40
1.0
176
     1
 90
        0
176
     1
 62
   257
176
     1
 40
1.0
176
     1
 90
        1
176
     1
 90
        6
176
     1
 90
        2
176
     1
 62
     7
176
     1
 90
        5
176
     1
 90
        0
176
     1
 90
        0
176
     1
290
     0
176
     1
 90
       13
176
     1
 40
0.0
176
     1
 90
        0
176
     1
290
     0
176
     1
290
     1
176
     1
290
     1
176
     1
290
     0
176
     1
290
     0
176
     1
290
     0
176
     1
290
     0
176
     1
290
     0
176
     1
290
     0
176
     1
 90
       50
176
     1
 40
0.0
176
     1
 40
1.0
176
     1
 90
        0
176
     1
 62
    18
420
        0
176
     1
 90
       50
176
     1
 90
        3
176
     1
 62
     5
420
      255
176
     1
290
     0
176
     1
 90
       50
176
     1
 90
       50
176
     1
 90
       50
176
     1
290
     0
176
     1
 90
       50
176
     1
 62
   256
176
     0
 40
1.0
176
     0
 90
        2
176
     1
  1
strokes_ogs.tif
176
     1
290
     0
176
     1
 40
1.0
176
     1
 40
1.0
176
     1
  0
VISUALSTYLE
  5
31
102
{ACAD_REACTORS
330
2A
102
}
330
2A
100
AcDbVisualStyle
  2
Hidden
 70
     6
177
     3
291
     0
 70
    58
 90
        1
176
     1
 90
        2
176
     1
 90
        2
176
     1
 90
        0
176
     1
 40
0.6
176
     1
 40
30.0
176
     1
 62
     7
420
 16777215
176
     1
 90
        2
176
     1
 90
        2
176
     1
 62
     7
176
     1
 62
   257
176
     1
 90
        2
176
     1
 90
        1
176
     1
 40
40.0
176
     1
 90
        0
176
     1
 62
   257
176
     1
 40
1.0
176
     1
 90
        1
176
     1
 90
        6
176
     1
 90
        2
176
     1
 62
     7
176
     1
 90
        3
176
     1
 90
        0
176
     1
 90
        0
176
     1
290
     0
176
     1
 90
        1
176
     1
 40
0.0
176
     1
 90
        0
176
     1
290
     0
176
     1
290
     1
176
     1
290
     1
176
     1
290
     0
176
     1
290
     0
176
     1
290
     0
176
     1
290
     0
176
     1
290
     0
176
     1
290
     0
176
     1
 90
       50
176
     1
 40
0.0
176
     1
 40
1.0
176
     1
 90
        0
176
     1
 62
    18
420
        0
176
     1
 90
       50
176
     1
 90
        3
176
     1
 62
     5
420
      255
176
     1
290
     0
176
     1
 90
       50
176
     1
 90
       50
176
     1
 90
       50
176
     1
290
     0
176
     1
 90
       50
176
     1
 62
   256
176
     0
 40
1.0
176
     0
 90
        2
176
     1
  1
strokes_ogs.tif
176
     1
290
     0
176
     1
 40
1.0
176
     1
 40
1.0
176
     1
  0
VISUALSTYLE
  5
3B
102
{ACAD_REACTORS
330
2A
102
}
330
2A
100
AcDbVisualStyle
  2
JitterOff
 70
    20
177
     3
291
     1
 70
    58
 90
        2
176
     0
 90
        2
176
     0
 90
        0
176
     0
 90
        0
176
     0
 40
0.6
176
     0
 40
30.0
176
     0
 62
     7
420
 16777215
176
     0
 90
        1
176
     0
 90
        4
176
     0
 62
     7
176
     0
 62
   257
176
     0
 90
        1
176
     0
 90
        1
176
     0
 40
1.0
176
     0
 90
       10
176
     2
 62
     7
176
     0
 40
1.0
176
     0
 90
        1
176
     0
 90
        6
176
     0
 90
        2
176
     0
 62
     7
176
     0
 90
        5
176
     0
 90
        0
176
     0
 90
        0
176
     0
290
     0
176
     0
 90
        1
176
     0
 40
0.0
176
     0
 90
        0
176
     0
290
     0
176
     0
290
     1
176
     0
290
     1
176
     0
290
     0
176
     0
290
     0
176
     0
290
     0
176
     0
290
     0
176
     0
290
     0
176
     0
290
     0
176
     0
 90
       50
176
     0
 40
0.0
176
     0
 40
1.0
176
     0
 90
        0
176
     0
 62
    18
420
        0
176
     0
 90
       50
176
     0
 90
        3
176
     0
 62
     5
420
      255
176
     0
290
     0
176
     0
 90
       50
176
     0
 90
       50
176
     0
 90
       50
176
     0
290
     0
176
     0
 90
       50
176
     0
 62
   256
176
     0
 40
1.0
176
     0
 90
        2
176
     0
  1
strokes_ogs.tif
176
     0
290
     0
176
     0
 40
1.0
176
     0
 40
1.0
176
     0
  0
VISUALSTYLE
  5
38
102
{ACAD_REACTORS
330
2A
102
}
330
2A
100
AcDbVisualStyle
  2
Linepattern
 70
    14
177
     3
291
     1
 70
    58
 90
        2
176
     1
 90
        2
176
     1
 90
        0
176
     1
 90
        0
176
     1
 40
0.6
176
     1
 40
30.0
176
     1
 62
     7
420
 16777215
176
     1
 90
        1
176
     1
 90
        4
176
     1
 62
     7
176
     1
 62
   257
176
     1
 90
        7
176
     1
 90
        7
176
     1
 40
1.0
176
     1
 90
        8
176
     1
 62
     7
176
     1
 40
1.0
176
     1
 90
        1
176
     1
 90
        6
176
     1
 90
        2
176
     1
 62
     7
176
     1
 90
        5
176
     1
 90
        0
176
     1
 90
        0
176
     1
290
     0
176
     1
 90
        1
176
     1
 40
0.0
176
     1
 90
        0
176
     1
290
     0
176
     1
290
     1
176
     1
290
     1
176
     1
290
     0
176
     1
290
     0
176
     1
290
     0
176
     1
290
     0
176
     1
290
     0
176
     1
290
     0
176
     1
 90
       50
176
     1
 40
0.0
176
     1
 40
1.0
176
     1
 90
        0
176
     1
 62
    18
420
        0
176
     1
 90
       50
176
     1
 90
        3
176
     1
 62
     5
420
      255
176
     1
290
     0
176
     1
 90
       50
176
     1
 90
       50
176
     1
 90
       50
176
     1
290
     0
176
     1
 90
       50
176
     1
 62
   256
176
     0
 40
1.0
176
     0
 90
        2
176
     1
  1
strokes_ogs.tif
176
     1
290
     0
176
     1
 40
1.0
176
     1
 40
1.0
176
     1
  0
VISUALSTYLE
  5
3C
102
{ACAD_REACTORS
330
2A
102
}
330
2A
100
AcDbVisualStyle
  2
OverhangOff
 70
    21
177
     3
291
     1
 70
    58
 90
        2
176
     0
 90
        2
176
     0
 90
        0
176
     0
 90
        0
176
     0
 40
0.6
176
     0
 40
30.0
176
     0
 62
     7
420
 16777215
176
     0
 90
        1
176
     0
 90
        4
176
     0
 62
     7
176
     0
 62
   257
176
     0
 90
        1
176
     0
 90
        1
176
     0
 40
1.0
176
     0
 90
        9
176
     2
 62
     7
176
     0
 40
1.0
176
     0
 90
        1
176
     0
 90
        6
176
     0
 90
        2
176
     0
 62
     7
176
     0
 90
        5
176
     0
 90
        0
176
     0
 90
        0
176
     0
290
     0
176
     0
 90
        1
176
     0
 40
0.0
176
     0
 90
        0
176
     0
290
     0
176
     0
290
     1
176
     0
290
     1
176
     0
290
     0
176
     0
290
     0
176
     0
290
     0
176
     0
290
     0
176
     0
290
     0
176
     0
290
     0
176
     0
 90
       50
176
     0
 40
0.0
176
     0
 40
1.0
176
     0
 90
        0
176
     0
 62
    18
420
        0
176
     0
 90
       50
176
     0
 90
        3
176
     0
 62
     5
420
      255
176
     0
290
     0
176
     0
 90
       50
176
     0
 90
       50
176
     0
 90
       50
176
     0
290
     0
176
     0
 90
       50
176
     0
 62
   256
176
     0
 40
1.0
176
     0
 90
        2
176
     0
  1
strokes_ogs.tif
176
     0
290
     0
176
     0
 40
1.0
176
     0
 40
1.0
176
     0
  0
VISUALSTYLE
  5
33
102
{ACAD_REACTORS
330
2A
102
}
330
2A
100
AcDbVisualStyle
  2
Realistic
 70
     8
177
     3
291
     0
 70
    58
 90
        2
176
     1
 90
        3
176
     1
 90
        0
176
     1
 90
        2
176
     1
 40
0.6
176
     1
 40
30.0
176
     1
 62
     7
420
 16777215
176
     1
 90
        0
176
     1
 90
        0
176
     1
 62
     7
176
     1
 62
   257
176
     1
 90
        1
176
     1
 90
        1
176
     1
 40
1.0
176
     1
 90
        8
176
     1
 62
   257
176
     1
 40
1.0
176
     1
 90
        1
176
     1
 90
        6
176
     1
 90
        2
176
     1
 62
     7
176
     1
 90
        3
176
     1
 90
        0
176
     1
 90
        0
176
     1
290
     0
176
     1
 90
       13
176
     1
 40
0.0
176
     1
 90
        0
176
     1
290
     0
176
     1
290
     1
176
     1
290
     1
176
     1
290
     0
176
     1
290
     0
176
     1
290
     0
176
     1
290
     0
176
     1
290
     0
176
     1
290
     0
176
     1
 90
       50
176
     1
 40
0.0
176
     1
 40
1.0
176
     1
 90
        0
176
     1
 62
    18
420
        0
176
     1
 90
       50
176
     1
 90
        3
176
     1
 62
     5
420
      255
176
     1
290
     0
176
     1
 90
       50
176
     1
 90
       50
176
     1
 90
       50
176
     1
290
     0
176
     1
 90
       50
176
     1
 62
   256
176
     0
 40
1.0
176
     0
 90
        2
176
     1
  1
strokes_ogs.tif
176
     1
290
     0
176
     1
 40
1.0
176
     1
 40
1.0
176
     1
  0
VISUALSTYLE
  5
42
102
{ACAD_REACTORS
330
2A
102
}
330
2A
100
AcDbVisualStyle
  2
Shaded
 70
    27
177
     3
291
     0
 70
    58
 90
        2
176
     1
 90
        2
176
     1
 90
        1
176
     1
 90
        2
176
     1
 40
0.6
176
     1
 40
30.0
176
     1
 62
     7
420
 16777215
176
     1
 90
        0
176
     1
 90
        4
176
     1
 62
     7
176
     1
 62
   257
176
     1
 90
        1
176
     1
 90
        1
176
     1
 40
1.0
176
     1
 90
        8
176
     1
 62
   257
176
     1
 40
1.0
176
     1
 90
        1
176
     1
 90
        6
176
     1
 90
        2
176
     1
 62
     8
420
  7895160
176
     1
 90
        3
176
     1
 90
        0
176
     1
 90
        0
176
     1
290
     0
176
     1
 90
        5
176
     1
 40
0.0
176
     1
 90
        0
176
     1
290
     0
176
     1
290
     1
176
     1
290
     1
176
     1
290
     0
176
     1
290
     0
176
     1
290
     0
176
     1
290
     0
176
     1
290
     0
176
     1
290
     0
176
     1
 90
       50
176
     1
 40
0.0
176
     1
 40
1.0
176
     1
 90
        0
176
     1
 62
    18
420
        0
176
     1
 90
       50
176
     1
 90
        3
176
     1
 62
     5
420
      255
176
     1
290
     0
176
     1
 90
       50
176
     1
 90
       50
176
     1
 90
       50
176
     1
290
     0
176
     1
 90
       50
176
     1
 62
   256
176
     0
 40
1.0
176
     0
 90
        2
176
     1
  1
strokes_ogs.tif
176
     1
290
     0
176
     1
 40
1.0
176
     1
 40
1.0
176
     1
  0
VISUALSTYLE
  5
41
102
{ACAD_REACTORS
330
2A
102
}
330
2A
100
AcDbVisualStyle
  2
Shaded with edges
 70
    26
177
     3
291
     0
 70
    58
 90
        2
176
     1
 90
        2
176
     1
 90
        1
176
     1
 90
        2
176
     1
 40
0.6
176
     1
 40
30.0
176
     1
 62
     7
420
 16777215
176
     1
 90
        1
176
     1
 90
       10
176
     1
 62
     7
176
     1
 62
   257
176
     1
 90
        2
176
     1
 90
        1
176
     1
 40
1.0
176
     1
 90
        8
176
     1
 62
   257
176
     1
 40
1.0
176
     1
 90
        1
176
     1
 90
        6
176
     1
 90
        2
176
     1
 62
     7
176
     1
 90
        3
176
     1
 90
        0
176
     1
 90
        0
176
     1
290
     0
176
     1
 90
        5
176
     1
 40
0.0
176
     1
 90
        0
176
     1
290
     0
176
     1
290
     1
176
     1
290
     1
176
     1
290
     0
176
     1
290
     0
176
     1
290
     0
176
     1
290
     0
176
     1
290
     0
176
     1
290
     0
176
     1
 90
       50
176
     1
 40
0.0
176
     1
 40
1.0
176
     1
 90
        0
176
     1
 62
    18
420
        0
176
     1
 90
       50
176
     1
 90
        3
176
     1
 62
     5
420
      255
176
     1
290
     0
176
     1
 90
       50
176
     1
 90
       50
176
     1
 90
       50
176
     1
290
     0
176
     1
 90
       50
176
     1
 62
   256
176
     0
 40
1.0
176
     0
 90
        2
176
     1
  1
strokes_ogs.tif
176
     1
290
     0
176
     1
 40
1.0
176
     1
 40
1.0
176
     1
  0
VISUALSTYLE
  5
3E
102
{ACAD_REACTORS
330
2A
102
}
330
2A
100
AcDbVisualStyle
  2
Shades of Gray
 70
    23
177
     3
291
     0
 70
    58
 90
        2
176
     1
 90
        2
176
     1
 90
        3
176
     1
 90
        0
176
     1
 40
0.6
176
     1
 40
30.0
176
     1
 62
     7
420
 16777215
176
     1
 90
        2
176
     1
 90
        2
176
     1
 62
     7
176
     1
 62
     7
176
     1
 90
        1
176
     1
 90
        1
176
     1
 40
40.0
176
     1
 90
        8
176
     1
 62
     7
176
     1
 40
1.0
176
     1
 90
        1
176
     1
 90
        6
176
     1
 90
        2
176
     1
 62
     7
176
     1
 90
        3
176
     1
 90
        0
176
     1
 90
        0
176
     1
290
     0
176
     1
 90
        1
176
     1
 40
0.0
176
     1
 90
        0
176
     1
290
     0
176
     1
290
     1
176
     1
290
     1
176
     1
290
     0
176
     1
290
     0
176
     1
290
     0
176
     1
290
     0
176
     1
290
     0
176
     1
290
     0
176
     1
 90
       50
176
     1
 40
0.0
176
     1
 40
1.0
176
     1
 90
        0
176
     1
 62
    18
420
        0
176
     1
 90
       50
176
     1
 90
        3
176
     1
 62
     5
420
      255
176
     1
290
     0
176
     1
 90
       50
176
     1
 90
       50
176
     1
 90
       50
176
     1
290
     0
176
     1
 90
       50
176
     1
 62
   256
176
     0
 40
1.0
176
     0
 90
        2
176
     1
  1
strokes_ogs.tif
176
     1
290
     0
176
     1
 40
1.0
176
     1
 40
1.0
176
     1
  0
VISUALSTYLE
  5
3F
102
{ACAD_REACTORS
330
2A
102
}
330
2A
100
AcDbVisualStyle
  2
Sketchy
 70
    24
177
     3
291
     0
 70
    58
 90
        1
176
     1
 90
        2
176
     1
 90
        2
176
     1
 90
        0
176
     1
 40
0.6
176
     1
 40
30.0
176
     1
 62
     7
420
 16777215
176
     1
 90
        2
176
     1
 90
        2
176
     1
 62
     7
176
     1
 62
     7
176
     1
 90
        1
176
     1
 90
        1
176
     1
 40
40.0
176
     1
 90
       11
176
     1
 62
     7
176
     1
 40
1.0
176
     1
 90
        1
176
     1
 90
        6
176
     1
 90
        2
176
     1
 62
     7
176
     1
 90
        6
176
     1
 90
        0
176
     1
 90
        0
176
     1
290
     0
176
     1
 90
        1
176
     1
 40
0.0
176
     1
 90
        0
176
     1
290
     0
176
     1
290
     1
176
     1
290
     1
176
     1
290
     0
176
     1
290
     0
176
     1
290
     0
176
     1
290
     0
176
     1
290
     0
176
     1
290
     0
176
     1
 90
       50
176
     1
 40
0.0
176
     1
 40
1.0
176
     1
 90
        0
176
     1
 62
    18
420
        0
176
     1
 90
       50
176
     1
 90
        3
176
     1
 62
     5
420
      255
176
     1
290
     0
176
     1
 90
       50
176
     1
 90
       50
176
     1
 90
       50
176
     1
290
     0
176
     1
 90
       50
176
     1
 62
   256
176
     0
 40
1.0
176
     0
 90
        2
176
     1
  1
strokes_ogs.tif
176
     1
290
     0
176
     1
 40
1.0
176
     1
 40
1.0
176
     1
  0
VISUALSTYLE
  5
37
102
{ACAD_REACTORS
330
2A
102
}
330
2A
100
AcDbVisualStyle
  2
Thicken
 70
    13
177
     3
291
     1
 70
    58
 90
        2
176
     1
 90
        2
176
     1
 90
        0
176
     1
 90
        0
176
     1
 40
0.6
176
     1
 40
30.0
176
     1
 62
     7
420
 16777215
176
     1
 90
        1
176
     1
 90
        4
176
     1
 62
     7
176
     1
 62
   257
176
     1
 90
        1
176
     1
 90
        1
176
     1
 40
1.0
176
     1
 90
       12
176
     1
 62
     7
176
     1
 40
1.0
176
     1
 90
        1
176
     1
 90
        6
176
     1
 90
        2
176
     1
 62
     7
176
     1
 90
        5
176
     1
 90
        0
176
     1
 90
        0
176
     1
290
     0
176
     1
 90
        1
176
     1
 40
0.0
176
     1
 90
        0
176
     1
290
     0
176
     1
290
     1
176
     1
290
     1
176
     1
290
     0
176
     1
290
     0
176
     1
290
     0
176
     1
290
     0
176
     1
290
     0
176
     1
290
     0
176
     1
 90
       50
176
     1
 40
0.0
176
     1
 40
1.0
176
     1
 90
        0
176
     1
 62
    18
420
        0
176
     1
 90
       50
176
     1
 90
        3
176
     1
 62
     5
420
      255
176
     1
290
     0
176
     1
 90
       50
176
     1
 90
       50
176
     1
 90
       50
176
     1
290
     0
176
     1
 90
       50
176
     1
 62
   256
176
     0
 40
1.0
176
     0
 90
        2
176
     1
  1
strokes_ogs.tif
176
     1
290
     0
176
     1
 40
1.0
176
     1
 40
1.0
176
     1
  0
VISUALSTYLE
  5
30
102
{ACAD_REACTORS
330
2A
102
}
330
2A
100
AcDbVisualStyle
  2
Wireframe
 70
     5
177
     3
291
     0
 70
    58
 90
        0
176
     1
 90
        2
176
     1
 90
        0
176
     1
 90
        0
176
     1
 40
0.6
176
     1
 40
30.0
176
     1
 62
     7
420
 16777215
176
     1
 90
        1
176
     1
 90
        4
176
     1
 62
     7
176
     1
 62
   257
176
     1
 90
        1
176
     1
 90
        1
176
     1
 40
1.0
176
     1
 90
        0
176
     1
 62
   257
176
     1
 40
1.0
176
     1
 90
        1
176
     1
 90
        6
176
     1
 90
        2
176
     1
 62
     7
176
     1
 90
        3
176
     1
 90
        0
176
     1
 90
        0
176
     1
290
     0
176
     1
 90
        1
176
     1
 40
0.0
176
     1
 90
        0
176
     1
290
     0
176
     1
290
     1
176
     1
290
     1
176
     1
290
     0
176
     1
290
     0
176
     1
290
     0
176
     1
290
     0
176
     1
290
     0
176
     1
290
     0
176
     1
 90
       50
176
     1
 40
0.0
176
     1
 40
1.0
176
     1
 90
        0
176
     1
 62
    18
420
        0
176
     1
 90
       50
176
     1
 90
        3
176
     1
 62
     5
420
      255
176
     1
290
     0
176
     1
 90
       50
176
     1
 90
       50
176
     1
 90
       50
176
     1
290
     0
176
     1
 90
       50
176
     1
 62
   256
176
     0
 40
1.0
176
     0
 90
        2
176
     1
  1
strokes_ogs.tif
176
     1
290
     0
176
     1
 40
1.0
176
     1
 40
1.0
176
     1
  0
VISUALSTYLE
  5
40
102
{ACAD_REACTORS
330
2A
102
}
330
2A
100
AcDbVisualStyle
  2
X-Ray
 70
    25
177
     3
291
     0
 70
    58
 90
        2
176
     1
 90
        2
176
     1
 90
        1
176
     1
 90
        1
176
     1
 40
0.5
176
     1
 40
30.0
176
     1
 62
     7
420
 16777215
176
     1
 90
        1
176
     1
 90
        0
176
     1
 62
     7
176
     1
 62
   257
176
     1
 90
        1
176
     1
 90
        1
176
     1
 40
1.0
176
     1
 90
        8
176
     1
 62
     7
176
     1
 40
1.0
176
     1
 90
        1
176
     1
 90
        6
176
     1
 90
        2
176
     1
 62
     7
176
     1
 90
        3
176
     1
 90
        0
176
     1
 90
        0
176
     1
290
     0
176
     1
 90
       13
176
     1
 40
0.0
176
     1
 90
        0
176
     1
290
     0
176
     1
290
     1
176
     1
290
     1
176
     1
290
     0
176
     1
290
     0
176
     1
290
     0
176
     1
290
     0
176
     1
290
     0
176
     1
290
     0
176
     1
 90
       50
176
     1
 40
0.0
176
     1
 40
1.0
176
     1
 90
        0
176
     1
 62
    18
420
        0
176
     1
 90
       50
176
     1
 90
        3
176
     1
 62
     5
420
      255
176
     1
290
     0
176
     1
 90
       50
176
     1
 90
       50
176
     1
 90
       50
176
     1
290
     0
176
     1
 90
       50
176
     1
 62
   256
176
     0
 40
1.0
176
     0
 90
        2
176
     1
  1
strokes_ogs.tif
176
     1
290
     0
176
     1
 40
1.0
176
     1
 40
1.0
176
     1
  0
DICTIONARYVAR
  5
342
102
{ACAD_REACTORS
330
341
102
}
330
341
100
DictionaryVariables
280
     0
  1
1:1
  0
DICTIONARYVAR
  5
34A
102
{ACAD_REACTORS
330
341
102
}
330
341
100
DictionaryVariables
280
     0
  1
3.500000
  0
DICTIONARYVAR
  5
34B
102
{ACAD_REACTORS
330
341
102
}
330
341
100
DictionaryVariables
280
     0
  1
acadiso.lin
  0
DICTIONARYVAR
  5
347
102
{ACAD_REACTORS
330
341
102
}
330
341
100
DictionaryVariables
280
     0
  1
Standard
  0
DICTIONARYVAR
  5
346
102
{ACAD_REACTORS
330
341
102
}
330
341
100
DictionaryVariables
280
     0
  1
Standard
  0
DICTIONARY
  5
34F
330
6A
100
AcDbDictionary
280
     1
281
     1
  3
ACAD_ROUNDTRIP_2008_TABLESTYLE_CELLSTYLEMAP
360
350
  0
CELLSTYLEMAP
  5
350
102
{ACAD_REACTORS
330
34F
102
}
330
34F
100
AcDbCellStyleMap
 90
        3
300
CELLSTYLE
  1
TABLEFORMAT_BEGIN
 90
        5
170
     1
 91
        0
 92
    32768
 62
   257
 93
        1
300
CONTENTFORMAT
  1
CONTENTFORMAT_BEGIN
 90
        0
 91
        0
 92
        4
 93
        0
300

 40
0.0
140
1.0
 94
        5
 62
     0
340
11
144
6.0
309
CONTENTFORMAT_END
171
     1
301
MARGIN
  1
CELLMARGIN_BEGIN
 40
1.5
 40
1.5
 40
1.5
 40
1.5
 40
1.5
 40
1.5
309
CELLMARGIN_END
 94
        6
 95
        1
302
GRIDFORMAT
  1
GRIDFORMAT_BEGIN
 90
        0
 91
        1
 62
     0
 92
       -2
340
14
 93
        0
 40
0.045
309
GRIDFORMAT_END
 95
        2
302
GRIDFORMAT
  1
GRIDFORMAT_BEGIN
 90
        0
 91
        1
 62
     0
 92
       -2
340
14
 93
        0
 40
0.045
309
GRIDFORMAT_END
 95
        4
302
GRIDFORMAT
  1
GRIDFORMAT_BEGIN
 90
        0
 91
        1
 62
     0
 92
       -2
340
14
 93
        0
 40
0.045
309
GRIDFORMAT_END
 95
        8
302
GRIDFORMAT
  1
GRIDFORMAT_BEGIN
 90
        0
 91
        1
 62
     0
 92
       -2
340
14
 93
        0
 40
0.045
309
GRIDFORMAT_END
 95
       16
302
GRIDFORMAT
  1
GRIDFORMAT_BEGIN
 90
        0
 91
        1
 62
     0
 92
       -2
340
14
 93
        0
 40
0.045
309
GRIDFORMAT_END
 95
       32
302
GRIDFORMAT
  1
GRIDFORMAT_BEGIN
 90
        0
 91
        1
 62
     0
 92
       -2
340
14
 93
        0
 40
0.045
309
GRIDFORMAT_END
309
TABLEFORMAT_END
  1
CELLSTYLE_BEGIN
 90
        1
 91
        1
300
_TITLE
309
CELLSTYLE_END
300
CELLSTYLE
  1
TABLEFORMAT_BEGIN
 90
        5
170
     1
 91
        0
 92
        0
 62
   257
 93
        1
300
CONTENTFORMAT
  1
CONTENTFORMAT_BEGIN
 90
        0
 91
        0
 92
        4
 93
        0
300

 40
0.0
140
1.0
 94
        5
 62
     0
340
11
144
4.5
309
CONTENTFORMAT_END
171
     1
301
MARGIN
  1
CELLMARGIN_BEGIN
 40
1.5
 40
1.5
 40
1.5
 40
1.5
 40
1.5
 40
1.5
309
CELLMARGIN_END
 94
        6
 95
        1
302
GRIDFORMAT
  1
GRIDFORMAT_BEGIN
 90
        0
 91
        1
 62
     0
 92
       -2
340
14
 93
        0
 40
0.045
309
GRIDFORMAT_END
 95
        2
302
GRIDFORMAT
  1
GRIDFORMAT_BEGIN
 90
        0
 91
        1
 62
     0
 92
       -2
340
14
 93
        0
 40
0.045
309
GRIDFORMAT_END
 95
        4
302
GRIDFORMAT
  1
GRIDFORMAT_BEGIN
 90
        0
 91
        1
 62
     0
 92
       -2
340
14
 93
        0
 40
0.045
309
GRIDFORMAT_END
 95
        8
302
GRIDFORMAT
  1
GRIDFORMAT_BEGIN
 90
        0
 91
        1
 62
     0
 92
       -2
340
14
 93
        0
 40
0.045
309
GRIDFORMAT_END
 95
       16
302
GRIDFORMAT
  1
GRIDFORMAT_BEGIN
 90
        0
 91
        1
 62
     0
 92
       -2
340
14
 93
        0
 40
0.045
309
GRIDFORMAT_END
 95
       32
302
GRIDFORMAT
  1
GRIDFORMAT_BEGIN
 90
        0
 91
        1
 62
     0
 92
       -2
340
14
 93
        0
 40
0.045
309
GRIDFORMAT_END
309
TABLEFORMAT_END
  1
CELLSTYLE_BEGIN
 90
        2
 91
        1
300
_HEADER
309
CELLSTYLE_END
300
CELLSTYLE
  1
TABLEFORMAT_BEGIN
 90
        5
170
     1
 91
        0
 92
        0
 62
   257
 93
        1
300
CONTENTFORMAT
  1
CONTENTFORMAT_BEGIN
 90
        0
 91
        0
 92
        4
 93
        0
300

 40
0.0
140
1.0
 94
        2
 62
     0
340
11
144
4.5
309
CONTENTFORMAT_END
171
     1
301
MARGIN
  1
CELLMARGIN_BEGIN
 40
1.5
 40
1.5
 40
1.5
 40
1.5
 40
1.5
 40
1.5
309
CELLMARGIN_END
 94
        6
 95
        1
302
GRIDFORMAT
  1
GRIDFORMAT_BEGIN
 90
        0
 91
        1
 62
     0
 92
       -2
340
14
 93
        0
 40
0.045
309
GRIDFORMAT_END
 95
        2
302
GRIDFORMAT
  1
GRIDFORMAT_BEGIN
 90
        0
 91
        1
 62
     0
 92
       -2
340
14
 93
        0
 40
0.045
309
GRIDFORMAT_END
 95
        4
302
GRIDFORMAT
  1
GRIDFORMAT_BEGIN
 90
        0
 91
        1
 62
     0
 92
       -2
340
14
 93
        0
 40
0.045
309
GRIDFORMAT_END
 95
        8
302
GRIDFORMAT
  1
GRIDFORMAT_BEGIN
 90
        0
 91
        1
 62
     0
 92
       -2
340
14
 93
        0
 40
0.045
309
GRIDFORMAT_END
 95
       16
302
GRIDFORMAT
  1
GRIDFORMAT_BEGIN
 90
        0
 91
        1
 62
     0
 92
       -2
340
14
 93
        0
 40
0.045
309
GRIDFORMAT_END
 95
       32
302
GRIDFORMAT
  1
GRIDFORMAT_BEGIN
 90
        0
 91
        1
 62
     0
 92
       -2
340
14
 93
        0
 40
0.045
309
GRIDFORMAT_END
309
TABLEFORMAT_END
  1
CELLSTYLE_BEGIN
 90
        3
 91
        2
300
_DATA
309
CELLSTYLE_END
  0
ENDSEC
  0
EOF
