  0
SECTION
  2
HEADER
  9
$ACADVER
  1
AC1015
  9
$ACADMAINTVER
 70
     6
  9
$DWGCODEPAGE
  3
DOS932
  9
$INSBASE
 10
0.0
 20
0.0
 30
0.0
  9
$EXTMIN
 10
0.0
 20
0.0
 30
0.0
  9
$EXTMAX
 10
1050.0
 20
1485.0
 30
0.0
  9
$LIMMIN
 10
0.0
 20
0.0
  9
$LIMMAX
 10
1050.0
 20
1485.0
  9
$ORTHOMODE
 70
     0
  9
$REGENMODE
 70
     1
  9
$FILLMODE
 70
     1
  9
$QTEXTMODE
 70
     0
  9
$MIRRTEXT
 70
     1
  9
$LTSCALE
 40
5.0
  9
$ATTMODE
 70
     1
  9
$TEXTSIZE
 40
17.5
  9
$TRACEWID
 40
1.0
  9
$TEXTSTYLE
  7
STANDARD
  9
$CLAYER
  8
0
  9
$CELTYPE
  6
ByLayer
  9
$CECOLOR
 62
   256
  9
$CELTSCALE
 40
1.0
  9
$DISPSILH
 70
     0
  9
$DIMSCALE
 40
1.0
  9
$DIMASZ
 40
16.51
  9
$DIMEXO
 40
5.0
  9
$DIMDLI
 40
3.75
  9
$DIMRND
 40
0.0
  9
$DIMDLE
 40
0.0
  9
$DIMEXE
 40
5.0
  9
$DIMTP
 40
0.0
  9
$DIMTM
 40
0.0
  9
$DIMTXT
 40
17.5
  9
$DIMCEN
 40
2.5
  9
$DIMTSZ
 40
0.0
  9
$DIMTOL
 70
     0
  9
$DIMLIM
 70
     0
  9
$DIMTIH
 70
     1
  9
$DIMTOH
 70
     1
  9
$DIMSE1
 70
     0
  9
$DIMSE2
 70
     0
  9
$DIMTAD
 70
     1
  9
$DIMZIN
 70
     1
  9
$DIMBLK
  1

  9
$DIMASO
 70
     1
  9
$DIMSHO
 70
     1
  9
$DIMPOST
  1

  9
$DIMAPOST
  1

  9
$DIMALT
 70
     0
  9
$DIMALTD
 70
     3
  9
$DIMALTF
 40
0.0393700787
  9
$DIMLFAC
 40
1.0
  9
$DIMTOFL
 70
     1
  9
$DIMTVP
 40
0.0
  9
$DIMTIX
 70
     0
  9
$DIMSOXD
 70
     0
  9
$DIMSAH
 70
     0
  9
$DIMBLK1
  1

  9
$DIMBLK2
  1

  9
$DIMSTYLE
  2
ISO-25
  9
$DIMCLRD
 70
     0
  9
$DIMCLRE
 70
     0
  9
$DIMCLRT
 70
     0
  9
$DIMTFAC
 40
1.0
  9
$DIMGAP
 40
7.62
  9
$DIMJUST
 70
     0
  9
$DIMSD1
 70
     0
  9
$DIMSD2
 70
     0
  9
$DIMTOLJ
 70
     0
  9
$DIMTZIN
 70
     1
  9
$DIMALTZ
 70
     0
  9
$DIMALTTZ
 70
     0
  9
$DIMUPT
 70
     0
  9
$DIMDEC
 70
     2
  9
$DIMTDEC
 70
     2
  9
$DIMALTU
 70
     2
  9
$DIMALTTD
 70
     3
  9
$DIMTXSTY
  7
STANDARD
  9
$DIMAUNIT
 70
     0
  9
$DIMADEC
 70
     2
  9
$DIMALTRND
 40
0.0
  9
$DIMAZIN
 70
     0
  9
$DIMDSEP
 70
    44
  9
$DIMATFIT
 70
     3
  9
$DIMFRAC
 70
     0
  9
$DIMLDRBLK
  1

  9
$DIMLUNIT
 70
     2
  9
$DIMLWD
 70
    -2
  9
$DIMLWE
 70
    -2
  9
$DIMTMOVE
 70
     0
  9
$LUNITS
 70
     2
  9
$LUPREC
 70
     2
  9
$SKETCHINC
 40
1.0
  9
$FILLETRAD
 40
10.0
  9
$AUNITS
 70
     0
  9
$AUPREC
 70
     2
  9
$MENU
  1
.
  9
$ELEVATION
 40
0.0
  9
$PELEVATION
 40
0.0
  9
$THICKNESS
 40
0.0
  9
$LIMCHECK
 70
     0
  9
$CHAMFERA
 40
0.0
  9
$CHAMFERB
 40
0.0
  9
$CHAMFERC
 40
0.0
  9
$CHAMFERD
 40
0.0
  9
$SKPOLY
 70
     0
  9
$TDCREATE
 40
2458871.568835625
  9
$TDUCREATE
 40
2458871.193835625
  9
$TDUPDATE
 40
2458871.568835995
  9
$TDUUPDATE
 40
2458871.193835995
  9
$TDINDWG
 40
0.0000000116
  9
$TDUSRTIMER
 40
0.0000000116
  9
$USRTIMER
 70
     1
  9
$ANGBASE
 50
0.0
  9
$ANGDIR
 70
     0
  9
$PDMODE
 70
     0
  9
$PDSIZE
 40
-1.0
  9
$PLINEWID
 40
0.0
  9
$SPLFRAME
 70
     0
  9
$SPLINETYPE
 70
     6
  9
$SPLINESEGS
 70
     8
  9
$HANDSEED
  5
199
  9
$SURFTAB1
 70
     6
  9
$SURFTAB2
 70
     6
  9
$SURFTYPE
 70
     6
  9
$SURFU
 70
     6
  9
$SURFV
 70
     6
  9
$UCSBASE
  2

  9
$UCSNAME
  2

  9
$UCSORG
 10
0.0
 20
0.0
 30
0.0
  9
$UCSXDIR
 10
1.0
 20
0.0
 30
0.0
  9
$UCSYDIR
 10
0.0
 20
1.0
 30
0.0
  9
$UCSORTHOREF
  2

  9
$UCSORTHOVIEW
 70
     0
  9
$UCSORGTOP
 10
0.0
 20
0.0
 30
0.0
  9
$UCSORGBOTTOM
 10
0.0
 20
0.0
 30
0.0
  9
$UCSORGLEFT
 10
0.0
 20
0.0
 30
0.0
  9
$UCSORGRIGHT
 10
0.0
 20
0.0
 30
0.0
  9
$UCSORGFRONT
 10
0.0
 20
0.0
 30
0.0
  9
$UCSORGBACK
 10
0.0
 20
0.0
 30
0.0
  9
$PUCSBASE
  2

  9
$PUCSNAME
  2

  9
$PUCSORG
 10
0.0
 20
0.0
 30
0.0
  9
$PUCSXDIR
 10
1.0
 20
0.0
 30
0.0
  9
$PUCSYDIR
 10
0.0
 20
1.0
 30
0.0
  9
$PUCSORTHOREF
  2

  9
$PUCSORTHOVIEW
 70
     0
  9
$PUCSORGTOP
 10
0.0
 20
0.0
 30
0.0
  9
$PUCSORGBOTTOM
 10
0.0
 20
0.0
 30
0.0
  9
$PUCSORGLEFT
 10
0.0
 20
0.0
 30
0.0
  9
$PUCSORGRIGHT
 10
0.0
 20
0.0
 30
0.0
  9
$PUCSORGFRONT
 10
0.0
 20
0.0
 30
0.0
  9
$PUCSORGBACK
 10
0.0
 20
0.0
 30
0.0
  9
$USERI1
 70
     0
  9
$USERI2
 70
     0
  9
$USERI3
 70
     0
  9
$USERI4
 70
     0
  9
$USERI5
 70
     0
  9
$USERR1
 40
0.0
  9
$USERR2
 40
0.0
  9
$USERR3
 40
0.0
  9
$USERR4
 40
0.0
  9
$USERR5
 40
0.0
  9
$WORLDVIEW
 70
     1
  9
$SHADEDGE
 70
     3
  9
$SHADEDIF
 70
    70
  9
$TILEMODE
 70
     1
  9
$MAXACTVP
 70
    64
  9
$PINSBASE
 10
0.0
 20
0.0
 30
0.0
  9
$PLIMCHECK
 70
     0
  9
$PEXTMIN
 10
1.0000000000E+20
 20
1.0000000000E+20
 30
1.0000000000E+20
  9
$PEXTMAX
 10
-1.0000000000E+20
 20
-1.0000000000E+20
 30
-1.0000000000E+20
  9
$PLIMMIN
 10
0.0
 20
0.0
  9
$PLIMMAX
 10
420.0
 20
297.0
  9
$UNITMODE
 70
     0
  9
$VISRETAIN
 70
     1
  9
$PLINEGEN
 70
     0
  9
$PSLTSCALE
 70
     1
  9
$TREEDEPTH
 70
  3020
  9
$CMLSTYLE
  2
Standard
  9
$CMLJUST
 70
     0
  9
$CMLSCALE
 40
20.0
  9
$PROXYGRAPHICS
 70
     1
  9
$MEASUREMENT
 70
     1
  9
$CELWEIGHT
370
    -1
  9
$ENDCAPS
280
     0
  9
$JOINSTYLE
280
     0
  9
$LWDISPLAY
290
     1
  9
$INSUNITS
 70
     4
  9
$HYPERLINKBASE
  1

  9
$STYLESHEET
  1

  9
$XEDIT
290
     1
  9
$CEPSNTYPE
380
     0
  9
$PSTYLEMODE
290
     1
  9
$FINGERPRINTGUID
  2
{75874CFD-E9C0-425F-884C-C6854D086148}
  9
$VERSIONGUID
  2
{FAEB1C32-E019-11D5-929B-00C0DF256EC4}
  9
$EXTNAMES
290
     1
  9
$PSVPSCALE
 40
0.0
  9
$OLESTARTUP
290
     0
  0
ENDSEC
  0
SECTION
  2
CLASSES
  0
CLASS
  1
ACDBDICTIONARYWDFLT
  2
AcDbDictionaryWithDefault
  3
ObjectDBX Classes
 90
        0
280
     0
281
     0
  0
CLASS
  1
VISUALSTYLE
  2
AcDbVisualStyle
  3
ObjectDBX Classes
 90
     4095
280
     0
281
     0
  0
CLASS
  1
MATERIAL
  2
AcDbMaterial
  3
ObjectDBX Classes
 90
     1153
280
     0
281
     0
  0
CLASS
  1
SCALE
  2
AcDbScale
  3
ObjectDBX Classes
 90
     1153
280
     0
281
     0
  0
CLASS
  1
TABLESTYLE
  2
AcDbTableStyle
  3
ObjectDBX Classes
 90
     4095
280
     0
281
     0
  0
CLASS
  1
MLEADERSTYLE
  2
AcDbMLeaderStyle
  3
ACDB_MLEADERSTYLE_CLASS
 90
     4095
280
     0
281
     0
  0
CLASS
  1
SUN
  2
AcDbSun
  3
SCENEOE
 90
     1153
280
     0
281
     0
  0
CLASS
  1
ACDBPLACEHOLDER
  2
AcDbPlaceHolder
  3
ObjectDBX Classes
 90
        0
280
     0
281
     0
  0
CLASS
  1
LAYOUT
  2
AcDbLayout
  3
ObjectDBX Classes
 90
        0
280
     0
281
     0
  0
ENDSEC
  0
SECTION
  2
TABLES
  0
TABLE
  2
VPORT
  5
8
330
0
100
AcDbSymbolTable
 70
     1
  0
VPORT
  5
29
330
8
100
AcDbSymbolTableRecord
100
AcDbViewportTableRecord
  2
*Active
 70
     0
 10
0.0
 20
0.0
 11
1.0
 21
1.0
 12
525.0
 22
742.5
 13
0.0
 23
0.0
 14
10.0
 24
10.0
 15
10.0
 25
10.0
 16
0.0
 26
0.0
 36
1.0
 17
0.0
 27
0.0
 37
0.0
 40
1485.0
 41
0.7070707071
 42
50.0
 43
0.0
 44
0.0
 50
0.0
 51
0.0
 71
     0
 72
  2000
 73
     1
 74
     3
 75
     0
 76
     0
 77
     0
 78
     0
281
     0
 65
     1
110
0.0
120
0.0
130
0.0
111
1.0
121
0.0
131
0.0
112
0.0
122
1.0
132
0.0
 79
     0
146
0.0
  0
ENDTAB
  0
TABLE
  2
LTYPE
  5
5
330
0
100
AcDbSymbolTable
 70
     8
  0
LTYPE
  5
14
330
5
100
AcDbSymbolTableRecord
100
AcDbLinetypeTableRecord
  2
ByBlock
 70
     0
  3

 72
    65
 73
     0
 40
0.0
  0
LTYPE
  5
15
330
5
100
AcDbSymbolTableRecord
100
AcDbLinetypeTableRecord
  2
ByLayer
 70
     0
  3

 72
    65
 73
     0
 40
0.0
  0
LTYPE
  5
16
330
5
100
AcDbSymbolTableRecord
100
AcDbLinetypeTableRecord
  2
Continuous
 70
     0
  3
Solid line
 72
    65
 73
     0
 40
0.0
  0
LTYPE
  5
6E
330
5
100
AcDbSymbolTableRecord
100
AcDbLinetypeTableRecord
  2
SLD-実線
 70
     0
  3
SolidWorks Line Style
 72
    65
 73
     0
 40
0.0
  0
LTYPE
  5
6F
330
5
100
AcDbSymbolTableRecord
100
AcDbLinetypeTableRecord
  2
SLD-破線
 70
     0
  3
SolidWorks Line Style
 72
    65
 73
     2
 40
1.905
 49
1.27
 74
     0
 49
-0.635
 74
     0
  0
LTYPE
  5
70
330
5
100
AcDbSymbolTableRecord
100
AcDbLinetypeTableRecord
  2
SLD-2点鎖線
 70
     0
  3
SolidWorks Line Style
 72
    65
 73
     6
 40
12.7
 49
6.35
 74
     0
 49
-1.27
 74
     0
 49
1.27
 74
     0
 49
-1.27
 74
     0
 49
1.27
 74
     0
 49
-1.27
 74
     0
  0
LTYPE
  5
71
330
5
100
AcDbSymbolTableRecord
100
AcDbLinetypeTableRecord
  2
SLD-鎖線
 70
     0
  3
SolidWorks Line Style
 72
    65
 73
     4
 40
10.16
 49
6.35
 74
     0
 49
-1.27
 74
     0
 49
1.27
 74
     0
 49
-1.27
 74
     0
  0
LTYPE
  5
72
330
5
100
AcDbSymbolTableRecord
100
AcDbLinetypeTableRecord
  2
SLD-1点鎖線(中心線)
 70
     0
  3
SolidWorks Line Style
 72
    65
 73
     4
 40
34.29
 49
30.48
 74
     0
 49
-1.27
 74
     0
 49
1.27
 74
     0
 49
-1.27
 74
     0
  0
LTYPE
  5
73
330
5
100
AcDbSymbolTableRecord
100
AcDbLinetypeTableRecord
  2
SLD-点線
 70
     0
  3
SolidWorks Line Style
 72
    65
 73
     2
 40
0.635
 49
0.0
 74
     0
 49
-0.635
 74
     0
  0
LTYPE
  5
74
330
5
100
AcDbSymbolTableRecord
100
AcDbLinetypeTableRecord
  2
SLD-細-太鎖線(切断面)
 70
     0
  3
SolidWorks Line Style
 72
    65
 73
     4
 40
10.16
 49
6.35
 74
     0
 49
-1.27
 74
     0
 49
1.27
 74
     0
 49
-1.27
 74
     0
  0
ENDTAB
  0
TABLE
  2
LAYER
  5
2
330
0
100
AcDbSymbolTable
 70
     1
  0
LAYER
  5
10
330
2
100
AcDbSymbolTableRecord
100
AcDbLayerTableRecord
  2
0
 70
     0
 62
     7
  6
Continuous
370
    -3
390
F
  0
ENDTAB
  0
TABLE
  2
STYLE
  5
3
330
0
100
AcDbSymbolTable
 70
     2
  0
STYLE
  5
11
330
3
100
AcDbSymbolTableRecord
100
AcDbTextStyleTableRecord
  2
STANDARD
 70
     0
 40
0.0
 41
1.0
 50
0.0
 71
     0
 42
17.5
  3
MSGOTHIC.TTC
  4

1001
ACAD
1000
ＭＳ Ｐゴシック
1071
    32818
  0
STYLE
  5
78
330
3
100
AcDbSymbolTableRecord
100
AcDbTextStyleTableRecord
  2
SLDTEXTSTYLE0
 70
     0
 40
0.0
 41
1.0
 50
0.0
 71
     0
 42
17.5
  3
MSGOTHIC.TTC
  4

1001
ACAD
1000
ＭＳ Ｐゴシック
1071
      306
  0
ENDTAB
  0
TABLE
  2
VIEW
  5
6
330
0
100
AcDbSymbolTable
 70
     0
  0
ENDTAB
  0
TABLE
  2
UCS
  5
7
330
0
100
AcDbSymbolTable
 70
     0
  0
ENDTAB
  0
TABLE
  2
APPID
  5
9
330
0
100
AcDbSymbolTable
 70
     1
  0
APPID
  5
12
330
9
100
AcDbSymbolTableRecord
100
AcDbRegAppTableRecord
  2
ACAD
 70
     0
  0
ENDTAB
  0
TABLE
  2
DIMSTYLE
  5
A
330
0
100
AcDbSymbolTable
 70
     1
100
AcDbDimStyleTable
  0
DIMSTYLE
105
27
330
A
100
AcDbSymbolTableRecord
100
AcDbDimStyleTableRecord
  2
ISO-25
 70
     0
 41
2.5
 42
0.625
 43
3.75
 44
1.25
 73
     0
 74
     0
 77
     1
 78
     8
140
2.5
141
2.5
143
0.0393700787
147
0.625
171
     3
172
     1
178
     0
271
     2
272
     2
274
     3
278
    44
283
     0
284
     8
340
11
  0
ENDTAB
  0
TABLE
  2
BLOCK_RECORD
  5
1
330
0
100
AcDbSymbolTable
 70
     2
  0
BLOCK_RECORD
  5
1F
330
1
100
AcDbSymbolTableRecord
100
AcDbBlockTableRecord
  2
*Model_Space
340
22
  0
BLOCK_RECORD
  5
1B
330
1
100
AcDbSymbolTableRecord
100
AcDbBlockTableRecord
  2
*Paper_Space
340
1E
  0
BLOCK_RECORD
  5
23
330
1
100
AcDbSymbolTableRecord
100
AcDbBlockTableRecord
  2
*Paper_Space0
340
26
  0
BLOCK_RECORD
  5
75
330
1
100
AcDbSymbolTableRecord
100
AcDbBlockTableRecord
  2
SW_NOTE_0
340
0
102
{BLKREFS
331
7C
102
}
  0
ENDTAB
  0
ENDSEC
  0
SECTION
  2
BLOCKS
  0
BLOCK
  5
20
330
1F
100
AcDbEntity
  8
0
100
AcDbBlockBegin
  2
*Model_Space
 70
     0
 10
0.0
 20
0.0
 30
0.0
  3
*Model_Space
  1

  0
ENDBLK
  5
21
330
1F
100
AcDbEntity
  8
0
100
AcDbBlockEnd
  0
BLOCK
  5
1C
330
1B
100
AcDbEntity
 67
     1
  8
0
100
AcDbBlockBegin
  2
*Paper_Space
 70
     0
 10
0.0
 20
0.0
 30
0.0
  3
*Paper_Space
  1

  0
ENDBLK
  5
1D
330
1B
100
AcDbEntity
 67
     1
  8
0
100
AcDbBlockEnd
  0
BLOCK
  5
24
330
23
100
AcDbEntity
  8
0
100
AcDbBlockBegin
  2
*Paper_Space0
 70
     0
 10
0.0
 20
0.0
 30
0.0
  3
*Paper_Space0
  1

  0
ENDBLK
  5
25
330
23
100
AcDbEntity
  8
0
100
AcDbBlockEnd
  0
BLOCK
  5
76
330
75
100
AcDbEntity
  8
0
100
AcDbBlockBegin
  2
SW_NOTE_0
 70
     0
 10
0.0
 20
0.0
 30
0.0
  3
SW_NOTE_0
  1

  0
MTEXT
  5
79
330
75
100
AcDbEntity
  8
0
  6
Continuous
 62
     0
370
     0
100
AcDbMText
 10
0.0
 20
20.3636363636
 30
0.0
 40
17.5
 41
0.0
 71
     1
 72
     1
  1
HBD-B24S
  7
SLDTEXTSTYLE0
 73
     1
 44
1.0
  0
MTEXT
  5
7A
330
75
100
AcDbEntity
  8
0
  6
Continuous
 62
     0
370
     0
100
AcDbMText
 10
0.0
 20
-2.1363626678
 30
0.0
 40
17.5
 41
0.0
 71
     1
 72
     1
  1
HBD-D24S
  7
SLDTEXTSTYLE0
 73
     1
 44
1.0
  0
MTEXT
  5
7B
330
75
100
AcDbEntity
  8
0
  6
Continuous
 62
     0
370
     0
100
AcDbMText
 10
0.0
 20
-24.6363616992
 30
0.0
 40
17.5
 41
0.0
 71
     1
 72
     1
  1
HBD-W24S
  7
SLDTEXTSTYLE0
 73
     1
 44
1.0
  0
ENDBLK
  5
77
330
75
100
AcDbEntity
  8
0
100
AcDbBlockEnd
  0
ENDSEC
  0
SECTION
  2
ENTITIES
  0
INSERT
  5
7C
330
1F
100
AcDbEntity
  8
0
  6
Continuous
 62
     7
370
     0
100
AcDbBlockReference
  2
SW_NOTE_0
 10
792.5590210275
 20
420.0475964028
 30
0.0
  0
LINE
  5
7D
330
1F
100
AcDbEntity
  8
0
  6
SLD-実線
 62
     7
370
    25
100
AcDbLine
 10
475.3495235091
 20
627.0047081818
 30
0.0
 11
474.9174593761
 21
626.5830003425
 31
0.0
  0
LINE
  5
7E
330
1F
100
AcDbEntity
  8
0
  6
SLD-実線
 62
     7
370
    25
100
AcDbLine
 10
759.3870050066
 20
571.3913813519
 30
0.0
 11
753.1035691897
 21
879.9356065558
 31
0.0
  0
LINE
  5
7F
330
1F
100
AcDbEntity
  8
0
  6
SLD-実線
 62
     7
370
    25
100
AcDbLine
 10
752.5868259885
 20
905.3099614902
 30
0.0
 11
752.4267999162
 21
913.1679426855
 31
0.0
  0
LINE
  5
80
330
1F
100
AcDbEntity
  8
0
  6
SLD-実線
 62
     7
370
    25
100
AcDbLine
 10
462.6972499532
 20
994.0038616188
 30
0.0
 11
461.339420834
 21
1060.6792197787
 31
0.0
  0
LINE
  5
81
330
1F
100
AcDbEntity
  8
0
  6
SLD-実線
 62
     7
370
    25
100
AcDbLine
 10
305.6156570087
 20
1060.6792197787
 30
0.0
 11
297.2547490772
 21
650.1220127196
 31
0.0
  0
SPLINE
  5
82
330
1F
100
AcDbEntity
  8
0
  6
SLD-実線
 62
     7
370
    25
100
AcDbSpline
210
0.0
220
0.0
230
1.0
 70
     8
 71
     3
 72
    16
 73
    12
 74
     0
 42
0.000000001
 43
0.00000001
 40
0.0
 40
0.0
 40
0.0
 40
0.0
 40
0.0362686971235605
 40
0.172139127179797
 40
0.3083653148336121
 40
0.4447586843231088
 40
0.5811853225329751
 40
0.7175690653379815
 40
0.8538864909395519
 40
0.9829476058545458
 40
0.9999999999999999
 40
0.9999999999999999
 40
0.9999999999999999
 40
0.9999999999999999
 10
744.9602869533048
 20
930.2852173851365
 30
0.0
 10
744.711032856869
 20
930.5878620541242
 30
0.0
 10
743.5280186873692
 20
932.0242794966274
 30
0.0
 10
740.8489064703069
 20
934.4423362759886
 30
0.0
 10
736.9351191780113
 20
937.5077260153608
 30
0.0
 10
732.4719593984014
 20
940.362846581404
 30
0.0
 10
727.5530252939226
 20
942.9995797677609
 30
0.0
 10
722.2044095920585
 20
945.3941712078689
 30
0.0
 10
716.5727451383938
 20
947.4906589780156
 30
0.0
 10
712.3868251130991
 20
948.7836602418099
 30
0.0
 10
710.1619420564082
 20
949.3936280961832
 30
0.0
 10
709.9022837739249
 20
949.464815300814
 30
0.0
  0
LINE
  5
83
330
1F
100
AcDbEntity
  8
0
  6
SLD-実線
 62
     7
370
    25
100
AcDbLine
 10
709.9022837739
 20
949.4648153008
 30
0.0
 11
587.1693987078
 21
982.8209836142
 31
0.0
  0
LINE
  5
84
330
1F
100
AcDbEntity
  8
0
  6
SLD-実線
 62
     7
370
    25
100
AcDbLine
 10
581.4933750118
 20
984.3636052323
 30
0.0
 11
548.4761058844
 21
993.3369915066
 31
0.0
  0
LINE
  5
85
330
1F
100
AcDbEntity
  8
0
  6
SLD-実線
 62
     7
370
    25
100
AcDbLine
 10
752.8900416949
 20
610.6494441333
 30
0.0
 11
749.5443128384
 21
611.5021410586
 31
0.0
  0
LINE
  5
86
330
1F
100
AcDbEntity
  8
0
  6
SLD-実線
 62
     7
370
    25
100
AcDbLine
 10
542.8000821884
 20
994.8796131247
 30
0.0
 11
462.2335027051
 21
1016.7758830953
 31
0.0
  0
SPLINE
  5
87
330
1F
100
AcDbEntity
  8
0
  6
SLD-実線
 62
     7
370
    25
100
AcDbSpline
210
0.0
220
0.0
230
1.0
 70
     8
 71
     3
 72
    20
 73
    16
 74
     0
 42
0.000000001
 43
0.00000001
 40
0.0
 40
0.0
 40
0.0
 40
0.0
 40
0.0779977991362745
 40
0.1685103196544624
 40
0.2581649586984728
 40
0.3468798608229968
 40
0.4345962968878797
 40
0.5211855792353325
 40
0.606318575216904
 40
0.6891421970290024
 40
0.7671133330354312
 40
0.8348006139863253
 40
0.8876121204018614
 40
0.9486061904089395
 40
1.0
 40
1.0
 40
1.0
 40
1.0
 10
453.0209953895334
 20
1104.443717232906
 30
0.0
 10
451.6459117933776
 20
1105.429939488894
 30
0.0
 10
448.6751128874372
 20
1107.560623039549
 30
0.0
 10
443.6812261726213
 20
1110.421945129401
 30
0.0
 10
438.1810824340513
 20
1113.133013820592
 30
0.0
 10
432.418840521762
 20
1115.514055159332
 30
0.0
 10
426.4474462319096
 20
1117.584460404046
 30
0.0
 10
420.3131884398755
 20
1119.345221028173
 30
0.0
 10
414.0892748235852
 20
1120.797757132724
 30
0.0
 10
407.9123717456397
 20
1121.937217674872
 30
0.0
 10
402.0565935468703
 20
1122.757575870072
 30
0.0
 10
396.9001568354681
 20
1123.281601299857
 30
0.0
 10
392.1473835942173
 20
1123.614090541971
 30
0.0
 10
387.7986343539333
 20
1123.800987873407
 30
0.0
 10
384.833475332706
 20
1123.823414872872
 30
0.0
 10
383.4775389213326
 20
1123.833670506703
 30
0.0
  0
LINE
  5
88
330
1F
100
AcDbEntity
  8
0
  6
SLD-実線
 62
     7
370
    25
100
AcDbLine
 10
453.7843979561
 20
1103.914564075
 30
0.0
 11
453.0209953895
 21
1104.4437172329
 31
0.0
  0
LINE
  5
89
330
1F
100
AcDbEntity
  8
0
  6
SLD-実線
 62
     7
370
    25
100
AcDbLine
 10
314.1197029628
 20
1104.6049975332
 30
0.0
 11
313.1706798866
 21
1103.914564075
 31
0.0
  0
SPLINE
  5
8A
330
1F
100
AcDbEntity
  8
0
  6
SLD-実線
 62
     7
370
    25
100
AcDbSpline
210
0.0
220
0.0
230
1.0
 70
     8
 71
     3
 72
    21
 73
    17
 74
     0
 42
0.000000001
 43
0.00000001
 40
0.0
 40
0.0
 40
0.0
 40
0.0
 40
0.0948613959891751
 40
0.1337949395433063
 40
0.1982575069543437
 40
0.2650650232964659
 40
0.3366056168802053
 40
0.4111074181101096
 40
0.4878896167497497
 40
0.5664253139217312
 40
0.6463633515626686
 40
0.7274603589348365
 40
0.8095385143881795
 40
0.8924423199867233
 40
0.9759793402162403
 40
1.0
 40
1.0
 40
1.0
 40
1.0
 10
383.4775389213326
 20
1123.833670506703
 30
0.0
 10
380.9835459580881
 20
1123.801282563693
 30
0.0
 10
377.4659544841359
 20
1123.755601780359
 30
0.0
 10
372.2819789749606
 20
1123.449391318048
 30
0.0
 10
367.8551245776665
 20
1123.079659675897
 30
0.0
 10
362.6350487661119
 20
1122.461905370004
 30
0.0
 10
357.2361866940081
 20
1121.623949969893
 30
0.0
 10
351.6948243510288
 20
1120.53805997457
 30
0.0
 10
346.1210433349575
 20
1119.19833363612
 30
0.0
 10
340.5880556481002
 20
1117.598880733663
 30
0.0
 10
335.1558942475299
 20
1115.736252215029
 30
0.0
 10
329.8745102124169
 20
1113.606198750577
 30
0.0
 10
324.7822102706713
 20
1111.207033388249
 30
0.0
 10
319.9266704452348
 20
1108.522048129194
 30
0.0
 10
316.4049338884618
 20
1106.285648432928
 30
0.0
 10
314.5368898240623
 20
1104.911813560341
 30
0.0
 10
314.1197029627757
 20
1104.604997533169
 30
0.0
  0
LINE
  5
8B
330
1F
100
AcDbEntity
  8
0
  6
SLD-実線
 62
     7
370
    25
100
AcDbLine
 10
298.4775389213
 20
1079.3113425534
 30
0.0
 11
298.4775389213
 21
1078.2398834275
 31
0.0
  0
LINE
  5
8C
330
1F
100
AcDbEntity
  8
0
  6
SLD-実線
 62
     7
370
    25
100
AcDbLine
 10
468.4775389213
 20
1078.2398834275
 30
0.0
 11
468.4775389213
 21
1079.3113425534
 31
0.0
  0
LINE
  5
8D
330
1F
100
AcDbEntity
  8
0
  6
SLD-実線
 62
     7
370
    25
100
AcDbLine
 10
442.7275389213
 20
1083.5971790569
 30
0.0
 11
442.7275389213
 21
1084.6686381828
 31
0.0
  0
LINE
  5
8E
330
1F
100
AcDbEntity
  8
0
  6
SLD-実線
 62
     7
370
    25
100
AcDbLine
 10
324.2275389213
 20
1084.6686381828
 30
0.0
 11
324.2275389213
 21
1083.5971790569
 31
0.0
  0
LINE
  5
8F
330
1F
100
AcDbEntity
  8
0
  6
SLD-実線
 62
     7
370
    25
100
AcDbLine
 10
511.0948090071
 20
576.3496487235
 30
0.0
 11
508.4847432777
 21
575.6709918721
 31
0.0
  0
LINE
  5
90
330
1F
100
AcDbEntity
  8
0
  6
SLD-実線
 62
     7
370
    25
100
AcDbLine
 10
508.4847432777
 20
575.6709918721
 30
0.0
 11
508.3929130037
 21
581.0167673232
 31
0.0
  0
LINE
  5
91
330
1F
100
AcDbEntity
  8
0
  6
SLD-実線
 62
     7
370
    25
100
AcDbLine
 10
508.3929130037
 20
581.0167673232
 30
0.0
 11
511.0475345153
 21
579.1016694519
 31
0.0
  0
LINE
  5
92
330
1F
100
AcDbEntity
  8
0
  6
SLD-実線
 62
     7
370
    25
100
AcDbLine
 10
510.718729626
 20
598.2426022567
 30
0.0
 11
508.1086638966
 21
597.5639454053
 31
0.0
  0
LINE
  5
93
330
1F
100
AcDbEntity
  8
0
  6
SLD-実線
 62
     7
370
    25
100
AcDbLine
 10
508.1086638966
 20
597.5639454053
 30
0.0
 11
508.0202824219
 21
602.708953659
 31
0.0
  0
LINE
  5
94
330
1F
100
AcDbEntity
  8
0
  6
SLD-実線
 62
     7
370
    25
100
AcDbLine
 10
508.0202824219
 20
602.708953659
 30
0.0
 11
510.6749039335
 21
600.7938557877
 31
0.0
  0
LINE
  5
95
330
1F
100
AcDbEntity
  8
0
  6
SLD-実線
 62
     7
370
    25
100
AcDbLine
 10
504.1044213106
 20
623.3259824314
 30
0.0
 11
503.5872175037
 21
621.660463071
 31
0.0
  0
ELLIPSE
  5
96
330
1F
100
AcDbEntity
  8
0
  6
SLD-実線
 62
     7
370
    25
100
AcDbEllipse
 10
490.2162039735
 20
613.8150350929
 30
0.0
 11
-13.7267943738479
 21
14.54959721231421
 31
0.0
210
0.0
220
0.0
230
1.0
 40
0.7669934716
 41
4.538074353946612
 42
4.845848902658812
  0
LINE
  5
97
330
1F
100
AcDbEntity
  8
0
  6
SLD-実線
 62
     7
370
    25
100
AcDbLine
 10
499.4498705966
 20
626.1858014972
 30
0.0
 11
501.2193317494
 21
626.4679434748
 31
0.0
  0
LINE
  5
98
330
1F
100
AcDbEntity
  8
0
  6
SLD-実線
 62
     7
370
    25
100
AcDbLine
 10
477.4710544461
 20
633.8073145509
 30
0.0
 11
481.2620558661
 21
631.1288598232
 31
0.0
  0
ELLIPSE
  5
99
330
1F
100
AcDbEntity
  8
0
  6
SLD-実線
 62
     7
370
    25
100
AcDbEllipse
 10
490.2162039735
 20
613.8150350929
 30
0.0
 11
-13.7267943738479
 21
14.54959721231421
 31
0.0
210
0.0
220
0.0
230
1.0
 40
0.7669934716
 41
5.925704894577025
 42
6.233479443290804
  0
LINE
  5
9A
330
1F
100
AcDbEntity
  8
0
  6
SLD-実線
 62
     7
370
    25
100
AcDbLine
 10
477.0608248445
 20
628.8697682039
 30
0.0
 11
475.962071326
 21
633.2746017512
 31
0.0
  0
ELLIPSE
  5
9B
330
1F
100
AcDbEntity
  8
0
  6
SLD-実線
 62
     7
370
    25
100
AcDbEllipse
 10
490.2199338573
 20
614.2111450831
 30
0.0
 11
-16.84280253279951
 21
17.85238316424818
 31
0.0
210
0.0
220
0.0
230
1.0
 40
0.7669934716
 41
0.0347129838928151
 42
0.6380454244415004
  0
LINE
  5
9C
330
1F
100
AcDbEntity
  8
0
  6
SLD-実線
 62
     7
370
    25
100
AcDbLine
 10
468.535046659
 20
620.8567828984
 30
0.0
 11
468.1132692632
 21
611.6905612232
 31
0.0
  0
LINE
  5
9D
330
1F
100
AcDbEntity
  8
0
  6
SLD-実線
 62
     7
370
    25
100
AcDbLine
 10
468.1132692632
 20
611.6905612232
 30
0.0
 11
470.9443763396
 21
612.1834489445
 31
0.0
  0
LINE
  5
9E
330
1F
100
AcDbEntity
  8
0
  6
SLD-実線
 62
     7
370
    25
100
AcDbLine
 10
470.4699193651
 20
608.6742385818
 30
0.0
 11
468.0640290803
 21
610.6204554377
 31
0.0
  0
LINE
  5
9F
330
1F
100
AcDbEntity
  8
0
  6
SLD-実線
 62
     7
370
    25
100
AcDbLine
 10
468.0640290803
 20
610.6204554377
 30
0.0
 11
467.1278502305
 21
590.2750719478
 31
0.0
  0
LINE
  5
A0
330
1F
100
AcDbEntity
  8
0
  6
SLD-実線
 62
     7
370
    25
100
AcDbLine
 10
467.1278502305
 20
590.2750719478
 30
0.0
 11
469.9589573069
 21
590.7679596691
 31
0.0
  0
LINE
  5
A1
330
1F
100
AcDbEntity
  8
0
  6
SLD-実線
 62
     7
370
    25
100
AcDbLine
 10
469.6845118967
 20
587.0969522867
 30
0.0
 11
467.0786100476
 21
589.2049661623
 31
0.0
  0
LINE
  5
A2
330
1F
100
AcDbEntity
  8
0
  6
SLD-実線
 62
     7
370
    25
100
AcDbLine
 10
467.0786100476
 20
589.2049661623
 30
0.0
 11
466.8109644333
 21
583.3883931185
 31
0.0
  0
LINE
  5
A3
330
1F
100
AcDbEntity
  8
0
  6
SLD-実線
 62
     7
370
    25
100
AcDbLine
 10
466.7722798571
 20
583.3995773346
 30
0.0
 11
466.8109644333
 21
583.3883931185
 31
0.0
  0
LINE
  5
A4
330
1F
100
AcDbEntity
  8
0
  6
SLD-実線
 62
     7
370
    25
100
AcDbLine
 10
469.6476452449
 20
584.0024113055
 30
0.0
 11
469.5740387825
 21
584.0619543938
 31
0.0
  0
LINE
  5
A5
330
1F
100
AcDbEntity
  8
0
  6
SLD-実線
 62
     7
370
    25
100
AcDbLine
 10
469.76581793
 20
589.3306508812
 30
0.0
 11
469.5740387825
 21
584.0619543938
 31
0.0
  0
LINE
  5
A6
330
1F
100
AcDbEntity
  8
0
  6
SLD-実線
 62
     7
370
    25
100
AcDbLine
 10
469.76581793
 20
589.3306508812
 30
0.0
 11
469.8938461592
 21
589.3529402332
 31
0.0
  0
LINE
  5
A7
330
1F
100
AcDbEntity
  8
0
  6
SLD-実線
 62
     7
370
    25
100
AcDbLine
 10
469.8938461592
 20
589.3529402332
 30
0.0
 11
470.6330642776
 21
605.4179005809
 31
0.0
  0
LINE
  5
A8
330
1F
100
AcDbEntity
  8
0
  6
SLD-実線
 62
     7
370
    25
100
AcDbLine
 10
470.6330642776
 20
605.4179005809
 30
0.0
 11
470.3594462509
 21
605.639240689
 31
0.0
  0
LINE
  5
A9
330
1F
100
AcDbEntity
  8
0
  6
SLD-実線
 62
     7
370
    25
100
AcDbLine
 10
470.5440228957
 20
610.7100647746
 30
0.0
 11
470.3594462509
 21
605.639240689
 31
0.0
  0
LINE
  5
AA
330
1F
100
AcDbEntity
  8
0
  6
SLD-実線
 62
     7
370
    25
100
AcDbLine
 10
470.5440228957
 20
610.7100647746
 30
0.0
 11
470.8792651919
 21
610.7684295086
 31
0.0
  0
LINE
  5
AB
330
1F
100
AcDbEntity
  8
0
  6
SLD-実線
 62
     7
370
    25
100
AcDbLine
 10
470.8792651919
 20
610.7684295086
 30
0.0
 11
471.202562222
 21
617.7944396127
 31
0.0
  0
ELLIPSE
  5
AC
330
1F
100
AcDbEntity
  8
0
  6
SLD-実線
 62
     7
370
    25
100
AcDbEllipse
 10
488.4695595584
 20
612.5027261071
 30
0.0
 11
-13.41139678571272
 21
14.21529426115728
 31
0.0
210
0.0
220
0.0
230
1.0
 40
0.7669934716
 41
6.256501390440944
 42
6.921230731621371
  0
LINE
  5
AD
330
1F
100
AcDbEntity
  8
0
  6
SLD-実線
 62
     7
370
    25
100
AcDbLine
 10
475.353838388
 20
626.9874101045
 30
0.0
 11
475.3104505456
 21
627.1613492279
 31
0.0
  0
ELLIPSE
  5
AE
330
1F
100
AcDbEntity
  8
0
  6
SLD-実線
 62
     7
370
    25
100
AcDbEllipse
 10
488.4658296745
 20
612.1066161169
 30
0.0
 11
-13.72679437384795
 21
14.54959721231421
 31
0.0
210
0.0
220
0.0
230
1.0
 40
0.7669934716
 41
5.925704894577028
 42
6.233479443290804
  0
LINE
  5
AF
330
1F
100
AcDbEntity
  8
0
  6
SLD-実線
 62
     7
370
    25
100
AcDbLine
 10
479.5116815671
 20
629.4204408472
 30
0.0
 11
479.5785144738
 21
629.3732214202
 31
0.0
  0
ELLIPSE
  5
B0
330
1F
100
AcDbEntity
  8
0
  6
SLD-実線
 62
     7
370
    25
100
AcDbEllipse
 10
488.4695595584
 20
612.5027261071
 30
0.0
 11
-13.41139678571272
 21
14.21529426115728
 31
0.0
210
0.0
220
0.0
230
1.0
 40
0.7669934716
 41
4.836253197624112
 42
5.935300599610556
  0
LINE
  5
B1
330
1F
100
AcDbEntity
  8
0
  6
SLD-実線
 62
     7
370
    25
100
AcDbLine
 10
497.6321175947
 20
624.4666389339
 30
0.0
 11
497.6994962976
 21
624.4773825212
 31
0.0
  0
ELLIPSE
  5
B2
330
1F
100
AcDbEntity
  8
0
  6
SLD-実線
 62
     7
370
    25
100
AcDbEllipse
 10
488.4658296745
 20
612.1066161169
 30
0.0
 11
-13.72679437384795
 21
14.54959721231421
 31
0.0
210
0.0
220
0.0
230
1.0
 40
0.7669934716
 41
4.538074353946605
 42
4.845848902658812
  0
LINE
  5
B3
330
1F
100
AcDbEntity
  8
0
  6
SLD-実線
 62
     7
370
    25
100
AcDbLine
 10
501.8368432048
 20
619.952044095
 30
0.0
 11
501.7904095085
 21
619.8025165411
 31
0.0
  0
ELLIPSE
  5
B4
330
1F
100
AcDbEntity
  8
0
  6
SLD-実線
 62
     7
370
    25
100
AcDbEllipse
 10
488.4695595584
 20
612.5027261071
 30
0.0
 11
-13.41139678571272
 21
14.21529426115728
 31
0.0
210
0.0
220
0.0
230
1.0
 40
0.7669934716
 41
3.85032306561386
 42
4.515052406793728
  0
LINE
  5
B5
330
1F
100
AcDbEntity
  8
0
  6
SLD-実線
 62
     7
370
    25
100
AcDbLine
 10
505.747807184
 20
608.4057822471
 30
0.0
 11
505.9374736653
 21
601.2403596521
 31
0.0
  0
LINE
  5
B6
330
1F
100
AcDbEntity
  8
0
  6
SLD-実線
 62
     7
370
    25
100
AcDbLine
 10
505.9374736653
 20
601.2403596521
 30
0.0
 11
506.2699081229
 21
601.000534683
 31
0.0
  0
LINE
  5
B7
330
1F
100
AcDbEntity
  8
0
  6
SLD-実線
 62
     7
370
    25
100
AcDbLine
 10
506.3582895977
 20
595.8555264293
 30
0.0
 11
506.2699081229
 21
601.000534683
 31
0.0
  0
LINE
  5
B8
330
1F
100
AcDbEntity
  8
0
  6
SLD-実線
 62
     7
370
    25
100
AcDbLine
 10
506.3582895977
 20
595.8555264293
 30
0.0
 11
506.0819106901
 21
595.7836637029
 31
0.0
  0
LINE
  5
B9
330
1F
100
AcDbEntity
  8
0
  6
SLD-実線
 62
     7
370
    25
100
AcDbLine
 10
506.0819106901
 20
595.7836637029
 30
0.0
 11
506.5155827823
 21
579.399936928
 31
0.0
  0
LINE
  5
BA
330
1F
100
AcDbEntity
  8
0
  6
SLD-実線
 62
     7
370
    25
100
AcDbLine
 10
506.5155827823
 20
579.399936928
 30
0.0
 11
506.6425387047
 21
579.3083483472
 31
0.0
  0
LINE
  5
BB
330
1F
100
AcDbEntity
  8
0
  6
SLD-実線
 62
     7
370
    25
100
AcDbLine
 10
506.7343689788
 20
573.9625728961
 30
0.0
 11
506.6425387047
 21
579.3083483472
 31
0.0
  0
LINE
  5
BC
330
1F
100
AcDbEntity
  8
0
  6
SLD-実線
 62
     7
370
    25
100
AcDbLine
 10
506.7343689788
 20
573.9625728961
 30
0.0
 11
506.660019807
 21
573.9432409788
 31
0.0
  0
LINE
  5
BD
330
1F
100
AcDbEntity
  8
0
  6
SLD-実線
 62
     7
370
    25
100
AcDbLine
 10
506.660019807
 20
573.9432409788
 30
0.0
 11
506.8727703402
 21
565.9057244553
 31
0.0
  0
LINE
  5
BE
330
1F
100
AcDbEntity
  8
0
  6
SLD-実線
 62
     7
370
    25
100
AcDbLine
 10
506.8727703402
 20
565.9057244553
 30
0.0
 11
469.2850001689
 21
576.1212749794
 31
0.0
  0
LINE
  5
BF
330
1F
100
AcDbEntity
  8
0
  6
SLD-実線
 62
     7
370
    25
100
AcDbLine
 10
469.2850001689
 20
576.1212749794
 30
0.0
 11
469.6476452449
 21
584.0024113055
 31
0.0
  0
LINE
  5
C0
330
1F
100
AcDbEntity
  8
0
  6
SLD-実線
 62
     7
370
    25
100
AcDbLine
 10
501.7904095085
 20
619.8025165411
 30
0.0
 11
504.6650306287
 21
622.6082348801
 31
0.0
  0
LINE
  5
C1
330
1F
100
AcDbEntity
  8
0
  6
SLD-実線
 62
     7
370
    25
100
AcDbLine
 10
501.8368432048
 20
619.952044095
 30
0.0
 11
503.5872175037
 21
621.660463071
 31
0.0
  0
LINE
  5
C2
330
1F
100
AcDbEntity
  8
0
  6
SLD-実線
 62
     7
370
    25
100
AcDbLine
 10
499.4498705966
 20
626.1858014972
 30
0.0
 11
497.6994962976
 21
624.4773825212
 31
0.0
  0
LINE
  5
C3
330
1F
100
AcDbEntity
  8
0
  6
SLD-実線
 62
     7
370
    25
100
AcDbLine
 10
497.6321175947
 20
624.4666389339
 30
0.0
 11
500.4298860071
 21
627.1973466739
 31
0.0
  0
LINE
  5
C4
330
1F
100
AcDbEntity
  8
0
  6
SLD-実線
 62
     7
370
    25
100
AcDbLine
 10
505.747807184
 20
608.4057822471
 30
0.0
 11
509.2485557819
 21
611.8226201991
 31
0.0
  0
ELLIPSE
  5
C5
330
1F
100
AcDbEntity
  8
0
  6
SLD-実線
 62
     7
370
    25
100
AcDbEllipse
 10
491.9703081563
 20
615.9195640591
 30
0.0
 11
-13.41139678571278
 21
14.21529426115728
 31
0.0
210
0.0
220
0.0
230
1.0
 40
0.7669934716
 41
3.850323065613868
 42
4.043792613584225
  0
LINE
  5
C6
330
1F
100
AcDbEntity
  8
0
  6
SLD-実線
 62
     7
370
    25
100
AcDbLine
 10
479.5785144738
 20
629.3732214202
 30
0.0
 11
483.0792630717
 21
632.7900593722
 31
0.0
  0
ELLIPSE
  5
C7
330
1F
100
AcDbEntity
  8
0
  6
SLD-実線
 62
     7
370
    25
100
AcDbEllipse
 10
491.9703081563
 20
615.9195640591
 30
0.0
 11
-13.41139678571278
 21
14.21529426115728
 31
0.0
210
0.0
220
0.0
230
1.0
 40
0.7669934716
 41
5.490313326491146
 42
5.935300599610552
  0
LINE
  5
C8
330
1F
100
AcDbEntity
  8
0
  6
SLD-実線
 62
     7
370
    25
100
AcDbLine
 10
505.9374736653
 20
601.2403596521
 30
0.0
 11
509.4382222633
 21
604.6571976041
 31
0.0
  0
LINE
  5
C9
330
1F
100
AcDbEntity
  8
0
  6
SLD-実線
 62
     7
370
    25
100
AcDbLine
 10
509.2485557819
 20
611.8226201991
 30
0.0
 11
509.4382222633
 21
604.6571976041
 31
0.0
  0
LINE
  5
CA
330
1F
100
AcDbEntity
  8
0
  6
SLD-実線
 62
     7
370
    25
100
AcDbLine
 10
508.0202824219
 20
602.708953659
 30
0.0
 11
506.2699081229
 21
601.000534683
 31
0.0
  0
LINE
  5
CB
330
1F
100
AcDbEntity
  8
0
  6
SLD-実線
 62
     7
370
    25
100
AcDbLine
 10
509.4382222633
 20
604.6571976041
 30
0.0
 11
510.6232243492
 21
603.8023130331
 31
0.0
  0
LINE
  5
CC
330
1F
100
AcDbEntity
  8
0
  6
SLD-実線
 62
     7
370
    25
100
AcDbLine
 10
479.5116815671
 20
629.4204408472
 30
0.0
 11
481.2620558661
 21
631.1288598232
 31
0.0
  0
LINE
  5
CD
330
1F
100
AcDbEntity
  8
0
  6
SLD-実線
 62
     7
370
    25
100
AcDbLine
 10
480.7282479217
 20
634.4511211725
 30
0.0
 11
483.0792630717
 21
632.7900593722
 31
0.0
  0
LINE
  5
CE
330
1F
100
AcDbEntity
  8
0
  6
SLD-実線
 62
     7
370
    25
100
AcDbLine
 10
506.3582895977
 20
595.8555264293
 30
0.0
 11
508.1086638966
 21
597.5639454053
 31
0.0
  0
LINE
  5
CF
330
1F
100
AcDbEntity
  8
0
  6
SLD-実線
 62
     7
370
    25
100
AcDbLine
 10
477.0608248445
 20
628.8697682039
 30
0.0
 11
475.3104505456
 21
627.1613492279
 31
0.0
  0
LINE
  5
D0
330
1F
100
AcDbEntity
  8
0
  6
SLD-実線
 62
     7
370
    25
100
AcDbLine
 10
506.5155827823
 20
579.399936928
 30
0.0
 11
510.0163313803
 21
582.81677488
 31
0.0
  0
LINE
  5
D1
330
1F
100
AcDbEntity
  8
0
  6
SLD-実線
 62
     7
370
    25
100
AcDbLine
 10
509.6156068498
 20
597.9557735299
 30
0.0
 11
510.0163313803
 21
582.81677488
 31
0.0
  0
LINE
  5
D2
330
1F
100
AcDbEntity
  8
0
  6
SLD-実線
 62
     7
370
    25
100
AcDbLine
 10
468.535046659
 20
620.8567828984
 30
0.0
 11
470.285420958
 21
622.5652018744
 31
0.0
  0
ELLIPSE
  5
D3
330
1F
100
AcDbEntity
  8
0
  6
SLD-実線
 62
     7
370
    25
100
AcDbEllipse
 10
491.9703081563
 20
615.9195640591
 30
0.0
 11
-16.84280253279951
 21
17.85238316424807
 31
0.0
210
0.0
220
0.0
230
1.0
 40
0.7669934716
 41
0.1236083337957764
 42
0.6380454244414943
  0
LINE
  5
D4
330
1F
100
AcDbEntity
  8
0
  6
SLD-実線
 62
     7
370
    25
100
AcDbLine
 10
508.3929130037
 20
581.0167673232
 30
0.0
 11
506.6425387047
 21
579.3083483472
 31
0.0
  0
LINE
  5
D5
330
1F
100
AcDbEntity
  8
0
  6
SLD-実線
 62
     7
370
    25
100
AcDbLine
 10
510.0163313803
 20
582.81677488
 30
0.0
 11
510.9958549309
 21
582.1101266973
 31
0.0
  0
LINE
  5
D6
330
1F
100
AcDbEntity
  8
0
  6
SLD-実線
 62
     7
370
    25
100
AcDbLine
 10
506.7343689788
 20
573.9625728961
 30
0.0
 11
508.4847432777
 21
575.6709918721
 31
0.0
  0
LINE
  5
D7
330
1F
100
AcDbEntity
  8
0
  6
SLD-実線
 62
     7
370
    25
100
AcDbLine
 10
506.8727703402
 20
565.9057244553
 30
0.0
 11
510.3735189383
 21
569.3225624074
 31
0.0
  0
LINE
  5
D8
330
1F
100
AcDbEntity
  8
0
  6
SLD-実線
 62
     7
370
    25
100
AcDbLine
 10
510.1937159668
 20
576.1153508057
 30
0.0
 11
510.3735189383
 21
569.3225624074
 31
0.0
  0
LINE
  5
D9
330
1F
100
AcDbEntity
  8
0
  6
SLD-実線
 62
     7
370
    25
100
AcDbLine
 10
470.5440228957
 20
610.7100647746
 30
0.0
 11
470.8922174781
 21
611.0499133615
 31
0.0
  0
LINE
  5
DA
330
1F
100
AcDbEntity
  8
0
  6
SLD-実線
 62
     7
370
    25
100
AcDbLine
 10
468.1132692632
 20
611.6905612232
 30
0.0
 11
469.8636435622
 21
613.3989801992
 31
0.0
  0
LINE
  5
DB
330
1F
100
AcDbEntity
  8
0
  6
SLD-実線
 62
     7
370
    25
100
AcDbLine
 10
469.8636435622
 20
613.3989801992
 30
0.0
 11
471.0094874872
 21
613.5984683803
 31
0.0
  0
LINE
  5
DC
330
1F
100
AcDbEntity
  8
0
  6
SLD-実線
 62
     7
370
    25
100
AcDbLine
 10
470.285420958
 20
622.5652018744
 30
0.0
 11
469.8636435622
 21
613.3989801992
 31
0.0
  0
LINE
  5
DD
330
1F
100
AcDbEntity
  8
0
  6
SLD-実線
 62
     7
370
    25
100
AcDbLine
 10
467.1278502305
 20
590.2750719478
 30
0.0
 11
468.8782245294
 21
591.9834909238
 31
0.0
  0
LINE
  5
DE
330
1F
100
AcDbEntity
  8
0
  6
SLD-実線
 62
     7
370
    25
100
AcDbLine
 10
469.6757972243
 20
609.3166344158
 30
0.0
 11
468.8782245294
 21
591.9834909238
 31
0.0
  0
LINE
  5
DF
330
1F
100
AcDbEntity
  8
0
  6
SLD-実線
 62
     7
370
    25
100
AcDbLine
 10
469.76581793
 20
589.3306508812
 30
0.0
 11
469.8987926063
 21
589.4604382418
 31
0.0
  0
LINE
  5
E0
330
1F
100
AcDbEntity
  8
0
  6
SLD-実線
 62
     7
370
    25
100
AcDbLine
 10
468.8782245294
 20
591.9834909238
 30
0.0
 11
470.0240684545
 21
592.1829791049
 31
0.0
  0
LINE
  5
E1
330
1F
100
AcDbEntity
  8
0
  6
SLD-実線
 62
     7
370
    25
100
AcDbLine
 10
466.8109644333
 20
583.3883931185
 30
0.0
 11
468.5613387323
 21
585.0968120945
 31
0.0
  0
LINE
  5
E2
330
1F
100
AcDbEntity
  8
0
  6
SLD-実線
 62
     7
370
    25
100
AcDbLine
 10
468.6903781916
 20
587.9011451404
 30
0.0
 11
468.5613387323
 21
585.0968120945
 31
0.0
  0
ARC
  5
E3
330
1F
100
AcDbEntity
  8
0
  6
SLD-実線
 62
     7
370
    25
100
AcDbCircle
 10
728.5205114775
 20
912.7910308388
 30
0.0
 40
23.80339966270389
100
AcDbArc
 50
342.6107012339
 51
45.4558128175
  0
LWPOLYLINE
  5
E4
330
1F
100
AcDbEntity
  8
0
  6
SLD-実線
 62
     7
370
    25
100
AcDbPolyline
 90
        3
 70
   128
 43
0.0
 10
759.3870050066
 20
571.3913813519
 10
759.3702011778
 20
569.9328559704
 10
758.8255961885
 20
565.844831226
  0
ELLIPSE
  5
E5
330
1F
100
AcDbEntity
  8
0
  6
SLD-実線
 62
     7
370
    25
100
AcDbEllipse
 10
673.838295559
 20
596.2471658332
 30
0.0
 11
85.47245416693136
 21
-34.40550632511429
 31
0.0
210
0.0
220
0.0
230
1.0
 40
0.1875841428
 41
0.2058323315077449
 42
0.2695292186235573
  0
ELLIPSE
  5
E6
330
1F
100
AcDbEntity
  8
0
  6
SLD-実線
 62
     7
370
    25
100
AcDbEllipse
 10
695.4845662992
 20
69.709101587
 30
0.0
 11
-45.91285860584492
 21
2304.573773468086
 31
0.0
210
0.0
220
0.0
230
1.0
 40
0.0321456507
 41
4.929400450561115
 42
4.931977415748293
  0
ELLIPSE
  5
E7
330
1F
100
AcDbEntity
  8
0
  6
SLD-実線
 62
     7
370
    25
100
AcDbEllipse
 10
672.7811929353
 20
568.279581462
 30
0.0
 11
72.62765202053777
 21
59.05464849087718
 31
0.0
210
0.0
220
0.0
230
1.0
 40
0.7884282109
 41
5.541510607876642
 42
5.541619663579602
  0
ELLIPSE
  5
E8
330
1F
100
AcDbEntity
  8
0
  6
SLD-実線
 62
     7
370
    25
100
AcDbEllipse
 10
695.1849611747
 20
86.7088371983
 30
0.0
 11
-45.70310054882202
 21
2275.932165785078
 31
0.0
210
0.0
220
0.0
230
1.0
 40
0.0325314639
 41
4.92712609778035
 42
4.927603084024888
  0
ELLIPSE
  5
E9
330
1F
100
AcDbEntity
  8
0
  6
SLD-実線
 62
     7
370
    25
100
AcDbEllipse
 10
673.4833267266
 20
592.3122115172
 30
0.0
 11
85.75589972839418
 21
-16.10683528187246
 31
0.0
210
0.0
220
0.0
230
1.0
 40
0.1633147212
 41
6.125121482410501
 42
6.125239362152371
  0
ELLIPSE
  5
EA
330
1F
100
AcDbEntity
  8
0
  6
SLD-実線
 62
     7
370
    25
100
AcDbEllipse
 10
695.4845662992
 20
69.7091015871
 30
0.0
 11
-45.91285860585208
 21
2304.57377346828
 31
0.0
210
0.0
220
0.0
230
1.0
 40
0.0321456507
 41
4.932445588769345
 42
4.941356606033247
  0
ELLIPSE
  5
EB
330
1F
100
AcDbEntity
  8
0
  6
SLD-実線
 62
     7
370
    25
100
AcDbEllipse
 10
672.7831677884
 20
590.1255956984
 30
0.0
 11
72.25318564224268
 21
58.75016418322071
 31
0.0
210
0.0
220
0.0
230
1.0
 40
0.7884282109
 41
5.532233279174703
 42
5.532436451403317
  0
ELLIPSE
  5
EC
330
1F
100
AcDbEntity
  8
0
  6
SLD-実線
 62
     7
370
    25
100
AcDbEllipse
 10
695.1849611747
 20
86.7088371983
 30
0.0
 11
-45.70310054882202
 21
2275.932165785078
 31
0.0
210
0.0
220
0.0
230
1.0
 40
0.0325314639
 41
4.936609597027446
 42
4.937090612684979
  0
ELLIPSE
  5
ED
330
1F
100
AcDbEntity
  8
0
  6
SLD-実線
 62
     7
370
    25
100
AcDbEllipse
 10
673.4817298016
 20
613.395241342
 30
0.0
 11
85.32675281153126
 21
-16.02623209627848
 31
0.0
210
0.0
220
0.0
230
1.0
 40
0.1633147212
 41
6.115789618284619
 42
6.116005059555724
  0
ELLIPSE
  5
EE
330
1F
100
AcDbEntity
  8
0
  6
SLD-実線
 62
     7
370
    25
100
AcDbEllipse
 10
695.4845662998
 20
69.7091015486
 30
0.0
 11
-45.91285860619905
 21
2304.573773527291
 31
0.0
210
0.0
220
0.0
230
1.0
 40
0.0321456507
 41
4.941825826712264
 42
4.945847246781013
  0
SPLINE
  5
EF
330
1F
100
AcDbEntity
  8
0
  6
SLD-実線
 62
     7
370
    25
100
AcDbSpline
210
0.0
220
0.0
230
1.0
 70
     8
 71
     3
 72
    11
 73
     7
 74
     0
 42
0.000000001
 43
0.00000001
 40
0.0
 40
0.0
 40
0.0
 40
0.0
 40
0.2022757524076059
 40
0.4105762994672452
 40
0.8192769237225975
 40
1.0
 40
1.0
 40
1.0
 40
1.0
 10
756.9352705700583
 20
604.2927825077376
 30
0.0
 10
756.8920728932895
 20
605.3770692672647
 30
0.0
 10
756.8043908945222
 20
607.5779383283816
 30
0.0
 10
756.3959312324622
 20
611.2139966776145
 30
0.0
 10
755.731684467704
 20
613.8417917241175
 30
0.0
 10
754.9165956047633
 20
614.7822046265904
 30
0.0
 10
754.6666813807223
 20
615.070544427912
 30
0.0
  0
ELLIPSE
  5
F0
330
1F
100
AcDbEntity
  8
0
  6
SLD-実線
 62
     7
370
    25
100
AcDbEllipse
 10
670.5703741975
 20
555.5905073785
 30
0.0
 11
37.55059399266315
 21
312.8769735043442
 31
0.0
210
0.0
220
0.0
230
1.0
 40
0.248519692
 41
4.933109954929121
 42
4.933391602701415
  0
LINE
  5
F1
330
1F
100
AcDbEntity
  8
0
  6
SLD-実線
 62
     7
370
    25
100
AcDbLine
 10
754.6611598501
 20
614.9839880787
 30
0.0
 11
754.3472923133
 21
615.2237046279
 31
0.0
  0
ELLIPSE
  5
F2
330
1F
100
AcDbEntity
  8
0
  6
SLD-実線
 62
     7
370
    25
100
AcDbEllipse
 10
672.8578409269
 20
621.9080996697
 30
0.0
 11
78.93326849332709
 21
41.1536761569505
 31
0.0
210
0.0
220
0.0
230
1.0
 40
0.7781003356
 41
5.602300366100195
 42
5.603298085254296
  0
SPLINE
  5
F3
330
1F
100
AcDbEntity
  8
0
  6
SLD-実線
 62
     7
370
    25
100
AcDbSpline
210
0.0
220
0.0
230
1.0
 70
     8
 71
     3
 72
    15
 73
    11
 74
     0
 42
0.000000001
 43
0.00000001
 40
0.0
 40
0.0
 40
0.0
 40
0.0
 40
0.0616472230618276
 40
0.1922239813964675
 40
0.3229836948614997
 40
0.4537285839785505
 40
0.5815059567001515
 40
0.7092946787097033
 40
0.9631235525101268
 40
1.0
 40
1.0
 40
1.0
 40
1.0
 10
753.7823227567275
 20
615.466577331553
 30
0.0
 10
753.6117915053612
 20
615.5309186565754
 30
0.0
 10
753.0800530999305
 20
615.7315431948733
 30
0.0
 10
751.9310239644587
 20
615.3898038769428
 30
0.0
 10
750.3353251619675
 20
614.4644239182475
 30
0.0
 10
748.5281324053457
 20
612.925593135571
 30
0.0
 10
746.5618843011689
 20
610.8552943226236
 30
0.0
 10
743.842580235391
 20
607.5123500838557
 30
0.0
 10
741.5300308557421
 20
604.0812543984465
 30
0.0
 10
740.0703877319955
 20
601.4867522913436
 30
0.0
 10
739.885229604281
 20
601.1576354375815
 30
0.0
  0
ELLIPSE
  5
F4
330
1F
100
AcDbEntity
  8
0
  6
SLD-実線
 62
     7
370
    25
100
AcDbEllipse
 10
673.470589398
 20
622.5061609621
 30
0.0
 11
85.13807572223324
 21
-15.52593761823073
 31
0.0
210
0.0
220
0.0
230
1.0
 40
0.1747060097
 41
5.638401994587271
 42
5.639399713741344
  0
SPLINE
  5
F5
330
1F
100
AcDbEntity
  8
0
  6
SLD-実線
 62
     7
370
    25
100
AcDbSpline
210
0.0
220
0.0
230
1.0
 70
     8
 71
     3
 72
     9
 73
     5
 74
     0
 42
0.000000001
 43
0.00000001
 40
0.0
 40
0.0
 40
0.0
 40
0.0
 40
0.0754131301360801
 40
1.0
 40
1.0
 40
1.0
 40
1.0
 10
739.9384129096716
 20
601.1601966052539
 30
0.0
 10
739.9224276300765
 20
601.1313953543226
 30
0.0
 10
739.7104581817051
 20
600.7494824052208
 30
0.0
 10
739.503246273062
 20
600.361307722014
 30
0.0
 10
739.3116608630512
 20
600.0024065067075
 30
0.0
  0
ELLIPSE
  5
F6
330
1F
100
AcDbEntity
  8
0
  6
SLD-実線
 62
     7
370
    25
100
AcDbEllipse
 10
675.7580561274
 20
560.6538439779
 30
0.0
 11
-51.57869521217913
 21
233.957554171513
 31
0.0
210
0.0
220
0.0
230
1.0
 40
0.2959979419
 41
4.815852970364572
 42
4.816134618136866
  0
SPLINE
  5
F7
330
1F
100
AcDbEntity
  8
0
  6
SLD-実線
 62
     7
370
    25
100
AcDbSpline
210
0.0
220
0.0
230
1.0
 70
     8
 71
     3
 72
    12
 73
     8
 74
     0
 42
0.000000001
 43
0.00000001
 40
0.0
 40
0.0
 40
0.0
 40
0.0
 40
0.2078782267364905
 40
0.4216586076779824
 40
0.6295911620856182
 40
0.8438566184159397
 40
1.0
 40
1.0
 40
1.0
 40
1.0
 10
739.2951946008249
 20
600.0675020960197
 30
0.0
 10
738.6849309146658
 20
598.8539910992112
 30
0.0
 10
737.4470767138578
 20
596.3925146600994
 30
0.0
 10
735.9457624002473
 20
592.5171693813388
 30
0.0
 10
734.8101767489417
 20
588.5755216550857
 30
0.0
 10
734.1699462254994
 20
585.0192017054688
 30
0.0
 10
734.0800649954394
 20
582.8590275776914
 30
0.0
 10
734.0421761608169
 20
581.9484205440667
 30
0.0
  0
ELLIPSE
  5
F8
330
1F
100
AcDbEntity
  8
0
  6
SLD-実線
 62
     7
370
    25
100
AcDbEllipse
 10
650.8438640251
 20
26.1384076037
 30
0.0
 11
44.62388131794886
 21
2392.827946229334
 31
0.0
210
0.0
220
0.0
230
1.0
 40
0.0312874646
 41
4.943373835015614
 42
4.947395255084374
  0
ELLIPSE
  5
F9
330
1F
100
AcDbEntity
  8
0
  6
SLD-実線
 62
     7
370
    25
100
AcDbEllipse
 10
672.8467005234
 20
612.7754332988
 30
0.0
 11
78.23874119923131
 21
43.70066345441853
 31
0.0
210
0.0
220
0.0
230
1.0
 40
0.7814466305
 41
5.098347646776125
 42
5.098563088047211
  0
ELLIPSE
  5
FA
330
1F
100
AcDbEntity
  8
0
  6
SLD-実線
 62
     7
370
    25
100
AcDbEllipse
 10
651.0914484493
 20
43.672217029
 30
0.0
 11
44.50664428801281
 21
2363.866478803844
 31
0.0
210
0.0
220
0.0
230
1.0
 40
0.0316346433
 41
4.938168606060801
 42
4.938649621718332
  0
ELLIPSE
  5
FB
330
1F
100
AcDbEntity
  8
0
  6
SLD-実線
 62
     7
370
    25
100
AcDbEllipse
 10
673.5452625365
 20
590.8694235356
 30
0.0
 11
85.80628070468072
 21
-18.89399760694255
 31
0.0
210
0.0
220
0.0
230
1.0
 40
0.0972184454
 41
5.514118132555065
 42
5.514321304783635
  0
ELLIPSE
  5
FC
330
1F
100
AcDbEntity
  8
0
  6
SLD-実線
 62
     7
370
    25
100
AcDbEllipse
 10
650.8438640257
 20
26.1384076441
 30
0.0
 11
44.62388131756677
 21
2392.827946168343
 31
0.0
210
0.0
220
0.0
230
1.0
 40
0.0312874646
 41
4.933993597072556
 42
4.942904614336423
  0
ELLIPSE
  5
FD
330
1F
100
AcDbEntity
  8
0
  6
SLD-実線
 62
     7
370
    25
100
AcDbEllipse
 10
672.8451035983
 20
591.6892861784
 30
0.0
 11
78.63223929283788
 21
43.92045389959708
 31
0.0
210
0.0
220
0.0
230
1.0
 40
0.7814466305
 41
5.089113344179493
 42
5.089231223921367
  0
ELLIPSE
  5
FE
330
1F
100
AcDbEntity
  8
0
  6
SLD-実線
 62
     7
370
    25
100
AcDbEllipse
 10
651.0914484493
 20
43.672217029
 30
0.0
 11
44.50664428801281
 21
2363.866478803844
 31
0.0
210
0.0
220
0.0
230
1.0
 40
0.0316346433
 41
4.928685106813705
 42
4.929162093058243
  0
ELLIPSE
  5
FF
330
1F
100
AcDbEntity
  8
0
  6
SLD-実線
 62
     7
370
    25
100
AcDbEllipse
 10
673.5472373897
 20
569.0272643336
 30
0.0
 11
86.25098866994176
 21
-18.99191947422867
 31
0.0
210
0.0
220
0.0
230
1.0
 40
0.0972184454
 41
5.504934920378723
 42
5.505043976081658
  0
ELLIPSE
  5
100
330
1F
100
AcDbEntity
  8
0
  6
SLD-実線
 62
     7
370
    25
100
AcDbEllipse
 10
650.8438640257
 20
26.1384076451
 30
0.0
 11
44.62388131755278
 21
2392.827946166675
 31
0.0
210
0.0
220
0.0
230
1.0
 40
0.0312874646
 41
4.930948458863997
 42
4.933525424051183
  0
ELLIPSE
  5
101
330
1F
100
AcDbEntity
  8
0
  6
SLD-実線
 62
     7
370
    25
100
AcDbEllipse
 10
672.4901347659
 20
594.9313195694
 30
0.0
 11
47.41546757819935
 21
107.3536104714467
 31
0.0
210
0.0
220
0.0
230
1.0
 40
0.6651574307
 41
4.457802777155189
 42
4.521499664270977
  0
ARC
  5
102
330
1F
100
AcDbEntity
  8
0
  6
SLD-実線
 62
     7
370
    25
100
AcDbCircle
 10
672.7370556838
 20
679.0074146332
 30
0.0
 40
152.6432563682511
100
AcDbArc
 50
254.8803361695
 51
291.8931603065
  0
LINE
  5
103
330
1F
100
AcDbEntity
  8
0
  6
SLD-実線
 62
     7
370
    25
100
AcDbLine
 10
632.9222233627
 20
531.6481840369
 30
0.0
 11
636.1706976544
 21
876.6329552273
 31
0.0
  0
LWPOLYLINE
  5
104
330
1F
100
AcDbEntity
  8
0
  6
SLD-実線
 62
     7
370
    25
100
AcDbPolyline
 90
       14
 70
   128
 43
0.0
 10
729.8851556947
 20
884.2214228475
 10
724.1533413264
 20
881.4817562075
 10
717.9252960561
 20
879.0462953811
 10
711.2616317977
 20
876.9387424988
 10
704.2271999494
 20
875.1796084605
 10
696.8904602539
 20
873.7860133219
 10
689.322814542
 20
872.7715196799
 10
681.5979118433
 20
872.1460006808
 10
673.7909316267
 20
871.9155439333
 10
665.9778521474
 20
872.082392264
 10
658.234711019
 20
872.6449218894
 10
650.6368652088
 20
873.597658219
 10
643.2582576564
 20
874.9313291347
 10
636.1706976544
 20
876.6329552273
  0
LWPOLYLINE
  5
105
330
1F
100
AcDbEntity
  8
0
  6
SLD-実線
 62
     7
370
    25
100
AcDbPolyline
 90
        3
 70
   128
 43
0.0
 10
729.8851556947
 20
884.2214228475
 10
730.1477146141
 20
870.1689963739
 10
730.1873234055
 20
868.0487137101
  0
LINE
  5
106
330
1F
100
AcDbEntity
  8
0
  6
SLD-実線
 62
     7
370
    25
100
AcDbLine
 10
581.3139539577
 20
984.1884847831
 30
0.0
 11
584.8040754903
 21
987.5949503935
 31
0.0
  0
LINE
  5
107
330
1F
100
AcDbEntity
  8
0
  6
SLD-実線
 62
     7
370
    25
100
AcDbLine
 10
584.8040754903
 20
987.5949503935
 30
0.0
 11
590.3316887508
 21
986.0926635518
 31
0.0
  0
LINE
  5
108
330
1F
100
AcDbEntity
  8
0
  6
SLD-実線
 62
     7
370
    25
100
AcDbLine
 10
586.8415672182
 20
982.6861979413
 30
0.0
 11
590.3316887508
 21
986.0926635518
 31
0.0
  0
LINE
  5
109
330
1F
100
AcDbEntity
  8
0
  6
SLD-実線
 62
     7
370
    25
100
AcDbLine
 10
709.5744522843
 20
949.330029628
 30
0.0
 11
586.8415672182
 21
982.6861979413
 31
0.0
  0
LWPOLYLINE
  5
10A
330
1F
100
AcDbEntity
  8
0
  6
SLD-実線
 62
     7
370
    25
100
AcDbPolyline
 90
       14
 70
   128
 43
0.0
 10
749.7328683804
 20
906.0856060152
 10
750.8319951462
 20
909.9941627127
 10
751.1808287722
 20
913.9394126555
 10
750.7759994252
 20
917.8832435922
 10
749.6214178733
 20
921.7875569792
 10
747.728237707
 20
925.6146360239
 10
745.1147475925
 20
929.3275100397
 10
741.8061945974
 20
932.8903115935
 10
737.8345402972
 20
936.2686229954
 10
733.2381520173
 20
939.4298087837
 10
728.0614321931
 20
942.3433309925
 10
722.3543894301
 20
944.9810441575
 10
716.1721554064
 20
947.3174672093
 10
709.5744522843
 20
949.330029628
  0
LINE
  5
10B
330
1F
100
AcDbEntity
  8
0
  6
SLD-実線
 62
     7
370
    25
100
AcDbLine
 10
759.2786366776
 20
903.4912707331
 30
0.0
 11
749.7328683804
 21
906.0856060152
 31
0.0
  0
LINE
  5
10C
330
1F
100
AcDbEntity
  8
0
  6
SLD-実線
 62
     7
370
    25
100
AcDbLine
 10
756.3617904968
 20
900.6443394406
 30
0.0
 11
759.2786366776
 21
903.4912707331
 31
0.0
  0
LINE
  5
10D
330
1F
100
AcDbEntity
  8
0
  6
SLD-実線
 62
     7
370
    25
100
AcDbLine
 10
748.5500682608
 20
902.7673981594
 30
0.0
 11
756.3617904968
 21
900.6443394406
 31
0.0
  0
SPLINE
  5
10E
330
1F
100
AcDbEntity
  8
0
  6
SLD-実線
 62
     7
370
    25
100
AcDbSpline
210
0.0
220
0.0
230
1.0
 70
     8
 71
     3
 72
    11
 73
     7
 74
     0
 42
0.000000001
 43
0.00000001
 40
0.0
 40
0.0
 40
0.0
 40
0.0
 40
0.1128542513412817
 40
0.3654917547306476
 40
0.6181292580781298
 40
1.0
 40
1.0
 40
1.0
 40
1.0
 10
733.3824681205361
 20
887.9633554382463
 30
0.0
 10
734.1566968864026
 20
888.4562642030617
 30
0.0
 10
736.6641277260591
 20
890.0526071607553
 30
0.0
 10
740.4153550579986
 20
892.9448311942978
 30
0.0
 10
745.0414596010504
 20
897.3381528597506
 30
0.0
 10
747.2318247621437
 20
900.7275390548824
 30
0.0
 10
748.5500682607628
 20
902.7673981593854
 30
0.0
  0
LINE
  5
10F
330
1F
100
AcDbEntity
  8
0
  6
SLD-実線
 62
     7
370
    25
100
AcDbLine
 10
741.1941903566
 20
885.8402967194
 30
0.0
 11
733.3824681205
 21
887.9633554382
 31
0.0
  0
LINE
  5
110
330
1F
100
AcDbEntity
  8
0
  6
SLD-実線
 62
     7
370
    25
100
AcDbLine
 10
738.2773441758
 20
882.9933654269
 30
0.0
 11
741.1941903566
 21
885.8402967194
 31
0.0
  0
LINE
  5
111
330
1F
100
AcDbEntity
  8
0
  6
SLD-実線
 62
     7
370
    25
100
AcDbLine
 10
728.7315758786
 20
885.587700709
 30
0.0
 11
738.2773441758
 21
882.9933654269
 31
0.0
  0
ARC
  5
112
330
1F
100
AcDbEntity
  8
0
  6
SLD-実線
 62
     7
370
    25
100
AcDbCircle
 10
672.9578604969
 20
1014.3142536091
 30
0.0
 40
140.7971268159214
100
AcDbArc
 50
255.4001935261
 51
288.7845287986
  0
LINE
  5
113
330
1F
100
AcDbEntity
  8
0
  6
SLD-実線
 62
     7
370
    25
100
AcDbLine
 10
514.0210929745
 20
911.6111826646
 30
0.0
 11
636.7539780406
 21
878.2550143513
 31
0.0
  0
LINE
  5
114
330
1F
100
AcDbEntity
  8
0
  6
SLD-実線
 62
     7
370
    25
100
AcDbLine
 10
514.0210929745
 20
911.6111826646
 30
0.0
 11
510.5309714419
 21
908.2047170542
 31
0.0
  0
LINE
  5
115
330
1F
100
AcDbEntity
  8
0
  6
SLD-実線
 62
     7
370
    25
100
AcDbLine
 10
505.0033581814
 20
909.707003896
 30
0.0
 11
510.5309714419
 21
908.2047170542
 31
0.0
  0
LINE
  5
116
330
1F
100
AcDbEntity
  8
0
  6
SLD-実線
 62
     7
370
    25
100
AcDbLine
 10
508.493479714
 20
913.1134695064
 30
0.0
 11
505.0033581814
 21
909.707003896
 31
0.0
  0
LINE
  5
117
330
1F
100
AcDbEntity
  8
0
  6
SLD-実線
 62
     7
370
    25
100
AcDbLine
 10
475.3278001511
 20
922.127190557
 30
0.0
 11
508.493479714
 21
913.1134695064
 31
0.0
  0
LINE
  5
118
330
1F
100
AcDbEntity
  8
0
  6
SLD-実線
 62
     7
370
    25
100
AcDbLine
 10
475.3278001511
 20
922.127190557
 30
0.0
 11
471.8376786185
 21
918.7207249466
 31
0.0
  0
LINE
  5
119
330
1F
100
AcDbEntity
  8
0
  6
SLD-実線
 62
     7
370
    25
100
AcDbLine
 10
466.310065358
 20
920.2230117884
 30
0.0
 11
471.8376786185
 21
918.7207249466
 31
0.0
  0
LINE
  5
11A
330
1F
100
AcDbEntity
  8
0
  6
SLD-実線
 62
     7
370
    25
100
AcDbLine
 10
469.8001868906
 20
923.6294773988
 30
0.0
 11
466.310065358
 21
920.2230117884
 31
0.0
  0
LINE
  5
11B
330
1F
100
AcDbEntity
  8
0
  6
SLD-実線
 62
     7
370
    25
100
AcDbLine
 10
364.5190858697
 20
952.2426247552
 30
0.0
 11
469.8001868906
 21
923.6294773988
 31
0.0
  0
ARC
  5
11C
330
1F
100
AcDbEntity
  8
0
  6
SLD-実線
 62
     7
370
    25
100
AcDbCircle
 10
383.4503598214
 20
1097.4329826633
 30
0.0
 40
146.419374274418
100
AcDbArc
 50
262.5711525419
 51
286.8370495776
  0
LINE
  5
11D
330
1F
100
AcDbEntity
  8
0
  6
SLD-実線
 62
     7
370
    25
100
AcDbLine
 10
542.6206611343
 20
994.7044926755
 30
0.0
 11
546.1107826669
 21
998.110958286
 31
0.0
  0
LINE
  5
11E
330
1F
100
AcDbEntity
  8
0
  6
SLD-実線
 62
     7
370
    25
100
AcDbLine
 10
546.1107826669
 20
998.110958286
 30
0.0
 11
551.6383959274
 21
996.6086714442
 31
0.0
  0
LINE
  5
11F
330
1F
100
AcDbEntity
  8
0
  6
SLD-実線
 62
     7
370
    25
100
AcDbLine
 10
548.1482743948
 20
993.2022058338
 30
0.0
 11
551.6383959274
 21
996.6086714442
 31
0.0
  0
LINE
  5
120
330
1F
100
AcDbEntity
  8
0
  6
SLD-実線
 62
     7
370
    25
100
AcDbLine
 10
581.3139539577
 20
984.1884847831
 30
0.0
 11
548.1482743948
 21
993.2022058338
 31
0.0
  0
ARC
  5
121
330
1F
100
AcDbEntity
  8
0
  6
SLD-実線
 62
     7
370
    25
100
AcDbCircle
 10
638.7246861675
 20
876.6304611746
 30
0.0
 40
2.553989730850521
100
AcDbArc
 50
140.4995367386
 51
179.944048828
  0
SPLINE
  5
122
330
1F
100
AcDbEntity
  8
0
  6
SLD-実線
 62
     7
370
    25
100
AcDbSpline
210
0.0
220
0.0
230
1.0
 70
     8
 71
     3
 72
    12
 73
     8
 74
     0
 42
0.000000001
 43
0.00000001
 40
0.0
 40
0.0
 40
0.0
 40
0.0
 40
0.2292321602820477
 40
0.4586335905652832
 40
0.6829169183104169
 40
0.897887853244041
 40
1.0
 40
1.0
 40
1.0
 40
1.0
 10
728.7315758785664
 20
885.5877007090295
 30
0.0
 10
728.8656921090345
 20
885.5386485205954
 30
0.0
 10
729.1340236043053
 20
885.4405079225274
 30
0.0
 10
729.4895118487133
 20
885.1462180550825
 30
0.0
 10
729.7494758952442
 20
884.7872068152479
 30
0.0
 10
729.8682589507177
 20
884.4624932933589
 30
0.0
 10
729.8810398014708
 20
884.280145416545
 30
0.0
 10
729.8851556946963
 20
884.221422847499
 30
0.0
  0
LINE
  5
123
330
1F
100
AcDbEntity
  8
0
  6
SLD-実線
 62
     7
370
    25
100
AcDbLine
 10
632.9222233627
 20
531.6481840369
 30
0.0
 11
515.716951557
 21
563.5020655084
 31
0.0
  0
LINE
  5
124
330
1F
100
AcDbEntity
  8
0
  6
SLD-実線
 62
     7
370
    25
100
AcDbLine
 10
511.2200414705
 20
569.0594099093
 30
0.0
 11
515.716951557
 21
563.5020655084
 31
0.0
  0
LINE
  5
125
330
1F
100
AcDbEntity
  8
0
  6
SLD-実線
 62
     7
370
    25
100
AcDbLine
 10
510.57405575
 20
606.6645966642
 30
0.0
 11
511.2200414705
 21
569.0594099093
 31
0.0
  0
ELLIPSE
  5
126
330
1F
100
AcDbEntity
  8
0
  6
SLD-実線
 62
     7
370
    25
100
AcDbEllipse
 10
488.4658296745
 20
612.1066161169
 30
0.0
 11
-17.15702873543398
 21
18.18544451545449
 31
0.0
210
0.0
220
0.0
230
1.0
 40
0.7669934716
 41
3.841110681833086
 42
6.930443115401229
  0
LINE
  5
127
330
1F
100
AcDbEntity
  8
0
  6
SLD-実線
 62
     7
370
    25
100
AcDbLine
 10
465.019163213
 20
581.6158186546
 30
0.0
 11
466.3682454409
 21
618.6787886903
 31
0.0
  0
LINE
  5
128
330
1F
100
AcDbEntity
  8
0
  6
SLD-実線
 62
     7
370
    25
100
AcDbLine
 10
460.4408189521
 20
578.5249339262
 30
0.0
 11
465.019163213
 21
581.6158186546
 31
0.0
  0
LINE
  5
129
330
1F
100
AcDbEntity
  8
0
  6
SLD-実線
 62
     7
370
    25
100
AcDbLine
 10
460.4408189521
 20
578.5249339262
 30
0.0
 11
343.2355471215
 21
610.3788154046
 31
0.0
  0
LINE
  5
12A
330
1F
100
AcDbEntity
  8
0
  6
SLD-実線
 62
     7
370
    25
100
AcDbLine
 10
343.2355471215
 20
610.3788154046
 30
0.0
 11
346.4840214133
 21
955.363586595
 31
0.0
  0
LINE
  5
12B
330
1F
100
AcDbEntity
  8
0
  6
SLD-実線
 62
     7
370
    25
100
AcDbLine
 10
513.2848936564
 20
893.7492835469
 30
0.0
 11
513.4378125882
 21
909.9891235407
 31
0.0
  0
LINE
  5
12C
330
1F
100
AcDbEntity
  8
0
  6
SLD-実線
 62
     7
370
    25
100
AcDbLine
 10
636.1706976544
 20
876.6329552273
 30
0.0
 11
513.4378125882
 21
909.9891235407
 31
0.0
  0
ARC
  5
12D
330
1F
100
AcDbEntity
  8
0
  6
SLD-実線
 62
     7
370
    25
100
AcDbCircle
 10
515.9918011013
 20
909.9866294879
 30
0.0
 40
2.553989730849952
100
AcDbArc
 50
140.4995367386
 51
179.944048828
  0
LINE
  5
12E
330
1F
100
AcDbEntity
  8
0
  6
SLD-実線
 62
     7
370
    25
100
AcDbLine
 10
738.5860956905
 20
865.7661073669
 30
0.0
 11
738.2773441758
 21
882.9933654269
 31
0.0
  0
LINE
  5
12F
330
1F
100
AcDbEntity
  8
0
  6
SLD-実線
 62
     7
370
    25
100
AcDbLine
 10
730.1873234055
 20
868.0487137101
 30
0.0
 11
738.5860956905
 21
865.7661073669
 31
0.0
  0
LINE
  5
130
330
1F
100
AcDbEntity
  8
0
  6
SLD-実線
 62
     7
370
    25
100
AcDbLine
 10
756.5740571632
 20
888.8005995243
 30
0.0
 11
741.406457023
 21
873.9965568032
 31
0.0
  0
LINE
  5
131
330
1F
100
AcDbEntity
  8
0
  6
SLD-実線
 62
     7
370
    25
100
AcDbLine
 10
756.5740571632
 20
888.8005995243
 30
0.0
 11
756.3617904968
 21
900.6443394406
 31
0.0
  0
LINE
  5
132
330
1F
100
AcDbEntity
  8
0
  6
SLD-実線
 62
     7
370
    25
100
AcDbLine
 10
759.5873881924
 20
886.2640126731
 30
0.0
 11
759.2786366776
 21
903.4912707331
 31
0.0
  0
LINE
  5
133
330
1F
100
AcDbEntity
  8
0
  6
SLD-実線
 62
     7
370
    25
100
AcDbLine
 10
738.5860956905
 20
865.7661073669
 30
0.0
 11
759.5873881924
 21
886.2640126731
 31
0.0
  0
LINE
  5
134
330
1F
100
AcDbEntity
  8
0
  6
SLD-実線
 62
     7
370
    25
100
AcDbLine
 10
741.1941903566
 20
885.8402967194
 30
0.0
 11
741.406457023
 21
873.9965568032
 31
0.0
  0
SPLINE
  5
135
330
1F
100
AcDbEntity
  8
0
  6
SLD-実線
 62
     7
370
    25
100
AcDbSpline
210
0.0
220
0.0
230
1.0
 70
     8
 71
     3
 72
    12
 73
     8
 74
     0
 42
0.000000001
 43
0.00000001
 40
0.0
 40
0.0
 40
0.0
 40
0.0
 40
0.2229279625552184
 40
0.44593169727618
 40
0.6666721087568986
 40
0.8828987678805732
 40
1.0
 40
1.0
 40
1.0
 40
1.0
 10
748.5500682607628
 20
902.7673981593854
 30
0.0
 10
748.6790980819362
 20
902.7201171127724
 30
0.0
 10
748.9372015809124
 20
902.6255389489415
 30
0.0
 10
749.2802927978775
 20
902.3413222360475
 30
0.0
 10
749.5354611010185
 20
901.9920707930065
 30
0.0
 10
749.6600649934292
 20
901.664006299045
 30
0.0
 10
749.6742342188093
 20
901.4740878881275
 30
0.0
 10
749.6792120013283
 20
901.4073677590748
 30
0.0
  0
ARC
  5
136
330
1F
100
AcDbEntity
  8
0
  6
SLD-実線
 62
     7
370
    25
100
AcDbCircle
 10
717.5363771468
 20
909.5402130318
 30
0.0
 40
37.46367281374864
100
AcDbArc
 50
309.3464998345
 51
329.6702030223
  0
LINE
  5
137
330
1F
100
AcDbEntity
  8
0
  6
SLD-実線
 62
     7
370
    25
100
AcDbLine
 10
749.8725113853
 20
890.62193607
 30
0.0
 11
749.6792120013
 21
901.4073677591
 31
0.0
  0
LINE
  5
138
330
1F
100
AcDbEntity
  8
0
  6
SLD-実線
 62
     7
370
    25
100
AcDbLine
 10
756.5740571632
 20
888.8005995243
 30
0.0
 11
749.8725113853
 21
890.62193607
 31
0.0
  0
ARC
  5
139
330
1F
100
AcDbEntity
  8
0
  6
SLD-実線
 62
     7
370
    25
100
AcDbCircle
 10
438.9162817239
 20
993.9247802886
 30
0.0
 40
23.78109971767989
100
AcDbArc
 50
323.6804174237
 51
0.1905309202
  0
SPLINE
  5
13A
330
1F
100
AcDbEntity
  8
0
  6
SLD-実線
 62
     7
370
    25
100
AcDbSpline
210
0.0
220
0.0
230
1.0
 70
     8
 71
     3
 72
    11
 73
     7
 74
     0
 42
0.000000001
 43
0.00000001
 40
0.0
 40
0.0
 40
0.0
 40
0.0
 40
0.0044970841613915
 40
0.3759837294230243
 40
0.7509656274234853
 40
1.0
 40
1.0
 40
1.0
 40
1.0
 10
346.4840214132661
 20
955.3635865950199
 30
0.0
 10
346.5099075459124
 20
955.3610919555686
 30
0.0
 10
348.6741464935146
 20
955.1525248461237
 30
0.0
 10
353.1066940904149
 20
954.8267241063113
 30
0.0
 10
359.2377659231013
 20
954.4991809079961
 30
0.0
 10
363.2230591568061
 20
954.0858996898003
 30
0.0
 10
364.813522493718
 20
953.9209661236035
 30
0.0
  0
LWPOLYLINE
  5
13B
330
1F
100
AcDbEntity
  8
0
  6
SLD-実線
 62
     7
370
    25
100
AcDbPolyline
 90
       13
 70
   128
 43
0.0
 10
297.2547490772
 20
650.1220127196
 10
297.4608424048
 20
646.5525025619
 10
298.3824149199
 20
642.4824491924
 10
300.0284248593
 20
638.4734681532
 10
302.3848593026
 20
634.5596889661
 10
305.4316572967
 20
630.7744306745
 10
309.1428806398
 20
627.149918189
 10
313.4869347005
 20
623.7170079483
 10
318.4268373911
 20
620.5049252305
 10
323.9205340061
 20
617.5410153501
 10
329.921255245
 20
614.8505108602
 10
336.3779153718
 20
612.4563167413
 10
343.2355471215
 20
610.3788154046
  0
LINE
  5
13C
330
1F
100
AcDbEntity
  8
0
  6
SLD-実線
 62
     7
370
    25
100
AcDbLine
 10
510.3680474756
 20
890.9023522544
 30
0.0
 11
513.2848936564
 21
893.7492835469
 31
0.0
  0
LINE
  5
13D
330
1F
100
AcDbEntity
  8
0
  6
SLD-実線
 62
     7
370
    25
100
AcDbLine
 10
510.5309714419
 20
908.2047170542
 30
0.0
 11
510.3680474756
 21
890.9023522544
 31
0.0
  0
LINE
  5
13E
330
1F
100
AcDbEntity
  8
0
  6
SLD-実線
 62
     7
370
    25
100
AcDbLine
 10
466.1471413917
 20
902.9206469886
 30
0.0
 11
510.3680474756
 21
890.9023522544
 31
0.0
  0
LINE
  5
13F
330
1F
100
AcDbEntity
  8
0
  6
SLD-実線
 62
     7
370
    25
100
AcDbLine
 10
466.310065358
 20
920.2230117884
 30
0.0
 11
466.1471413917
 21
902.9206469886
 31
0.0
  0
LINE
  5
140
330
1F
100
AcDbEntity
  8
0
  6
SLD-実線
 62
     7
370
    25
100
AcDbLine
 10
471.8376786185
 20
918.7207249466
 30
0.0
 11
471.7256683917
 21
906.8253491468
 31
0.0
  0
LINE
  5
141
330
1F
100
AcDbEntity
  8
0
  6
SLD-実線
 62
     7
370
    25
100
AcDbLine
 10
504.8913479546
 20
897.8116280961
 30
0.0
 11
471.7256683917
 21
906.8253491468
 31
0.0
  0
LINE
  5
142
330
1F
100
AcDbEntity
  8
0
  6
SLD-実線
 62
     7
370
    25
100
AcDbLine
 10
505.0033581814
 20
909.707003896
 30
0.0
 11
504.8913479546
 21
897.8116280961
 31
0.0
  0
ARC
  5
143
330
1F
100
AcDbEntity
  8
0
  6
SLD-実線
 62
     7
370
    25
100
AcDbCircle
 10
477.298508278
 20
920.5026373804
 30
0.0
 40
2.553989730850202
100
AcDbArc
 50
140.4995367386
 51
179.944048828
  0
LINE
  5
144
330
1F
100
AcDbEntity
  8
0
  6
SLD-実線
 62
     7
370
    25
100
AcDbLine
 10
504.9255326117
 20
901.4420050228
 30
0.0
 11
474.6425145725
 21
909.6722804393
 31
0.0
  0
LINE
  5
145
330
1F
100
AcDbEntity
  8
0
  6
SLD-実線
 62
     7
370
    25
100
AcDbLine
 10
474.6425145725
 20
909.6722804393
 30
0.0
 11
474.7445197649
 21
920.5051314331
 31
0.0
  0
LINE
  5
146
330
1F
100
AcDbEntity
  8
0
  6
SLD-実線
 62
     7
370
    25
100
AcDbLine
 10
471.7256683917
 20
906.8253491468
 30
0.0
 11
474.6425145725
 21
909.6722804393
 31
0.0
  0
SPLINE
  5
147
330
1F
100
AcDbEntity
  8
0
  6
SLD-実線
 62
     7
370
    25
100
AcDbSpline
210
0.0
220
0.0
230
1.0
 70
     8
 71
     3
 72
    10
 73
     6
 74
     0
 42
0.000000001
 43
0.00000001
 40
0.0
 40
0.0
 40
0.0
 40
0.0
 40
0.0045301623910769
 40
0.7520072206828673
 40
1.0
 40
1.0
 40
1.0
 40
1.0
 10
346.4840214132661
 20
955.3635865950199
 30
0.0
 10
346.5104157897271
 20
955.3586938640959
 30
0.0
 10
350.8918838190452
 20
954.5465002458471
 30
0.0
 10
356.8578109912429
 20
953.641103100615
 30
0.0
 10
362.9911421869554
 20
952.5215334469183
 30
0.0
 10
364.5190858696596
 20
952.242624755193
 30
0.0
  0
ARC
  5
148
330
1F
100
AcDbEntity
  8
0
  6
SLD-実線
 62
     7
370
    25
100
AcDbCircle
 10
360.0696157942
 20
953.8882067191
 30
0.0
 40
4.74401980939864
100
AcDbArc
 50
339.7037039785
 51
0.3956540258
  0
ARC
  5
149
330
1F
100
AcDbEntity
  8
0
  6
SLD-実線
 62
     7
370
    25
100
AcDbCircle
 10
587.1153938748
 20
982.486260748
 30
0.0
 40
0.3390514992629093
100
AcDbArc
 50
80.8347711034
 51
143.8645866054
  0
LINE
  5
14A
330
1F
100
AcDbEntity
  8
0
  6
SLD-実線
 62
     7
370
    25
100
AcDbLine
 10
298.3279658898
 20
1056.1351357641
 30
0.0
 11
305.4835138371
 21
1054.1904111568
 31
0.0
  0
LINE
  5
14B
330
1F
100
AcDbEntity
  8
0
  6
SLD-実線
 62
     7
370
    25
100
AcDbLine
 10
298.6741685419
 20
1075.2638557922
 30
0.0
 11
298.3279658898
 21
1056.1351357641
 31
0.0
  0
LINE
  5
14C
330
1F
100
AcDbEntity
  8
0
  6
SLD-実線
 62
     7
370
    25
100
AcDbLine
 10
590.3316887508
 20
986.0926635518
 30
0.0
 11
590.3714205674
 21
981.9507426838
 31
0.0
  0
ARC
  5
14D
330
1F
100
AcDbEntity
  8
0
  6
SLD-実線
 62
     7
370
    25
100
AcDbCircle
 10
548.4221010514
 20
993.0022686404
 30
0.0
 40
0.3390514992645602
100
AcDbArc
 50
80.8347711036
 51
143.8645866053
  0
ELLIPSE
  5
14E
330
1F
100
AcDbEntity
  8
0
  6
SLD-実線
 62
     7
370
    25
100
AcDbEllipse
 10
651.2340038575
 20
-74.5055819943
 30
0.0
 11
43.84389571925556
 21
2351.003450357351
 31
0.0
210
0.0
220
0.0
230
1.0
 40
0.0312874646
 41
4.984310394826228
 42
4.991566228717934
  0
ELLIPSE
  5
14F
330
1F
100
AcDbEntity
  8
0
  6
SLD-実線
 62
     7
370
    25
100
AcDbEllipse
 10
651.2340038567
 20
-74.5055820502
 30
0.0
 11
43.84389571981615
 21
2351.003450439369
 31
0.0
210
0.0
220
0.0
230
1.0
 40
0.0312874646
 41
4.993986260391016
 42
4.996615109896771
  0
SPLINE
  5
150
330
1F
100
AcDbEntity
  8
0
  6
SLD-実線
 62
     7
370
    25
100
AcDbSpline
210
0.0
220
0.0
230
1.0
 70
     8
 71
     3
 72
    10
 73
     6
 74
     0
 42
0.000000001
 43
0.00000001
 40
0.0
 40
0.0
 40
0.0
 40
0.0
 40
0.0715436177573929
 40
0.7761540744749992
 40
0.9999999999999999
 40
0.9999999999999999
 40
0.9999999999999999
 40
0.9999999999999999
 10
745.79045171583
 20
609.8485412334959
 30
0.0
 10
745.8944000431619
 20
609.9585669256375
 30
0.0
 10
747.0221025597867
 20
611.1522008503612
 30
0.0
 10
748.1807084511005
 20
611.5582324191762
 30
0.0
 10
749.0870077354962
 20
611.5663938688529
 30
0.0
 10
749.3055117018625
 20
611.5683615512249
 30
0.0
  0
ELLIPSE
  5
151
330
1F
100
AcDbEntity
  8
0
  6
SLD-実線
 62
     7
370
    25
100
AcDbEllipse
 10
672.8713312402
 20
621.9322060699
 30
0.0
 11
75.45767417062325
 21
39.34159506694004
 31
0.0
210
0.0
220
0.0
230
1.0
 40
0.7781003356
 41
5.545667801592381
 42
5.585717694075369
  0
ELLIPSE
  5
152
330
1F
100
AcDbEntity
  8
0
  6
SLD-実線
 62
     7
370
    25
100
AcDbEllipse
 10
670.6833228043
 20
556.4644861034
 30
0.0
 11
35.91545660493648
 21
299.2527725866257
 31
0.0
210
0.0
220
0.0
230
1.0
 40
0.248519692
 41
4.925855323124017
 42
4.938659557608592
  0
SPLINE
  5
153
330
1F
100
AcDbEntity
  8
0
  6
SLD-実線
 62
     7
370
    25
100
AcDbSpline
210
0.0
220
0.0
230
1.0
 70
     8
 71
     3
 72
    10
 73
     6
 74
     0
 42
0.000000001
 43
0.00000001
 40
0.0
 40
0.0
 40
0.0
 40
0.0
 40
0.056598995173358
 40
0.6837775307826764
 40
0.9999999999999999
 40
0.9999999999999999
 40
0.9999999999999999
 40
0.9999999999999999
 10
749.516959035417
 20
611.4155192307335
 30
0.0
 10
749.4673435813556
 20
611.4584849307915
 30
0.0
 10
748.8679348363266
 20
611.977557402026
 30
0.0
 10
747.4934141268684
 20
611.3764625491522
 30
0.0
 10
745.944287367698
 20
609.8952957872212
 30
0.0
 10
745.4250291875506
 20
609.3988173985146
 30
0.0
  0
ELLIPSE
  5
154
330
1F
100
AcDbEntity
  8
0
  6
SLD-実線
 62
     7
370
    25
100
AcDbEllipse
 10
651.1898885147
 20
-77.0247659932
 30
0.0
 11
43.91914696734159
 21
2352.954884009084
 31
0.0
210
0.0
220
0.0
230
1.0
 40
0.0312653869
 41
4.979231067611478
 42
4.997525597692491
  0
LWPOLYLINE
  5
155
330
1F
100
AcDbEntity
  8
0
  6
SLD-実線
 62
     7
370
    25
100
AcDbPolyline
 90
        9
 70
   128
 43
0.0
 10
733.7283853765
 20
542.0906881921
 10
733.7289877924
 20
542.0910238346
 10
733.7295902014
 20
542.0913594805
 10
733.7301926033
 20
542.0916951296
 10
733.7307949982
 20
542.0920307822
 10
733.7313973861
 20
542.092366438
 10
733.731999767
 20
542.0927020972
 10
733.7326021409
 20
542.0930377597
 10
733.7332045078
 20
542.0933734256
  0
ELLIPSE
  5
156
330
1F
100
AcDbEntity
  8
0
  6
SLD-実線
 62
     7
370
    25
100
AcDbEllipse
 10
651.2340038575
 20
-74.5055819928
 30
0.0
 11
43.84389571925033
 21
2351.003450355433
 31
0.0
210
0.0
220
0.0
230
1.0
 40
0.0312874646
 41
4.978345593759019
 42
4.981897171639002
  0
ELLIPSE
  5
157
330
1F
100
AcDbEntity
  8
0
  6
SLD-実線
 62
     7
370
    25
100
AcDbEllipse
 10
675.7580561274
 20
560.6538439779
 30
0.0
 11
-51.57869521217913
 21
233.957554171513
 31
0.0
210
0.0
220
0.0
230
1.0
 40
0.2959979419
 41
4.797970961784717
 42
4.798038898519605
  0
SPLINE
  5
158
330
1F
100
AcDbEntity
  8
0
  6
SLD-実線
 62
     7
370
    25
100
AcDbSpline
210
0.0
220
0.0
230
1.0
 70
     8
 71
     3
 72
    10
 73
     6
 74
     0
 42
0.000000001
 43
0.00000001
 40
0.0
 40
0.0
 40
0.0
 40
0.0
 40
0.0128662964871994
 40
0.5236980281786037
 40
1.0
 40
1.0
 40
1.0
 40
1.0
 10
740.3428448785387
 20
595.8790207985317
 30
0.0
 10
740.3532869522909
 20
595.9037806862545
 30
0.0
 10
740.7783116234986
 20
596.9115846328906
 30
0.0
 10
741.6574401699488
 20
598.8113693815422
 30
0.0
 10
742.6299150729482
 20
600.5304666822802
 30
0.0
 10
743.099144025619
 20
601.359948475051
 30
0.0
  0
ELLIPSE
  5
159
330
1F
100
AcDbEntity
  8
0
  6
SLD-実線
 62
     7
370
    25
100
AcDbEllipse
 10
673.470589398
 20
622.5061609621
 30
0.0
 11
85.13807572223324
 21
-15.52593761823073
 31
0.0
210
0.0
220
0.0
230
1.0
 40
0.1747060097
 41
5.701149188944689
 42
5.701598567614304
  0
SPLINE
  5
15A
330
1F
100
AcDbEntity
  8
0
  6
SLD-実線
 62
     7
370
    25
100
AcDbSpline
210
0.0
220
0.0
230
1.0
 70
     8
 71
     3
 72
    11
 73
     7
 74
     0
 42
0.000000001
 43
0.00000001
 40
0.0
 40
0.0
 40
0.0
 40
0.0
 40
0.3030517701418396
 40
0.6062910851293567
 40
0.9063278432879657
 40
1.0
 40
1.0
 40
1.0
 40
1.0
 10
743.1211873140351
 20
601.3616987037492
 30
0.0
 10
744.1970315141002
 20
603.027135623446
 30
0.0
 10
746.349385704879
 20
606.3590401253894
 30
0.0
 10
749.5040601301725
 20
609.5537253993436
 30
0.0
 10
751.5204361092473
 20
610.6841741788727
 30
0.0
 10
752.4311487248207
 20
610.6646394494182
 30
0.0
 10
752.647827625459
 20
610.6599917003587
 30
0.0
  0
ELLIPSE
  5
15B
330
1F
100
AcDbEntity
  8
0
  6
SLD-実線
 62
     7
370
    25
100
AcDbEllipse
 10
672.8578409269
 20
621.9080996697
 30
0.0
 11
78.93326849332709
 21
41.1536761569505
 31
0.0
210
0.0
220
0.0
230
1.0
 40
0.7781003356
 41
5.540101512227266
 42
5.540550890896875
  0
LINE
  5
15C
330
1F
100
AcDbEntity
  8
0
  6
SLD-実線
 62
     7
370
    25
100
AcDbLine
 10
752.6612213596
 20
610.6928290921
 30
0.0
 11
752.8795399798
 21
610.6105349859
 31
0.0
  0
LINE
  5
15D
330
1F
100
AcDbEntity
  8
0
  6
SLD-実線
 62
     7
370
    25
100
AcDbLine
 10
753.4886700091
 20
610.380926484
 30
0.0
 11
754.2983911157
 21
609.5000617531
 31
0.0
  0
ELLIPSE
  5
15E
330
1F
100
AcDbEntity
  8
0
  6
SLD-実線
 62
     7
370
    25
100
AcDbEllipse
 10
670.5703741975
 20
555.5905073785
 30
0.0
 11
37.55059399266315
 21
312.8769735043442
 31
0.0
210
0.0
220
0.0
230
1.0
 40
0.248519692
 41
4.915227946349262
 42
4.915295883084152
  0
SPLINE
  5
15F
330
1F
100
AcDbEntity
  8
0
  6
SLD-実線
 62
     7
370
    25
100
AcDbSpline
210
0.0
220
0.0
230
1.0
 70
     8
 71
     3
 72
     9
 73
     5
 74
     0
 42
0.000000001
 43
0.00000001
 40
0.0
 40
0.0
 40
0.0
 40
0.0
 40
0.5032669041500809
 40
1.0
 40
1.0
 40
1.0
 40
1.0
 10
754.2969567078967
 20
609.4791140938075
 30
0.0
 10
754.6971622020978
 20
608.5672051994425
 30
0.0
 10
755.4923774067956
 20
606.7552265319695
 30
0.0
 10
755.6891291729748
 20
603.2731844512721
 30
0.0
 10
755.7868622869031
 20
601.5435389086475
 30
0.0
  0
ELLIPSE
  5
160
330
1F
100
AcDbEntity
  8
0
  6
SLD-実線
 62
     7
370
    25
100
AcDbEllipse
 10
696.2370161961
 20
-89.9344875839
 30
0.0
 11
-47.46064454720306
 21
2382.264141663212
 31
0.0
210
0.0
220
0.0
230
1.0
 40
0.0321456507
 41
5.006205808111276
 42
5.006247913850128
  0
LINE
  5
161
330
1F
100
AcDbEntity
  8
0
  6
SLD-実線
 62
     7
370
    25
100
AcDbLine
 10
755.7897088866
 20
601.4475497431
 30
0.0
 11
755.7961148975
 21
601.1924624637
 31
0.0
  0
ELLIPSE
  5
162
330
1F
100
AcDbEntity
  8
0
  6
SLD-実線
 62
     7
370
    25
100
AcDbEllipse
 10
696.2290426677
 20
-92.4645973822
 30
0.0
 11
-47.42966404593688
 21
2384.227762263997
 31
0.0
210
0.0
220
0.0
230
1.0
 40
0.0321437199
 41
4.989169337464372
 42
5.006954216891847
  0
ARC
  5
163
330
1F
100
AcDbEntity
  8
0
  6
SLD-実線
 62
     7
370
    25
100
AcDbCircle
 10
716.0467897967
 20
582.627944547
 30
0.0
 40
46.53224141349215
100
AcDbArc
 50
296.9822747214
 51
331.6277925167
  0
ELLIPSE
  5
164
330
1F
100
AcDbEntity
  8
0
  6
SLD-実線
 62
     7
370
    25
100
AcDbEllipse
 10
650.0453894125
 20
-137.5412587872
 30
0.0
 11
46.20660832753664
 21
2475.504927694014
 31
0.0
210
0.0
220
0.0
230
1.0
 40
0.0312653869
 41
4.990696080958777
 42
5.008589731536757
  0
ELLIPSE
  5
165
330
1F
100
AcDbEntity
  8
0
  6
SLD-実線
 62
     7
370
    25
100
AcDbEllipse
 10
609.2130717552
 20
-3923.8842309046
 30
0.0
 11
82.05672559358175
 21
6804.554616611491
 31
0.0
210
0.0
220
0.0
230
1.0
 40
0.0145151841
 41
5.436620271095553
 42
5.436667810874763
  0
SPLINE
  5
166
330
1F
100
AcDbEntity
  8
0
  6
SLD-実線
 62
     7
370
    25
100
AcDbSpline
210
0.0
220
0.0
230
1.0
 70
     8
 71
     3
 72
     9
 73
     5
 74
     0
 42
0.000000001
 43
0.00000001
 40
0.0
 40
0.0
 40
0.0
 40
0.0
 40
0.4925538172969853
 40
1.0
 40
1.0
 40
1.0
 40
1.0
 10
737.5595136169502
 20
583.8907949624961
 30
0.0
 10
737.7138450836046
 20
585.8234434821552
 30
0.0
 10
738.0271742290398
 20
589.747174152369
 30
0.0
 10
739.5659118858233
 20
593.8044329218533
 30
0.0
 10
740.3467384359393
 20
595.8632733966663
 30
0.0
  0
LINE
  5
167
330
1F
100
AcDbEntity
  8
0
  6
SLD-実線
 62
     7
370
    25
100
AcDbLine
 10
750.6126525753
 20
611.2131086705
 30
0.0
 11
752.6612213596
 21
610.6928290921
 31
0.0
  0
SPLINE
  5
168
330
1F
100
AcDbEntity
  8
0
  6
SLD-実線
 62
     7
370
    25
100
AcDbSpline
210
0.0
220
0.0
230
1.0
 70
     8
 71
     3
 72
    12
 73
     8
 74
     0
 42
0.000000001
 43
0.00000001
 40
0.0
 40
0.0
 40
0.0
 40
0.0
 40
0.1515891068773413
 40
0.3031773579553619
 40
0.6096471421612153
 40
0.916115561031453
 40
1.0
 40
1.0
 40
1.0
 40
1.0
 10
741.0860122639281
 20
601.914815673842
 30
0.0
 10
741.5217569079463
 20
602.7966678436334
 30
0.0
 10
742.3932437359779
 20
604.5603672047021
 30
0.0
 10
744.3301275432418
 20
607.5569524086113
 30
0.0
 10
746.9123742913033
 20
610.3220350203454
 30
0.0
 10
749.2165263532908
 20
611.3266796402685
 30
0.0
 10
750.3657018069107
 20
611.2331974259146
 30
0.0
 10
750.6126525753439
 20
611.2131086704536
 30
0.0
  0
LINE
  5
169
330
1F
100
AcDbEntity
  8
0
  6
SLD-実線
 62
     7
370
    25
100
AcDbLine
 10
743.0991440256
 20
601.3599484751
 30
0.0
 11
741.0860122639
 21
601.9148156738
 31
0.0
  0
LINE
  5
16A
330
1F
100
AcDbEntity
  8
0
  6
SLD-実線
 62
     7
370
    25
100
AcDbLine
 10
738.937124446
 20
596.2463762748
 30
0.0
 11
740.3428448785
 21
595.8790207985
 31
0.0
  0
SPLINE
  5
16B
330
1F
100
AcDbEntity
  8
0
  6
SLD-実線
 62
     7
370
    25
100
AcDbSpline
210
0.0
220
0.0
230
1.0
 70
     8
 71
     3
 72
    10
 73
     6
 74
     0
 42
0.000000001
 43
0.00000001
 40
0.0
 40
0.0
 40
0.0
 40
0.0
 40
0.4922222216410544
 40
0.7461110504952768
 40
1.0
 40
1.0
 40
1.0
 40
1.0
 10
736.9819436411434
 20
584.0583897877488
 30
0.0
 10
737.0837258607495
 20
585.9937401724599
 30
0.0
 10
737.2380074747304
 20
588.9273466719776
 30
0.0
 10
738.0596890611307
 20
593.1224241015157
 30
0.0
 10
738.6446459380293
 20
595.2050587187335
 30
0.0
 10
738.9371244459729
 20
596.2463762747648
 30
0.0
  0
LINE
  5
16C
330
1F
100
AcDbEntity
  8
0
  6
SLD-実線
 62
     7
370
    25
100
AcDbLine
 10
734.148878899
 20
584.780428452
 30
0.0
 11
736.9819436411
 21
584.0583897877
 31
0.0
  0
ELLIPSE
  5
16D
330
1F
100
AcDbEntity
  8
0
  6
SLD-実線
 62
     7
370
    25
100
AcDbEllipse
 10
-43265.8545722596
 20
12553.7173251365
 30
0.0
 11
44013.09998030419
 21
-11972.81972381023
 31
0.0
210
0.0
220
0.0
230
1.0
 40
0.000359692
 41
0.0210778992103594
 42
0.0216943733101003
  0
LINE
  5
16E
330
1F
100
AcDbEntity
  8
0
  6
SLD-実線
 62
     7
370
    25
100
AcDbLine
 10
740.3467384359
 20
595.8632733967
 30
0.0
 11
738.937124446
 21
596.2463762748
 31
0.0
  0
LINE
  5
16F
330
1F
100
AcDbEntity
  8
0
  6
SLD-実線
 62
     7
370
    25
100
AcDbLine
 10
743.121187314
 20
601.3616987037
 30
0.0
 11
741.0860122639
 21
601.9148156738
 31
0.0
  0
LINE
  5
170
330
1F
100
AcDbEntity
  8
0
  6
SLD-実線
 62
     7
370
    25
100
AcDbLine
 10
752.6478276255
 20
610.6599917004
 30
0.0
 11
750.6126525753
 21
611.2131086705
 31
0.0
  0
LINE
  5
171
330
1F
100
AcDbEntity
  8
0
  6
SLD-実線
 62
     7
370
    25
100
AcDbLine
 10
749.3055117019
 20
611.5683615512
 30
0.0
 11
747.7079770017
 21
612.0025372517
 31
0.0
  0
LINE
  5
172
330
1F
100
AcDbEntity
  8
0
  6
SLD-実線
 62
     7
370
    25
100
AcDbLine
 10
737.1591579041
 20
541.1608804616
 30
0.0
 11
733.7332045078
 21
542.0933734256
 31
0.0
  0
LINE
  5
173
330
1F
100
AcDbEntity
  8
0
  6
SLD-実線
 62
     7
370
    25
100
AcDbLine
 10
734.1490279934
 20
584.517708091
 30
0.0
 11
737.5597026887
 21
583.6484589826
 31
0.0
  0
LINE
  5
174
330
1F
100
AcDbEntity
  8
0
  6
SLD-実線
 62
     7
370
    25
100
AcDbLine
 10
551.6383959274
 20
996.6086714442
 30
0.0
 11
551.6781277441
 21
992.4667505762
 31
0.0
  0
LINE
  5
175
330
1F
100
AcDbEntity
  8
0
  6
SLD-実線
 62
     7
370
    25
100
AcDbLine
 10
734.0775352587
 20
577.4979023267
 30
0.0
 11
733.9926430405
 21
577.5209742126
 31
0.0
  0
LINE
  5
176
330
1F
100
AcDbEntity
  8
0
  6
SLD-実線
 62
     7
370
    25
100
AcDbLine
 10
733.937281184
 20
572.6017035531
 30
0.0
 11
733.9499326753
 21
572.598256331
 31
0.0
  0
LINE
  5
177
330
1F
100
AcDbEntity
  8
0
  6
SLD-実線
 62
     7
370
    25
100
AcDbLine
 10
733.8639241471
 20
555.6120206733
 30
0.0
 11
733.7438194256
 21
555.6446625631
 31
0.0
  0
LINE
  5
178
330
1F
100
AcDbEntity
  8
0
  6
SLD-実線
 62
     7
370
    25
100
AcDbLine
 10
733.6868510997
 20
550.7180688911
 30
0.0
 11
733.6938725301
 21
550.7161557229
 31
0.0
  0
LINE
  5
179
330
1F
100
AcDbEntity
  8
0
  6
SLD-実線
 62
     7
370
    25
100
AcDbLine
 10
733.7283853765
 20
542.0906881921
 30
0.0
 11
732.8329208298
 21
542.3340562684
 31
0.0
  0
LINE
  5
17A
330
1F
100
AcDbEntity
  8
0
  6
SLD-実線
 62
     7
370
    25
100
AcDbLine
 10
757.1833198023
 20
595.2736095738
 30
0.0
 11
755.961528675
 21
595.6056662223
 31
0.0
  0
LINE
  5
17B
330
1F
100
AcDbEntity
  8
0
  6
SLD-実線
 62
     7
370
    25
100
AcDbLine
 10
757.1797028803
 20
595.2712241926
 30
0.0
 11
755.9616340278
 21
595.6021027945
 31
0.0
  0
LINE
  5
17C
330
1F
100
AcDbEntity
  8
0
  6
SLD-実線
 62
     7
370
    25
100
AcDbLine
 10
755.9932140966
 20
594.5336479859
 30
0.0
 11
757.2090623291
 21
594.2040872928
 31
0.0
  0
LINE
  5
17D
330
1F
100
AcDbEntity
  8
0
  6
SLD-実線
 62
     7
370
    25
100
AcDbLine
 10
757.7580266495
 20
574.2029881085
 30
0.0
 11
756.5814397567
 21
574.5227592147
 31
0.0
  0
LINE
  5
17E
330
1F
100
AcDbEntity
  8
0
  6
SLD-実線
 62
     7
370
    25
100
AcDbLine
 10
757.7561298162
 20
574.2016564967
 30
0.0
 11
756.5814989342
 21
574.5207355235
 31
0.0
  0
LINE
  5
17F
330
1F
100
AcDbEntity
  8
0
  6
SLD-実線
 62
     7
370
    25
100
AcDbLine
 10
756.6125380558
 20
573.4589981776
 30
0.0
 11
757.7849614597
 21
573.141207964
 31
0.0
  0
LINE
  5
180
330
1F
100
AcDbEntity
  8
0
  6
SLD-実線
 62
     7
370
    25
100
AcDbLine
 10
756.7815050426
 20
567.668910892
 30
0.0
 11
757.9434199901
 21
567.3531273061
 31
0.0
  0
LINE
  5
181
330
1F
100
AcDbEntity
  8
0
  6
SLD-実線
 62
     7
370
    25
100
AcDbLine
 10
758.8255961885
 20
565.844831226
 30
0.0
 11
756.8187503646
 21
566.3902489194
 31
0.0
  0
LINE
  5
182
330
1F
100
AcDbEntity
  8
0
  6
SLD-実線
 62
     7
370
    25
100
AcDbLine
 10
465.019163213
 20
581.6158186546
 30
0.0
 11
468.5199118109
 21
585.0326566066
 31
0.0
  0
LINE
  5
183
330
1F
100
AcDbEntity
  8
0
  6
SLD-実線
 62
     7
370
    25
100
AcDbLine
 10
468.5199118109
 20
585.0326566066
 30
0.0
 11
468.520807075
 21
585.0572519545
 31
0.0
  0
LWPOLYLINE
  5
184
330
1F
100
AcDbEntity
  8
0
  6
SLD-実線
 62
     7
370
    25
100
AcDbPolyline
 90
       31
 70
   128
 43
0.0
 10
343.8084308623
 20
1040.5930769751
 10
350.8088636336
 20
1038.8955934856
 10
358.079999337
 20
1037.5330076214
 10
365.561587052
 20
1036.5166101979
 10
373.1916319866
 20
1035.8548234044
 10
380.9069091854
 20
1035.5531310146
 10
388.6434874319
 20
1035.6140329467
 10
396.337259002
 20
1036.0370245481
 10
403.9244708815
 20
1036.8186007772
 10
411.3422530433
 20
1037.9522852472
 10
418.5291394083
 20
1039.4286838915
 10
425.4255771726
 20
1041.235562806
 10
431.974420281
 20
1043.3579496229
 10
438.1214029569
 20
1045.7782575767
 10
443.8155893661
 20
1048.4764312335
 10
449.0097956866
 20
1051.4301126765
 10
453.6609810891
 20
1054.6148267711
 10
457.7306043863
 20
1058.0041839733
 10
461.1849433981
 20
1061.5700990019
 10
463.9953743835
 20
1065.2830235619
 10
466.1386092262
 20
1069.1121911912
 10
467.5968884073
 20
1073.0258722007
 10
468.3581281663
 20
1076.9916365971
 10
468.4160206308
 20
1080.9766228076
 10
467.7700860855
 20
1084.9478099815
 10
466.4256769476
 20
1088.8722916111
 10
464.3939334146
 20
1092.7175482058
 10
461.6916911533
 20
1096.4517167583
 10
458.3413417941
 20
1100.043854772
 10
454.3706473868
 20
1103.46419666
 10
453.1586265962
 20
1104.3823571632
  0
LWPOLYLINE
  5
185
330
1F
100
AcDbEntity
  8
0
  6
SLD-実線
 62
     7
370
    25
100
AcDbPolyline
 90
       20
 70
   128
 43
0.0
 10
313.9713738549
 20
1104.5108298654
 10
311.1843657845
 20
1102.3370418737
 10
307.4184819453
 20
1098.8557980536
 10
304.282847406
 20
1095.2126027199
 10
301.8034450219
 20
1091.4376445366
 10
300.0008199021
 20
1087.562203996
 10
298.889909166
 20
1083.6183942191
 10
298.4799181698
 20
1079.6388948555
 10
298.774244228
 20
1075.6566812905
 10
299.7704484623
 20
1071.7047513997
 10
301.4602760105
 20
1067.8158521187
 10
303.8297244295
 20
1064.0222080919
 10
306.8591597235
 20
1060.3552546483
 10
310.5234790374
 20
1056.845377319
 10
314.7923186674
 20
1053.5216600531
 10
319.630305664
 20
1050.4116442185
 10
324.9973509432
 20
1047.5411003859
 10
330.8489814775
 20
1044.9338147855
 10
337.1367088136
 20
1042.6113922069
 10
343.8084308623
 20
1040.5930769751
  0
LWPOLYLINE
  5
186
330
1F
100
AcDbEntity
  8
0
  6
SLD-実線
 62
     7
370
    25
100
AcDbPolyline
 90
       24
 70
   128
 43
0.0
 10
343.8084308623
 20
1039.5216178492
 10
350.8088636336
 20
1037.8241343597
 10
358.079999337
 20
1036.4615484955
 10
365.561587052
 20
1035.445151072
 10
373.1916319866
 20
1034.7833642785
 10
380.9069091854
 20
1034.4816718887
 10
388.6434874319
 20
1034.5425738208
 10
396.337259002
 20
1034.9655654222
 10
403.9244708815
 20
1035.7471416513
 10
411.3422530433
 20
1036.8808261213
 10
418.5291394083
 20
1038.3572247656
 10
425.4255771726
 20
1040.1641036801
 10
431.974420281
 20
1042.286490497
 10
438.1214029569
 20
1044.7067984509
 10
443.8155893661
 20
1047.4049721076
 10
449.0097956866
 20
1050.3586535506
 10
453.6609810891
 20
1053.5433676452
 10
457.7306043863
 20
1056.9327248474
 10
461.1849433981
 20
1060.498639876
 10
463.9953743835
 20
1064.2115644361
 10
466.1386092262
 20
1068.0407320653
 10
467.5968884073
 20
1071.9544130748
 10
468.3581281663
 20
1075.9201774712
 10
468.4775389213
 20
1078.2398834275
  0
LWPOLYLINE
  5
187
330
1F
100
AcDbEntity
  8
0
  6
SLD-実線
 62
     7
370
    25
100
AcDbPolyline
 90
       13
 70
   128
 43
0.0
 10
298.4775389213
 20
1078.2398834275
 10
298.774244228
 20
1074.5852221646
 10
299.7704484623
 20
1070.6332922738
 10
301.4602760105
 20
1066.7443929928
 10
303.8297244295
 20
1062.950748966
 10
306.8591597235
 20
1059.2837955224
 10
310.5234790374
 20
1055.7739181932
 10
314.7923186674
 20
1052.4502009272
 10
319.630305664
 20
1049.3401850926
 10
324.9973509432
 20
1046.46964126
 10
330.8489814775
 20
1043.8623556596
 10
337.1367088136
 20
1041.539933081
 10
343.8084308623
 20
1039.5216178492
  0
LWPOLYLINE
  5
188
330
1F
100
AcDbEntity
  8
0
  6
SLD-実線
 62
     7
370
    25
100
AcDbPolyline
 90
       59
 70
   128
 43
0.0
 10
355.7675002036
 20
1057.6227909038
 10
361.6075187774
 20
1056.2382899215
 10
367.7039433413
 20
1055.1871087784
 10
373.9852988916
 20
1054.4815716124
 10
380.3779422773
 20
1054.1299502016
 10
386.8069255997
 20
1054.1363669856
 10
393.1968749074
 20
1054.5007467334
 10
399.4728738871
 20
1055.2188174258
 10
405.561342189
 20
1056.2821603403
 10
411.3908980891
 20
1057.6783087534
 10
416.8931953743
 20
1059.3908941017
 10
422.0037246398
 20
1061.3998378876
 10
426.6625696026
 20
1063.6815870822
 10
430.8151095651
 20
1066.2093902622
 10
434.412659793
 20
1068.9536112467
 10
437.413042299
 20
1071.8820765536
 10
439.7810803417
 20
1074.9604526048
 10
441.4890108401
 20
1078.1526482555
 10
442.5168098705
 20
1081.4212379306
 10
442.8524274293
 20
1084.7279004044
 10
442.4919287072
 20
1088.0338680829
 10
441.4395402223
 20
1091.3003815177
 10
439.7076002673
 20
1094.4891438254
 10
437.3164142546
 20
1097.5627696833
 10
434.294016654
 20
1100.4852236387
 10
430.675842314
 20
1103.2222425908
 10
426.5043110205
 20
1105.7417374949
 10
421.8283301638
 20
1108.0141695769
 10
416.7027213444
 20
1110.0128966484
 10
411.1875776391
 20
1111.7144854618
 10
405.3475590653
 20
1113.0989864441
 10
399.2511345013
 20
1114.1501675872
 10
392.9697789511
 20
1114.8557047533
 10
386.5771355654
 20
1115.2073261641
 10
380.148152243
 20
1115.2009093801
 10
373.7582029353
 20
1114.8365296322
 10
367.4822039555
 20
1114.1184589399
 10
361.3937356536
 20
1113.0551160254
 10
355.5641797536
 20
1111.6589676122
 10
350.0618824684
 20
1109.9463822639
 10
344.9513532029
 20
1107.937438478
 10
340.2925082401
 20
1105.6556892834
 10
336.1399682776
 20
1103.1278861034
 10
332.5424180497
 20
1100.3836651189
 10
329.5420355436
 20
1097.455199812
 10
327.1739975009
 20
1094.3768237609
 10
325.4660670026
 20
1091.1846281101
 10
324.4382679721
 20
1087.9160384351
 10
324.1026504134
 20
1084.6093759612
 10
324.4631491355
 20
1081.3034082827
 10
325.5155376204
 20
1078.0368948479
 10
327.2474775754
 20
1074.8481325403
 10
329.638663588
 20
1071.7745066823
 10
332.6610611886
 20
1068.852052727
 10
336.2792355287
 20
1066.1150337749
 10
340.4507668222
 20
1063.5955388707
 10
345.1267476788
 20
1061.3231067887
 10
350.2523564983
 20
1059.3243797172
 10
355.7675002036
 20
1057.6227909038
  0
LINE
  5
189
330
1F
100
AcDbEntity
  8
0
  6
SLD-実線
 62
     7
370
    25
100
AcDbLine
 10
442.8434269518
 20
1084.1329086186
 30
0.0
 11
442.6737680237
 21
1085.9684294035
 31
0.0
  0
LINE
  5
18A
330
1F
100
AcDbEntity
  8
0
  6
SLD-実線
 62
     7
370
    25
100
AcDbLine
 10
324.2813098185
 20
1085.9684293999
 30
0.0
 11
324.1116508907
 21
1084.1329086153
 31
0.0
  0
LWPOLYLINE
  5
18B
330
1F
100
AcDbEntity
  8
0
  6
SLD-実線
 62
     7
370
    25
100
AcDbPolyline
 90
       59
 70
   128
 43
0.0
 10
355.8258371272
 20
1057.6797295297
 10
361.653560925
 20
1056.2981432862
 10
367.737150911
 20
1055.2491751561
 10
374.0052825548
 20
1054.5451233315
 10
380.3844677439
 20
1054.1942421763
 10
386.7999163646
 20
1054.2006454512
 10
393.1764131474
 20
1054.5642580838
 10
399.4391994977
 20
1055.2808170484
 10
405.5148499716
 20
1056.3419213462
 10
411.3321331224
 20
1057.7351304996
 10
416.8228466238
 20
1059.444110405
 10
421.9226168804
 20
1061.4488248356
 10
426.5716537485
 20
1063.7257703477
 10
430.7154515216
 20
1066.2482518368
 10
434.3054279596
 20
1068.9866955139
 10
437.2994938709
 20
1071.9089956307
 10
439.6625465703
 20
1074.9808908902
 10
441.3668814255
 20
1078.166366129
 10
442.3925166685
 20
1081.4280745627
 10
442.727427664
 20
1084.7277756419
 10
442.3676878866
 20
1088.0267833884
 10
441.3175149564
 20
1091.2864199528
 10
439.5892211908
 20
1094.4684690766
 10
437.2030692539
 20
1097.5356241433
 10
434.1870345957
 20
1100.451925564
 10
430.5764774647
 20
1103.183182371
 10
426.4137283424
 20
1105.6973730753
 10
421.747591656
 20
1107.9650210898
 10
416.6327735919
 20
1109.9595403148
 10
411.1292407154
 20
1111.657546836
 10
405.3015169176
 20
1113.0391330794
 10
399.2179269317
 20
1114.0881012095
 10
392.9497952879
 20
1114.7921530342
 10
386.5706100987
 20
1115.1430341894
 10
380.1551614781
 20
1115.1366309144
 10
373.7786646952
 20
1114.7730182818
 10
367.515878345
 20
1114.0564593172
 10
361.440227871
 20
1112.9953550194
 10
355.6229447203
 20
1111.602145866
 10
350.1322312188
 20
1109.8931659606
 10
345.0324609623
 20
1107.88845153
 10
340.3834240941
 20
1105.611506018
 10
336.239626321
 20
1103.0890245288
 10
332.6496498831
 20
1100.3505808517
 10
329.6555839718
 20
1097.4282807349
 10
327.2925312724
 20
1094.3563854754
 10
325.5881964172
 20
1091.1709102366
 10
324.5625611741
 20
1087.909201803
 10
324.2276501787
 20
1084.6095007238
 10
324.5873899561
 20
1081.3104929772
 10
325.6375628863
 20
1078.0508564128
 10
327.3658566519
 20
1074.868807289
 10
329.7520085887
 20
1071.8016522223
 10
332.768043247
 20
1068.8853508016
 10
336.3786003779
 20
1066.1540939947
 10
340.5413495003
 20
1063.6399032903
 10
345.2074861867
 20
1061.3722552758
 10
350.3223042508
 20
1059.3777360508
 10
355.8258371272
 20
1057.6797295297
  0
LINE
  5
18C
330
1F
100
AcDbEntity
  8
0
  6
SLD-実線
 62
     7
370
    25
100
AcDbLine
 10
442.6737680236
 20
1082.2973878366
 30
0.0
 11
442.7275389213
 21
1083.5971790569
 31
0.0
  0
LWPOLYLINE
  5
18D
330
1F
100
AcDbEntity
  8
0
  6
SLD-実線
 62
     7
370
    25
100
AcDbPolyline
 90
        3
 70
   128
 43
0.0
 10
324.2275389213
 20
1083.5971790569
 10
324.2276501787
 20
1083.5380415979
 10
324.2813098187
 20
1082.2973878412
  0
LINE
  5
18E
330
1F
100
AcDbEntity
  8
0
  6
SLD-実線
 62
     8
370
    25
100
AcDbLine
 10
636.7539780406
 20
878.2550143513
 30
0.0
 11
637.4676793077
 21
878.063462937
 31
0.0
  0
LWPOLYLINE
  5
18F
330
1F
100
AcDbEntity
  8
0
  6
SLD-実線
 62
     8
370
    25
100
AcDbPolyline
 90
        3
 70
   128
 43
0.0
 10
718.2959525996
 20
881.016510477
 10
723.0872426616
 20
882.914433733
 10
728.7315758786
 20
885.587700709
  0
LWPOLYLINE
  5
190
330
1F
100
AcDbEntity
  8
0
  6
SLD-実線
 62
     8
370
    25
100
AcDbPolyline
 90
       15
 70
   128
 43
0.0
 10
462.5717810275
 20
1000.1649355317
 10
462.708496837
 20
999.7795328128
 10
463.6844461746
 20
995.8964396794
 10
463.9445888861
 20
991.9832416488
 10
463.4866033275
 20
988.0748620608
 10
462.3145767914
 20
984.206181253
 10
460.4389690299
 20
980.4117252713
 10
457.8765189064
 20
976.725357742
 10
454.6500950096
 20
973.1799776559
 10
450.7884915629
 20
969.8072257613
 10
446.3261714502
 20
966.6372021857
 10
441.302958652
 20
963.698197808
 10
435.763682836
 20
961.0164417757
 10
429.757779275
 20
958.6158674233
 10
425.8608450247
 20
957.2902557462
  0
LINE
  5
191
330
1F
100
AcDbEntity
  8
0
  6
SLD-実線
 62
     8
370
    25
100
AcDbLine
 10
542.6206611343
 20
994.7044926755
 30
0.0
 11
462.2380874136
 21
1016.5507538226
 31
0.0
  0
LINE
  5
192
330
1F
100
AcDbEntity
  8
0
  6
SLD-実線
 62
     8
370
    25
100
AcDbLine
 10
468.373220177
 20
922.2367141406
 30
0.0
 11
346.4840214133
 21
955.363586595
 31
0.0
  0
SPLINE
  5
193
330
1F
100
AcDbEntity
  8
0
  6
SLD-実線
 62
     8
370
    25
100
AcDbSpline
210
0.0
220
0.0
230
1.0
 70
     8
 71
     3
 72
    12
 73
     8
 74
     0
 42
0.000000001
 43
0.00000001
 40
0.0
 40
0.0
 40
0.0
 40
0.0
 40
0.000004859070875
 40
0.4026115002409479
 40
0.6746288210791686
 40
0.9466461501017474
 40
1.0
 40
1.0
 40
1.0
 40
1.0
 10
749.6792120013283
 20
901.4073677590748
 30
0.0
 10
749.6791981860891
 20
901.4073430120887
 30
0.0
 10
748.5344990650725
 20
899.3568643514188
 30
0.0
 10
746.0940291627797
 20
895.9889149302276
 30
0.0
 10
741.4930935753328
 20
891.5608543942001
 30
0.0
 10
738.0853334222589
 20
888.914735823097
 30
0.0
 10
735.9954034953538
 20
887.5673046569607
 30
0.0
 10
735.6527001004562
 20
887.3463550312912
 30
0.0
  0
LWPOLYLINE
  5
194
330
1F
100
AcDbEntity
  8
0
  6
SLD-実線
 62
     8
370
    25
100
AcDbPolyline
 90
       17
 70
   128
 43
0.0
 10
364.8135224937
 20
953.9209661236
 10
372.1622972541
 20
953.1908243149
 10
379.6120549005
 20
952.8210992711
 10
387.0963100629
 20
952.8150906038
 10
394.5482694985
 20
953.1728519373
 10
401.9014281878
 20
953.8911904303
 10
409.0901628584
 20
954.9636952701
 10
416.0503176403
 20
956.3807948861
 10
422.7197766251
 20
958.1298423715
 10
429.0390182192
 20
960.1952283501
 10
434.9516463446
 20
962.5585202826
 10
440.4048937454
 20
965.1986269677
 10
445.3500929095
 20
968.0919867707
 10
449.7431104021
 20
971.212777899
 10
453.544740734
 20
974.5331488489
 10
456.7210562513
 20
978.0234669666
 10
458.0773296175
 20
979.8395061556
  0
ARC
  5
195
330
1F
100
AcDbEntity
  8
0
  6
SLD-実線
 62
     8
370
    25
100
AcDbCircle
 10
709.8482832535
 20
949.1300857278
 30
0.0
 40
0.3390589372235547
100
AcDbArc
 50
80.838072711
 51
143.8641010256
  0
LINE
  5
196
330
1F
100
AcDbEntity
  8
0
  6
SLD-実線
 62
     8
370
    25
100
AcDbLine
 10
507.0665130004
 20
911.7207062482
 30
0.0
 11
474.7445197649
 21
920.5051314331
 31
0.0
  0
LINE
  5
197
330
1F
100
AcDbEntity
  8
0
  6
SLD-実線
 62
     8
370
    25
100
AcDbLine
 10
756.9352705701
 20
604.2927825077
 30
0.0
 11
755.4970539278
 21
604.6836589738
 31
0.0
  0
LINE
  5
198
330
1F
100
AcDbEntity
  8
0
  6
SLD-実線
 62
     8
370
    25
100
AcDbLine
 10
466.3682454409
 20
618.6787886903
 30
0.0
 11
468.1186197399
 21
620.3872076663
 31
0.0
  0
ENDSEC
  0
SECTION
  2
OBJECTS
  0
DICTIONARY
  5
C
330
0
100
AcDbDictionary
281
     1
  3
ACAD_GROUP
350
D
  3
ACAD_LAYOUT
350
1A
  3
ACAD_MLINESTYLE
350
17
  3
ACAD_PLOTSETTINGS
350
19
  3
ACAD_PLOTSTYLENAME
350
E
  3
ACAD_SCALELIST
350
47
  0
DICTIONARY
  5
D
102
{ACAD_REACTORS
330
C
102
}
330
C
100
AcDbDictionary
281
     1
  0
DICTIONARY
  5
1A
102
{ACAD_REACTORS
330
C
102
}
330
C
100
AcDbDictionary
281
     1
  3
Layout1
350
1E
  3
Layout2
350
26
  3
Model
350
22
  0
DICTIONARY
  5
17
102
{ACAD_REACTORS
330
C
102
}
330
C
100
AcDbDictionary
281
     1
  3
Standard
350
18
  0
DICTIONARY
  5
19
102
{ACAD_REACTORS
330
C
102
}
330
C
100
AcDbDictionary
281
     1
  0
ACDBDICTIONARYWDFLT
  5
E
102
{ACAD_REACTORS
330
C
102
}
330
C
100
AcDbDictionary
281
     1
  3
Normal
350
F
100
AcDbDictionaryWithDefault
340
F
  0
DICTIONARY
  5
47
102
{ACAD_REACTORS
330
C
102
}
330
C
100
AcDbDictionary
281
     1
  3
A0
350
48
  3
A1
350
49
  3
A2
350
4A
  3
A3
350
4B
  3
A4
350
4C
  3
A5
350
4D
  3
A6
350
4E
  3
A7
350
4F
  3
A8
350
50
  3
A9
350
51
  3
B0
350
52
  3
B1
350
53
  3
B2
350
54
  3
B3
350
55
  3
B4
350
56
  3
B5
350
57
  3
B6
350
58
  3
B7
350
59
  3
B8
350
5A
  3
B9
350
5B
  3
C0
350
5C
  3
C1
350
5D
  3
C2
350
5E
  3
C3
350
5F
  3
C4
350
60
  3
C5
350
61
  3
C6
350
62
  3
C7
350
63
  3
C8
350
64
  3
C9
350
65
  3
D0
350
66
  3
D1
350
67
  3
D2
350
68
  0
LAYOUT
  5
1E
102
{ACAD_REACTORS
330
1A
102
}
330
1A
100
AcDbPlotSettings
  1

  2
none_device
  4

  6

 40
0.0
 41
0.0
 42
0.0
 43
0.0
 44
0.0
 45
0.0
 46
0.0
 47
0.0
 48
0.0
 49
0.0
140
0.0
141
0.0
142
1.0
143
1.0
 70
   688
 72
     1
 73
     0
 74
     5
  7

 75
    16
147
1.0
148
0.0
149
0.0
100
AcDbLayout
  1
Layout1
 70
     1
 71
     1
 10
0.0
 20
0.0
 11
420.0
 21
297.0
 12
0.0
 22
0.0
 32
0.0
 14
1.0000000000E+20
 24
1.0000000000E+20
 34
1.0000000000E+20
 15
-1.0000000000E+20
 25
-1.0000000000E+20
 35
-1.0000000000E+20
146
0.0
 13
0.0
 23
0.0
 33
0.0
 16
1.0
 26
0.0
 36
0.0
 17
0.0
 27
1.0
 37
0.0
 76
     0
330
1B
  0
LAYOUT
  5
26
102
{ACAD_REACTORS
330
1A
102
}
330
1A
100
AcDbPlotSettings
  1

  2
none_device
  4

  6

 40
0.0
 41
0.0
 42
0.0
 43
0.0
 44
0.0
 45
0.0
 46
0.0
 47
0.0
 48
0.0
 49
0.0
140
0.0
141
0.0
142
1.0
143
1.0
 70
   688
 72
     1
 73
     0
 74
     5
  7

 75
    16
147
1.0
148
0.0
149
0.0
100
AcDbLayout
  1
Layout2
 70
     1
 71
     2
 10
0.0
 20
0.0
 11
0.0
 21
0.0
 12
0.0
 22
0.0
 32
0.0
 14
0.0
 24
0.0
 34
0.0
 15
0.0
 25
0.0
 35
0.0
146
0.0
 13
0.0
 23
0.0
 33
0.0
 16
1.0
 26
0.0
 36
0.0
 17
0.0
 27
1.0
 37
0.0
 76
     0
330
23
  0
LAYOUT
  5
22
102
{ACAD_REACTORS
330
1A
102
}
330
1A
100
AcDbPlotSettings
  1

  2
none_device
  4
Letter_(8.50_x_11.00_Inches)
  6

 40
6.35
 41
6.35
 42
6.35000508
 43
6.35000508
 44
215.9
 45
279.4
 46
0.0
 47
0.0
 48
0.0
 49
0.0
140
0.0
141
0.0
142
1.0
143
1.0
 70
  1712
 72
     1
 73
     0
 74
     0
  7

 75
     0
147
1.0
148
0.0
149
0.0
100
AcDbLayout
  1
Model
 70
     1
 71
     0
 10
0.0
 20
0.0
 11
1050.0
 21
1485.0
 12
0.0
 22
0.0
 32
0.0
 14
0.0
 24
0.0
 34
0.0
 15
1050.0
 25
1485.0
 35
0.0
146
0.0
 13
0.0
 23
0.0
 33
0.0
 16
1.0
 26
0.0
 36
0.0
 17
0.0
 27
1.0
 37
0.0
 76
     0
330
1F
331
29
  0
MLINESTYLE
  5
18
102
{ACAD_REACTORS
330
17
102
}
330
17
100
AcDbMlineStyle
  2
Standard
 70
     0
  3

 62
   256
 51
90.0
 52
90.0
 71
     2
 49
0.5
 62
   256
  6
BYLAYER
 49
-0.5
 62
   256
  6
BYLAYER
  0
ACDBPLACEHOLDER
  5
F
102
{ACAD_REACTORS
330
E
102
}
330
E
  0
SCALE
  5
48
102
{ACAD_REACTORS
330
47
102
}
330
47
100
AcDbScale
 70
     0
300
1:1
140
1.0
141
1.0
290
     1
  0
SCALE
  5
49
102
{ACAD_REACTORS
330
47
102
}
330
47
100
AcDbScale
 70
     0
300
1:2
140
1.0
141
2.0
290
     0
  0
SCALE
  5
4A
102
{ACAD_REACTORS
330
47
102
}
330
47
100
AcDbScale
 70
     0
300
1:4
140
1.0
141
4.0
290
     0
  0
SCALE
  5
4B
102
{ACAD_REACTORS
330
47
102
}
330
47
100
AcDbScale
 70
     0
300
1:5
140
1.0
141
5.0
290
     0
  0
SCALE
  5
4C
102
{ACAD_REACTORS
330
47
102
}
330
47
100
AcDbScale
 70
     0
300
1:8
140
1.0
141
8.0
290
     0
  0
SCALE
  5
4D
102
{ACAD_REACTORS
330
47
102
}
330
47
100
AcDbScale
 70
     0
300
1:10
140
1.0
141
10.0
290
     0
  0
SCALE
  5
4E
102
{ACAD_REACTORS
330
47
102
}
330
47
100
AcDbScale
 70
     0
300
1:16
140
1.0
141
16.0
290
     0
  0
SCALE
  5
4F
102
{ACAD_REACTORS
330
47
102
}
330
47
100
AcDbScale
 70
     0
300
1:20
140
1.0
141
20.0
290
     0
  0
SCALE
  5
50
102
{ACAD_REACTORS
330
47
102
}
330
47
100
AcDbScale
 70
     0
300
1:30
140
1.0
141
30.0
290
     0
  0
SCALE
  5
51
102
{ACAD_REACTORS
330
47
102
}
330
47
100
AcDbScale
 70
     0
300
1:40
140
1.0
141
40.0
290
     0
  0
SCALE
  5
52
102
{ACAD_REACTORS
330
47
102
}
330
47
100
AcDbScale
 70
     0
300
1:50
140
1.0
141
50.0
290
     0
  0
SCALE
  5
53
102
{ACAD_REACTORS
330
47
102
}
330
47
100
AcDbScale
 70
     0
300
1:100
140
1.0
141
100.0
290
     0
  0
SCALE
  5
54
102
{ACAD_REACTORS
330
47
102
}
330
47
100
AcDbScale
 70
     0
300
2:1
140
2.0
141
1.0
290
     0
  0
SCALE
  5
55
102
{ACAD_REACTORS
330
47
102
}
330
47
100
AcDbScale
 70
     0
300
4:1
140
4.0
141
1.0
290
     0
  0
SCALE
  5
56
102
{ACAD_REACTORS
330
47
102
}
330
47
100
AcDbScale
 70
     0
300
8:1
140
8.0
141
1.0
290
     0
  0
SCALE
  5
57
102
{ACAD_REACTORS
330
47
102
}
330
47
100
AcDbScale
 70
     0
300
10:1
140
10.0
141
1.0
290
     0
  0
SCALE
  5
58
102
{ACAD_REACTORS
330
47
102
}
330
47
100
AcDbScale
 70
     0
300
100:1
140
100.0
141
1.0
290
     0
  0
SCALE
  5
59
102
{ACAD_REACTORS
330
47
102
}
330
47
100
AcDbScale
 70
     0
300
1/128" = 1'-0"
140
0.0078125
141
12.0
290
     0
  0
SCALE
  5
5A
102
{ACAD_REACTORS
330
47
102
}
330
47
100
AcDbScale
 70
     0
300
1/64" = 1'-0"
140
0.015625
141
12.0
290
     0
  0
SCALE
  5
5B
102
{ACAD_REACTORS
330
47
102
}
330
47
100
AcDbScale
 70
     0
300
1/32" = 1'-0"
140
0.03125
141
12.0
290
     0
  0
SCALE
  5
5C
102
{ACAD_REACTORS
330
47
102
}
330
47
100
AcDbScale
 70
     0
300
1/16" = 1'-0"
140
0.0625
141
12.0
290
     0
  0
SCALE
  5
5D
102
{ACAD_REACTORS
330
47
102
}
330
47
100
AcDbScale
 70
     0
300
3/32" = 1'-0"
140
0.09375
141
12.0
290
     0
  0
SCALE
  5
5E
102
{ACAD_REACTORS
330
47
102
}
330
47
100
AcDbScale
 70
     0
300
1/8" = 1'-0"
140
0.125
141
12.0
290
     0
  0
SCALE
  5
5F
102
{ACAD_REACTORS
330
47
102
}
330
47
100
AcDbScale
 70
     0
300
3/16" = 1'-0"
140
0.1875
141
12.0
290
     0
  0
SCALE
  5
60
102
{ACAD_REACTORS
330
47
102
}
330
47
100
AcDbScale
 70
     0
300
1/4" = 1'-0"
140
0.25
141
12.0
290
     0
  0
SCALE
  5
61
102
{ACAD_REACTORS
330
47
102
}
330
47
100
AcDbScale
 70
     0
300
3/8" = 1'-0"
140
0.375
141
12.0
290
     0
  0
SCALE
  5
62
102
{ACAD_REACTORS
330
47
102
}
330
47
100
AcDbScale
 70
     0
300
1/2" = 1'-0"
140
0.5
141
12.0
290
     0
  0
SCALE
  5
63
102
{ACAD_REACTORS
330
47
102
}
330
47
100
AcDbScale
 70
     0
300
3/4" = 1'-0"
140
0.75
141
12.0
290
     0
  0
SCALE
  5
64
102
{ACAD_REACTORS
330
47
102
}
330
47
100
AcDbScale
 70
     0
300
1" = 1'-0"
140
1.0
141
12.0
290
     0
  0
SCALE
  5
65
102
{ACAD_REACTORS
330
47
102
}
330
47
100
AcDbScale
 70
     0
300
1-1/2" = 1'-0"
140
1.5
141
12.0
290
     0
  0
SCALE
  5
66
102
{ACAD_REACTORS
330
47
102
}
330
47
100
AcDbScale
 70
     0
300
3" = 1'-0"
140
3.0
141
12.0
290
     0
  0
SCALE
  5
67
102
{ACAD_REACTORS
330
47
102
}
330
47
100
AcDbScale
 70
     0
300
6" = 1'-0"
140
6.0
141
12.0
290
     0
  0
SCALE
  5
68
102
{ACAD_REACTORS
330
47
102
}
330
47
100
AcDbScale
 70
     0
300
1'-0" = 1'-0"
140
12.0
141
12.0
290
     0
  0
ENDSEC
  0
EOF
