  0
SECTION
  2
HEADER
  9
$ACADVER
  1
AC1032
  9
$ACADMAINTVER
 90
        4
  9
$DWGCODEPAGE
  3
ANSI_932
  9
$LASTSAVEDBY
  1
9128
  9
$REQUIREDVERSIONS
160
                 0
  9
$INSBASE
 10
0.0
 20
0.0
 30
0.0
  9
$EXTMIN
 10
170.0525359245374
 20
48.91926069558721
 30
0.0
  9
$EXTMAX
 10
322.5060793000954
 20
255.2538705671755
 30
0.0
  9
$LIMMIN
 10
0.0
 20
0.0
  9
$LIMMAX
 10
431.8
 20
279.4
  9
$ORTHOMODE
 70
     0
  9
$REGENMODE
 70
     1
  9
$FILLMODE
 70
     1
  9
$QTEXTMODE
 70
     0
  9
$MIRRTEXT
 70
     1
  9
$LTSCALE
 40
1.0
  9
$ATTMODE
 70
     1
  9
$TEXTSIZE
 40
3.5
  9
$TRACEWID
 40
1.0
  9
$TEXTSTYLE
  7
Standard
  9
$CLAYER
  8
0
  9
$CELTYPE
  6
ByLayer
  9
$CECOLOR
 62
   256
  9
$CELTSCALE
 40
1.0
  9
$DISPSILH
 70
     0
  9
$DIMSCALE
 40
1.0
  9
$DIMASZ
 40
3.302
  9
$DIMEXO
 40
1.0
  9
$DIMDLI
 40
3.75
  9
$DIMRND
 40
0.0
  9
$DIMDLE
 40
0.0
  9
$DIMEXE
 40
1.0
  9
$DIMTP
 40
0.0
  9
$DIMTM
 40
0.0
  9
$DIMTXT
 40
3.5
  9
$DIMCEN
 40
2.5
  9
$DIMTSZ
 40
0.0
  9
$DIMTOL
 70
     0
  9
$DIMLIM
 70
     0
  9
$DIMTIH
 70
     1
  9
$DIMTOH
 70
     1
  9
$DIMSE1
 70
     0
  9
$DIMSE2
 70
     0
  9
$DIMTAD
 70
     1
  9
$DIMZIN
 70
     1
  9
$DIMBLK
  1

  9
$DIMASO
 70
     1
  9
$DIMSHO
 70
     1
  9
$DIMPOST
  1

  9
$DIMAPOST
  1

  9
$DIMALT
 70
     0
  9
$DIMALTD
 70
     3
  9
$DIMALTF
 40
0.0393700787401575
  9
$DIMLFAC
 40
5.0
  9
$DIMTOFL
 70
     1
  9
$DIMTVP
 40
0.0
  9
$DIMTIX
 70
     0
  9
$DIMSOXD
 70
     0
  9
$DIMSAH
 70
     0
  9
$DIMBLK1
  1

  9
$DIMBLK2
  1

  9
$DIMSTYLE
  2
ISO-25
  9
$DIMCLRD
 70
     0
  9
$DIMCLRE
 70
     0
  9
$DIMCLRT
 70
     0
  9
$DIMTFAC
 40
1.0
  9
$DIMGAP
 40
1.524
  9
$DIMJUST
 70
     0
  9
$DIMSD1
 70
     0
  9
$DIMSD2
 70
     0
  9
$DIMTOLJ
 70
     0
  9
$DIMTZIN
 70
     1
  9
$DIMALTZ
 70
     0
  9
$DIMALTTZ
 70
     0
  9
$DIMUPT
 70
     0
  9
$DIMDEC
 70
     2
  9
$DIMTDEC
 70
     2
  9
$DIMALTU
 70
     2
  9
$DIMALTTD
 70
     3
  9
$DIMTXSTY
  7
Standard
  9
$DIMAUNIT
 70
     0
  9
$DIMADEC
 70
     2
  9
$DIMALTRND
 40
0.0
  9
$DIMAZIN
 70
     0
  9
$DIMDSEP
 70
    44
  9
$DIMATFIT
 70
     3
  9
$DIMFRAC
 70
     0
  9
$DIMLDRBLK
  1

  9
$DIMLUNIT
 70
     2
  9
$DIMLWD
 70
    -2
  9
$DIMLWE
 70
    -2
  9
$DIMTMOVE
 70
     0
  9
$DIMFXL
 40
1.0
  9
$DIMFXLON
 70
     0
  9
$DIMJOGANG
 40
0.7853981633974483
  9
$DIMTFILL
 70
     0
  9
$DIMTFILLCLR
 70
     0
  9
$DIMARCSYM
 70
     0
  9
$DIMLTYPE
  6

  9
$DIMLTEX1
  6

  9
$DIMLTEX2
  6

  9
$DIMTXTDIRECTION
 70
     0
  9
$LUNITS
 70
     2
  9
$LUPREC
 70
     2
  9
$SKETCHINC
 40
1.0
  9
$FILLETRAD
 40
10.0
  9
$AUNITS
 70
     0
  9
$AUPREC
 70
     2
  9
$MENU
  1
.
  9
$ELEVATION
 40
0.0
  9
$PELEVATION
 40
0.0
  9
$THICKNESS
 40
0.0
  9
$LIMCHECK
 70
     0
  9
$CHAMFERA
 40
0.0
  9
$CHAMFERB
 40
0.0
  9
$CHAMFERC
 40
0.0
  9
$CHAMFERD
 40
0.0
  9
$SKPOLY
 70
     0
  9
$TDCREATE
 40
2459606.463578414
  9
$TDUCREATE
 40
2459606.088578414
  9
$TDUPDATE
 40
2459608.570044063
  9
$TDUUPDATE
 40
2459608.195044063
  9
$TDINDWG
 40
0.0017902315
  9
$TDUSRTIMER
 40
0.0002427778
  9
$USRTIMER
 70
     1
  9
$ANGBASE
 50
0.0
  9
$ANGDIR
 70
     0
  9
$PDMODE
 70
     0
  9
$PDSIZE
 40
-1.0
  9
$PLINEWID
 40
0.0
  9
$SPLFRAME
 70
     0
  9
$SPLINETYPE
 70
     6
  9
$SPLINESEGS
 70
     8
  9
$HANDSEED
  5
315
  9
$SURFTAB1
 70
     6
  9
$SURFTAB2
 70
     6
  9
$SURFTYPE
 70
     6
  9
$SURFU
 70
     6
  9
$SURFV
 70
     6
  9
$UCSBASE
  2

  9
$UCSNAME
  2

  9
$UCSORG
 10
0.0
 20
0.0
 30
0.0
  9
$UCSXDIR
 10
1.0
 20
0.0
 30
0.0
  9
$UCSYDIR
 10
0.0
 20
1.0
 30
0.0
  9
$UCSORTHOREF
  2

  9
$UCSORTHOVIEW
 70
     0
  9
$UCSORGTOP
 10
0.0
 20
0.0
 30
0.0
  9
$UCSORGBOTTOM
 10
0.0
 20
0.0
 30
0.0
  9
$UCSORGLEFT
 10
0.0
 20
0.0
 30
0.0
  9
$UCSORGRIGHT
 10
0.0
 20
0.0
 30
0.0
  9
$UCSORGFRONT
 10
0.0
 20
0.0
 30
0.0
  9
$UCSORGBACK
 10
0.0
 20
0.0
 30
0.0
  9
$PUCSBASE
  2

  9
$PUCSNAME
  2

  9
$PUCSORG
 10
0.0
 20
0.0
 30
0.0
  9
$PUCSXDIR
 10
1.0
 20
0.0
 30
0.0
  9
$PUCSYDIR
 10
0.0
 20
1.0
 30
0.0
  9
$PUCSORTHOREF
  2

  9
$PUCSORTHOVIEW
 70
     0
  9
$PUCSORGTOP
 10
0.0
 20
0.0
 30
0.0
  9
$PUCSORGBOTTOM
 10
0.0
 20
0.0
 30
0.0
  9
$PUCSORGLEFT
 10
0.0
 20
0.0
 30
0.0
  9
$PUCSORGRIGHT
 10
0.0
 20
0.0
 30
0.0
  9
$PUCSORGFRONT
 10
0.0
 20
0.0
 30
0.0
  9
$PUCSORGBACK
 10
0.0
 20
0.0
 30
0.0
  9
$USERI1
 70
     0
  9
$USERI2
 70
     0
  9
$USERI3
 70
     0
  9
$USERI4
 70
     0
  9
$USERI5
 70
     0
  9
$USERR1
 40
0.0
  9
$USERR2
 40
0.0
  9
$USERR3
 40
0.0
  9
$USERR4
 40
0.0
  9
$USERR5
 40
0.0
  9
$WORLDVIEW
 70
     1
  9
$SHADEDGE
 70
     3
  9
$SHADEDIF
 70
    70
  9
$TILEMODE
 70
     1
  9
$MAXACTVP
 70
    64
  9
$PINSBASE
 10
0.0
 20
0.0
 30
0.0
  9
$PLIMCHECK
 70
     0
  9
$PEXTMIN
 10
1.000000000000000E+20
 20
1.000000000000000E+20
 30
1.000000000000000E+20
  9
$PEXTMAX
 10
-1.000000000000000E+20
 20
-1.000000000000000E+20
 30
-1.000000000000000E+20
  9
$PLIMMIN
 10
0.0
 20
0.0
  9
$PLIMMAX
 10
0.0
 20
0.0
  9
$UNITMODE
 70
     0
  9
$VISRETAIN
 70
     1
  9
$PLINEGEN
 70
     0
  9
$PSLTSCALE
 70
     1
  9
$TREEDEPTH
 70
  3020
  9
$CMLSTYLE
  2
Standard
  9
$CMLJUST
 70
     0
  9
$CMLSCALE
 40
20.0
  9
$PROXYGRAPHICS
 70
     1
  9
$MEASUREMENT
 70
     1
  9
$CELWEIGHT
370
    -1
  9
$ENDCAPS
280
     0
  9
$JOINSTYLE
280
     0
  9
$LWDISPLAY
290
     1
  9
$INSUNITS
 70
     4
  9
$HYPERLINKBASE
  1

  9
$STYLESHEET
  1

  9
$XEDIT
290
     1
  9
$CEPSNTYPE
380
     0
  9
$PSTYLEMODE
290
     1
  9
$FINGERPRINTGUID
  2
{c3d7a23b-45b8-439e-9801-f261ad8da4ef}
  9
$VERSIONGUID
  2
{FAEB1C32-E019-11D5-929B-00C0DF256EC4}
  9
$EXTNAMES
290
     1
  9
$PSVPSCALE
 40
0.0
  9
$OLESTARTUP
290
     0
  9
$SORTENTS
280
   127
  9
$INDEXCTL
280
     0
  9
$HIDETEXT
280
     1
  9
$XCLIPFRAME
280
     2
  9
$HALOGAP
280
     0
  9
$OBSCOLOR
 70
   257
  9
$OBSLTYPE
280
     0
  9
$INTERSECTIONDISPLAY
280
     0
  9
$INTERSECTIONCOLOR
 70
   257
  9
$DIMASSOC
280
     2
  9
$PROJECTNAME
  1

  9
$CAMERADISPLAY
290
     0
  9
$LENSLENGTH
 40
50.0
  9
$CAMERAHEIGHT
 40
0.0
  9
$STEPSPERSEC
 40
2.0
  9
$STEPSIZE
 40
6.0
  9
$3DDWFPREC
 40
2.0
  9
$PSOLWIDTH
 40
0.25
  9
$PSOLHEIGHT
 40
4.0
  9
$LOFTANG1
 40
1.570796326794897
  9
$LOFTANG2
 40
1.570796326794897
  9
$LOFTMAG1
 40
0.0
  9
$LOFTMAG2
 40
0.0
  9
$LOFTPARAM
 70
     7
  9
$LOFTNORMALS
280
     1
  9
$LATITUDE
 40
37.795
  9
$LONGITUDE
 40
-122.394
  9
$NORTHDIRECTION
 40
0.0
  9
$TIMEZONE
 70
 -8000
  9
$LIGHTGLYPHDISPLAY
280
     1
  9
$TILEMODELIGHTSYNCH
280
     1
  9
$SOLIDHIST
280
     0
  9
$SHOWHIST
280
     1
  9
$DWFFRAME
280
     2
  9
$DGNFRAME
280
     2
  9
$REALWORLDSCALE
290
     1
  9
$INTERFERECOLOR
 62
   256
  9
$CSHADOW
280
     0
  9
$SHADOWPLANELOCATION
 40
0.0
  0
ENDSEC
  0
SECTION
  2
CLASSES
  0
CLASS
  1
ACDBDICTIONARYWDFLT
  2
AcDbDictionaryWithDefault
  3
ObjectDBX Classes
 90
        0
 91
        3
280
     0
281
     0
  0
CLASS
  1
VISUALSTYLE
  2
AcDbVisualStyle
  3
ObjectDBX Classes
 90
     4095
 91
        3
280
     0
281
     0
  0
CLASS
  1
MATERIAL
  2
AcDbMaterial
  3
ObjectDBX Classes
 90
     1153
 91
        3
280
     0
281
     0
  0
CLASS
  1
SCALE
  2
AcDbScale
  3
ObjectDBX Classes
 90
     1153
 91
        3
280
     0
281
     0
  0
CLASS
  1
TABLESTYLE
  2
AcDbTableStyle
  3
ObjectDBX Classes
 90
     4095
 91
        3
280
     0
281
     0
  0
CLASS
  1
MLEADERSTYLE
  2
AcDbMLeaderStyle
  3
ACDB_MLEADERSTYLE_CLASS
 90
     4095
 91
        3
280
     0
281
     0
  0
CLASS
  1
SUN
  2
AcDbSun
  3
SCENEOE
 90
     1153
 91
        3
280
     0
281
     0
  0
CLASS
  1
ACDBPLACEHOLDER
  2
AcDbPlaceHolder
  3
ObjectDBX Classes
 90
        0
 91
        1
280
     0
281
     0
  0
CLASS
  1
LAYOUT
  2
AcDbLayout
  3
ObjectDBX Classes
 90
        0
 91
        1
280
     0
281
     0
  0
CLASS
  1
DICTIONARYVAR
  2
AcDbDictionaryVar
  3
ObjectDBX Classes
 90
        0
 91
        3
280
     0
281
     0
  0
CLASS
  1
CELLSTYLEMAP
  2
AcDbCellStyleMap
  3
ObjectDBX Classes
 90
     1152
 91
        3
280
     0
281
     0
  0
ENDSEC
  0
SECTION
  2
TABLES
  0
TABLE
  2
VPORT
  5
8
330
0
100
AcDbSymbolTable
 70
     1
  0
VPORT
  5
29
330
8
100
AcDbSymbolTableRecord
100
AcDbViewportTableRecord
  2
*Active
 70
     0
 10
0.0
 20
0.0
 11
1.0
 21
1.0
 12
253.4971227550984
 22
124.9038439516328
 13
0.0
 23
0.0
 14
10.0
 24
10.0
 15
10.0
 25
10.0
 16
0.0
 26
0.0
 36
1.0
 17
0.0
 27
0.0
 37
0.0
 40
362.3093643546379
 41
0.9324116743471581
 42
50.0
 43
0.0
 44
0.0
 50
0.0
 51
0.0
 71
    16
 72
  2000
 73
     1
 74
     3
 75
     0
 76
     0
 77
     0
 78
     0
281
     0
 65
     1
110
0.0
120
0.0
130
0.0
111
1.0
121
0.0
131
0.0
112
0.0
122
1.0
132
0.0
 79
     0
146
0.0
348
2F0
 60
     3
 61
     5
292
     1
282
     1
141
0.0
142
0.0
 63
   256
361
310
  0
ENDTAB
  0
TABLE
  2
LTYPE
  5
5
330
0
100
AcDbSymbolTable
 70
     6
  0
LTYPE
  5
14
330
5
100
AcDbSymbolTableRecord
100
AcDbLinetypeTableRecord
  2
ByBlock
 70
     0
  3

 72
    65
 73
     0
 40
0.0
  0
LTYPE
  5
15
330
5
100
AcDbSymbolTableRecord
100
AcDbLinetypeTableRecord
  2
ByLayer
 70
     0
  3

 72
    65
 73
     0
 40
0.0
  0
LTYPE
  5
16
330
5
100
AcDbSymbolTableRecord
100
AcDbLinetypeTableRecord
  2
Continuous
 70
     0
  3
Solid line
 72
    65
 73
     0
 40
0.0
  0
LTYPE
  5
6E
330
5
100
AcDbSymbolTableRecord
100
AcDbLinetypeTableRecord
  2
HIDDEN
 70
     0
  3
Hidden __ __ __ __ __ __ __ __ __ __ __ __ __ __
 72
    65
 73
     2
 40
1.905
 49
1.27
 74
     0
 49
-0.635
 74
     0
  0
LTYPE
  5
6F
330
5
100
AcDbSymbolTableRecord
100
AcDbLinetypeTableRecord
  2
PHANTOM
 70
     0
  3
Phantom ______  __  __  ______  __  __  ______
 72
    65
 73
     6
 40
12.7
 49
6.35
 74
     0
 49
-1.27
 74
     0
 49
1.27
 74
     0
 49
-1.27
 74
     0
 49
1.27
 74
     0
 49
-1.27
 74
     0
  0
LTYPE
  5
70
330
5
100
AcDbSymbolTableRecord
100
AcDbLinetypeTableRecord
  2
CENTER
 70
     0
  3
Center ____ _ ____ _ ____ _ ____ _ ____ _ ____
 72
    65
 73
     4
 40
10.16
 49
6.35
 74
     0
 49
-1.27
 74
     0
 49
1.27
 74
     0
 49
-1.27
 74
     0
  0
LTYPE
  5
71
330
5
100
AcDbSymbolTableRecord
100
AcDbLinetypeTableRecord
  2
CENTERX2
 70
     0
  3
Center (2x) ________  __  ________  __  _____
 72
    65
 73
     4
 40
20.32
 49
12.7
 74
     0
 49
-2.54
 74
     0
 49
2.54
 74
     0
 49
-2.54
 74
     0
  0
LTYPE
  5
72
330
5
100
AcDbSymbolTableRecord
100
AcDbLinetypeTableRecord
  2
DOT2
 70
     0
  3
Dot (.5x) ........................................
 72
    65
 73
     2
 40
0.635
 49
0.0
 74
     0
 49
-0.635
 74
     0
  0
ENDTAB
  0
TABLE
  2
LAYER
  5
2
102
{ACAD_XDICTIONARY
360
2DD
102
}
330
0
100
AcDbSymbolTable
 70
     1
  0
LAYER
  5
10
330
2
100
AcDbSymbolTableRecord
100
AcDbLayerTableRecord
  2
0
 70
     0
 62
     7
  6
Continuous
370
    -3
390
F
347
307
348
0
  0
ENDTAB
  0
TABLE
  2
STYLE
  5
3
330
0
100
AcDbSymbolTable
 70
     1
  0
STYLE
  5
11
330
3
100
AcDbSymbolTableRecord
100
AcDbTextStyleTableRecord
  2
Standard
 70
     0
 40
0.0
 41
1.0
 50
0.0
 71
     0
 42
3.5
  3
txt
  4
bigfont
  0
ENDTAB
  0
TABLE
  2
VIEW
  5
6
330
0
100
AcDbSymbolTable
 70
     0
  0
ENDTAB
  0
TABLE
  2
UCS
  5
7
330
0
100
AcDbSymbolTable
 70
     0
  0
ENDTAB
  0
TABLE
  2
APPID
  5
9
330
0
100
AcDbSymbolTable
 70
     2
  0
APPID
  5
12
330
9
100
AcDbSymbolTableRecord
100
AcDbRegAppTableRecord
  2
ACAD
 70
     0
  0
APPID
  5
311
330
9
100
AcDbSymbolTableRecord
100
AcDbRegAppTableRecord
  2
PLOTTRANSPARENCY
 70
     0
  0
ENDTAB
  0
TABLE
  2
DIMSTYLE
  5
A
330
0
100
AcDbSymbolTable
 70
     2
100
AcDbDimStyleTable
  0
DIMSTYLE
105
27
330
A
100
AcDbSymbolTableRecord
100
AcDbDimStyleTableRecord
  2
ISO-25
 70
     0
 41
2.5
 42
0.625
 43
3.75
 44
1.25
 73
     0
 74
     0
 77
     1
 78
     8
140
2.5
141
2.5
143
0.03937007874016
147
0.625
171
     3
172
     1
178
     0
271
     2
272
     2
274
     3
278
    44
283
     0
284
     8
340
11
  0
DIMSTYLE
105
2D4
330
A
100
AcDbSymbolTableRecord
100
AcDbDimStyleTableRecord
  2
Standard
 70
     0
178
     0
340
11
  0
ENDTAB
  0
TABLE
  2
BLOCK_RECORD
  5
1
330
0
100
AcDbSymbolTable
 70
     1
  0
BLOCK_RECORD
  5
1F
330
1
100
AcDbSymbolTableRecord
100
AcDbBlockTableRecord
  2
*Model_Space
340
22
 70
     0
280
     1
281
     0
  0
BLOCK_RECORD
  5
1B
330
1
100
AcDbSymbolTableRecord
100
AcDbBlockTableRecord
  2
*Paper_Space
340
1E
 70
     0
280
     1
281
     0
  0
BLOCK_RECORD
  5
23
330
1
100
AcDbSymbolTableRecord
100
AcDbBlockTableRecord
  2
*Paper_Space0
340
26
 70
     0
280
     1
281
     0
  0
ENDTAB
  0
ENDSEC
  0
SECTION
  2
BLOCKS
  0
BLOCK
  5
20
330
1F
100
AcDbEntity
  8
0
100
AcDbBlockBegin
  2
*Model_Space
 70
     0
 10
0.0
 20
0.0
 30
0.0
  3
*Model_Space
  1

  0
ENDBLK
  5
21
330
1F
100
AcDbEntity
  8
0
100
AcDbBlockEnd
  0
BLOCK
  5
1C
330
1B
100
AcDbEntity
 67
     1
  8
0
100
AcDbBlockBegin
  2
*Paper_Space
 70
     0
 10
0.0
 20
0.0
 30
0.0
  3
*Paper_Space
  1

  0
ENDBLK
  5
1D
330
1B
100
AcDbEntity
 67
     1
  8
0
100
AcDbBlockEnd
  0
BLOCK
  5
24
330
23
100
AcDbEntity
  8
0
100
AcDbBlockBegin
  2
*Paper_Space0
 70
     0
 10
0.0
 20
0.0
 30
0.0
  3
*Paper_Space0
  1

  0
ENDBLK
  5
25
330
23
100
AcDbEntity
  8
0
100
AcDbBlockEnd
  0
ENDSEC
  0
SECTION
  2
ENTITIES
  0
LINE
  5
73
330
1F
100
AcDbEntity
  8
0
  6
Continuous
 62
     7
370
    25
100
AcDbLine
 10
205.9941000753367
 20
56.7268201076191
 30
0.0
 11
203.6319818617863
 21
57.28988659074248
 31
0.0
  0
LINE
  5
74
330
1F
100
AcDbEntity
  8
0
  6
Continuous
 62
     7
370
    25
100
AcDbLine
 10
202.7044750069365
 20
53.39890586164518
 30
0.0
 11
206.0867461576011
 21
52.59266191041134
 31
0.0
  0
SPLINE
  5
75
330
1F
100
AcDbEntity
  8
0
  6
Continuous
 62
     7
370
    25
100
AcDbSpline
210
0.0
220
0.0
230
1.0
 70
     8
 71
     3
 72
    18
 73
    14
 74
     0
 42
0.000000001
 43
0.00000001
 40
0.0
 40
0.0
 40
0.0
 40
0.0
 40
0.0212847365776477
 40
0.1164686262807739
 40
0.2139908773010062
 40
0.3152195912123786
 40
0.4197064449144314
 40
0.5262175915781266
 40
0.6342064517288377
 40
0.7439446732398696
 40
0.8552949027385757
 40
0.951844820081705
 40
1.0
 40
1.0
 40
1.0
 40
1.0
 10
214.7189278173501
 20
49.33345742549264
 30
0.0
 10
214.7712727886441
 20
49.33822373190529
 30
0.0
 10
215.057700900032
 20
49.36430463538695
 30
0.0
 10
215.5510025391184
 20
49.60311346195363
 30
0.0
 10
216.1559303022645
 20
50.03457760279488
 30
0.0
 10
216.6688766060491
 20
50.64069970564232
 30
0.0
 10
217.062311602805
 20
51.37521595825586
 30
0.0
 10
217.3047786819783
 20
52.20412522954499
 30
0.0
 10
217.3722102972814
 20
53.07456363141376
 30
0.0
 10
217.2510983862224
 20
53.93726086942657
 30
0.0
 10
216.9374159712975
 20
54.68752322667937
 30
0.0
 10
216.5639879869134
 20
55.22329908714389
 30
0.0
 10
216.2721900446679
 20
55.43127167570161
 30
0.0
 10
216.1750850865527
 20
55.50048110653439
 30
0.0
  0
LINE
  5
76
330
1F
100
AcDbEntity
  8
0
  6
Continuous
 62
     7
370
    25
100
AcDbLine
 10
191.851964451605
 20
60.38707414546372
 30
0.0
 11
189.4898462380546
 21
60.95014062858707
 31
0.0
  0
LINE
  5
77
330
1F
100
AcDbEntity
  8
0
  6
Continuous
 62
     7
370
    25
100
AcDbLine
 10
188.5623393832048
 20
57.05915989948977
 30
0.0
 11
191.9446105338694
 21
56.25291594825595
 31
0.0
  0
LINE
  5
78
330
1F
100
AcDbEntity
  8
0
  6
Continuous
 62
     7
370
    25
100
AcDbLine
 10
208.9139698058459
 20
49.89842316714652
 30
0.0
 11
209.9544279768155
 21
49.67833823780582
 31
0.0
  0
SPLINE
  5
79
330
1F
100
AcDbEntity
  8
0
  6
Continuous
 62
     7
370
    25
100
AcDbSpline
210
0.0
220
0.0
230
1.0
 70
     8
 71
     3
 72
    13
 73
     9
 74
     0
 42
0.000000001
 43
0.00000001
 40
0.0
 40
0.0
 40
0.0
 40
0.0
 40
0.1074237170329683
 40
0.3076562966259462
 40
0.5088725967638338
 40
0.7108705159197382
 40
0.9128141192443749
 40
1.0
 40
1.0
 40
1.0
 40
1.0
 10
213.7263300976325
 20
52.7726288457514
 30
0.0
 10
213.7615869719706
 20
52.93346388637296
 30
0.0
 10
213.8625609439115
 20
53.39408761390717
 30
0.0
 10
213.9033589421908
 20
54.17194295592165
 30
0.0
 10
213.7924151613157
 20
55.06034070462874
 30
0.0
 10
213.5042882237588
 20
55.86003897323442
 30
0.0
 10
213.1650600502045
 20
56.44017999410232
 30
0.0
 10
212.8815206855174
 20
56.67346572751632
 30
0.0
 10
212.7960204837038
 20
56.74381214064717
 30
0.0
  0
SPLINE
  5
7A
330
1F
100
AcDbEntity
  8
0
  6
Continuous
 62
     7
370
    25
100
AcDbSpline
210
0.0
220
0.0
230
1.0
 70
     8
 71
     3
 72
    15
 73
    11
 74
     0
 42
0.000000001
 43
0.00000001
 40
0.0
 40
0.0
 40
0.0
 40
0.0
 40
0.0846455475087072
 40
0.2279500528722873
 40
0.3717802566142643
 40
0.5180386186324683
 40
0.6669180206412714
 40
0.8173740976469014
 40
0.961065858599191
 40
1.0
 40
1.0
 40
1.0
 40
1.0
 10
209.8526085180112
 20
49.70227068160529
 30
0.0
 10
209.9882142757863
 20
49.67476794975814
 30
0.0
 10
210.3533999301344
 20
49.60070322499458
 30
0.0
 10
210.9741663003474
 20
49.65280494034833
 30
0.0
 10
211.673499830778
 20
49.90558204090408
 30
0.0
 10
212.326440692423
 20
50.35061903975116
 30
0.0
 10
212.9027212581942
 20
50.96590368616623
 30
0.0
 10
213.3619130143528
 20
51.71051347790906
 30
0.0
 10
213.6116603870398
 20
52.3389192873657
 30
0.0
 10
213.706179502557
 20
52.69641424953193
 30
0.0
 10
213.7263300976325
 20
52.7726288457514
 30
0.0
  0
LINE
  5
7B
330
1F
100
AcDbEntity
  8
0
  6
Continuous
 62
     7
370
    25
100
AcDbLine
 10
205.1229226334163
 20
63.10157987886496
 30
0.0
 11
205.9545592073438
 21
62.90333972380756
 31
0.0
  0
ARC
  5
7C
330
1F
100
AcDbEntity
  8
0
  6
Continuous
 62
     7
370
    25
100
AcDbCircle
 10
203.5463351768386
 20
67.67536617184422
 30
0.0
 40
3.31479591836734
100
AcDbArc
 50
200.4134307141811
 51
259.7723149153903
  0
ARC
  5
7D
330
1F
100
AcDbEntity
  8
0
  6
Continuous
 62
     7
370
    25
100
AcDbCircle
 10
203.5463351768386
 20
67.67536617184422
 30
0.0
 40
3.314795918367368
100
AcDbArc
 50
302.3309109575355
 51
336.8058282023146
  0
ARC
  5
7E
330
1F
100
AcDbEntity
  8
0
  6
Continuous
 62
     7
370
    25
100
AcDbCircle
 10
203.5463351768386
 20
67.67536617184422
 30
0.0
 40
3.314795918367343
100
AcDbArc
 50
272.2934234829359
 51
296.9438873904508
  0
ARC
  5
7F
330
1F
100
AcDbEntity
  8
0
  6
Continuous
 62
     7
370
    25
100
AcDbCircle
 10
239.0639364471947
 20
76.86799781696983
 30
0.0
 40
3.314795918367351
100
AcDbArc
 50
257.5741466316371
 51
267.7065765170657
  0
ARC
  5
80
330
1F
100
AcDbEntity
  8
0
  6
Continuous
 62
     7
370
    25
100
AcDbCircle
 10
239.0639364471947
 20
76.86799781696983
 30
0.0
 40
3.314795918367361
100
AcDbArc
 50
280.2276850846113
 51
344.3302090649342
  0
ARC
  5
81
330
1F
100
AcDbEntity
  8
0
  6
Continuous
 62
     7
370
    25
100
AcDbCircle
 10
183.0402385224287
 20
72.9827345267186
 30
0.0
 40
3.314795918367341
100
AcDbArc
 50
280.2276850846114
 51
328.875358751371
  0
ARC
  5
82
330
1F
100
AcDbEntity
  8
0
  6
Continuous
 62
     7
370
    25
100
AcDbCircle
 10
183.0402385224287
 20
72.9827345267186
 30
0.0
 40
3.314795918367336
100
AcDbArc
 50
243.0561126095513
 51
267.7065765170657
  0
ARC
  5
83
330
1F
100
AcDbEntity
  8
0
  6
Continuous
 62
     7
370
    25
100
AcDbCircle
 10
183.0402385224287
 20
72.9827345267186
 30
0.0
 40
3.31479591836733
100
AcDbArc
 50
195.6697909350673
 51
237.6690890424661
  0
ARC
  5
84
330
1F
100
AcDbEntity
  8
0
  6
Continuous
 62
     7
370
    25
100
AcDbCircle
 10
231.5581841392216
 20
69.61799781696988
 30
0.0
 40
3.314795918367353
100
AcDbArc
 50
292.8225900509861
 51
344.3302090649346
  0
ARC
  5
85
330
1F
100
AcDbEntity
  8
0
  6
Continuous
 62
     7
370
    25
100
AcDbCircle
 10
231.5581841392216
 20
69.61799781696988
 30
0.0
 40
3.314795918367349
100
AcDbArc
 50
263.800952652846
 51
276.1990473471566
  0
ARC
  5
86
330
1F
100
AcDbEntity
  8
0
  6
Continuous
 62
     7
370
    25
100
AcDbCircle
 10
231.5581841392216
 20
69.61799781696988
 30
0.0
 40
3.314795918367329
100
AcDbArc
 50
204.3842661849929
 51
247.1774099490165
  0
ARC
  5
87
330
1F
100
AcDbEntity
  8
0
  6
Continuous
 62
     7
370
    25
100
AcDbCircle
 10
194.0815247363345
 20
89.23142414166499
 30
0.0
 40
3.31479591836734
100
AcDbArc
 50
292.8225900509851
 51
323.3912329878792
  0
ARC
  5
88
330
1F
100
AcDbEntity
  8
0
  6
Continuous
 62
     7
370
    25
100
AcDbCircle
 10
194.0815247363345
 20
89.23142414166499
 30
0.0
 40
3.314795918367338
100
AcDbArc
 50
263.8009526528455
 51
276.1990473471556
  0
ARC
  5
89
330
1F
100
AcDbEntity
  8
0
  6
Continuous
 62
     7
370
    25
100
AcDbCircle
 10
194.0815247363345
 20
89.23142414166499
 30
0.0
 40
3.314795918367329
100
AcDbArc
 50
203.7442818864311
 51
247.1774099490165
  0
ARC
  5
8A
330
1F
100
AcDbEntity
  8
0
  6
Continuous
 62
     7
370
    25
100
AcDbCircle
 10
183.4749230185363
 20
91.97661467004829
 30
0.0
 40
3.314795918367353
100
AcDbArc
 50
292.8225900509855
 51
307.2340807154309
  0
ARC
  5
8B
330
1F
100
AcDbEntity
  8
0
  6
Continuous
 62
     7
370
    25
100
AcDbCircle
 10
183.4749230185363
 20
91.97661467004829
 30
0.0
 40
3.314795918367341
100
AcDbArc
 50
263.800952652846
 51
276.1990473471566
  0
ARC
  5
8C
330
1F
100
AcDbEntity
  8
0
  6
Continuous
 62
     7
370
    25
100
AcDbCircle
 10
183.4749230185363
 20
91.97661467004829
 30
0.0
 40
3.314795918367342
100
AcDbArc
 50
203.7442818864311
 51
247.1774099490166
  0
LINE
  5
8D
330
1F
100
AcDbEntity
  8
0
  6
Continuous
 62
     7
370
    25
100
AcDbLine
 10
199.5848730751835
 20
70.29026099451843
 30
0.0
 11
199.5848730751835
 21
69.32615095055958
 31
0.0
  0
LINE
  5
8E
330
1F
100
AcDbEntity
  8
0
  6
Continuous
 62
     7
370
    25
100
AcDbLine
 10
235.2530957979175
 20
71.38365270252235
 30
0.0
 11
235.2530957979175
 21
72.34776274648559
 31
0.0
  0
LINE
  5
8F
330
1F
100
AcDbEntity
  8
0
  6
Continuous
 62
     7
370
    25
100
AcDbLine
 10
189.115087363166
 20
77.93896682941981
 30
0.0
 11
188.4680918110923
 21
77.77151205844652
 31
0.0
  0
LINE
  5
90
330
1F
100
AcDbEntity
  8
0
  6
Continuous
 62
     7
370
    25
100
AcDbLine
 10
238.5520874848117
 20
76.50485202554654
 30
0.0
 11
238.5520874848117
 21
77.4541331804679
 31
0.0
  0
LINE
  5
91
330
1F
100
AcDbEntity
  8
0
  6
Continuous
 62
     7
370
    25
100
AcDbLine
 10
179.7980783244508
 20
75.77748572132639
 30
0.0
 11
179.7980783244508
 21
74.81337567736821
 31
0.0
  0
LINE
  5
92
330
1F
100
AcDbEntity
  8
0
  6
Continuous
 62
     7
370
    25
100
AcDbLine
 10
242.3060966451726
 20
78.19632837372488
 30
0.0
 11
242.3060966451726
 21
79.16043841768106
 31
0.0
  0
LINE
  5
93
330
1F
100
AcDbEntity
  8
0
  6
Continuous
 62
     7
370
    25
100
AcDbLine
 10
177.3848883723179
 20
91.43280156929708
 30
0.0
 11
195.0625579019815
 21
86.85748402199158
 31
0.0
  0
LINE
  5
94
330
1F
100
AcDbEntity
  8
0
  6
Continuous
 62
     7
370
    25
100
AcDbLine
 10
188.4892302976199
 20
105.5674940997718
 30
0.0
 11
188.277098263264
 21
105.5125902892041
 31
0.0
  0
LINE
  5
95
330
1F
100
AcDbEntity
  8
0
  6
Continuous
 62
     7
370
    25
100
AcDbLine
 10
177.8826285798217
 20
108.3126846281551
 30
0.0
 11
177.6704965454657
 21
108.2577808175874
 31
0.0
  0
LINE
  5
96
330
1F
100
AcDbEntity
  8
0
  6
Continuous
 62
     7
370
    25
100
AcDbLine
 10
235.2530957979175
 20
70.89249954644484
 30
0.0
 11
235.283106045929
 21
70.92974984160816
 31
0.0
  0
SPLINE
  5
97
330
1F
100
AcDbEntity
  8
0
  6
Continuous
 62
     7
370
    25
100
AcDbSpline
210
0.0
220
0.0
230
1.0
 70
     8
 71
     3
 72
    11
 73
     7
 74
     0
 42
0.000000001
 43
0.00000001
 40
0.0
 40
0.0
 40
0.0
 40
0.0
 40
0.1702222654239809
 40
0.5324726059043929
 40
0.8945517548907863
 40
1.0
 40
1.0
 40
1.0
 40
1.0
 10
187.4726042896536
 20
70.31017088222578
 30
0.0
 10
187.5887819211184
 20
70.21192210493705
 30
0.0
 10
187.9521974004022
 20
69.90458990994158
 30
0.0
 10
188.7810160562069
 20
69.43256195838285
 30
0.0
 10
189.6250050300065
 20
69.0067646788697
 30
0.0
 10
190.2075907514553
 20
68.78816629024789
 30
0.0
 10
190.3389897726213
 20
68.73886262001386
 30
0.0
  0
SPLINE
  5
98
330
1F
100
AcDbEntity
  8
0
  6
Continuous
 62
     7
370
    25
100
AcDbSpline
210
0.0
220
0.0
230
1.0
 70
     8
 71
     3
 72
    13
 73
     9
 74
     0
 42
0.000000001
 43
0.00000001
 40
0.0
 40
0.0
 40
0.0
 40
0.0
 40
0.0967136661100497
 40
0.2821038180984085
 40
0.4684719385158673
 40
0.6573127129524144
 40
0.8537313087065432
 40
1.0
 40
1.0
 40
1.0
 40
1.0
 10
203.923451497543
 20
66.1308152329667
 30
0.0
 10
204.054594271576
 20
66.1245764655417
 30
0.0
 10
204.4371242568276
 20
66.10637862255207
 30
0.0
 10
205.0901235902403
 20
66.12026649725492
 30
0.0
 10
205.8241658456231
 20
66.19075100361353
 30
0.0
 10
206.4715662490584
 20
66.32265876986537
 30
0.0
 10
206.9506148798822
 20
66.48089393153819
 30
0.0
 10
207.1807040007689
 20
66.65774435993534
 30
0.0
 10
207.2789125887877
 20
66.73322915815824
 30
0.0
  0
LINE
  5
99
330
1F
100
AcDbEntity
  8
0
  6
Continuous
 62
     7
370
    25
100
AcDbLine
 10
199.5848730751835
 20
69.32615095055958
 30
0.0
 11
199.5848730751835
 21
67.39429929798145
 31
0.0
  0
SPLINE
  5
9A
330
1F
100
AcDbEntity
  8
0
  6
Continuous
 62
     7
370
    25
100
AcDbSpline
210
0.0
220
0.0
230
1.0
 70
     8
 71
     3
 72
    14
 73
    10
 74
     0
 42
0.000000001
 43
0.00000001
 40
0.0
 40
0.0
 40
0.0
 40
0.0
 40
0.030868726092213
 40
0.1626910219810674
 40
0.2933029636251152
 40
0.4576514527464968
 40
0.6857373602318811
 40
0.910019624197654
 40
1.0
 40
1.0
 40
1.0
 40
1.0
 10
199.6008069369249
 20
67.40129364511415
 30
0.0
 10
199.5956104083402
 20
67.37479757550669
 30
0.0
 10
199.5682225419385
 20
67.23515227138739
 30
0.0
 10
199.69862930535
 20
66.98861079578103
 30
0.0
 10
199.922595744291
 20
66.76202253651002
 30
0.0
 10
200.2685553150812
 20
66.5746240356745
 30
0.0
 10
200.7834078700635
 20
66.41541773007754
 30
0.0
 10
201.3514032044412
 20
66.31869032917548
 30
0.0
 10
201.7122419286979
 20
66.28627919659124
 30
0.0
 10
201.8155580722796
 20
66.27699916924766
 30
0.0
  0
LINE
  5
9B
330
1F
100
AcDbEntity
  8
0
  6
Continuous
 62
     7
370
    25
100
AcDbLine
 10
207.2789125887877
 20
66.73322915815822
 30
0.0
 11
207.5182626957041
 21
66.96442360795385
 31
0.0
  0
SPLINE
  5
9C
330
1F
100
AcDbEntity
  8
0
  6
Continuous
 62
     7
370
    25
100
AcDbSpline
210
0.0
220
0.0
230
1.0
 70
     8
 71
     3
 72
    14
 73
    10
 74
     0
 42
0.000000001
 43
0.00000001
 40
0.0
 40
0.0
 40
0.0
 40
0.0
 40
0.0221934745610351
 40
0.1329327459768971
 40
0.2774728147319852
 40
0.4680874555857987
 40
0.7024894007679708
 40
0.9644494301213218
 40
1.0
 40
1.0
 40
1.0
 40
1.0
 10
207.5032365113239
 20
66.95160386356324
 30
0.0
 10
207.5017893231924
 20
66.95041935970609
 30
0.0
 10
207.4931210683983
 20
66.9433245107263
 30
0.0
 10
207.5368553749126
 20
66.96999096547201
 30
0.0
 10
207.6507023140874
 20
67.00762855793751
 30
0.0
 10
207.8840004257025
 20
67.06114889438878
 30
0.0
 10
208.2377938145541
 20
67.10354966172773
 30
0.0
 10
208.5470012703185
 20
67.11401601540032
 30
0.0
 10
208.7164628063695
 20
67.1108796845523
 30
0.0
 10
208.7367123510738
 20
67.11050491353821
 30
0.0
  0
SPLINE
  5
9D
330
1F
100
AcDbEntity
  8
0
  6
Continuous
 62
     7
370
    25
100
AcDbSpline
210
0.0
220
0.0
230
1.0
 70
     8
 71
     3
 72
    11
 73
     7
 74
     0
 42
0.000000001
 43
0.00000001
 40
0.0
 40
0.0
 40
0.0
 40
0.0
 40
0.0080602562210899
 40
0.373053927439006
 40
0.7393443440508157
 40
1.0
 40
1.0
 40
1.0
 40
1.0
 10
230.7184501293208
 20
67.9400736517645
 30
0.0
 10
230.7240018969082
 20
67.93979759280424
 30
0.0
 10
230.9809551060737
 20
67.9270207186575
 30
0.0
 10
231.5078593249235
 20
67.95584046500076
 30
0.0
 10
232.1641241078458
 20
68.01968845558898
 30
0.0
 10
232.5158213999659
 20
68.095286944436
 30
0.0
 10
232.6620411346213
 20
68.12671735697322
 30
0.0
  0
SPLINE
  5
9E
330
1F
100
AcDbEntity
  8
0
  6
Continuous
 62
     7
370
    25
100
AcDbSpline
210
0.0
220
0.0
230
1.0
 70
     8
 71
     3
 72
    10
 73
     6
 74
     0
 42
0.000000001
 43
0.00000001
 40
0.0
 40
0.0
 40
0.0
 40
0.0
 40
0.2074817491709353
 40
0.6127498849453397
 40
1.0
 40
1.0
 40
1.0
 40
1.0
 10
228.9458338790352
 20
68.14419371848604
 30
0.0
 10
229.0501350102887
 20
68.11965730244405
 30
0.0
 10
229.3581645426723
 20
68.04719461034333
 30
0.0
 10
229.9527585161364
 20
67.9654734709438
 30
0.0
 10
230.467117601787
 20
67.94841095185151
 30
0.0
 10
230.7184501293208
 20
67.9400736517645
 30
0.0
  0
SPLINE
  5
9F
330
1F
100
AcDbEntity
  8
0
  6
Continuous
 62
     7
370
    25
100
AcDbSpline
210
0.0
220
0.0
230
1.0
 70
     8
 71
     3
 72
    12
 73
     8
 74
     0
 42
0.000000001
 43
0.00000001
 40
0.0
 40
0.0
 40
0.0
 40
0.0
 40
0.1806471912255909
 40
0.3930762766262816
 40
0.6376778955132154
 40
0.8961771862346423
 40
1.0
 40
1.0
 40
1.0
 40
1.0
 10
197.1534503956502
 20
67.89711518065677
 30
0.0
 10
197.1965471652609
 20
67.90684755821587
 30
0.0
 10
197.2903228703703
 20
67.92802456466525
 30
0.0
 10
197.5060878709083
 20
67.95224515223244
 30
0.0
 10
197.7692567794278
 20
67.96059510813072
 30
0.0
 10
197.9939664575983
 20
67.94936788984971
 30
0.0
 10
198.1087059579904
 20
67.93481929397467
 30
0.0
 10
198.1415843764838
 20
67.93065041732766
 30
0.0
  0
LINE
  5
A0
330
1F
100
AcDbEntity
  8
0
  6
Continuous
 62
     7
370
    25
100
AcDbLine
 10
197.0352332646237
 20
67.86651833568975
 30
0.0
 11
197.1534503956502
 21
67.89711518065677
 31
0.0
  0
SPLINE
  5
A1
330
1F
100
AcDbEntity
  8
0
  6
Continuous
 62
     7
370
    25
100
AcDbSpline
210
0.0
220
0.0
230
1.0
 70
     8
 71
     3
 72
     9
 73
     5
 74
     0
 42
0.000000001
 43
0.00000001
 40
0.0
 40
0.0
 40
0.0
 40
0.0
 40
0.626445224780547
 40
1.0
 40
1.0
 40
1.0
 40
1.0
 10
232.6620411346213
 20
68.12671735697322
 30
0.0
 10
232.9937321437837
 20
68.20859177547158
 30
0.0
 10
233.5232134073347
 20
68.3392886269434
 30
0.0
 10
234.026412534268
 20
68.47704332538741
 30
0.0
 10
234.2143849710201
 20
68.52850225080009
 30
0.0
  0
LINE
  5
A2
330
1F
100
AcDbEntity
  8
0
  6
Continuous
 62
     7
370
    25
100
AcDbLine
 10
228.2919172261425
 20
68.31343980216437
 30
0.0
 11
228.9458338790352
 21
68.14419371848604
 31
0.0
  0
SPLINE
  5
A3
330
1F
100
AcDbEntity
  8
0
  6
Continuous
 62
     7
370
    25
100
AcDbSpline
210
0.0
220
0.0
230
1.0
 70
     8
 71
     3
 72
    10
 73
     6
 74
     0
 42
0.000000001
 43
0.00000001
 40
0.0
 40
0.0
 40
0.0
 40
0.0
 40
0.2431764202422789
 40
0.7341204886821808
 40
1.0
 40
1.0
 40
1.0
 40
1.0
 10
227.4620022833231
 20
68.404973929878
 30
0.0
 10
227.5397204623902
 20
68.40439472432564
 30
0.0
 10
227.7743423370741
 20
68.40264617213165
 30
0.0
 10
228.0706752311809
 20
68.36394054799646
 30
0.0
 10
228.2343993463036
 20
68.32656884591147
 30
0.0
 10
228.2919172261425
 20
68.31343980216437
 30
0.0
  0
SPLINE
  5
A4
330
1F
100
AcDbEntity
  8
0
  6
Continuous
 62
     7
370
    25
100
AcDbSpline
210
0.0
220
0.0
230
1.0
 70
     8
 71
     3
 72
    10
 73
     6
 74
     0
 42
0.000000001
 43
0.00000001
 40
0.0
 40
0.0
 40
0.0
 40
0.0
 40
0.2814122132321438
 40
0.7498322129717239
 40
1.0
 40
1.0
 40
1.0
 40
1.0
 10
226.5872369167097
 20
68.34934710150382
 30
0.0
 10
226.6590914835611
 20
68.36062083632527
 30
0.0
 10
226.8505503696393
 20
68.39066007816393
 30
0.0
 10
227.1617341088966
 20
68.41491075322762
 30
0.0
 10
227.3844621620137
 20
68.40753997767655
 30
0.0
 10
227.4620022833231
 20
68.404973929878
 30
0.0
  0
LINE
  5
A5
330
1F
100
AcDbEntity
  8
0
  6
Continuous
 62
     7
370
    25
100
AcDbLine
 10
235.2530957979175
 20
69.45180104994421
 30
0.0
 11
235.2530957979175
 21
71.38365270252235
 31
0.0
  0
SPLINE
  5
A6
330
1F
100
AcDbEntity
  8
0
  6
Continuous
 62
     7
370
    25
100
AcDbSpline
210
0.0
220
0.0
230
1.0
 70
     8
 71
     3
 72
    11
 73
     7
 74
     0
 42
0.000000001
 43
0.00000001
 40
0.0
 40
0.0
 40
0.0
 40
0.0
 40
0.1850591052692732
 40
0.577486203814015
 40
0.8056576882588651
 40
1.0
 40
1.0
 40
1.0
 40
1.0
 10
234.2143849710201
 20
68.5285022508001
 30
0.0
 10
234.3103765299158
 20
68.55781525149791
 30
0.0
 10
234.6099229957013
 20
68.6492879378635
 30
0.0
 10
234.9247530782668
 20
68.81620686898599
 30
0.0
 10
235.2039253666797
 20
69.1144243516525
 30
0.0
 10
235.2317862542175
 20
69.3443366429255
 30
0.0
 10
235.2446013370388
 20
69.4500886599887
 30
0.0
  0
LINE
  5
A7
330
1F
100
AcDbEntity
  8
0
  6
Continuous
 62
     7
370
    25
100
AcDbLine
 10
211.868267964997
 20
53.20304349849523
 30
0.0
 11
215.199191677286
 21
65.91551799149077
 31
0.0
  0
SPLINE
  5
A8
330
1F
100
AcDbEntity
  8
0
  6
Continuous
 62
     7
370
    25
100
AcDbSpline
210
0.0
220
0.0
230
1.0
 70
     8
 71
     3
 72
    10
 73
     6
 74
     0
 42
0.000000001
 43
0.00000001
 40
0.0
 40
0.0
 40
0.0
 40
0.0
 40
0.2736540508183322
 40
0.7489452494108467
 40
1.0
 40
1.0
 40
1.0
 40
1.0
 10
207.0805408737868
 20
49.72333457938483
 30
0.0
 10
207.2138485018878
 20
49.69653170329587
 30
0.0
 10
207.578689126311
 20
49.62317672588055
 30
0.0
 10
208.0783476364901
 20
49.64356116349264
 30
0.0
 10
208.3972984223869
 20
49.79484220283383
 30
0.0
 10
208.5075408077045
 20
49.8471310930568
 30
0.0
  0
LINE
  5
A9
330
1F
100
AcDbEntity
  8
0
  6
Continuous
 62
     7
370
    25
100
AcDbLine
 10
208.2052704523232
 20
49.71499827720297
 30
0.0
 11
209.0857391915646
 21
49.94288035553605
 31
0.0
  0
SPLINE
  5
AA
330
1F
100
AcDbEntity
  8
0
  6
Continuous
 62
     7
370
    25
100
AcDbSpline
210
0.0
220
0.0
230
1.0
 70
     8
 71
     3
 72
    13
 73
     9
 74
     0
 42
0.000000001
 43
0.00000001
 40
0.0
 40
0.0
 40
0.0
 40
0.0
 40
0.0564647007010058
 40
0.2640461678178768
 40
0.4792405152903645
 40
0.700472899028544
 40
0.9255782147738516
 40
1.0
 40
1.0
 40
1.0
 40
1.0
 10
209.4908017845663
 20
50.10341308022959
 30
0.0
 10
209.5551667491547
 20
50.12539989827977
 30
0.0
 10
209.8561569612749
 20
50.22821696764485
 30
0.0
 10
210.3510302961913
 20
50.6062970188058
 30
0.0
 10
210.9432845585186
 20
51.21979168079616
 30
0.0
 10
211.434879362904
 20
52.00039910293955
 30
0.0
 10
211.7239347063541
 20
52.68740401747458
 30
0.0
 10
211.8395433473495
 20
53.10042302781849
 30
0.0
 10
211.868267964997
 20
53.20304349849522
 30
0.0
  0
LINE
  5
AB
330
1F
100
AcDbEntity
  8
0
  6
Continuous
 62
     7
370
    25
100
AcDbLine
 10
238.5520874848117
 20
74.57300037296841
 30
0.0
 11
238.5520874848117
 21
76.50485202554654
 31
0.0
  0
SPLINE
  5
AC
330
1F
100
AcDbEntity
  8
0
  6
Continuous
 62
     7
370
    25
100
AcDbSpline
210
0.0
220
0.0
230
1.0
 70
     8
 71
     3
 72
    14
 73
    10
 74
     0
 42
0.000000001
 43
0.00000001
 40
0.0
 40
0.0
 40
0.0
 40
0.0
 40
0.0050944328977522
 40
0.1946797580099775
 40
0.3853907066153284
 40
0.5769999620379653
 40
0.7661601280658837
 40
0.927592688052051
 40
1.0
 40
1.0
 40
1.0
 40
1.0
 10
235.283106045929
 20
70.92974984160816
 30
0.0
 10
235.2942103656859
 20
70.9347862304824
 30
0.0
 10
235.7185532369216
 20
71.127247881653
 30
0.0
 10
236.3879075972171
 20
71.53938505868
 30
0.0
 10
237.2674664723781
 20
72.17105767837626
 30
0.0
 10
237.9281821340077
 20
72.84739527325007
 30
0.0
 10
238.3460411667509
 20
73.53810578416267
 30
0.0
 10
238.5466290086098
 20
74.11561916920463
 30
0.0
 10
238.5300430880397
 20
74.44161748954463
 30
0.0
 10
238.5249073431613
 20
74.54256119037771
 30
0.0
  0
LINE
  5
AD
330
1F
100
AcDbEntity
  8
0
  6
Continuous
 62
     7
370
    25
100
AcDbLine
 10
191.4263126270109
 20
53.77494698603228
 30
0.0
 11
207.0805408737868
 21
49.72333457938483
 31
0.0
  0
LINE
  5
AE
330
1F
100
AcDbEntity
  8
0
  6
Continuous
 62
     7
370
    25
100
AcDbLine
 10
186.3607958215482
 20
71.17052341025907
 30
0.0
 11
186.666955598314
 21
71.01330620963623
 31
0.0
  0
SPLINE
  5
AF
330
1F
100
AcDbEntity
  8
0
  6
Continuous
 62
     7
370
    25
100
AcDbSpline
210
0.0
220
0.0
230
1.0
 70
     8
 71
     3
 72
    13
 73
     9
 74
     0
 42
0.000000001
 43
0.00000001
 40
0.0
 40
0.0
 40
0.0
 40
0.0
 40
0.1057308323612886
 40
0.2941351948603069
 40
0.4772440716159666
 40
0.668662059842987
 40
0.8558740966048406
 40
1.0
 40
1.0
 40
1.0
 40
1.0
 10
180.6013079510571
 20
71.81122463087583
 30
0.0
 10
180.6736136582486
 20
71.7588449268278
 30
0.0
 10
180.8747626778799
 20
71.61312854388811
 30
0.0
 10
181.290820342321
 20
71.46373452391128
 30
0.0
 10
181.9080389063753
 20
71.32734144010271
 30
0.0
 10
182.6299270921213
 20
71.2482918376169
 30
0.0
 10
183.3545602701464
 20
71.22476752198928
 30
0.0
 10
183.8025073759559
 20
71.24773266051302
 30
0.0
 10
183.9973561194093
 20
71.25772207293818
 30
0.0
  0
SPLINE
  5
B0
330
1F
100
AcDbEntity
  8
0
  6
Continuous
 62
     7
370
    25
100
AcDbSpline
210
0.0
220
0.0
230
1.0
 70
     8
 71
     3
 72
    13
 73
     9
 74
     0
 42
0.000000001
 43
0.00000001
 40
0.0
 40
0.0
 40
0.0
 40
0.0
 40
0.1416173470903182
 40
0.3889217598526897
 40
0.6384102459539881
 40
0.8294581591850742
 40
0.9743021275126402
 40
1.0
 40
1.0
 40
1.0
 40
1.0
 10
184.8906228792184
 20
71.31967043905547
 30
0.0
 10
184.9772194196431
 20
71.32429891374062
 30
0.0
 10
185.2150382998235
 20
71.33701002969472
 30
0.0
 10
185.6228364192605
 20
71.32491001120819
 30
0.0
 10
186.0122219638235
 20
71.27658381479984
 30
0.0
 10
186.2570089365258
 20
71.21636304860621
 30
0.0
 10
186.343758105201
 20
71.17973645665006
 30
0.0
 10
186.3585647081063
 20
71.1717298719247
 30
0.0
 10
186.3607958215482
 20
71.17052341025905
 30
0.0
  0
LINE
  5
B1
330
1F
100
AcDbEntity
  8
0
  6
Continuous
 62
     7
370
    25
100
AcDbLine
 10
183.9973561194093
 20
71.25772207293818
 30
0.0
 11
184.8906228792184
 21
71.31967043905547
 31
0.0
  0
SPLINE
  5
B2
330
1F
100
AcDbEntity
  8
0
  6
Continuous
 62
     7
370
    25
100
AcDbSpline
210
0.0
220
0.0
230
1.0
 70
     8
 71
     3
 72
     9
 73
     5
 74
     0
 42
0.000000001
 43
0.00000001
 40
0.0
 40
0.0
 40
0.0
 40
0.0
 40
0.626674982306394
 40
1.0
 40
1.0
 40
1.0
 40
1.0
 10
179.9895758209576
 20
72.40252371187734
 30
0.0
 10
180.1073306905341
 20
72.27701819601067
 30
0.0
 10
180.2952349038842
 20
72.07674609418729
 30
0.0
 10
180.5181049770493
 20
71.88340405214294
 30
0.0
 10
180.6013079510571
 20
71.81122463087583
 30
0.0
  0
LINE
  5
B3
330
1F
100
AcDbEntity
  8
0
  6
Continuous
 62
     7
370
    25
100
AcDbLine
 10
179.7980783244508
 20
74.8133756773682
 30
0.0
 11
179.7980783244508
 21
72.88152402479008
 31
0.0
  0
SPLINE
  5
B4
330
1F
100
AcDbEntity
  8
0
  6
Continuous
 62
     7
370
    25
100
AcDbSpline
210
0.0
220
0.0
230
1.0
 70
     8
 71
     3
 72
    10
 73
     6
 74
     0
 42
0.000000001
 43
0.00000001
 40
0.0
 40
0.0
 40
0.0
 40
0.0
 40
0.0726927850740267
 40
0.7068622459073739
 40
1.0
 40
1.0
 40
1.0
 40
1.0
 10
179.8074435267557
 20
72.89773043910999
 30
0.0
 10
179.8041142113487
 20
72.88461929499236
 30
0.0
 10
179.7717400580744
 20
72.75712696177176
 30
0.0
 10
179.863346264198
 20
72.56252559317628
 30
0.0
 10
179.9592568391863
 20
72.44095444273796
 30
0.0
 10
179.9895758209576
 20
72.40252371187734
 30
0.0
  0
LINE
  5
B5
330
1F
100
AcDbEntity
  8
0
  6
Continuous
 62
     7
370
    25
100
AcDbLine
 10
188.238984061368
 20
69.77323074678526
 30
0.0
 11
188.4704901297221
 21
60.71445119476168
 31
0.0
  0
SPLINE
  5
B6
330
1F
100
AcDbEntity
  8
0
  6
Continuous
 62
     7
370
    25
100
AcDbSpline
210
0.0
220
0.0
230
1.0
 70
     8
 71
     3
 72
    13
 73
     9
 74
     0
 42
0.000000001
 43
0.00000001
 40
0.0
 40
0.0
 40
0.0
 40
0.0
 40
0.0454610677420652
 40
0.2378613069492713
 40
0.4308659534004328
 40
0.6248449628279599
 40
0.8198904110758601
 40
1.0
 40
1.0
 40
1.0
 40
1.0
 10
188.7094036145432
 20
57.0241036778926
 30
0.0
 10
188.7228755149767
 20
56.95259862345701
 30
0.0
 10
188.7933631652533
 20
56.57847002185834
 30
0.0
 10
189.0680092210049
 20
55.93395106733703
 30
0.0
 10
189.5211841488902
 20
55.14858130543078
 30
0.0
 10
190.0984561302402
 20
54.4983952185424
 30
0.0
 10
190.740760814561
 20
54.01184614618393
 30
0.0
 10
191.2039421583667
 20
53.851789284904
 30
0.0
 10
191.4263126270109
 20
53.77494698603226
 30
0.0
  0
SPLINE
  5
B7
330
1F
100
AcDbEntity
  8
0
  6
Continuous
 62
     7
370
    25
100
AcDbSpline
210
0.0
220
0.0
230
1.0
 70
     8
 71
     3
 72
    10
 73
     6
 74
     0
 42
0.000000001
 43
0.00000001
 40
0.0
 40
0.0
 40
0.0
 40
0.0
 40
0.1601390678671898
 40
0.638254750927836
 40
1.0
 40
1.0
 40
1.0
 40
1.0
 10
238.4910276222087
 20
74.98495544222716
 30
0.0
 10
238.5126160673933
 20
74.99146426478278
 30
0.0
 10
238.5986595787469
 20
75.01740601013185
 30
0.0
 10
238.8114542900546
 20
75.05420900287099
 30
0.0
 10
239.0092674316946
 20
75.07134540496098
 30
0.0
 10
239.094469590117
 20
75.07872640317754
 30
0.0
  0
LINE
  5
B8
330
1F
100
AcDbEntity
  8
0
  6
Continuous
 62
     7
370
    25
100
AcDbLine
 10
242.3060966451727
 20
76.26447672114674
 30
0.0
 11
242.3060966451727
 21
78.19632837372488
 31
0.0
  0
LINE
  5
B9
330
1F
100
AcDbEntity
  8
0
  6
Continuous
 62
     7
370
    25
100
AcDbLine
 10
239.094469590117
 20
75.07872640317754
 30
0.0
 11
239.9877363499262
 21
75.14067476929486
 31
0.0
  0
SPLINE
  5
BA
330
1F
100
AcDbEntity
  8
0
  6
Continuous
 62
     7
370
    25
100
AcDbSpline
210
0.0
220
0.0
230
1.0
 70
     8
 71
     3
 72
    13
 73
     9
 74
     0
 42
0.000000001
 43
0.00000001
 40
0.0
 40
0.0
 40
0.0
 40
0.0
 40
0.1087698747837559
 40
0.3193489810874094
 40
0.5359086414268062
 40
0.7455591345111705
 40
0.8836680992554484
 40
1.0
 40
1.0
 40
1.0
 40
1.0
 10
239.9877363499262
 20
75.14067476929485
 30
0.0
 10
240.1155242339833
 20
75.15118357178073
 30
0.0
 10
240.490710200227
 20
75.18203747662332
 30
0.0
 10
241.0626432794907
 20
75.2766417341851
 30
0.0
 10
241.6181284190546
 20
75.43997763763684
 30
0.0
 10
241.9846252460231
 20
75.63890950541142
 30
0.0
 10
242.2502462483286
 20
75.91545409177442
 30
0.0
 10
242.2821464691865
 20
76.14384747316248
 30
0.0
 10
242.2967314428677
 20
76.24827030682684
 30
0.0
  0
SPLINE
  5
BB
330
1F
100
AcDbEntity
  8
0
  6
Continuous
 62
     7
370
    25
100
AcDbSpline
210
0.0
220
0.0
230
1.0
 70
     8
 71
     3
 72
     9
 73
     5
 74
     0
 42
0.000000001
 43
0.00000001
 40
0.0
 40
0.0
 40
0.0
 40
0.0
 40
0.2752897543559088
 40
1.0
 40
1.0
 40
1.0
 40
1.0
 10
239.1797508071534
 20
123.9082663656291
 30
0.0
 10
239.2335071179667
 20
123.9530645062332
 30
0.0
 10
239.4287788633285
 20
124.1157953739651
 30
0.0
 10
239.5836649274988
 20
124.3198250566057
 30
0.0
 10
239.6959124451105
 20
124.4676874580309
 30
0.0
  0
LINE
  5
BC
330
1F
100
AcDbEntity
  8
0
  6
Continuous
 62
     7
370
    25
100
AcDbLine
 10
182.4055184563549
 20
124.4584420285742
 30
0.0
 11
182.8341744932429
 21
123.9939808089145
 31
0.0
  0
SPLINE
  5
BD
330
1F
100
AcDbEntity
  8
0
  6
Continuous
 62
     7
370
    25
100
AcDbSpline
210
0.0
220
0.0
230
1.0
 70
     8
 71
     3
 72
    52
 73
    48
 74
     0
 42
0.000000001
 43
0.00000001
 40
0.0
 40
0.0
 40
0.0
 40
0.0
 40
0.0138700139571788
 40
0.0300996476928853
 40
0.0464236975767138
 40
0.0632768437033525
 40
0.0811575151960728
 40
0.1006522351472907
 40
0.1223815518059732
 40
0.1466965489259929
 40
0.1730293057106364
 40
0.1998098714117779
 40
0.226007678923105
 40
0.2515802866821413
 40
0.2766605645553838
 40
0.3013774051715562
 40
0.3258279218443127
 40
0.35008207982782
 40
0.3741905262490766
 40
0.3981906987659879
 40
0.4221110593117169
 40
0.4459739765268988
 40
0.4697977196876762
 40
0.4935978872667014
 40
0.5173884865486826
 40
0.5411817770601202
 40
0.5649877116194646
 40
0.5888201996663911
 40
0.6126945954347982
 40
0.6366287069876388
 40
0.6606441013735396
 40
0.6847678896071285
 40
0.7090352658684982
 40
0.7334932072626866
 40
0.7582058919898774
 40
0.7832623723351283
 40
0.8087858670065033
 40
0.8349372030868333
 40
0.8618728309807434
 40
0.8863803632792832
 40
0.9082949388238921
 40
0.9277872544920719
 40
0.9455498528030445
 40
0.9621723353464791
 40
0.9781054959614066
 40
0.9952440251908614
 40
1.0
 40
1.0
 40
1.0
 40
1.0
 10
251.0378331753639
 20
241.2150415366076
 30
0.0
 10
251.0277706064817
 20
241.568658087153
 30
0.0
 10
251.0059335860452
 20
242.3360497871647
 30
0.0
 10
250.7217189574275
 20
243.4765875266847
 30
0.0
 10
250.26508728182
 20
244.6013066252375
 30
0.0
 10
249.6423409907279
 20
245.6465181775569
 30
0.0
 10
248.864140274231
 20
246.6256302174684
 30
0.0
 10
247.9120616397502
 20
247.5580041300617
 30
0.0
 10
246.7528702088516
 20
248.461387267616
 30
0.0
 10
245.3521398528848
 20
249.33988190939
 30
0.0
 10
243.7068149793749
 20
250.1778410577209
 30
0.0
 10
241.855360866532
 20
250.9529634664936
 30
0.0
 10
239.8530219000461
 20
251.6521633516955
 30
0.0
 10
237.7333557078954
 20
252.2767768067082
 30
0.0
 10
235.5049117495385
 20
252.8344254311111
 30
0.0
 10
233.1722134835998
 20
253.3307396588126
 30
0.0
 10
230.7409427601433
 20
253.768954391278
 30
0.0
 10
228.2188042051239
 20
254.1506518778219
 30
0.0
 10
225.615328231277
 20
254.4764201670403
 30
0.0
 10
222.9415166073177
 20
254.7462945346837
 30
0.0
 10
220.2095170087066
 20
254.9600390795427
 30
0.0
 10
217.4323490098359
 20
255.1173259505393
 30
0.0
 10
214.6236720416397
 20
255.2178496972537
 30
0.0
 10
211.7975827218897
 20
255.2613991708375
 30
0.0
 10
208.9684722704413
 20
255.2479001802035
 30
0.0
 10
206.1509471782521
 20
255.1774425889548
 30
0.0
 10
203.3595307104386
 20
255.0502909624618
 30
0.0
 10
200.6084533331027
 20
254.8668650569984
 30
0.0
 10
197.911398570603
 20
254.6276895982151
 30
0.0
 10
195.2814502014049
 20
254.3333365262488
 30
0.0
 10
192.7308870345501
 20
253.9843276898568
 30
0.0
 10
190.270946038856
 20
253.5809831420412
 30
0.0
 10
187.9115380422286
 20
253.1231833052312
 30
0.0
 10
185.6608957672421
 20
252.6099886809458
 30
0.0
 10
183.5251354314982
 20
252.0390175611178
 30
0.0
 10
181.5077514788692
 20
251.4054042324789
 30
0.0
 10
179.6092450469309
 20
250.7000743224048
 30
0.0
 10
177.8279109397342
 20
249.9071184337497
 30
0.0
 10
176.2296684254489
 20
249.0366499680177
 30
0.0
 10
174.8574859488256
 20
248.1043861304058
 30
0.0
 10
173.7360766197399
 20
247.1426755438602
 30
0.0
 10
172.8301026858125
 20
246.1461726965404
 30
0.0
 10
172.114760519768
 20
245.1059293972915
 30
0.0
 10
171.5710130820683
 20
244.0118433900564
 30
0.0
 10
171.2095355781448
 20
242.8291765277592
 30
0.0
 10
171.0382552383981
 20
241.872886643896
 30
0.0
 10
171.0678355779424
 20
241.3165769718586
 30
0.0
 10
171.0742610877173
 20
241.1957340981572
 30
0.0
  0
LINE
  5
BE
330
1F
100
AcDbEntity
  8
0
  6
Continuous
 62
     7
370
    25
100
AcDbLine
 10
251.0520874848117
 20
134.9433645160352
 30
0.0
 11
251.0520874848117
 21
241.1952054078326
 31
0.0
  0
LINE
  5
BF
330
1F
100
AcDbEntity
  8
0
  6
Continuous
 62
     7
370
    25
100
AcDbLine
 10
171.0520874848117
 20
241.1952054078326
 30
0.0
 11
171.0520874848117
 21
134.9433645160352
 31
0.0
  0
SPLINE
  5
C0
330
1F
100
AcDbEntity
  8
0
  6
Continuous
 62
     7
370
    25
100
AcDbSpline
210
0.0
220
0.0
230
1.0
 70
     8
 71
     3
 72
    52
 73
    48
 74
     0
 42
0.000000001
 43
0.00000001
 40
0.0
 40
0.0
 40
0.0
 40
0.0
 40
0.0139144865281364
 40
0.0301440133012644
 40
0.0464679556002574
 40
0.0633209906550116
 40
0.0812015443038685
 40
0.1006961357737198
 40
0.1224253092237639
 40
0.1467401460940296
 40
0.173072729330728
 40
0.1998531185326066
 40
0.226050753385381
 40
0.2516231926062889
 40
0.2767033051861398
 40
0.30141998290418
 40
0.3258703384340302
 40
0.3501243365687486
 40
0.3742326241015388
 40
0.3982326384435708
 40
0.422152841340427
 40
0.4460156012853194
 40
0.4698391874339883
 40
0.4936391981562819
 40
0.5174296406445905
 40
0.5412227743446187
 40
0.5650285520092232
 40
0.5888608829864062
 40
0.6127351214088749
 40
0.6366690752222149
 40
0.6606843113329146
 40
0.6848079405769268
 40
0.7090751569023923
 40
0.7335329371047414
 40
0.7582454589611911
 40
0.7833017741698883
 40
0.8088251006268189
 40
0.8349762643548702
 40
0.8619117147275677
 40
0.8864190855074363
 40
0.9083335166224439
 40
0.9278257038251021
 40
0.9455881850703804
 40
0.9622105580621371
 40
0.9781436136684133
 40
0.9952820299451468
 40
0.9999999999999999
 40
0.9999999999999999
 40
0.9999999999999999
 40
0.9999999999999999
 10
171.0661339781959
 20
134.9269178542232
 30
0.0
 10
171.0762102493681
 20
134.5721619357194
 30
0.0
 10
171.0980392440368
 20
133.8036271353544
 30
0.0
 10
171.3824357504296
 20
132.6619789166644
 30
0.0
 10
171.839093314784
 20
131.5372642652196
 30
0.0
 10
172.4618323519086
 20
130.4920514668307
 30
0.0
 10
173.2400351853916
 20
129.5129397905703
 30
0.0
 10
174.1921131769752
 20
128.5805657675414
 30
0.0
 10
175.3513048091652
 20
127.6771826645645
 30
0.0
 10
176.7520351019146
 20
126.7986880119311
 30
0.0
 10
178.3973599944348
 20
125.9607288668658
 30
0.0
 10
180.2488141019884
 20
125.1856064571846
 30
0.0
 10
182.2511530698629
 20
124.4864065722213
 30
0.0
 10
184.3708192616542
 20
123.8617931171467
 30
0.0
 10
186.5992632201047
 20
123.30414449276
 30
0.0
 10
188.931961486019
 20
122.8078302650542
 30
0.0
 10
191.3632322094819
 20
122.36961553259
 30
0.0
 10
193.8853707644997
 20
121.9879180460458
 30
0.0
 10
196.488846738347
 20
121.6621497568275
 30
0.0
 10
199.1626583623062
 20
121.3922753891841
 30
0.0
 10
201.8946579609174
 20
121.1785308443251
 30
0.0
 10
204.6718259597882
 20
121.0212439733285
 30
0.0
 10
207.4805029279844
 20
120.9207202266141
 30
0.0
 10
210.3065922477344
 20
120.8771707530303
 30
0.0
 10
213.1357026991828
 20
120.8906697436643
 30
0.0
 10
215.9532277913719
 20
120.961127334913
 30
0.0
 10
218.7446442591853
 20
121.0882789614061
 30
0.0
 10
221.4957216365213
 20
121.2717048668695
 30
0.0
 10
224.1927763990209
 20
121.5108803256527
 30
0.0
 10
226.8227247682191
 20
121.8052333976191
 30
0.0
 10
229.3732879350731
 20
122.1542422340111
 30
0.0
 10
231.8332289307704
 20
122.5575867818267
 30
0.0
 10
234.1926369273858
 20
123.0153866186369
 30
0.0
 10
236.4432792024175
 20
123.5285812429214
 30
0.0
 10
238.5790395379902
 20
124.0995523627532
 30
0.0
 10
240.596423491272
 20
124.7331656913778
 30
0.0
 10
242.4949299207027
 20
125.4384956015067
 30
0.0
 10
244.2762640376129
 20
126.2314514899496
 30
0.0
 10
245.8745065155505
 20
127.1019199564759
 30
0.0
 10
247.246689112613
 20
128.0341837914559
 30
0.0
 10
248.3680980604732
 20
128.9958943863324
 30
0.0
 10
249.2740732001056
 20
129.9923972073041
 30
0.0
 10
249.9894114372257
 20
131.0326405924114
 30
0.0
 10
250.5331721821719
 20
132.1267263088445
 30
0.0
 10
250.8946014841111
 20
133.3093942244955
 30
0.0
 10
251.0658540879691
 20
134.2647209763782
 30
0.0
 10
251.0363813525529
 20
134.8200645588616
 30
0.0
 10
251.0300192997863
 20
134.9399423077521
 30
0.0
  0
LINE
  5
C1
330
1F
100
AcDbEntity
  8
0
  6
Continuous
 62
     7
370
    25
100
AcDbLine
 10
183.2648354775642
 20
123.7124484933777
 30
0.0
 11
183.1660716494788
 21
123.6410945670629
 31
0.0
  0
SPLINE
  5
C2
330
1F
100
AcDbEntity
  8
0
  6
Continuous
 62
     7
370
    25
100
AcDbSpline
210
0.0
220
0.0
230
1.0
 70
     8
 71
     3
 72
    11
 73
     7
 74
     0
 42
0.000000001
 43
0.00000001
 40
0.0
 40
0.0
 40
0.0
 40
0.0
 40
0.0059451655869356
 40
0.3513166536090198
 40
0.7080853390038274
 40
1.0
 40
1.0
 40
1.0
 40
1.0
 10
251.5115003471643
 20
128.0192077597437
 30
0.0
 10
251.5094389656961
 20
128.0239140412389
 30
0.0
 10
251.3876261030166
 20
128.3020215290198
 30
0.0
 10
250.9543236270189
 20
128.829882431233
 30
0.0
 10
250.2714369470962
 20
129.5559813759357
 30
0.0
 10
249.6616840108538
 20
130.0031700897579
 30
0.0
 10
249.3872884638355
 20
130.2044099435679
 30
0.0
  0
SPLINE
  5
C3
330
1F
100
AcDbEntity
  8
0
  6
Continuous
 62
     7
370
    25
100
AcDbSpline
210
0.0
220
0.0
230
1.0
 70
     8
 71
     3
 72
    11
 73
     7
 74
     0
 42
0.000000001
 43
0.00000001
 40
0.0
 40
0.0
 40
0.0
 40
0.0
 40
0.1893648530879963
 40
0.5684908175110966
 40
0.9464730138812313
 40
1.0
 40
1.0
 40
1.0
 40
1.0
 10
172.7264692471875
 20
130.2033031124448
 30
0.0
 10
172.5459224923957
 20
130.078183536875
 30
0.0
 10
172.0039044222163
 20
129.702562989332
 30
0.0
 10
171.3355422927353
 20
129.0397859718887
 30
0.0
 10
170.8232486672427
 20
128.4609261642427
 30
0.0
 10
170.6668703923692
 20
128.1320382605312
 30
0.0
 10
170.6474722935845
 20
128.0912410331001
 30
0.0
  0
LINE
  5
C4
330
1F
100
AcDbEntity
  8
0
  6
Continuous
 62
     7
370
    25
100
AcDbLine
 10
252.051639045086
 20
123.8848486260039
 30
0.0
 11
252.0078495452769
 21
126.3080390483577
 31
0.0
  0
LINE
  5
C5
330
1F
100
AcDbEntity
  8
0
  6
Continuous
 62
     7
370
    25
100
AcDbLine
 10
170.0963254243465
 20
126.3080390483577
 30
0.0
 11
170.0525359245374
 21
123.8848486260039
 31
0.0
  0
LINE
  5
C6
330
1F
100
AcDbEntity
  8
0
  6
Continuous
 62
     7
370
    25
100
AcDbLine
 10
199.2651211655416
 20
87.9844518017279
 30
0.0
 11
199.5849058878463
 21
70.28844523204673
 31
0.0
  0
LINE
  5
C7
330
1F
100
AcDbEntity
  8
0
  6
Continuous
 62
     7
370
    25
100
AcDbLine
 10
243.6390063843599
 20
100.6135502993351
 30
0.0
 11
243.8381621829213
 21
111.634284167837
 31
0.0
  0
LINE
  5
C8
330
1F
100
AcDbEntity
  8
0
  6
Continuous
 62
     7
370
    25
100
AcDbLine
 10
235.2530629852546
 20
72.34594698400946
 30
0.0
 11
235.5675439026543
 21
89.74845558491344
 31
0.0
  0
LINE
  5
C9
330
1F
100
AcDbEntity
  8
0
  6
Continuous
 62
     7
370
    25
100
AcDbLine
 10
178.2660127867021
 20
111.6342841678372
 30
0.0
 11
178.3258745789657
 21
108.3216973077303
 31
0.0
  0
LINE
  5
CA
330
1F
100
AcDbEntity
  8
0
  6
Continuous
 62
     7
370
    25
100
AcDbLine
 10
243.9780793188874
 20
111.7147586911264
 30
0.0
 11
246.9622336667016
 21
114.3890308575956
 31
0.0
  0
LINE
  5
CB
330
1F
100
AcDbEntity
  8
0
  6
Continuous
 62
     7
370
    25
100
AcDbLine
 10
175.1419413029218
 20
114.3890308575956
 30
0.0
 11
178.126095650736
 21
111.7147586911264
 31
0.0
  0
LINE
  5
CC
330
1F
100
AcDbEntity
  8
0
  6
Continuous
 62
     7
370
    25
100
AcDbLine
 10
238.5517867020688
 20
77.43748869115123
 30
0.0
 11
238.8049367672818
 21
91.44611669826519
 31
0.0
  0
LINE
  5
CD
330
1F
100
AcDbEntity
  8
0
  6
Continuous
 62
     7
370
    25
100
AcDbLine
 10
179.5251813565876
 20
90.87885298286878
 30
0.0
 11
179.7981111371136
 21
75.77566995885536
 31
0.0
  0
LINE
  5
CE
330
1F
100
AcDbEntity
  8
0
  6
Continuous
 62
     7
370
    25
100
AcDbLine
 10
242.3060638325098
 20
79.15862265521199
 30
0.0
 11
242.5701295080218
 21
93.77129049941125
 31
0.0
  0
LWPOLYLINE
  5
CF
330
1F
100
AcDbEntity
  8
0
  6
Continuous
 62
     7
370
    25
100
AcDbPolyline
 90
       19
 70
   128
 43
0.0
 10
201.7540148719883
 20
55.71042162997826
 10
202.0047339463509
 20
56.35204958875258
 10
202.3957876273174
 20
56.87213968062253
 10
202.8800090696255
 20
57.20796136479635
 10
203.3989940209857
 20
57.31900958996242
 10
203.8901452368615
 20
57.19189030126848
 10
204.2942226319987
 20
56.84193596101192
 10
204.5624885089962
 20
56.31135622740366
 10
204.6625860439055
 20
55.66414684683976
 10
204.5824419967345
 20
54.9783708224094
 10
204.3317229223719
 20
54.33674286363507
 10
203.9406692414054
 20
53.81665277176511
 10
203.4564477990972
 20
53.48083108759133
 10
202.9374628477371
 20
53.36978286242526
 10
202.4463116318612
 20
53.49690215111922
 10
202.0422342367241
 20
53.84685649137577
 10
201.7739683597266
 20
54.37743622498402
 10
201.6738708248172
 20
55.02464560554793
 10
201.7540148719883
 20
55.71042162997826
  0
LWPOLYLINE
  5
D0
330
1F
100
AcDbEntity
  8
0
  6
Continuous
 62
     7
370
    25
100
AcDbPolyline
 90
       19
 70
   128
 43
0.0
 10
187.6118792482566
 20
59.37067566782288
 10
187.8625983226192
 20
60.01230362659721
 10
188.2536520035857
 20
60.53239371846716
 10
188.7378734458939
 20
60.86821540264095
 10
189.256858397254
 20
60.97926362780701
 10
189.7480096131299
 20
60.85214433911307
 10
190.152087008267
 20
60.50218999885648
 10
190.4203528852645
 20
59.97161026524824
 10
190.5204504201739
 20
59.32440088468434
 10
190.4403063730028
 20
58.63862486025396
 10
190.1895872986402
 20
57.99699690147966
 10
189.7985336176737
 20
57.47690680960971
 10
189.3143121753655
 20
57.14108512543594
 10
188.7953272240054
 20
57.03003690026985
 10
188.3041760081295
 20
57.15715618896382
 10
187.9000986129924
 20
57.50711052922039
 10
187.6318327359949
 20
58.03769026282865
 10
187.5317352010855
 20
58.68489964339256
 10
187.6118792482566
 20
59.37067566782288
  0
ARC
  5
D3
330
1F
100
AcDbEntity
  8
0
  6
Continuous
 62
     7
370
    25
100
AcDbCircle
 10
213.2483389478598
 20
53.39659027707864
 30
0.0
 40
3.627803806150929
100
AcDbArc
 50
338.6883517382309
 51
65.25240796925434
  0
ARC
  5
D5
330
1F
100
AcDbEntity
  8
0
  6
Continuous
 62
     7
370
    25
100
AcDbCircle
 10
213.0962593095264
 20
52.47308354440407
 30
0.0
 40
3.553822848816837
100
AcDbArc
 50
265.7397649274247
 51
353.6187579185716
  0
LINE
  5
D6
330
1F
100
AcDbEntity
  8
0
  6
Continuous
 62
     7
370
    25
100
AcDbLine
 10
212.832257773988
 20
48.92908015416783
 30
0.0
 11
210.5156507423007
 21
49.54425278468253
 31
0.0
  0
LINE
  5
D7
330
1F
100
AcDbEntity
  8
0
  6
Continuous
 62
     7
370
    25
100
AcDbLine
 10
212.9082910145857
 20
57.17229276146876
 30
0.0
 11
214.7670158751718
 21
56.69121936794355
 31
0.0
  0
LINE
  5
D8
330
1F
100
AcDbEntity
  8
0
  6
Continuous
 62
     7
370
    25
100
AcDbLine
 10
209.8609467663983
 20
49.69811203185483
 30
0.0
 11
212.832257773988
 21
48.92908015416783
 31
0.0
  0
LWPOLYLINE
  5
D9
330
1F
100
AcDbEntity
  8
0
  6
Continuous
 62
     7
370
    25
100
AcDbPolyline
 90
        3
 70
   128
 43
0.0
 10
207.0008896232143
 20
64.68104483962917
 10
207.0810336703854
 20
65.36682086405952
 10
207.0102445766964
 20
65.91089494575357
  0
LWPOLYLINE
  5
DA
330
1F
100
AcDbEntity
  8
0
  6
Continuous
 62
     7
370
    25
100
AcDbPolyline
 90
        9
 70
   128
 43
0.0
 10
204.1176136384114
 20
64.4101689496587
 10
204.1924159862064
 20
64.08011024220379
 10
204.4606818632039
 20
63.54953050859553
 10
204.8647592583411
 20
63.19957616833896
 10
205.355910474217
 20
63.07245687964504
 10
205.8748954255771
 20
63.1835051048111
 10
206.3591168678852
 20
63.51932678898491
 10
206.7501705488517
 20
64.03941688085487
 10
207.0008896232143
 20
64.68104483962917
  0
LWPOLYLINE
  5
DB
330
1F
100
AcDbEntity
  8
0
  6
Continuous
 62
     7
370
    25
100
AcDbPolyline
 90
        3
 70
   128
 43
0.0
 10
214.515175275134
 20
62.86954614865567
 10
214.6480085915218
 20
63.78361781484148
 10
214.6493075680063
 20
63.81688460414209
  0
LWPOLYLINE
  5
DC
330
1F
100
AcDbEntity
  8
0
  6
Continuous
 62
     7
370
    25
100
AcDbPolyline
 90
        3
 70
   128
 43
0.0
 10
214.1403211955904
 20
61.87433748042729
 10
214.203848299249
 20
62.00167204097779
 10
214.515175275134
 20
62.86954614865567
  0
ARC
  5
DD
330
1F
100
AcDbEntity
  8
0
  6
Continuous
 62
     7
370
    25
100
AcDbCircle
 10
203.5523957707069
 20
74.87056928549885
 30
0.0
 40
8.893633076140205
100
AcDbArc
 50
252.0618687263238
 51
280.6952162868631
  0
LWPOLYLINE
  5
DE
330
1F
100
AcDbEntity
  8
0
  6
Continuous
 62
     7
370
    25
100
AcDbPolyline
 90
        3
 70
   128
 43
0.0
 10
205.0483277968365
 20
64.72038898920869
 10
205.1222235130593
 20
64.75929146066944
 10
205.291007581002
 20
64.85879203987594
  0
ARC
  5
DF
330
1F
100
AcDbEntity
  8
0
  6
Continuous
 62
     7
370
    25
100
AcDbCircle
 10
203.7157046754734
 20
64.71224946081928
 30
0.0
 40
0.3509504372542565
100
AcDbArc
 50
202.9999731274523
 51
263.993982007744
  0
ARC
  5
E0
330
1F
100
AcDbEntity
  8
0
  6
Continuous
 62
     7
370
    25
100
AcDbCircle
 10
203.2358854613408
 20
67.2129232689165
 30
0.0
 40
2.642455250004766
100
AcDbArc
 50
258.6645843430038
 51
273.4011540553236
  0
LWPOLYLINE
  5
E1
330
1F
100
AcDbEntity
  8
0
  6
Continuous
 62
     7
370
    25
100
AcDbPolyline
 90
        9
 70
   128
 43
0.0
 10
203.1176744718516
 20
64.44536226156025
 10
203.0640308982253
 20
64.42137706314368
 10
203.0109685802676
 20
64.41060010374835
 10
202.9587013619908
 20
64.41307481510374
 10
202.9074398831126
 20
64.42879122398915
 10
202.8573907301664
 20
64.45768599242645
 10
202.8087556039465
 20
64.49964267293544
 10
202.7617305066431
 20
64.55449217782356
 10
202.7165049519427
 20
64.62201346061843
  0
LINE
  5
E2
330
1F
100
AcDbEntity
  8
0
  6
Continuous
 62
     7
370
    25
100
AcDbLine
 10
203.1176744718516
 20
64.57307850245869
 30
0.0
 11
203.1176744718516
 21
64.44536226156025
 31
0.0
  0
LWPOLYLINE
  5
E3
330
1F
100
AcDbEntity
  8
0
  6
Continuous
 62
     7
370
    25
100
AcDbPolyline
 90
        3
 70
   128
 43
0.0
 10
242.255535608687
 20
75.97269520176825
 10
242.2289664437712
 20
75.91056105509412
 10
242.1537612726545
 20
75.81721370695594
  0
ARC
  5
E4
330
1F
100
AcDbEntity
  8
0
  6
Continuous
 62
     7
370
    25
100
AcDbCircle
 10
238.89456694856
 20
73.90488110594477
 30
0.0
 40
0.3509504372541598
100
AcDbArc
 50
276.0060179922547
 51
337.0000268725627
  0
LWPOLYLINE
  5
E5
330
1F
100
AcDbEntity
  8
0
  6
Continuous
 62
     7
370
    25
100
AcDbPolyline
 90
        9
 70
   128
 43
0.0
 10
239.8937666720907
 20
73.81464510574405
 10
239.8485411173902
 20
73.74712382294918
 10
239.8015160200868
 20
73.69227431806105
 10
239.7528808938669
 20
73.65031763755205
 10
239.7028317409207
 20
73.62142286911475
 10
239.6515702620425
 20
73.60570646022934
 10
239.5993030437658
 20
73.60323174887397
 10
239.5462407258081
 20
73.6140087082693
 10
239.4925971521818
 20
73.63799390668586
  0
ARC
  5
E6
330
1F
100
AcDbEntity
  8
0
  6
Continuous
 62
     7
370
    25
100
AcDbCircle
 10
239.3743861626927
 20
76.4055549140406
 30
0.0
 40
2.642455250003269
100
AcDbArc
 50
266.5988459446737
 51
281.3354156570024
  0
LINE
  5
E7
330
1F
100
AcDbEntity
  8
0
  6
Continuous
 62
     7
370
    25
100
AcDbLine
 10
239.4925971521818
 20
73.7657101475843
 30
0.0
 11
239.4925971521818
 21
73.63799390668586
 31
0.0
  0
LWPOLYLINE
  5
E8
330
1F
100
AcDbEntity
  8
0
  6
Continuous
 62
     7
370
    25
100
AcDbPolyline
 90
        7
 70
   128
 43
0.0
 10
181.4650239108705
 20
71.42647982821475
 10
181.165224153439
 20
71.47625448811426
 10
180.5351367795598
 20
71.63207212079958
 10
180.0908413418712
 20
71.8261096960666
 10
179.8652892004703
 20
72.04397633462058
 10
179.8752085258523
 20
72.26951386455353
 10
179.9724256365234
 20
72.38299144813143
  0
LWPOLYLINE
  5
E9
330
1F
100
AcDbEntity
  8
0
  6
Continuous
 62
     7
370
    25
100
AcDbPolyline
 90
        9
 70
   128
 43
0.0
 10
183.8700687473246
 20
69.92938181549283
 10
183.8248431926241
 20
69.86186053269796
 10
183.7778180953208
 20
69.80701102780984
 10
183.7291829691009
 20
69.76505434730083
 10
183.6791338161547
 20
69.73615957886355
 10
183.6278723372764
 20
69.72044316997813
 10
183.5756051189997
 20
69.71796845862275
 10
183.522542801042
 20
69.72874541801808
 10
183.4688992274157
 20
69.75273061643463
  0
ARC
  5
EA
330
1F
100
AcDbEntity
  8
0
  6
Continuous
 62
     7
370
    25
100
AcDbCircle
 10
183.3506882379266
 20
72.52029162378967
 30
0.0
 40
2.642455250003554
100
AcDbArc
 50
266.5988459446734
 51
281.3354156570006
  0
ARC
  5
EB
330
1F
100
AcDbEntity
  8
0
  6
Continuous
 62
     7
370
    25
100
AcDbCircle
 10
182.870869023794
 20
70.01961781569348
 30
0.0
 40
0.3509504372540741
100
AcDbArc
 50
276.0060179922421
 51
337.000026872572
  0
LWPOLYLINE
  5
EC
330
1F
100
AcDbEntity
  8
0
  6
Continuous
 62
     7
370
    25
100
AcDbPolyline
 90
        3
 70
   128
 43
0.0
 10
181.2955661182653
 20
70.16616039475034
 10
181.464350186208
 20
70.06665981554383
 10
181.5382459024308
 20
70.02775734408307
  0
LINE
  5
ED
330
1F
100
AcDbEntity
  8
0
  6
Continuous
 62
     7
370
    25
100
AcDbLine
 10
183.4688992274157
 20
69.88044685733308
 30
0.0
 11
183.4688992274157
 21
69.75273061643463
 31
0.0
  0
ARC
  5
EE
330
1F
100
AcDbEntity
  8
0
  6
Continuous
 62
     7
370
    25
100
AcDbCircle
 10
232.1370608511943
 20
72.54634546908635
 30
0.0
 40
4.631049553285401
100
AcDbArc
 50
262.5424998172356
 51
304.3450224484085
  0
ARC
  5
EF
330
1F
100
AcDbEntity
  8
0
  6
Continuous
 62
     7
370
    25
100
AcDbCircle
 10
230.8775974827792
 20
68.00968859781784
 30
0.0
 40
1.568428879433116
100
AcDbArc
 50
234.5173941664456
 51
264.8791302282049
  0
ARC
  5
F0
330
1F
100
AcDbEntity
  8
0
  6
Continuous
 62
     7
370
    25
100
AcDbCircle
 10
232.2387707956538
 20
68.00968859783403
 30
0.0
 40
1.568428879452246
100
AcDbArc
 50
275.120869812247
 51
305.4826058335172
  0
ARC
  5
F1
330
1F
100
AcDbEntity
  8
0
  6
Continuous
 62
     7
370
    25
100
AcDbCircle
 10
232.5176517873037
 20
68.15227362910689
 30
0.0
 40
1.553863947221728
100
AcDbArc
 50
275.0414456965456
 51
293.9801917015972
  0
ARC
  5
F2
330
1F
100
AcDbEntity
  8
0
  6
Continuous
 62
     7
370
    25
100
AcDbCircle
 10
231.7434539221783
 20
67.88213002420696
 30
0.0
 40
1.569075588544831
100
AcDbArc
 50
276.3179950389496
 51
305.4811143829078
  0
ARC
  5
F3
330
1F
100
AcDbEntity
  8
0
  6
Continuous
 62
     7
370
    25
100
AcDbCircle
 10
231.3729143562655
 20
67.88213002420838
 30
0.0
 40
1.569075588546314
100
AcDbArc
 50
234.518885617107
 51
263.6820049610392
  0
ARC
  5
F4
330
1F
100
AcDbEntity
  8
0
  6
Continuous
 62
     7
370
    25
100
AcDbCircle
 10
230.5987164911397
 20
68.15227362910736
 30
0.0
 40
1.553863947222198
100
AcDbArc
 50
246.0198082984085
 51
264.9585543034544
  0
ARC
  5
F5
330
1F
100
AcDbEntity
  8
0
  6
Continuous
 62
     7
370
    25
100
AcDbCircle
 10
194.266794519291
 20
87.49555634890248
 30
0.0
 40
1.569075588545253
100
AcDbArc
 50
276.3179950389521
 51
305.4811143829056
  0
ARC
  5
F6
330
1F
100
AcDbEntity
  8
0
  6
Continuous
 62
     7
370
    25
100
AcDbCircle
 10
193.8962549533781
 20
87.49555634890278
 30
0.0
 40
1.569075588545568
100
AcDbArc
 50
234.5188856170981
 51
263.6820049610456
  0
ARC
  5
F7
330
1F
100
AcDbEntity
  8
0
  6
Continuous
 62
     7
370
    25
100
AcDbCircle
 10
193.1220570882521
 20
87.76569995380068
 30
0.0
 40
1.553863947220346
100
AcDbArc
 50
246.0198082983966
 51
264.9585543034652
  0
ARC
  5
F8
330
1F
100
AcDbEntity
  8
0
  6
Continuous
 62
     7
370
    25
100
AcDbCircle
 10
193.4009380799024
 20
87.62311492252915
 30
0.0
 40
1.568428879452277
100
AcDbArc
 50
234.5173941664815
 51
264.8791301873347
  0
ARC
  5
F9
330
1F
100
AcDbEntity
  8
0
  6
Continuous
 62
     7
370
    25
100
AcDbCircle
 10
194.7621113927654
 20
87.62311492253117
 30
0.0
 40
1.568428879454638
100
AcDbArc
 50
275.1208698170958
 51
305.4826058335136
  0
ARC
  5
FA
330
1F
100
AcDbEntity
  8
0
  6
Continuous
 62
     7
370
    25
100
AcDbCircle
 10
195.0409923844169
 20
87.76569995380068
 30
0.0
 40
1.553863947220346
100
AcDbArc
 50
275.0414456965365
 51
293.980191701605
  0
ARC
  5
FB
330
1F
100
AcDbEntity
  8
0
  6
Continuous
 62
     7
370
    25
100
AcDbCircle
 10
183.6601928014929
 20
90.24074687728556
 30
0.0
 40
1.569075588545027
100
AcDbArc
 50
276.317995038953
 51
305.4811143829079
  0
ARC
  5
FC
330
1F
100
AcDbEntity
  8
0
  6
Continuous
 62
     7
370
    25
100
AcDbCircle
 10
183.2896532355799
 20
90.24074687728589
 30
0.0
 40
1.569075588545361
100
AcDbArc
 50
234.5188856170964
 51
263.6820049610469
  0
ARC
  5
FD
330
1F
100
AcDbEntity
  8
0
  6
Continuous
 62
     7
370
    25
100
AcDbCircle
 10
182.5154553704539
 20
90.51089048218417
 30
0.0
 40
1.55386394722053
100
AcDbArc
 50
246.0198082983995
 51
264.9585543034658
  0
ARC
  5
FE
330
1F
100
AcDbEntity
  8
0
  6
Continuous
 62
     7
370
    25
100
AcDbCircle
 10
182.794336362104
 20
90.36830545091203
 30
0.0
 40
1.568428879451839
100
AcDbArc
 50
234.5173941664779
 51
264.8791301874666
  0
ARC
  5
FF
330
1F
100
AcDbEntity
  8
0
  6
Continuous
 62
     7
370
    25
100
AcDbCircle
 10
184.1555096749686
 20
90.3683054509122
 30
0.0
 40
1.568428879452011
100
AcDbArc
 50
275.120869812378
 51
305.4826058335213
  0
ARC
  5
100
330
1F
100
AcDbEntity
  8
0
  6
Continuous
 62
     7
370
    25
100
AcDbCircle
 10
184.4343906666188
 20
90.51089048218336
 30
0.0
 40
1.553863947219715
100
AcDbArc
 50
275.0414456965332
 51
293.9801917016096
  0
LWPOLYLINE
  5
101
330
1F
100
AcDbEntity
  8
0
  6
Continuous
 62
     7
370
    25
100
AcDbPolyline
 90
        8
 70
   128
 43
0.0
 10
240.0825537804803
 20
78.41225420001395
 10
240.6213506289912
 20
78.46439689219643
 10
241.1117914715319
 20
78.54219667613332
 10
241.5358449920207
 20
78.6427932017608
 10
241.8779206392632
 20
78.76248798479091
 10
242.1254418217844
 20
78.89688038343583
 10
242.2693082928434
 20
79.0410293903227
 10
242.3060966451726
 20
79.16225420001395
  0
LINE
  5
102
330
1F
100
AcDbEntity
  8
0
  6
Continuous
 62
     7
370
    25
100
AcDbLine
 10
240.0825537804803
 20
78.41225420001395
 30
0.0
 11
239.1892870206711
 21
78.35030583389664
 31
0.0
  0
ARC
  5
103
330
1F
100
AcDbEntity
  8
0
  6
Continuous
 62
     7
370
    25
100
AcDbCircle
 10
239.2470673975482
 20
76.48858790868978
 30
0.0
 40
1.862614346822404
100
AcDbArc
 50
91.77766424665978
 51
111.4487505863942
  0
LWPOLYLINE
  5
104
330
1F
100
AcDbEntity
  8
0
  6
Continuous
 62
     7
370
    25
100
AcDbPolyline
 90
        8
 70
   128
 43
0.0
 10
238.5520874848117
 20
77.4707778518356
 10
238.5520619124261
 20
77.46107134205685
 10
238.4452512875281
 20
76.84399865660633
 10
238.1321271136923
 20
76.23164660295647
 10
237.6150477077611
 20
75.62862715387166
 10
236.89790748982
 20
75.03948199294547
 10
235.9861076520978
 20
74.46864830858976
 10
235.2848672493252
 20
74.10590744078678
  0
LWPOLYLINE
  5
105
330
1F
100
AcDbEntity
  8
0
  6
Continuous
 62
     7
370
    25
100
AcDbPolyline
 90
        5
 70
   128
 43
0.0
 10
234.4463035544457
 20
71.81979928849857
 10
234.7966598693708
 20
71.93787870831267
 10
235.0535007105258
 20
72.07109448902958
 10
235.2073831890079
 20
72.21454888225479
 10
235.2530957979175
 20
72.34957852881142
  0
ARC
  5
106
330
1F
100
AcDbEntity
  8
0
  6
Continuous
 62
     7
370
    25
100
AcDbCircle
 10
221.6016435899739
 20
118.2311326432927
 30
0.0
 40
48.15596695501736
100
AcDbArc
 50
283.5518390094718
 51
285.4697983886697
  0
ARC
  5
107
330
1F
100
AcDbEntity
  8
0
  6
Continuous
 62
     7
370
    25
100
AcDbCircle
 10
230.8444731583392
 20
81.01276446960888
 30
0.0
 40
9.811555129862139
100
AcDbArc
 50
257.4802482724025
 51
282.0082499599208
  0
LINE
  5
108
330
1F
100
AcDbEntity
  8
0
  6
Continuous
 62
     7
370
    25
100
AcDbLine
 10
228.7175618919848
 20
71.43451501935031
 30
0.0
 11
228.0636452390921
 21
71.60376110302865
 31
0.0
  0
ARC
  5
109
330
1F
100
AcDbEntity
  8
0
  6
Continuous
 62
     7
370
    25
100
AcDbCircle
 10
227.3492102904309
 20
68.34760279746732
 30
0.0
 40
3.333614285838189
100
AcDbArc
 50
77.62480830049985
 51
99.75369549080345
  0
ARC
  5
10A
330
1F
100
AcDbEntity
  8
0
  6
Continuous
 62
     7
370
    25
100
AcDbCircle
 10
211.3275716228728
 20
163.5394066568398
 30
0.0
 40
93.19708799271706
100
AcDbArc
 50
268.3875557129666
 51
279.5467058887104
  0
ARC
  5
10B
330
1F
100
AcDbEntity
  8
0
  6
Continuous
 62
     7
370
    25
100
AcDbCircle
 10
208.5019009180886
 20
68.50815758531098
 30
0.0
 40
1.882068461485824
100
AcDbArc
 50
83.80124852087222
 51
116.7817955855914
  0
LINE
  5
10C
330
1F
100
AcDbEntity
  8
0
  6
Continuous
 62
     7
370
    25
100
AcDbLine
 10
207.6538523135452
 20
70.18833473610538
 30
0.0
 11
207.4145022066288
 21
69.95714028630975
 31
0.0
  0
ARC
  5
10D
330
1F
100
AcDbEntity
  8
0
  6
Continuous
 62
     7
370
    25
100
AcDbCircle
 10
204.7128422210779
 20
75.56416392646452
 30
0.0
 40
6.223960216677283
100
AcDbArc
 50
261.9443898080622
 51
295.7263926212949
  0
ARC
  5
10E
330
1F
100
AcDbEntity
  8
0
  6
Continuous
 62
     7
370
    25
100
AcDbCircle
 10
210.536415487162
 20
181.3943866059029
 30
0.0
 40
112.192750876355
100
AcDbArc
 50
265.4872344527726
 51
266.5785039455538
  0
LWPOLYLINE
  5
10F
330
1F
100
AcDbEntity
  8
0
  6
Continuous
 62
     7
370
    25
100
AcDbPolyline
 90
        8
 70
   128
 43
0.0
 10
199.5848730751835
 20
70.29207677684865
 10
199.607272750078
 20
70.19737011590534
 10
199.7318485249806
 20
70.05202285675243
 10
199.9613172512676
 20
69.91550130650144
 10
200.2872423902666
 20
69.79282475190637
 10
200.6976411324511
 20
69.6885034611582
 10
201.1774249517482
 20
69.60637286149792
 10
201.7089543431529
 20
69.54945252771206
  0
LWPOLYLINE
  5
110
330
1F
100
AcDbEntity
  8
0
  6
Continuous
 62
     7
370
    25
100
AcDbPolyline
 90
        3
 70
   128
 43
0.0
 10
199.3847854070442
 20
71.02559085531259
 10
199.5353988904293
 20
71.00299610685377
 10
199.5721198470089
 20
70.99598954819717
  0
ARC
  5
111
330
1F
100
AcDbEntity
  8
0
  6
Continuous
 62
     7
370
    25
100
AcDbCircle
 10
208.6569407674709
 20
147.5948744566387
 30
0.0
 40
77.12864614556776
100
AcDbArc
 50
261.954216915788
 51
263.095387860705
  0
ARC
  5
114
330
1F
100
AcDbEntity
  8
0
  6
Continuous
 62
     7
370
    25
100
AcDbCircle
 10
211.327571622873
 20
162.5734808305484
 30
0.0
 40
93.19708799271474
100
AcDbArc
 50
268.3875557129664
 51
279.5467058887105
  0
ARC
  5
117
330
1F
100
AcDbEntity
  8
0
  6
Continuous
 62
     7
370
    25
100
AcDbCircle
 10
204.7128422210779
 20
74.59823810017525
 30
0.0
 40
6.223960216677079
100
AcDbArc
 50
261.9443898080614
 51
295.7263926212952
  0
ARC
  5
119
330
1F
100
AcDbEntity
  8
0
  6
Continuous
 62
     7
370
    25
100
AcDbCircle
 10
210.5364154871356
 20
180.4284607792326
 30
0.0
 40
112.1927508759728
100
AcDbArc
 50
265.4872344527706
 51
266.5785039455556
  0
LWPOLYLINE
  5
11A
330
1F
100
AcDbEntity
  8
0
  6
Continuous
 62
     7
370
    25
100
AcDbPolyline
 90
        8
 70
   128
 43
0.0
 10
201.7089543431529
 20
68.583526701423
 10
201.1774249517482
 20
68.64044703520884
 10
200.6976411324511
 20
68.72257763486914
 10
200.2872423902666
 20
68.82689892561729
 10
199.9613172512676
 20
68.94957548021237
 10
199.7318485249806
 20
69.08609703046335
 10
199.607272750078
 20
69.23144428961628
 10
199.5848730751835
 20
69.32615095055958
  0
LINE
  5
11C
330
1F
100
AcDbEntity
  8
0
  6
Continuous
 62
     7
370
    25
100
AcDbLine
 10
207.6538523135452
 20
69.22240890981631
 30
0.0
 11
207.4145022066288
 21
68.99121446002069
 31
0.0
  0
ARC
  5
11D
330
1F
100
AcDbEntity
  8
0
  6
Continuous
 62
     7
370
    25
100
AcDbCircle
 10
208.5019009180886
 20
67.5422317590217
 30
0.0
 40
1.882068461486033
100
AcDbArc
 50
83.80124852087377
 51
116.7817955855892
  0
LINE
  5
11E
330
1F
100
AcDbEntity
  8
0
  6
Continuous
 62
     7
370
    25
100
AcDbLine
 10
199.3847854070442
 20
70.0596650290235
 30
0.0
 11
199.3847854070442
 21
71.02559085531259
 31
0.0
  0
LWPOLYLINE
  5
11F
330
1F
100
AcDbEntity
  8
0
  6
Continuous
 62
     7
370
    25
100
AcDbPolyline
 90
        3
 70
   128
 43
0.0
 10
199.5848730751835
 20
70.02746906233682
 10
199.5353988904293
 20
70.0370702805647
 10
199.3847854070442
 20
70.0596650290235
  0
ELLIPSE
  5
120
330
1F
100
AcDbEntity
  8
0
  6
Continuous
 62
     7
370
    25
100
AcDbEllipse
 10
211.0520874848117
 20
138.1939827847316
 30
0.0
 11
-19.20405229480647
 21
308.6874752844354
 31
0.0
210
0.0
220
0.0
230
1.0
 40
0.0637663085237315
 41
1.7844918637843
 42
1.787739955106641
  0
ARC
  5
121
330
1F
100
AcDbEntity
  8
0
  6
Continuous
 62
     7
370
    25
100
AcDbCircle
 10
208.0900011685747
 20
142.3436697985554
 30
0.0
 40
72.80630554407023
100
AcDbArc
 50
260.4119938014354
 51
263.1328989160162
  0
ARC
  5
124
330
1F
100
AcDbEntity
  8
0
  6
Continuous
 62
     7
370
    25
100
AcDbCircle
 10
230.8444731583392
 20
80.04683864331977
 30
0.0
 40
9.811555129862098
100
AcDbArc
 50
257.4802482724025
 51
282.0082499599209
  0
LINE
  5
125
330
1F
100
AcDbEntity
  8
0
  6
Continuous
 62
     7
370
    25
100
AcDbLine
 10
187.5603853724582
 20
76.36831589894945
 30
0.0
 11
187.3021464878063
 21
72.4030777696684
 31
0.0
  0
LWPOLYLINE
  5
126
330
1F
100
AcDbEntity
  8
0
  6
Continuous
 62
     7
370
    25
100
AcDbPolyline
 90
        9
 70
   128
 43
0.0
 10
188.9692174252638
 20
77.7671630192519
 10
188.7084644181532
 20
77.801529250875
 10
188.456652636003
 20
77.7684738384732
 10
188.2224167090208
 20
77.66913025268872
 10
188.0137885910472
 20
77.50690498673414
 10
187.8379221437254
 20
77.28736074768324
 10
187.7008478304655
 20
77.01802571115272
 10
187.6072659317542
 20
76.70813538003489
 10
187.5603853724582
 20
76.36831589894945
  0
LINE
  5
127
330
1F
100
AcDbEntity
  8
0
  6
Continuous
 62
     7
370
    25
100
AcDbLine
 10
193.5369777979131
 20
76.58493964134566
 30
0.0
 11
188.9692174252638
 21
77.7671630192519
 31
0.0
  0
ARC
  5
128
330
1F
100
AcDbEntity
  8
0
  6
Continuous
 62
     7
370
    25
100
AcDbCircle
 10
192.6454100857139
 20
74.46432597492587
 30
0.0
 40
2.300411986502084
100
AcDbArc
 50
359.8132342565324
 51
67.1966980517291
  0
LINE
  5
129
330
1F
100
AcDbEntity
  8
0
  6
Continuous
 62
     7
370
    25
100
AcDbLine
 10
194.9458098507186
 20
74.45682738780931
 30
0.0
 11
195.2040487353705
 21
70.35791497546035
 31
0.0
  0
LINE
  5
12A
330
1F
100
AcDbEntity
  8
0
  6
Continuous
 62
     7
370
    25
100
AcDbLine
 10
195.2040487353705
 20
70.35791497546035
 30
0.0
 11
187.3021464878063
 21
72.4030777696684
 31
0.0
  0
LINE
  5
12B
330
1F
100
AcDbEntity
  8
0
  6
Continuous
 62
     7
370
    25
100
AcDbLine
 10
195.9632123169103
 20
70.55440096871108
 30
0.0
 11
195.2040487353705
 21
70.35791497546035
 31
0.0
  0
ARC
  5
12D
330
1F
100
AcDbEntity
  8
0
  6
Continuous
 62
     7
370
    25
100
AcDbCircle
 10
221.6016435899851
 20
117.2652068169606
 30
0.0
 40
48.15596695497295
100
AcDbArc
 50
283.5518390094709
 51
285.4697983886707
  0
LINE
  5
12F
330
1F
100
AcDbEntity
  8
0
  6
Continuous
 62
     7
370
    25
100
AcDbLine
 10
228.7175618919848
 20
70.46858919306125
 30
0.0
 11
228.0636452390921
 21
70.63783527673957
 31
0.0
  0
ARC
  5
130
330
1F
100
AcDbEntity
  8
0
  6
Continuous
 62
     7
370
    25
100
AcDbCircle
 10
227.3492102904309
 20
67.38167697117848
 30
0.0
 40
3.333614285837962
100
AcDbArc
 50
77.62480830049896
 51
99.75369549080413
  0
LWPOLYLINE
  5
131
330
1F
100
AcDbEntity
  8
0
  6
Continuous
 62
     7
370
    25
100
AcDbPolyline
 90
        5
 70
   128
 43
0.0
 10
235.2530957979175
 20
71.38365270252235
 10
235.2073831890079
 20
71.24862305596571
 10
235.0535007105258
 20
71.10516866274051
 10
234.7966598693708
 20
70.9719528820236
 10
234.4463035544457
 20
70.8538734622095
  0
ARC
  5
132
330
1F
100
AcDbEntity
  8
0
  6
Continuous
 62
     7
370
    25
100
AcDbCircle
 10
185.2734366531099
 20
72.07784083004792
 30
0.0
 40
2.529855113391974
100
AcDbArc
 50
69.73226764252132
 51
96.53666869431493
  0
LINE
  5
133
330
1F
100
AcDbEntity
  8
0
  6
Continuous
 62
     7
370
    25
100
AcDbLine
 10
184.9854403097725
 20
74.59124986977459
 30
0.0
 11
184.0921735499633
 21
74.52930150365728
 31
0.0
  0
ARC
  5
134
330
1F
100
AcDbEntity
  8
0
  6
Continuous
 62
     7
370
    25
100
AcDbCircle
 10
183.1695461253589
 20
81.06281978715818
 30
0.0
 40
6.598340891881301
100
AcDbArc
 50
245.6256882363785
 51
278.0378462450384
  0
ARC
  5
135
330
1F
100
AcDbEntity
  8
0
  6
Continuous
 62
     7
370
    25
100
AcDbCircle
 10
184.154678303553
 20
79.46318145361131
 30
0.0
 40
5.762318189554218
100
AcDbArc
 50
222.0417160288546
 51
229.944229579872
  0
LWPOLYLINE
  5
136
330
1F
100
AcDbEntity
  8
0
  6
Continuous
 62
     7
370
    25
100
AcDbPolyline
 90
        3
 70
   128
 43
0.0
 10
179.7980783244508
 20
75.7793015036573
 10
179.7999442438222
 20
75.75192041243717
 10
179.8752497906203
 20
75.60432119177676
  0
ARC
  5
137
330
1F
100
AcDbEntity
  8
0
  6
Continuous
 62
     7
370
    25
100
AcDbCircle
 10
192.6214815198525
 20
86.19062404401697
 30
0.0
 40
13.40522704459609
100
AcDbArc
 50
241.1333188391509
 51
243.5452114849831
  0
LWPOLYLINE
  5
138
330
1F
100
AcDbEntity
  8
0
  6
Continuous
 62
     7
370
    25
100
AcDbPolyline
 90
        8
 70
   128
 43
0.0
 10
238.5520874848117
 20
76.50485202554654
 10
238.5520619124261
 20
76.49514551576779
 10
238.4452512875281
 20
75.87807283031727
 10
238.1321271136923
 20
75.26572077666741
 10
237.6150477077611
 20
74.66270132758258
 10
236.89790748982
 20
74.0735561666564
 10
235.9861076520978
 20
73.5027224823007
 10
235.2672587338544
 20
73.13150064859607
  0
ARC
  5
13A
330
1F
100
AcDbEntity
  8
0
  6
Continuous
 62
     7
370
    25
100
AcDbCircle
 10
193.3532580488822
 20
86.63579615220216
 30
0.0
 40
14.99432609185211
100
AcDbArc
 50
241.2876570640569
 51
246.3348106202143
  0
ARC
  5
13D
330
1F
100
AcDbEntity
  8
0
  6
Continuous
 62
     7
370
    25
100
AcDbCircle
 10
183.1695461253589
 20
80.09689396086911
 30
0.0
 40
6.598340891881301
100
AcDbArc
 50
245.6256882363785
 51
278.0378462450384
  0
ARC
  5
13F
330
1F
100
AcDbEntity
  8
0
  6
Continuous
 62
     7
370
    25
100
AcDbCircle
 10
185.2734366531099
 20
71.11191500375874
 30
0.0
 40
2.529855113392081
100
AcDbArc
 50
69.7322676425222
 51
96.53666869431467
  0
LINE
  5
140
330
1F
100
AcDbEntity
  8
0
  6
Continuous
 62
     7
370
    25
100
AcDbLine
 10
184.9854403097725
 20
73.6253240434855
 30
0.0
 11
184.0921735499633
 21
73.5633756773682
 31
0.0
  0
ARC
  5
142
330
1F
100
AcDbEntity
  8
0
  6
Continuous
 62
     7
370
    25
100
AcDbCircle
 10
184.1546783035516
 20
78.49725562732083
 30
0.0
 40
5.762318189552214
100
AcDbArc
 50
222.0417160288535
 51
229.9442295798737
  0
LWPOLYLINE
  5
143
330
1F
100
AcDbEntity
  8
0
  6
Continuous
 62
     7
370
    25
100
AcDbPolyline
 90
        3
 70
   128
 43
0.0
 10
179.8752497906203
 20
74.6383953654877
 10
179.7999442438222
 20
74.78599458614809
 10
179.7980783244508
 20
74.81337567736821
  0
ARC
  5
145
330
1F
100
AcDbEntity
  8
0
  6
Continuous
 62
     7
370
    25
100
AcDbCircle
 10
239.2239428611495
 20
75.65046292954428
 30
0.0
 40
1.73426337702174
100
AcDbArc
 50
91.1450196065891
 51
112.7928787431135
  0
LINE
  5
147
330
1F
100
AcDbEntity
  8
0
  6
Continuous
 62
     7
370
    25
100
AcDbLine
 10
240.0825537804803
 20
77.44632837372488
 30
0.0
 11
239.1892870206711
 21
77.38438000760758
 31
0.0
  0
LWPOLYLINE
  5
148
330
1F
100
AcDbEntity
  8
0
  6
Continuous
 62
     7
370
    25
100
AcDbPolyline
 90
        8
 70
   128
 43
0.0
 10
242.3060966451726
 20
78.19632837372488
 10
242.2693082928434
 20
78.07510356403363
 10
242.1254418217844
 20
77.93095455714676
 10
241.8779206392632
 20
77.79656215850184
 10
241.5358449920208
 20
77.67686737547172
 10
241.1117914715319
 20
77.57627084984424
 10
240.6213506289912
 20
77.49847106590737
 10
240.0825537804803
 20
77.44632837372488
  0
ARC
  5
149
330
1F
100
AcDbEntity
  8
0
  6
Continuous
 62
     7
370
    25
100
AcDbCircle
 10
245.4167922989927
 20
102.5926715890895
 30
0.0
 40
0.4235804150507765
100
AcDbArc
 50
166.9815672792787
 51
179.8695523794957
  0
LINE
  5
14A
330
1F
100
AcDbEntity
  8
0
  6
Continuous
 62
     7
370
    25
100
AcDbLine
 10
244.993212981766
 20
100.3224384427357
 30
0.0
 11
244.993212981766
 21
102.5936359709335
 31
0.0
  0
ARC
  5
14B
330
1F
100
AcDbEntity
  8
0
  6
Continuous
 62
     7
370
    25
100
AcDbCircle
 10
244.2912857370773
 20
100.2791981765036
 30
0.0
 40
0.7032578314246752
100
AcDbArc
 50
293.2550072405919
 51
3.525091832311531
  0
LINE
  5
14C
330
1F
100
AcDbEntity
  8
0
  6
Continuous
 62
     7
370
    25
100
AcDbLine
 10
243.5115360432976
 20
99.3593967365974
 30
0.0
 11
244.5689489130541
 21
99.6330753258269
 31
0.0
  0
LINE
  5
14D
330
1F
100
AcDbEntity
  8
0
  6
Continuous
 62
     7
370
    25
100
AcDbLine
 10
244.5689489130541
 20
99.92285307371363
 30
0.0
 11
243.5172066279899
 21
99.65064213979936
 31
0.0
  0
ARC
  5
14E
330
1F
100
AcDbEntity
  8
0
  6
Continuous
 62
     7
370
    25
100
AcDbCircle
 10
244.4301173250657
 20
100.245914499052
 30
0.0
 40
0.3516289157123496
100
AcDbArc
 50
293.2550072405862
 51
3.52509183230561
  0
LINE
  5
14F
330
1F
100
AcDbEntity
  8
0
  6
Continuous
 62
     7
370
    25
100
AcDbLine
 10
244.7810809474101
 20
102.5387321603658
 30
0.0
 11
244.7810809474101
 21
100.267534632168
 31
0.0
  0
ARC
  5
150
330
1F
100
AcDbEntity
  8
0
  6
Continuous
 62
     7
370
    25
100
AcDbCircle
 10
245.6282395818637
 20
102.5368033966777
 30
0.0
 40
0.8471608301017819
100
AcDbArc
 50
166.9815672792714
 51
179.8695523794852
  0
LINE
  5
151
330
1F
100
AcDbEntity
  8
0
  6
Continuous
 62
     7
370
    25
100
AcDbLine
 10
246.1671117542636
 20
108.6715721178395
 30
0.0
 11
244.802852780172
 21
102.7276386650426
 31
0.0
  0
ARC
  5
152
330
1F
100
AcDbEntity
  8
0
  6
Continuous
 62
     7
370
    25
100
AcDbCircle
 10
245.7785131266916
 20
108.7640295856592
 30
0.0
 40
0.3994462125324356
100
AcDbArc
 50
346.616713799505
 51
10.18573112855488
  0
LINE
  5
153
330
1F
100
AcDbEntity
  8
0
  6
Continuous
 62
     7
370
    25
100
AcDbLine
 10
245.3774434962761
 20
112.9688093313306
 30
0.0
 11
246.1716639384596
 21
108.8346675068672
 31
0.0
  0
LINE
  5
154
330
1F
100
AcDbEntity
  8
0
  6
Continuous
 62
     7
370
    25
100
AcDbLine
 10
246.3774622406306
 20
108.9582134541242
 30
0.0
 11
245.5732635416319
 21
113.1442949248674
 31
0.0
  0
ARC
  5
155
330
1F
100
AcDbEntity
  8
0
  6
Continuous
 62
     7
370
    25
100
AcDbCircle
 10
245.5911606170941
 20
108.8169376117081
 30
0.0
 40
0.7988924250652513
100
AcDbArc
 50
346.6167137995052
 51
10.18573112854209
  0
LINE
  5
156
330
1F
100
AcDbEntity
  8
0
  6
Continuous
 62
     7
370
    25
100
AcDbLine
 10
245.004098898147
 20
102.6880892232719
 30
0.0
 11
246.3683578722386
 21
108.6320226760688
 31
0.0
  0
ARC
  5
157
330
1F
100
AcDbEntity
  8
0
  6
Continuous
 62
     7
370
    25
100
AcDbCircle
 10
194.0164594822921
 20
101.1826620263997
 30
0.0
 40
0.4186191135906914
100
AcDbArc
 50
350.020169399539
 51
359.91423822694
  0
LINE
  5
158
330
1F
100
AcDbEntity
  8
0
  6
Continuous
 62
     7
370
    25
100
AcDbLine
 10
194.4350781269277
 20
101.1820354269482
 30
0.0
 11
194.4350781269277
 21
102.1122879822936
 31
0.0
  0
LINE
  5
159
330
1F
100
AcDbEntity
  8
0
  6
Continuous
 62
     7
370
    25
100
AcDbLine
 10
194.6472101612837
 20
102.1671917928613
 30
0.0
 11
194.4350781269277
 21
102.1122879822936
 31
0.0
  0
LINE
  5
15A
330
1F
100
AcDbEntity
  8
0
  6
Continuous
 62
     7
370
    25
100
AcDbLine
 10
194.6472101612837
 20
102.1671917928613
 30
0.0
 11
194.6472101612837
 21
101.2369392375159
 31
0.0
  0
ARC
  5
15B
330
1F
100
AcDbEntity
  8
0
  6
Continuous
 62
     7
370
    25
100
AcDbCircle
 10
193.8099728720008
 20
101.23819243642
 30
0.0
 40
0.8372382271930356
100
AcDbArc
 50
350.0201693995974
 51
359.9142382268595
  0
LINE
  5
15C
330
1F
100
AcDbEntity
  8
0
  6
Continuous
 62
     7
370
    25
100
AcDbLine
 10
194.6345426969138
 20
101.0930978020731
 30
0.0
 11
193.6101805608274
 21
95.23075456989646
 31
0.0
  0
ARC
  5
15D
330
1F
100
AcDbEntity
  8
0
  6
Continuous
 62
     7
370
    25
100
AcDbCircle
 10
193.9863479447669
 20
95.16097379799844
 30
0.0
 40
0.3825849668590613
100
AcDbArc
 50
169.4908308867458
 51
193.7535744845423
  0
LINE
  5
15E
330
1F
100
AcDbEntity
  8
0
  6
Continuous
 62
     7
370
    25
100
AcDbLine
 10
193.6147327450234
 20
95.07001556480228
 30
0.0
 11
194.978991719115
 21
89.83227452189922
 31
0.0
  0
ARC
  5
15F
330
1F
100
AcDbEntity
  8
0
  6
Continuous
 62
     7
370
    25
100
AcDbCircle
 10
194.2940644014274
 20
89.65817464548763
 30
0.0
 40
0.7067080001537916
100
AcDbArc
 50
359.7132638462415
 51
14.26182603777034
  0
LINE
  5
160
330
1F
100
AcDbEntity
  8
0
  6
Continuous
 62
     7
370
    25
100
AcDbLine
 10
195.000763551877
 20
89.6546379471536
 30
0.0
 11
195.000763551877
 21
87.38344041895576
 31
0.0
  0
LWPOLYLINE
  5
161
330
1F
100
AcDbEntity
  8
0
  6
Continuous
 62
     7
370
    25
100
AcDbPolyline
 90
        9
 70
   128
 43
0.0
 10
195.212895586233
 20
87.1485664816367
 10
195.1715106793405
 20
87.14342327772417
 10
195.131716171211
 20
87.14961372059571
 10
195.0950413424749
 20
87.1668999150034
 10
195.062895586233
 20
87.19461756219037
 10
195.0365142458701
 20
87.23170148851948
 10
195.0169111415015
 20
87.27672657949876
 10
195.0048396094347
 20
87.32796254613227
 10
195.000763551877
 20
87.38344041895576
  0
LINE
  5
162
330
1F
100
AcDbEntity
  8
0
  6
Continuous
 62
     7
370
    25
100
AcDbLine
 10
195.212895586233
 20
87.1485664816367
 30
0.0
 11
198.3241654234538
 21
87.95382236996247
 31
0.0
  0
LINE
  5
163
330
1F
100
AcDbEntity
  8
0
  6
Continuous
 62
     7
370
    25
100
AcDbLine
 10
198.3241654234538
 20
87.66404462207574
 30
0.0
 11
198.3241654234538
 21
87.95382236996247
 31
0.0
  0
LINE
  5
164
330
1F
100
AcDbEntity
  8
0
  6
Continuous
 62
     7
370
    25
100
AcDbLine
 10
198.3241654234538
 20
87.66404462207574
 30
0.0
 11
195.212895586233
 21
86.85878873374999
 31
0.0
  0
LWPOLYLINE
  5
165
330
1F
100
AcDbEntity
  8
0
  6
Continuous
 62
     7
370
    25
100
AcDbPolyline
 90
        9
 70
   128
 43
0.0
 10
194.7886315175211
 20
87.32853660838808
 10
194.7967836326363
 20
87.21758086274113
 10
194.8209266967701
 20
87.11510892947409
 10
194.8601329055072
 20
87.02505874751552
 10
194.912895586233
 20
86.95089089485731
 10
194.9771870987168
 20
86.89545560048337
 10
195.0505367561891
 20
86.86088321166798
 10
195.1301257724481
 20
86.84850232592491
 10
195.212895586233
 20
86.85878873374999
  0
LINE
  5
166
330
1F
100
AcDbEntity
  8
0
  6
Continuous
 62
     7
370
    25
100
AcDbLine
 10
194.7886315175211
 20
87.32853660838808
 30
0.0
 11
194.7886315175211
 21
89.59973413658592
 31
0.0
  0
ARC
  5
167
330
1F
100
AcDbEntity
  8
0
  6
Continuous
 62
     7
370
    25
100
AcDbCircle
 10
194.4352819422949
 20
89.60150248575275
 30
0.0
 40
0.3533540000782852
100
AcDbArc
 50
359.7132638462738
 51
14.26182603775214
  0
LINE
  5
168
330
1F
100
AcDbEntity
  8
0
  6
Continuous
 62
     7
370
    25
100
AcDbLine
 10
194.7777456011401
 20
89.68855242395875
 30
0.0
 11
193.4134866270485
 21
94.9262934668618
 31
0.0
  0
ARC
  5
169
330
1F
100
AcDbEntity
  8
0
  6
Continuous
 62
     7
370
    25
100
AcDbCircle
 10
194.1567170265356
 20
95.10820993325423
 30
0.0
 40
0.7651699337183153
100
AcDbArc
 50
169.4908308867562
 51
193.7535744845476
  0
LINE
  5
16A
330
1F
100
AcDbEntity
  8
0
  6
Continuous
 62
     7
370
    25
100
AcDbLine
 10
193.4043822586564
 20
95.24777147705018
 30
0.0
 11
194.4287443947428
 21
101.1101147092268
 31
0.0
  0
LINE
  5
16B
330
1F
100
AcDbEntity
  8
0
  6
Continuous
 62
     7
370
    25
100
AcDbLine
 10
194.4287443947428
 20
101.1101147092268
 30
0.0
 11
187.3576765828773
 21
102.9402417281491
 31
0.0
  0
LINE
  5
16C
330
1F
100
AcDbEntity
  8
0
  6
Continuous
 62
     7
370
    25
100
AcDbLine
 10
186.333314446791
 20
97.07789849597236
 30
0.0
 11
193.4043822586564
 21
95.24777147705018
 31
0.0
  0
LINE
  5
16D
330
1F
100
AcDbEntity
  8
0
  6
Continuous
 62
     7
370
    25
100
AcDbLine
 10
186.333314446791
 20
97.07789849597236
 30
0.0
 11
187.3576765828773
 21
102.9402417281491
 31
0.0
  0
LINE
  5
16E
330
1F
100
AcDbEntity
  8
0
  6
Continuous
 62
     7
370
    25
100
AcDbLine
 10
193.0208645645547
 20
104.4101650386562
 30
0.0
 11
193.2329965989106
 21
104.4650688492239
 31
0.0
  0
ARC
  5
16F
330
1F
100
AcDbEntity
  8
0
  6
Continuous
 62
     7
370
    25
100
AcDbCircle
 10
192.307452678988
 20
102.3113260136349
 30
0.0
 40
2.344192771415517
100
AcDbArc
 50
356.4749081676896
 51
66.74499275940876
  0
ARC
  5
170
330
1F
100
AcDbEntity
  8
0
  6
Continuous
 62
     7
370
    25
100
AcDbCircle
 10
192.0953206446322
 20
102.2564222030672
 30
0.0
 40
2.344192771415406
100
AcDbArc
 50
356.4749081676888
 51
66.74499275941
  0
LWPOLYLINE
  5
171
330
1F
100
AcDbEntity
  8
0
  6
Continuous
 62
     7
370
    25
100
AcDbPolyline
 90
        9
 70
   128
 43
0.0
 10
188.7782238774354
 20
105.5082412500095
 10
188.5023244981525
 20
105.5425292760931
 10
188.2370277772892
 20
105.5012596569495
 10
187.9925289190483
 20
105.3860183608982
 10
187.7782238774354
 20
105.2012340463183
 10
187.602348275016
 20
104.954007870791
 10
187.471660912559
 20
104.6538405975958
 10
187.3911840321132
 20
104.3122674867057
 10
187.3640103150623
 20
103.9424150012158
  0
LINE
  5
172
330
1F
100
AcDbEntity
  8
0
  6
Continuous
 62
     7
370
    25
100
AcDbLine
 10
188.7782238774354
 20
105.5082412500095
 30
0.0
 11
193.0208645645547
 21
104.4101650386562
 31
0.0
  0
LINE
  5
173
330
1F
100
AcDbEntity
  8
0
  6
Continuous
 62
     7
370
    25
100
AcDbLine
 10
187.3640103150623
 20
103.0121624458704
 30
0.0
 11
194.4350781269277
 21
101.1820354269482
 31
0.0
  0
LINE
  5
174
330
1F
100
AcDbEntity
  8
0
  6
Continuous
 62
     7
370
    25
100
AcDbLine
 10
187.3640103150623
 20
103.0121624458704
 30
0.0
 11
187.3640103150623
 21
103.9424150012158
 31
0.0
  0
ARC
  5
175
330
1F
100
AcDbEntity
  8
0
  6
Continuous
 62
     7
370
    25
100
AcDbCircle
 10
186.9453916704246
 20
103.0127890453222
 30
0.0
 40
0.4186191135927657
100
AcDbArc
 50
350.0201693995435
 51
359.9142382268938
  0
LINE
  5
176
330
1F
100
AcDbEntity
  8
0
  6
Continuous
 62
     7
370
    25
100
AcDbLine
 10
193.4134866270485
 20
94.9262934668618
 30
0.0
 11
186.342418815183
 21
96.756420485784
 31
0.0
  0
ARC
  5
177
330
1F
100
AcDbEntity
  8
0
  6
Continuous
 62
     7
370
    25
100
AcDbCircle
 10
187.0856492146702
 20
96.93833695217648
 30
0.0
 40
0.7651699337183531
100
AcDbArc
 50
169.4908308867622
 51
193.7535744845501
  0
LINE
  5
178
330
1F
100
AcDbEntity
  8
0
  6
Continuous
 62
     7
370
    25
100
AcDbLine
 10
188.9903559117914
 20
105.5631450605772
 30
0.0
 11
188.7782238774354
 21
105.5082412500095
 31
0.0
  0
LINE
  5
179
330
1F
100
AcDbEntity
  8
0
  6
Continuous
 62
     7
370
    25
100
AcDbLine
 10
188.9903559117914
 20
105.5631450605772
 30
0.0
 11
193.2329965989106
 21
104.4650688492239
 31
0.0
  0
LINE
  5
17A
330
1F
100
AcDbEntity
  8
0
  6
Continuous
 62
     7
370
    25
100
AcDbLine
 10
187.7066777892746
 20
91.51867944288095
 30
0.0
 11
194.7777456011401
 21
89.68855242395875
 31
0.0
  0
LINE
  5
17B
330
1F
100
AcDbEntity
  8
0
  6
Continuous
 62
     7
370
    25
100
AcDbLine
 10
187.7066777892746
 20
91.51867944288095
 30
0.0
 11
186.342418815183
 21
96.756420485784
 31
0.0
  0
LINE
  5
17C
330
1F
100
AcDbEntity
  8
0
  6
Continuous
 62
     7
370
    25
100
AcDbLine
 10
194.7886315175211
 20
89.59973413658592
 30
0.0
 11
187.7175637056556
 21
91.42986115550812
 31
0.0
  0
ARC
  5
17D
330
1F
100
AcDbEntity
  8
0
  6
Continuous
 62
     7
370
    25
100
AcDbCircle
 10
187.3642141304321
 20
91.43162950467529
 30
0.0
 40
0.3533540000756152
100
AcDbArc
 50
359.7132638462163
 51
14.26182603780527
  0
LINE
  5
17E
330
1F
100
AcDbEntity
  8
0
  6
Continuous
 62
     7
370
    25
100
AcDbLine
 10
184.1820297997228
 20
92.34492466496923
 30
0.0
 11
177.1109619878574
 21
94.17505168389143
 31
0.0
  0
LINE
  5
17F
330
1F
100
AcDbEntity
  8
0
  6
Continuous
 62
     7
370
    25
100
AcDbLine
 10
184.1820297997228
 20
91.42602329357608
 30
0.0
 11
184.1820297997228
 21
92.34492466496923
 31
0.0
  0
LINE
  5
180
330
1F
100
AcDbEntity
  8
0
  6
Continuous
 62
     7
370
    25
100
AcDbLine
 10
187.7175637056556
 20
90.51095978411497
 30
0.0
 11
184.1820297997228
 21
91.42602329357608
 31
0.0
  0
LINE
  5
181
330
1F
100
AcDbEntity
  8
0
  6
Continuous
 62
     7
370
    25
100
AcDbLine
 10
187.7175637056556
 20
90.51095978411497
 30
0.0
 11
187.7175637056556
 21
91.42986115550812
 31
0.0
  0
LINE
  5
182
330
1F
100
AcDbEntity
  8
0
  6
Continuous
 62
     7
370
    25
100
AcDbLine
 10
177.1109619878574
 20
91.90385415569358
 30
0.0
 11
194.7886315175211
 21
87.32853660838808
 31
0.0
  0
LINE
  5
183
330
1F
100
AcDbEntity
  8
0
  6
Continuous
 62
     7
370
    25
100
AcDbLine
 10
177.1109619878574
 20
91.90385415569358
 30
0.0
 11
177.1109619878574
 21
94.17505168389143
 31
0.0
  0
ARC
  5
184
330
1F
100
AcDbEntity
  8
0
  6
Continuous
 62
     7
370
    25
100
AcDbCircle
 10
177.5618770826254
 20
91.8508970958257
 30
0.0
 40
0.4540141769587908
100
AcDbArc
 50
173.3016656813255
 51
247.0560282378433
  0
LWPOLYLINE
  5
185
330
1F
100
AcDbEntity
  8
0
  6
Continuous
 62
     7
370
    25
100
AcDbPolyline
 90
        3
 70
   128
 43
0.0
 10
188.4892302976199
 20
105.5674940997718
 10
188.7144565325084
 20
105.5974330866607
 10
188.9903559117914
 20
105.5631450605772
  0
ARC
  5
186
330
1F
100
AcDbEntity
  8
0
  6
Continuous
 62
     7
370
    25
100
AcDbCircle
 10
183.4098577644926
 20
103.9278525547833
 30
0.0
 40
0.4186191135920282
100
AcDbArc
 50
350.0201693995318
 51
359.9142382268995
  0
LINE
  5
187
330
1F
100
AcDbEntity
  8
0
  6
Continuous
 62
     7
370
    25
100
AcDbLine
 10
183.8284764091296
 20
103.9272259553315
 30
0.0
 11
183.8284764091296
 21
104.8574785106769
 31
0.0
  0
LINE
  5
188
330
1F
100
AcDbEntity
  8
0
  6
Continuous
 62
     7
370
    25
100
AcDbLine
 10
184.0406084434855
 20
104.9123823212446
 30
0.0
 11
183.8284764091296
 21
104.8574785106769
 31
0.0
  0
LINE
  5
189
330
1F
100
AcDbEntity
  8
0
  6
Continuous
 62
     7
370
    25
100
AcDbLine
 10
184.0406084434855
 20
104.9123823212446
 30
0.0
 11
184.0406084434855
 21
103.9821297658992
 31
0.0
  0
ARC
  5
18A
330
1F
100
AcDbEntity
  8
0
  6
Continuous
 62
     7
370
    25
100
AcDbCircle
 10
183.2033711542093
 20
103.9833829648027
 30
0.0
 40
0.837238227186327
100
AcDbArc
 50
350.0201693995581
 51
359.9142382268997
  0
LINE
  5
18B
330
1F
100
AcDbEntity
  8
0
  6
Continuous
 62
     7
370
    25
100
AcDbLine
 10
184.0279409791156
 20
103.8382883304565
 30
0.0
 11
183.0035788430292
 21
97.97594509827977
 31
0.0
  0
ARC
  5
18C
330
1F
100
AcDbEntity
  8
0
  6
Continuous
 62
     7
370
    25
100
AcDbCircle
 10
183.3797462269691
 20
97.90616432638176
 30
0.0
 40
0.382584966859482
100
AcDbArc
 50
169.4908308867603
 51
193.7535744845292
  0
LINE
  5
18D
330
1F
100
AcDbEntity
  8
0
  6
Continuous
 62
     7
370
    25
100
AcDbLine
 10
183.0081310272252
 20
97.81520609318558
 30
0.0
 11
184.3723900013168
 21
92.57746505028253
 31
0.0
  0
ARC
  5
18E
330
1F
100
AcDbEntity
  8
0
  6
Continuous
 62
     7
370
    25
100
AcDbCircle
 10
183.6874626836307
 20
92.40336517387114
 30
0.0
 40
0.7067080001522551
100
AcDbArc
 50
359.7132638462247
 51
14.26182603778536
  0
LINE
  5
18F
330
1F
100
AcDbEntity
  8
0
  6
Continuous
 62
     7
370
    25
100
AcDbLine
 10
184.3941618340788
 20
91.48092710414376
 30
0.0
 11
184.1820297997228
 21
91.42602329357608
 31
0.0
  0
ARC
  5
190
330
1F
100
AcDbEntity
  8
0
  6
Continuous
 62
     7
370
    25
100
AcDbCircle
 10
183.8286802244982
 20
92.34669301413624
 30
0.0
 40
0.3533540000767548
100
AcDbArc
 50
359.7132638462426
 51
14.26182603778329
  0
LINE
  5
191
330
1F
100
AcDbEntity
  8
0
  6
Continuous
 62
     7
370
    25
100
AcDbLine
 10
184.1711438833418
 20
92.43374295234206
 30
0.0
 11
182.8068849092503
 21
97.6714839952451
 31
0.0
  0
ARC
  5
192
330
1F
100
AcDbEntity
  8
0
  6
Continuous
 62
     7
370
    25
100
AcDbCircle
 10
183.5501153087382
 20
97.8534004616376
 30
0.0
 40
0.7651699337191311
100
AcDbArc
 50
169.4908308867745
 51
193.7535744845385
  0
LINE
  5
193
330
1F
100
AcDbEntity
  8
0
  6
Continuous
 62
     7
370
    25
100
AcDbLine
 10
182.7977805408582
 20
97.99296200543347
 30
0.0
 11
183.8221426769446
 21
103.8553052376102
 31
0.0
  0
LINE
  5
194
330
1F
100
AcDbEntity
  8
0
  6
Continuous
 62
     7
370
    25
100
AcDbLine
 10
184.3941618340788
 20
92.3998284755369
 30
0.0
 11
184.3941618340788
 21
91.48092710414376
 31
0.0
  0
LINE
  5
195
330
1F
100
AcDbEntity
  8
0
  6
Continuous
 62
     7
370
    25
100
AcDbLine
 10
183.8221426769446
 20
103.8553052376102
 30
0.0
 11
176.7510748650791
 21
105.6854322565324
 31
0.0
  0
LINE
  5
196
330
1F
100
AcDbEntity
  8
0
  6
Continuous
 62
     7
370
    25
100
AcDbLine
 10
175.7267127289928
 20
99.82308902435567
 30
0.0
 11
182.7977805408582
 21
97.99296200543347
 31
0.0
  0
LINE
  5
197
330
1F
100
AcDbEntity
  8
0
  6
Continuous
 62
     7
370
    25
100
AcDbLine
 10
175.7267127289928
 20
99.82308902435567
 30
0.0
 11
176.7510748650791
 21
105.6854322565324
 31
0.0
  0
LWPOLYLINE
  5
198
330
1F
100
AcDbEntity
  8
0
  6
Continuous
 62
     7
370
    25
100
AcDbPolyline
 90
        9
 70
   128
 43
0.0
 10
178.1716221596372
 20
108.2534317783928
 10
177.8957227803542
 20
108.2877198044764
 10
177.630426059491
 20
108.2464501853328
 10
177.3859272012501
 20
108.1312088892815
 10
177.1716221596372
 20
107.9464245747017
 10
176.9957465572178
 20
107.6991983991743
 10
176.8650591947608
 20
107.3990311259791
 10
176.784582314315
 20
107.057458015089
 10
176.7574085972641
 20
106.6876055295991
  0
LINE
  5
199
330
1F
100
AcDbEntity
  8
0
  6
Continuous
 62
     7
370
    25
100
AcDbLine
 10
178.1716221596372
 20
108.2534317783928
 30
0.0
 11
182.4142628467565
 21
107.1553555670395
 31
0.0
  0
ARC
  5
19A
330
1F
100
AcDbEntity
  8
0
  6
Continuous
 62
     7
370
    25
100
AcDbCircle
 10
181.4887189268339
 20
105.0016127314505
 30
0.0
 40
2.344192771415469
100
AcDbArc
 50
356.4749081676896
 51
66.7449927594099
  0
LINE
  5
19B
330
1F
100
AcDbEntity
  8
0
  6
Continuous
 62
     7
370
    25
100
AcDbLine
 10
176.7574085972641
 20
105.7573529742537
 30
0.0
 11
183.8284764091296
 21
103.9272259553315
 31
0.0
  0
LINE
  5
19C
330
1F
100
AcDbEntity
  8
0
  6
Continuous
 62
     7
370
    25
100
AcDbLine
 10
176.7574085972641
 20
105.7573529742537
 30
0.0
 11
176.7574085972641
 21
106.6876055295991
 31
0.0
  0
LINE
  5
19D
330
1F
100
AcDbEntity
  8
0
  6
Continuous
 62
     7
370
    25
100
AcDbLine
 10
182.4142628467565
 20
107.1553555670395
 30
0.0
 11
182.6263948811124
 21
107.2102593776072
 31
0.0
  0
ARC
  5
19E
330
1F
100
AcDbEntity
  8
0
  6
Continuous
 62
     7
370
    25
100
AcDbCircle
 10
181.7008509611899
 20
105.0565165420182
 30
0.0
 40
2.344192771415435
100
AcDbArc
 50
356.4749081676881
 51
66.74499275941027
  0
ARC
  5
19F
330
1F
100
AcDbEntity
  8
0
  6
Continuous
 62
     7
370
    25
100
AcDbCircle
 10
176.3387899526204
 20
105.757979573706
 30
0.0
 40
0.4186191135987634
100
AcDbArc
 50
350.0201693996123
 51
359.914238226823
  0
LINE
  5
1A0
330
1F
100
AcDbEntity
  8
0
  6
Continuous
 62
     7
370
    25
100
AcDbLine
 10
187.7175637056556
 20
90.6207674052503
 30
0.0
 11
184.3941618340788
 21
91.48092710414376
 31
0.0
  0
LINE
  5
1A1
330
1F
100
AcDbEntity
  8
0
  6
Continuous
 62
     7
370
    25
100
AcDbLine
 10
182.8068849092503
 20
97.6714839952451
 30
0.0
 11
175.7358170973848
 21
99.5016110141673
 31
0.0
  0
ARC
  5
1A2
330
1F
100
AcDbEntity
  8
0
  6
Continuous
 62
     7
370
    25
100
AcDbCircle
 10
176.4790474968711
 20
99.68352748055975
 30
0.0
 40
0.7651699337174648
100
AcDbArc
 50
169.4908308867471
 51
193.7535744845642
  0
LINE
  5
1A3
330
1F
100
AcDbEntity
  8
0
  6
Continuous
 62
     7
370
    25
100
AcDbLine
 10
178.3837541939932
 20
108.3083355889605
 30
0.0
 11
178.1716221596372
 21
108.2534317783928
 31
0.0
  0
LINE
  5
1A4
330
1F
100
AcDbEntity
  8
0
  6
Continuous
 62
     7
370
    25
100
AcDbLine
 10
178.3837541939932
 20
108.3083355889605
 30
0.0
 11
182.6263948811124
 21
107.2102593776072
 31
0.0
  0
LINE
  5
1A5
330
1F
100
AcDbEntity
  8
0
  6
Continuous
 62
     7
370
    25
100
AcDbLine
 10
177.1000760714764
 20
94.26386997126426
 30
0.0
 11
184.1711438833418
 21
92.43374295234206
 31
0.0
  0
LINE
  5
1A6
330
1F
100
AcDbEntity
  8
0
  6
Continuous
 62
     7
370
    25
100
AcDbLine
 10
177.1000760714764
 20
94.26386997126426
 30
0.0
 11
175.7358170973848
 21
99.5016110141673
 31
0.0
  0
ARC
  5
1A7
330
1F
100
AcDbEntity
  8
0
  6
Continuous
 62
     7
370
    25
100
AcDbCircle
 10
176.7576124126317
 20
94.1768200330584
 30
0.0
 40
0.3533540000777259
100
AcDbArc
 50
359.713263846248
 51
14.26182603774802
  0
LWPOLYLINE
  5
1A8
330
1F
100
AcDbEntity
  8
0
  6
Continuous
 62
     7
370
    25
100
AcDbPolyline
 90
        3
 70
   128
 43
0.0
 10
177.8826285798217
 20
108.3126846281551
 10
178.1078548147102
 20
108.342623615044
 10
178.3837541939932
 20
108.3083355889605
  0
LWPOLYLINE
  5
1A9
330
1F
100
AcDbEntity
  8
0
  6
Continuous
 62
     7
370
    25
100
AcDbPolyline
 90
        3
 70
   128
 43
0.0
 10
179.7980783244508
 20
74.8133756773682
 10
179.7999442438222
 20
74.78599458614809
 10
179.8752497906203
 20
74.6383953654877
  0
LWPOLYLINE
  5
1AA
330
1F
100
AcDbEntity
  8
0
  6
Continuous
 62
     7
370
    25
100
AcDbPolyline
 90
        8
 70
   128
 43
0.0
 10
240.0825537804803
 20
77.44632837372488
 10
240.6213506289912
 20
77.49847106590737
 10
241.1117914715319
 20
77.57627084984424
 10
241.5358449920208
 20
77.6768673754717
 10
241.8779206392633
 20
77.79656215850184
 10
242.1254418217844
 20
77.93095455714675
 10
242.2693082928434
 20
78.07510356403363
 10
242.3060966451727
 20
78.19632837372488
  0
ARC
  5
1AB
330
1F
100
AcDbEntity
  8
0
  6
Continuous
 62
     7
370
    25
100
AcDbCircle
 10
239.2407971327724
 20
75.57095797410737
 30
0.0
 40
1.814153456362718
100
AcDbArc
 50
91.62704467576872
 51
112.3108536739366
  0
LWPOLYLINE
  5
1AC
330
1F
100
AcDbEntity
  8
0
  6
Continuous
 62
     7
370
    25
100
AcDbPolyline
 90
        8
 70
   128
 43
0.0
 10
238.5520874848117
 20
76.50485202554654
 10
238.5520619124261
 20
76.49514551576779
 10
238.4452512875281
 20
75.87807283031727
 10
238.1321271136923
 20
75.26572077666741
 10
237.6150477077611
 20
74.66270132758258
 10
236.8979074898201
 20
74.0735561666564
 10
235.9861076520978
 20
73.5027224823007
 10
235.2672587338544
 20
73.13150064859606
  0
LWPOLYLINE
  5
1AD
330
1F
100
AcDbEntity
  8
0
  6
Continuous
 62
     7
370
    25
100
AcDbPolyline
 90
        5
 70
   128
 43
0.0
 10
234.4463035544457
 20
70.8538734622095
 10
234.7966598693708
 20
70.9719528820236
 10
235.0535007105258
 20
71.10516866274051
 10
235.2073831890079
 20
71.24862305596571
 10
235.2530957979175
 20
71.38365270252235
  0
LWPOLYLINE
  5
1AE
330
1F
100
AcDbEntity
  8
0
  6
Continuous
 62
     7
370
    25
100
AcDbPolyline
 90
        8
 70
   128
 43
0.0
 10
199.5848730751835
 20
69.32615095055958
 10
199.607272750078
 20
69.23144428961629
 10
199.7318485249806
 20
69.08609703046334
 10
199.9613172512676
 20
68.94957548021237
 10
200.2872423902666
 20
68.82689892561727
 10
200.6976411324511
 20
68.72257763486914
 10
201.1774249517482
 20
68.64044703520884
 10
201.708954343153
 20
68.583526701423
  0
LWPOLYLINE
  5
1AF
330
1F
100
AcDbEntity
  8
0
  6
Continuous
 62
     7
370
    25
100
AcDbPolyline
 90
        3
 70
   128
 43
0.0
 10
199.3847854070442
 20
70.0596650290235
 10
199.5353988904293
 20
70.0370702805647
 10
199.5848730751835
 20
70.02746906233682
  0
ARC
  5
1B0
330
1F
100
AcDbEntity
  8
0
  6
Continuous
 62
     7
370
    25
100
AcDbCircle
 10
208.7143106897124
 20
147.0730276768519
 30
0.0
 40
77.57640149121296
100
AcDbArc
 50
262.0412525316352
 51
263.0927525493507
  0
ARC
  5
1B1
330
1F
100
AcDbEntity
  8
0
  6
Continuous
 62
     7
370
    25
100
AcDbCircle
 10
197.7394529912066
 20
68.58935337278183
 30
0.0
 40
1.670900530527512
100
AcDbArc
 50
81.96264981534358
 51
102.3624088619039
  0
LINE
  5
1B2
330
1F
100
AcDbEntity
  8
0
  6
Continuous
 62
     7
370
    25
100
AcDbLine
 10
197.2635052516741
 20
70.19091381026495
 30
0.0
 11
197.3817223827006
 21
70.22151065523198
 31
0.0
  0
LINE
  5
1B3
330
1F
100
AcDbEntity
  8
0
  6
Continuous
 62
     7
370
    25
100
AcDbLine
 10
197.2635052516741
 20
70.19091381026495
 30
0.0
 11
195.9111555165571
 21
70.54092767735257
 31
0.0
  0
LINE
  5
1B4
330
1F
100
AcDbEntity
  8
0
  6
Continuous
 62
     7
370
    25
100
AcDbLine
 10
187.3255890045449
 20
72.76303580365574
 30
0.0
 11
186.6569035338758
 21
72.93610433864824
 31
0.0
  0
LINE
  5
1B5
330
1F
100
AcDbEntity
  8
0
  6
Continuous
 62
     7
370
    25
100
AcDbLine
 10
186.7751206649024
 20
72.96670118361527
 30
0.0
 11
186.6569035338758
 21
72.93610433864824
 31
0.0
  0
LWPOLYLINE
  5
1B6
330
1F
100
AcDbEntity
  8
0
  6
Continuous
 62
     7
370
    25
100
AcDbPolyline
 90
        9
 70
   128
 43
0.0
 10
186.8613979923538
 20
73.11975475761469
 10
186.8936875629508
 20
73.10081643929219
 10
186.9138969647921
 20
73.08078788449386
 10
186.9215090987599
 20
73.0601815649938
 10
186.9163291927482
 20
73.03952473586448
 10
186.8984897853075
 20
73.0193459445711
 10
186.8684473343737
 20
73.0001615069975
 10
186.8269705378526
 20
72.98246229644222
 10
186.7751206649024
 20
72.96670118361527
  0
ARC
  5
1B7
330
1F
100
AcDbEntity
  8
0
  6
Continuous
 62
     7
370
    25
100
AcDbCircle
 10
192.7876996481737
 20
85.53732795560838
 30
0.0
 40
13.75925780859218
100
AcDbArc
 50
241.1556574623642
 51
244.487134371458
  0
ARC
  5
1B8
330
1F
100
AcDbEntity
  8
0
  6
Continuous
 62
     7
370
    25
100
AcDbCircle
 10
211.2616977135684
 20
143.3128529539519
 30
0.0
 40
77.5264064894605
100
AcDbArc
 50
266.3832160159938
 51
283.067498625576
  0
ARC
  5
1B9
330
1F
100
AcDbEntity
  8
0
  6
Continuous
 62
     7
370
    25
100
AcDbCircle
 10
204.6380305189606
 20
107.7538941247784
 30
0.0
 40
41.51694444849126
100
AcDbArc
 50
250.1133306137605
 51
264.2347857140684
  0
LWPOLYLINE
  5
1BD
330
1F
100
AcDbEntity
  8
0
  6
Continuous
 62
     7
370
    25
100
AcDbPolyline
 90
        3
 70
   128
 43
0.0
 10
226.5886359795526
 20
68.34960640689407
 10
226.55421368021
 20
68.34700355271418
 10
226.4984094593216
 20
68.35843061179305
  0
LWPOLYLINE
  5
1BE
330
1F
100
AcDbEntity
  8
0
  6
Continuous
 62
     7
370
    25
100
AcDbPolyline
 90
        3
 70
   128
 43
0.0
 10
208.7366566717634
 20
67.11050660462482
 10
208.7394695086339
 20
67.11154473584007
 10
208.7477944211489
 20
67.12741917302995
  0
ARC
  5
1BF
330
1F
100
AcDbEntity
  8
0
  6
Continuous
 62
     7
370
    25
100
AcDbCircle
 10
211.3225628203627
 20
158.593782104737
 30
0.0
 40
91.5025954837585
100
AcDbArc
 50
268.3875557129666
 51
279.5467058887104
  0
LWPOLYLINE
  5
1C6
330
1F
100
AcDbEntity
  8
0
  6
Continuous
 62
     7
370
    25
100
AcDbPolyline
 90
        3
 70
   128
 43
0.0
 10
201.8155045739184
 20
66.27700343252796
 10
201.8264602539094
 20
66.27761637352462
 10
201.8549407984914
 20
66.29248284388976
  0
ARC
  5
1C7
330
1F
100
AcDbEntity
  8
0
  6
Continuous
 62
     7
370
    25
100
AcDbCircle
 10
210.5444728621124
 20
176.3898398269198
 30
0.0
 40
110.4397391437224
100
AcDbArc
 50
265.4872344527715
 51
266.5785039455546
  0
LWPOLYLINE
  5
1D1
330
1F
100
AcDbEntity
  8
0
  6
Continuous
 62
     7
370
    25
100
AcDbPolyline
 90
        3
 70
   128
 43
0.0
 10
198.1415915124947
 20
67.93064941900631
 10
198.1644836721869
 20
67.92993445601094
 10
198.2108761915624
 20
67.94286287146537
  0
ARC
  5
1D2
330
1F
100
AcDbEntity
  8
0
  6
Continuous
 62
     7
370
    25
100
AcDbCircle
 10
208.7568157223049
 20
143.3751553716707
 30
0.0
 40
76.16592146375311
100
AcDbArc
 50
262.0412525316335
 51
263.0927525493538
  0
ARC
  5
1D5
330
1F
100
AcDbEntity
  8
0
  6
Continuous
 62
     7
370
    25
100
AcDbCircle
 10
187.2418429044498
 20
70.96821913087676
 30
0.0
 40
0.5860481928539533
100
AcDbArc
 50
176.4749081676956
 51
246.7449927594073
  0
LINE
  5
1D6
330
1F
100
AcDbEntity
  8
0
  6
Continuous
 62
     7
370
    25
100
AcDbLine
 10
186.6569035338758
 20
71.00425268607009
 30
0.0
 11
186.6569035338758
 21
72.93610433864824
 31
0.0
  0
LINE
  5
1D7
330
1F
100
AcDbEntity
  8
0
  6
Continuous
 62
     7
370
    25
100
AcDbLine
 10
197.2635052516741
 20
68.2590621576868
 30
0.0
 11
197.2635052516741
 21
70.19091381026495
 31
0.0
  0
LWPOLYLINE
  5
1D8
330
1F
100
AcDbEntity
  8
0
  6
Continuous
 62
     7
370
    25
100
AcDbPolyline
 90
        9
 70
   128
 43
0.0
 10
196.9099518610809
 20
67.86760559548839
 10
196.9789267059016
 20
67.85903358896749
 10
197.0452508861174
 20
67.8693509937534
 10
197.1063756006776
 20
67.89816131776622
 10
197.1599518610809
 20
67.94435739641118
 10
197.2039207616857
 20
68.006163940293
 10
197.2365926022999
 20
68.08120575859182
 10
197.2567118224114
 20
68.16659903631435
 10
197.2635052516741
 20
68.2590621576868
  0
LINE
  5
1D9
330
1F
100
AcDbEntity
  8
0
  6
Continuous
 62
     7
370
    25
100
AcDbLine
 10
196.9099518610809
 20
67.86760559548839
 30
0.0
 11
187.0104569244691
 21
70.42978342197945
 31
0.0
  0
ELLIPSE
  5
1E0
330
1F
100
AcDbEntity
  8
0
  6
Continuous
 62
     7
370
    25
100
AcDbEllipse
 10
209.6378739224387
 20
65.89004956261167
 30
0.0
 11
0.5
 21
0.0
 31
0.0
210
0.0
220
0.0
230
1.0
 40
0.2352187548299014
 41
3.927143110234726
 42
5.497634850534755
  0
LINE
  5
1E1
330
1F
100
AcDbEntity
  8
0
  6
Continuous
 62
     7
370
    25
100
AcDbLine
 10
209.2843743797393
 20
52.77776929704764
 30
0.0
 11
209.2843743797393
 21
65.80687451020471
 31
0.0
  0
ELLIPSE
  5
1E4
330
1F
100
AcDbEntity
  8
0
  6
Continuous
 62
     7
370
    25
100
AcDbEllipse
 10
206.8091236529115
 20
53.47702312012004
 30
0.0
 11
-0.9517029455087709
 21
3.368603161218729
 31
0.0
210
0.0
220
0.0
230
1.0
 40
0.6783163797203272
 41
2.764393372097247
 42
4.317736406372212
  0
LINE
  5
1E5
330
1F
100
AcDbEntity
  8
0
  6
Continuous
 62
     7
370
    25
100
AcDbLine
 10
191.1980944878543
 20
54.15907587983548
 30
0.0
 11
206.8523227346303
 21
50.10746347318805
 31
0.0
  0
ELLIPSE
  5
1E7
330
1F
100
AcDbEntity
  8
0
  6
Continuous
 62
     7
370
    25
100
AcDbEllipse
 10
207.1626231956109
 20
53.57694439926
 30
0.0
 11
-1.07710852098893
 21
3.852670209710198
 31
0.0
210
0.0
220
0.0
230
1.0
 40
0.6789226323799413
 41
3.128452870359644
 42
3.234479183629709
  0
ELLIPSE
  5
1E8
330
1F
100
AcDbEntity
  8
0
  6
Continuous
 62
     7
370
    25
100
AcDbEllipse
 10
208.9258195139474
 20
54.03329318670012
 30
0.0
 11
0.7592933264659791
 21
4.128125845727283
 31
0.0
210
0.0
220
0.0
230
1.0
 40
0.6951454441744631
 41
3.454159652205591
 42
3.583261951415176
  0
LWPOLYLINE
  5
1F5
330
1F
100
AcDbEntity
  8
0
  6
Continuous
 62
     7
370
    25
100
AcDbPolyline
 90
       77
 70
   128
 43
0.0
 10
220.1107540634
 20
237.274834539278
 10
222.8716074121926
 20
237.4983320786141
 10
225.5517214550457
 20
237.7800742755164
 10
228.1327882954466
 20
238.1181365450971
 10
230.5971766297082
 20
238.5102095792643
 10
232.9280521866505
 20
238.9536151216378
 10
235.1094927227428
 20
239.4453242627561
 10
237.126596787172
 20
239.9819781305986
 10
238.9655855138616
 20
240.5599108350881
 10
240.613896745098
 20
241.1751745098371
 10
242.0602708438064
 20
241.8235662800777
 10
243.2948276082887
 20
242.5006569725586
 10
244.3091337640192
 20
243.2018213712892
 10
245.0962605714615
 20
243.9222698124549
 10
245.6508311563845
 20
244.6570809026774
 10
245.9690572393662
 20
245.4012351371218
 10
246.0487650135827
 20
246.1496491878044
 10
245.8894099941135
 20
246.8972106278772
 10
245.4920807373255
 20
247.6388128546871
 10
244.8594914049291
 20
248.3693899730503
 10
243.9959632235016
 20
249.083951400453
 10
242.9073949661284
 20
249.7776159577901
 10
241.601222657801
 20
250.4456452127685
 10
240.0863687798264
 20
251.0834758482038
 10
238.373181320233
 20
251.6867508341044
 10
236.4733630865191
 20
252.2513491906038
 10
234.399891763611
 20
252.7734141384317
 10
232.1669312631167
 20
253.2493794446278
 10
229.7897349694467
 20
253.6759937835282
 10
227.2845415437319
 20
254.0503429466169
 10
224.6684639973029
 20
254.3698697495251
 10
221.9593727924694
 20
254.6323915001929
 10
219.1757737691428
 20
254.8361149088697
 10
216.3366817311848
 20
254.9796483381014
 10
213.4614905560159
 20
255.0620113090254
 10
210.569840714768
 20
255.0826411990354
 10
207.6814851079515
 20
255.0413970850641
 10
204.8161541331147
 20
254.9385607062309
 10
201.9934209062232
 20
254.774834539278
 10
199.2325675574305
 20
254.5513369999418
 10
196.5524535145775
 20
254.2695948030396
 10
193.9713866741765
 20
253.9315325334589
 10
191.5069983399149
 20
253.5394594992917
 10
189.1761227829727
 20
253.0960539569182
 10
186.9946822468804
 20
252.6043448157999
 10
184.9775781824511
 20
252.0676909479574
 10
183.1385894557616
 20
251.4897582434677
 10
181.4902782245252
 20
250.8744945687189
 10
180.0439041258167
 20
250.2261027984782
 10
178.8093473613345
 20
249.5490121059973
 10
177.795041205604
 20
248.8478477072667
 10
177.0079143981618
 20
248.127399266101
 10
176.4533438132388
 20
247.3925881758785
 10
176.1351177302572
 20
246.6484339414341
 10
176.0554099560407
 20
245.9000198907515
 10
176.2147649755099
 20
245.1524584506787
 10
176.6120942322979
 20
244.4108562238688
 10
177.2446835646944
 20
243.6802791055055
 10
178.1082117461218
 20
242.9657176781029
 10
179.196780003495
 20
242.2720531207659
 10
180.5029523118225
 20
241.6040238657875
 10
182.0178061897971
 20
240.9661932303521
 10
183.7309936493905
 20
240.3629182444515
 10
185.6308118831045
 20
239.7983198879522
 10
187.7042832060125
 20
239.2762549401242
 10
189.9372437065068
 20
238.8002896339281
 10
192.3144400001769
 20
238.3736752950278
 10
194.8196334258917
 20
237.999326131939
 10
197.4357109723207
 20
237.6797993290309
 10
200.1448021771542
 20
237.4172775783631
 10
202.9284012004808
 20
237.2135541696863
 10
205.7674932384389
 20
237.0700207404546
 10
208.6426844136078
 20
236.9876577695306
 10
211.5343342548556
 20
236.9670278795206
 10
214.4226898616722
 20
237.0082719934919
 10
217.288020836509
 20
237.1111083723251
 10
220.1107540634
 20
237.274834539278
  0
LWPOLYLINE
  5
1F6
330
1F
100
AcDbEntity
  8
0
  6
Continuous
 62
     7
370
    25
100
AcDbPolyline
 90
       34
 70
   128
 43
0.0
 10
173.1700112239187
 20
123.057587856518
 10
173.2459832900344
 20
123.0055552363012
 10
174.4593549217513
 20
122.2674624558968
 10
175.8874672586087
 20
121.5555751960586
 10
177.5219395695499
 20
120.8740710942969
 10
179.3531801211352
 20
120.2269494876689
 10
181.3704424656468
 20
119.618007943079
 10
183.5618885055182
 20
119.0508199716458
 10
185.9146579639971
 20
118.528714057918
 10
188.4149438543637
 20
118.0547541270037
 10
191.0480735048181
 20
117.6317215642394
 10
193.7985946635536
 20
117.2620988929148
 10
196.6503661787141
 20
116.9480552058394
 10
199.5866527210915
 20
116.6914334362427
 10
202.5902229936921
 20
116.4937395427101
 10
205.643450851839
 20
116.3561336716183
 10
208.7284187403981
 20
116.2794233489353
 10
211.8270228411156
 20
116.2640587413373
 10
214.9210793130229
 20
116.310130014451
 10
217.9924310024452
 20
116.4173668037264
 10
221.0230539963999
 20
116.5851398010433
 10
223.9951633940839
 20
116.8124644477413
 10
226.8913176757445
 20
117.0980067124019
 10
229.6945210564516
 20
117.4400909194753
 10
232.3883232241226
 20
117.8367095828105
 10
234.9569158764942
 20
118.2855351863826
 10
237.3852254905262
 20
118.7839338430822
 10
239.6590017798286
 20
119.3289807514122
 10
241.7649013210085
 20
119.9174773593862
 10
243.6905658581841
 20
120.5459701349033
 10
245.4246948261444
 20
121.2107708324474
 10
246.9571116665592
 20
121.9079781371792
 10
248.2788235480704
 20
122.633500559402
 10
249.0367685165718
 20
123.1292234990752
  0
ARC
  5
1F7
330
1F
100
AcDbEntity
  8
0
  6
Continuous
 62
     7
370
    25
100
AcDbCircle
 10
248.9884427500902
 20
126.260697747799
 30
0.0
 40
3.008135565919273
100
AcDbArc
 50
331.8255366078301
 51
30.77575982637438
  0
ARC
  5
1F8
330
1F
100
AcDbEntity
  8
0
  6
Continuous
 62
     7
370
    25
100
AcDbCircle
 10
173.1293289821603
 20
126.261500920973
 30
0.0
 40
3.021087554582243
100
AcDbArc
 50
147.8940567731443
 51
209.0696810991827
  0
LWPOLYLINE
  5
1F9
330
1F
100
AcDbEntity
  8
0
  6
Continuous
 62
     7
370
    25
100
AcDbPolyline
 90
       12
 70
   128
 43
0.0
 10
240.0434655134601
 20
116.3316967361299
 10
242.1776673731601
 20
116.9281024670802
 10
244.1292119535326
 20
117.5650418956176
 10
245.8866468149824
 20
118.2387772079078
 10
247.439658630929
 20
118.9453546572391
 10
248.7791337105087
 20
119.6806277661807
 10
249.8972114813356
 20
120.4402816597607
 10
250.7873306184663
 20
121.2198583868687
 10
251.444267548864
 20
122.0147830812847
 10
251.8641671054014
 20
122.8203908088142
 10
252.0445651505153
 20
123.6319539429761
 10
252.051639045086
 20
123.8848486260039
  0
LWPOLYLINE
  5
1FA
330
1F
100
AcDbEntity
  8
0
  6
Continuous
 62
     7
370
    25
100
AcDbPolyline
 90
       32
 70
   128
 43
0.0
 10
170.0525359245374
 20
123.8848486260039
 10
170.1197719328788
 20
123.2257251188264
 10
170.420141150328
 20
122.4165458969344
 10
170.9589547854512
 20
121.6156920041996
 10
171.7330508655875
 20
120.8278631697101
 10
172.737886687133
 20
120.0576826863331
 10
173.9675654739314
 20
119.3096702793938
 10
175.4148709819017
 20
118.5882155831303
 10
177.0713098468271
 20
117.897552380574
 10
178.9271614267945
 20
117.2417337580278
 10
180.9715348467856
 20
116.6246083199434
 10
183.1924329106625
 20
116.0497976037807
 10
185.5768225054852
 20
115.5206748273856
 10
188.1107110850004
 20
115.0403450936065
 10
190.7792287834669
 20
114.6116271683158
 10
193.5667156779408
 20
114.2370369387714
 10
196.4568136869299
 20
113.9187726493894
 10
199.4325625661204
 20
113.6587020015722
 10
202.4764994378348
 20
113.4583511932937
 10
205.5707612701415
 20
113.3188959627629
 10
208.6971897042295
 20
113.2411546887245
 10
211.8374376148778
 20
113.2255835878871
 10
214.9730767786822
 20
113.2722740376618
 10
218.0857060181972
 20
113.3809520399238
 10
221.157059187363
 20
113.5509798289419
 10
224.1691123645128
 20
113.7813596140416
 10
227.1041896239128
 20
114.0707394350373
 10
229.9450667651228
 20
114.4174210960728
 10
232.675072391453
 20
114.8193701313091
 10
235.2781857443491
 20
115.2742277439794
 10
237.7391307195737
 20
115.7793246487464
 10
240.0434655134601
 20
116.3316967361299
  0
LWPOLYLINE
  5
1FB
330
1F
100
AcDbEntity
  8
0
  6
Continuous
 62
     7
370
    25
100
AcDbPolyline
 90
       17
 70
   128
 43
0.0
 10
214.9983453664771
 20
118.9706258603026
 10
212.2871133639759
 20
118.9102467867991
 10
209.5658868356824
 20
118.913173802689
 10
206.8566874810465
 20
118.9793832209093
 10
204.1814396688473
 20
119.1083392375151
 10
201.5617930128385
 20
119.2989982677074
 10
199.018947170867
 20
119.5498173911093
 10
196.5734802852877
 20
119.8587668379481
 10
194.2451824530328
 20
120.2233464150966
 10
192.0528955729881
 20
120.6406057390459
 10
190.0143608667235
 20
121.1071681120717
 10
188.1460753065243
 20
121.6192578483772
 10
186.46315811259
 20
122.1727308290706
 10
184.9792283997785
 20
122.7631080387126
 10
183.7062949640503
 20
123.3856118120342
 10
182.6546591005199
 20
124.0352044974987
 10
181.9457889090521
 20
124.600510081381
  0
LWPOLYLINE
  5
1FC
330
1F
100
AcDbEntity
  8
0
  6
Continuous
 62
     7
370
    25
100
AcDbPolyline
 90
       15
 70
   128
 43
0.0
 10
240.1959370658808
 20
124.6351467804174
 10
240.1605073319027
 20
124.6024505345247
 10
239.3075192387317
 20
123.9371133971073
 10
238.2280118977504
 20
123.2941903923597
 10
236.9306395455324
 20
122.678835730513
 10
235.4258030073744
 20
122.0959826108315
 10
233.725566315554
 20
121.550303672948
 10
231.8435599939253
 20
121.046173537064
 10
229.7948717842035
 20
120.5876337333241
 10
227.5959256899679
 20
120.178360301519
 10
225.2643503080696
 20
119.8216343208667
 10
222.818837503008
 20
119.5203156061282
 10
220.2789925572627
 20
119.2768197809334
 10
217.6651769988991
 20
119.0930989121149
 10
214.9983453664771
 20
118.9706258603026
  0
LINE
  5
1FD
330
1F
100
AcDbEntity
  8
0
  6
Continuous
 62
     7
370
    25
100
AcDbLine
 10
239.4427321303412
 20
124.3210304097093
 30
0.0
 11
239.2171765777909
 21
123.9299112010877
 31
0.0
  0
LINE
  5
1FE
330
1F
100
AcDbEntity
  8
0
  6
Continuous
 62
     7
370
    25
100
AcDbLine
 10
230.9899219984333
 20
114.5963651397333
 30
0.0
 11
231.0299095036664
 21
89.18862611804202
 31
0.0
  0
ARC
  5
1FF
330
1F
100
AcDbEntity
  8
0
  6
Continuous
 62
     7
370
    25
100
AcDbCircle
 10
212.3383582327642
 20
187.7458099901438
 30
0.0
 40
100.3139700226845
100
AcDbArc
 50
270.8832214579309
 51
280.7387127992293
  0
LINE
  5
200
330
1F
100
AcDbEntity
  8
0
  6
Continuous
 62
     7
370
    25
100
AcDbLine
 10
213.8053022682183
 20
92.24894632093815
 30
0.0
 11
213.8846491241108
 21
87.44375833519815
 31
0.0
  0
ARC
  5
201
330
1F
100
AcDbEntity
  8
0
  6
Continuous
 62
     7
370
    25
100
AcDbCircle
 10
211.0520874848116
 20
217.8813259218183
 30
0.0
 40
125.6625441244256
100
AcDbArc
 50
268.7445725247152
 51
271.2554274752867
  0
LINE
  5
202
330
1F
100
AcDbEntity
  8
0
  6
Continuous
 62
     7
370
    25
100
AcDbLine
 10
208.2988727014055
 20
92.24894632093813
 30
0.0
 11
208.219525845513
 21
87.44375833519815
 31
0.0
  0
ARC
  5
203
330
1F
100
AcDbEntity
  8
0
  6
Continuous
 62
     7
370
    25
100
AcDbCircle
 10
210.685200233911
 20
202.5275042082813
 30
0.0
 40
115.1101564344779
100
AcDbArc
 50
264.0124151613193
 51
268.7726231473628
  0
LINE
  5
204
330
1F
100
AcDbEntity
  8
0
  6
Continuous
 62
     7
370
    25
100
AcDbLine
 10
198.7889577501274
 20
113.7324753809578
 30
0.0
 11
198.6777188140471
 21
88.04532872090857
 31
0.0
  0
LINE
  5
205
330
1F
100
AcDbEntity
  8
0
  6
Continuous
 62
     7
370
    25
100
AcDbLine
 10
203.5245005076772
 20
105.9048685799687
 30
0.0
 11
203.6220107280614
 21
113.404177080555
 31
0.0
  0
LINE
  5
206
330
1F
100
AcDbEntity
  8
0
  6
Continuous
 62
     7
370
    25
100
AcDbLine
 10
218.5796744619458
 20
105.9048685799687
 30
0.0
 11
218.4818284689056
 21
113.430000658051
 31
0.0
  0
LINE
  5
207
330
1F
100
AcDbEntity
  8
0
  6
Continuous
 62
     7
370
    25
100
AcDbLine
 10
221.7388397102019
 20
107.8030426297964
 30
0.0
 11
221.8667437125153
 21
113.5997074093102
 31
0.0
  0
ARC
  5
208
330
1F
100
AcDbEntity
  8
0
  6
Continuous
 62
     7
370
    25
100
AcDbCircle
 10
211.655187187631
 20
238.4767038914933
 30
0.0
 40
131.0621447853371
100
AcDbArc
 50
273.5216812148174
 51
274.4125803868584
  0
LINE
  5
209
330
1F
100
AcDbEntity
  8
0
  6
Continuous
 62
     7
370
    25
100
AcDbLine
 10
219.7058416769718
 20
107.6620534962646
 30
0.0
 11
219.6301834929411
 21
113.4874003589114
 31
0.0
  0
LINE
  5
20A
330
1F
100
AcDbEntity
  8
0
  6
Continuous
 62
     7
370
    25
100
AcDbLine
 10
202.3983332926511
 20
107.6620534962646
 30
0.0
 11
202.4738221305144
 21
113.4743614500634
 31
0.0
  0
ARC
  5
20B
330
1F
100
AcDbEntity
  8
0
  6
Continuous
 62
     7
370
    25
100
AcDbCircle
 10
210.4489877820054
 20
238.4767038916749
 30
0.0
 40
131.0621447855192
100
AcDbArc
 50
265.5874196131434
 51
266.4783187851831
  0
LINE
  5
20C
330
1F
100
AcDbEntity
  8
0
  6
Continuous
 62
     7
370
    25
100
AcDbLine
 10
200.365335259421
 20
107.8030426297964
 30
0.0
 11
200.2367394032247
 21
113.6310625269199
 31
0.0
  0
LINE
  5
20D
330
1F
100
AcDbEntity
  8
0
  6
Continuous
 62
     7
370
    25
100
AcDbLine
 10
218.9525506288347
 20
105.544697860363
 30
0.0
 11
219.7058416769718
 21
107.6620534962646
 31
0.0
  0
LINE
  5
20E
330
1F
100
AcDbEntity
  8
0
  6
Continuous
 62
     7
370
    25
100
AcDbLine
 10
218.9525506288347
 20
105.544697860363
 30
0.0
 11
218.5796744619458
 21
105.9048685799687
 31
0.0
  0
LINE
  5
20F
330
1F
100
AcDbEntity
  8
0
  6
Continuous
 62
     7
370
    25
100
AcDbLine
 10
203.5245005076772
 20
105.9048685799687
 30
0.0
 11
203.1516243407882
 21
105.544697860363
 31
0.0
  0
LINE
  5
210
330
1F
100
AcDbEntity
  8
0
  6
Continuous
 62
     7
370
    25
100
AcDbLine
 10
202.3983332926511
 20
107.6620534962646
 30
0.0
 11
203.1516243407882
 21
105.544697860363
 31
0.0
  0
ELLIPSE
  5
211
330
1F
100
AcDbEntity
  8
0
  6
Continuous
 62
     7
370
    25
100
AcDbEllipse
 10
211.0520874848117
 20
95.82336855133022
 30
0.0
 11
28.15373349891593
 21
1562.67408577878
 31
0.0
210
0.0
220
0.0
230
1.0
 40
0.001491156099635
 41
1.573134445792593
 42
1.574248574089184
  0
ELLIPSE
  5
212
330
1F
100
AcDbEntity
  8
0
  6
Continuous
 62
     7
370
    25
100
AcDbEllipse
 10
211.0520874848117
 20
95.82336855133235
 30
0.0
 11
-28.15373349891596
 21
1562.674085778783
 31
0.0
210
0.0
220
0.0
230
1.0
 40
0.0014911560996352
 41
4.7089367330904
 42
4.710050861386807
  0
ARC
  5
213
330
1F
100
AcDbEntity
  8
0
  6
Continuous
 62
     7
370
    25
100
AcDbCircle
 10
211.6049652686692
 20
225.4886676458022
 30
0.0
 40
120.16881000707
100
AcDbArc
 50
273.5054719040975
 51
274.4287896975787
  0
LINE
  5
214
330
1F
100
AcDbEntity
  8
0
  6
Continuous
 62
     7
370
    25
100
AcDbLine
 10
221.7388397102019
 20
107.8030426297964
 30
0.0
 11
220.8844022814128
 21
105.6786724565785
 31
0.0
  0
ARC
  5
215
330
1F
100
AcDbEntity
  8
0
  6
Continuous
 62
     7
370
    25
100
AcDbCircle
 10
210.4992097009851
 20
225.4886676462422
 30
0.0
 40
120.1688100075111
100
AcDbArc
 50
265.5712103024241
 51
266.494528095902
  0
LINE
  5
216
330
1F
100
AcDbEntity
  8
0
  6
Continuous
 62
     7
370
    25
100
AcDbLine
 10
201.2197726882101
 20
105.6786724565786
 30
0.0
 11
200.365335259421
 21
107.8030426297964
 31
0.0
  0
LINE
  5
217
330
1F
100
AcDbEntity
  8
0
  6
Continuous
 62
     7
370
    25
100
AcDbLine
 10
197.2597396430834
 20
113.8420833290069
 30
0.0
 11
197.0625953534057
 21
87.6273040091027
 31
0.0
  0
LINE
  5
218
330
1F
100
AcDbEntity
  8
0
  6
Continuous
 62
     7
370
    25
100
AcDbLine
 10
197.0625953534057
 20
87.6273040091027
 30
0.0
 11
195.000763551877
 21
87.62730400910272
 31
0.0
  0
LINE
  5
219
330
1F
100
AcDbEntity
  8
0
  6
Continuous
 62
     7
370
    25
100
AcDbLine
 10
193.8896095672503
 20
94.01469275523144
 30
0.0
 11
193.8693117753062
 21
96.71374195095059
 31
0.0
  0
LINE
  5
21A
330
1F
100
AcDbEntity
  8
0
  6
Continuous
 62
     7
370
    25
100
AcDbLine
 10
193.8134288840002
 20
104.1446326236741
 30
0.0
 11
193.7376864511397
 21
114.2162972193739
 31
0.0
  0
ARC
  5
21B
330
1F
100
AcDbEntity
  8
0
  6
Continuous
 62
     7
370
    25
100
AcDbCircle
 10
211.0520874848116
 20
175.1549607360464
 30
0.0
 40
82.97792529653091
100
AcDbArc
 50
268.3453379738991
 51
271.6546620261029
  0
LINE
  5
21C
330
1F
100
AcDbEntity
  8
0
  6
Continuous
 62
     7
370
    25
100
AcDbLine
 10
213.4794580511917
 20
90.4706232438638
 30
0.0
 11
213.4460387103817
 21
90.56948818850717
 31
0.0
  0
ARC
  5
21D
330
1F
100
AcDbEntity
  8
0
  6
Continuous
 62
     7
370
    25
100
AcDbCircle
 10
211.0518959289304
 20
198.0168498758482
 30
0.0
 40
107.4740315296131
100
AcDbArc
 50
268.8897389587119
 51
271.2764536955622
  0
LINE
  5
21E
330
1F
100
AcDbEntity
  8
0
  6
Continuous
 62
     7
370
    25
100
AcDbLine
 10
208.6536056839746
 20
90.55608531872676
 30
0.0
 11
208.9694255674176
 21
90.56299573174745
 31
0.0
  0
LINE
  5
21F
330
1F
100
AcDbEntity
  8
0
  6
Continuous
 62
     7
370
    25
100
AcDbLine
 10
208.6536056839746
 20
90.55608531872676
 30
0.0
 11
208.6247169184321
 21
90.47062324386378
 31
0.0
  0
LINE
  5
220
330
1F
100
AcDbEntity
  8
0
  6
Continuous
 62
     7
370
    25
100
AcDbLine
 10
198.6777188140471
 20
88.04532872090857
 30
0.0
 11
197.0625953534057
 21
87.6273040091027
 31
0.0
  0
LINE
  5
221
330
1F
100
AcDbEntity
  8
0
  6
Continuous
 62
     7
370
    25
100
AcDbLine
 10
178.9168655722209
 20
117.2450954844974
 30
0.0
 11
179.0819453882526
 21
108.1276304107633
 31
0.0
  0
LINE
  5
222
330
1F
100
AcDbEntity
  8
0
  6
Continuous
 62
     7
370
    25
100
AcDbLine
 10
240.5297582817187
 20
116.478261130415
 30
0.0
 11
239.9559352903556
 21
92.72310408330729
 31
0.0
  0
ARC
  5
223
330
1F
100
AcDbEntity
  8
0
  6
Continuous
 62
     7
370
    25
100
AcDbCircle
 10
223.1991657703178
 20
145.6534112043002
 30
0.0
 40
55.51942666013675
100
AcDbArc
 50
281.4548004124019
 51
287.5668369857404
  0
LINE
  5
224
330
1F
100
AcDbEntity
  8
0
  6
Continuous
 62
     7
370
    25
100
AcDbLine
 10
234.1916258828866
 20
115.099226884899
 30
0.0
 11
234.2250367512242
 21
91.23983839582984
 31
0.0
  0
SPLINE
  5
225
330
1F
100
AcDbEntity
  8
0
  6
Continuous
 62
     7
370
    25
100
AcDbSpline
210
0.0
220
0.0
230
1.0
 70
    11
 71
     3
 72
    26
 73
    22
 74
     0
 42
0.000000001
 43
0.00000001
 40
0.0
 40
0.0
 40
0.0
 40
0.0
 40
0.0468494319885719
 40
0.100543303580209
 40
0.1554581486819434
 40
0.2111750091235849
 40
0.2669016090210773
 40
0.3217382804046309
 40
0.3750398404805489
 40
0.426894227887916
 40
0.4781822159178861
 40
0.5300563115261284
 40
0.5833107017470293
 40
0.6380432799709815
 40
0.6937146053631823
 40
0.7494763850447344
 40
0.8044897246439379
 40
0.8581688408801277
 40
0.9104633159643273
 40
0.9619810239272966
 40
0.9999999999999999
 40
0.9999999999999999
 40
0.9999999999999999
 40
0.9999999999999999
 10
238.1749466768275
 20
96.33197742300972
 30
0.0
 10
238.2810643558217
 20
96.49735492121978
 30
0.0
 10
238.5088029123307
 20
96.85227064382502
 30
0.0
 10
238.7164636178003
 20
97.52599619038284
 30
0.0
 10
238.787583631234
 20
98.24874769282746
 30
0.0
 10
238.6920412720795
 20
98.92514483444542
 30
0.0
 10
238.4372300289312
 20
99.46545960943538
 30
0.0
 10
238.050148287979
 20
99.8019328172133
 30
0.0
 10
237.5786443988013
 20
99.89899027880008
 30
0.0
 10
237.0789735180648
 20
99.75875100574986
 30
0.0
 10
236.6035817773327
 20
99.4077274922202
 30
0.0
 10
236.1987259018663
 20
98.88234979531241
 30
0.0
 10
235.9088828479692
 20
98.22823183248583
 30
0.0
 10
235.7751921429268
 20
97.50818629625275
 30
0.0
 10
235.824191248163
 20
96.80422867440024
 30
0.0
 10
236.0549846189413
 20
96.20633769955282
 30
0.0
 10
236.4347840548553
 20
95.79328445431175
 30
0.0
 10
236.9079762875366
 20
95.61319211366498
 30
0.0
 10
237.408818530168
 20
95.680589856138
 30
0.0
 10
237.8475616460659
 20
95.94066452841803
 30
0.0
 10
238.0773669720891
 20
96.21534351147822
 30
0.0
 10
238.1749466768275
 20
96.33197742300972
 30
0.0
  0
LINE
  5
226
330
1F
100
AcDbEntity
  8
0
  6
Continuous
 62
     7
370
    25
100
AcDbLine
 10
232.0556397982034
 20
88.92314758267723
 30
0.0
 11
234.2250367512242
 21
91.23983839582984
 31
0.0
  0
LINE
  5
227
330
1F
100
AcDbEntity
  8
0
  6
Continuous
 62
     7
370
    25
100
AcDbLine
 10
232.0556397982034
 20
88.92314758267723
 30
0.0
 11
231.0299095036664
 21
89.18862611804202
 31
0.0
  0
LWPOLYLINE
  5
228
330
1F
100
AcDbEntity
  8
0
  6
Continuous
 62
     7
370
    25
100
AcDbPolyline
 90
        4
 70
   128
 43
0.0
 10
208.9694255674176
 20
90.56299573174745
 10
208.9442014067145
 20
88.64117805934494
 10
208.8434032369525
 20
80.95398214902241
 10
208.7049996886224
 20
70.37922490828232
  0
LINE
  5
229
330
1F
100
AcDbEntity
  8
0
  6
Continuous
 62
     7
370
    25
100
AcDbLine
 10
213.4460387103817
 20
90.56948818850717
 30
0.0
 11
213.4777752841945
 21
88.64741940944833
 31
0.0
  0
ARC
  5
22A
330
1F
100
AcDbEntity
  8
0
  6
Continuous
 62
     7
370
    25
100
AcDbCircle
 10
211.3275673063868
 20
163.5393230410321
 30
0.0
 40
93.19700502169214
100
AcDbArc
 50
268.387481505928
 51
279.5467800957489
  0
LINE
  5
22B
330
1F
100
AcDbEntity
  8
0
  6
Continuous
 62
     7
370
    25
100
AcDbLine
 10
208.6216727832912
 20
88.63343574289821
 30
0.0
 11
208.6536056839746
 21
90.55608531872676
 31
0.0
  0
LINE
  5
22C
330
1F
100
AcDbEntity
  8
0
  6
Continuous
 62
     7
370
    25
100
AcDbLine
 10
208.219525845513
 20
87.44375833519815
 30
0.0
 11
208.6216727832912
 21
88.63343574289821
 31
0.0
  0
LINE
  5
22D
330
1F
100
AcDbEntity
  8
0
  6
Continuous
 62
     7
370
    25
100
AcDbLine
 10
213.4777752841945
 20
88.64741940944833
 30
0.0
 11
213.8846491241108
 21
87.44375833519815
 31
0.0
  0
LWPOLYLINE
  5
22E
330
1F
100
AcDbEntity
  8
0
  6
Continuous
 62
     7
370
    25
100
AcDbPolyline
 90
        8
 70
   128
 43
0.0
 10
201.708954343153
 20
69.54945252771206
 10
201.1774249517482
 20
69.60637286149792
 10
200.6976411324512
 20
69.68850346115819
 10
200.2872423902667
 20
69.79282475190634
 10
199.9613172512676
 20
69.91550130650141
 10
199.7318485249807
 20
70.05202285675237
 10
199.6072727500781
 20
70.19737011590531
 10
199.5849058878463
 20
70.28844523204673
  0
LWPOLYLINE
  5
22F
330
1F
100
AcDbEntity
  8
0
  6
Continuous
 62
     7
370
    25
100
AcDbPolyline
 90
       16
 70
   128
 43
0.0
 10
235.8008248263408
 20
97.50731450545749
 10
235.8896365692756
 20
96.92038838844404
 10
236.1425510152986
 20
96.46878879324792
 10
236.521064232678
 20
96.22126766447724
 10
236.9675510152986
 20
96.21550785020271
 10
237.4140377979192
 20
96.45238622993476
 10
237.7925510152986
 20
96.89584021766709
 10
238.0454654613216
 20
97.47835796368781
 10
238.1342772042564
 20
98.11125642170182
 10
238.0454654613216
 20
98.69818253871529
 10
237.7925510152986
 20
99.1497821339114
 10
237.4140377979192
 20
99.39730326268207
 10
236.9675510152986
 20
99.4030630769566
 10
236.521064232678
 20
99.16618469722454
 10
236.1425510152986
 20
98.72273070949221
 10
236.0938211353633
 20
98.63936531302633
  0
LINE
  5
230
330
1F
100
AcDbEntity
  8
0
  6
Continuous
 62
     7
370
    25
100
AcDbLine
 10
239.9559352903556
 20
92.72310408330729
 30
0.0
 11
237.7124940476958
 21
90.387249197815
 31
0.0
  0
ARC
  5
231
330
1F
100
AcDbEntity
  8
0
  6
Continuous
 62
     7
370
    25
100
AcDbCircle
 10
222.1698572483191
 20
138.7791323325658
 30
0.0
 40
50.82664568909424
100
AcDbArc
 50
281.215516428875
 51
287.8061209692663
  0
LINE
  5
232
330
1F
100
AcDbEntity
  8
0
  6
Continuous
 62
     7
370
    25
100
AcDbLine
 10
207.6538853293934
 20
70.18836662696592
 30
0.0
 11
207.4145022066289
 21
69.95714028630981
 31
0.0
  0
SPLINE
  5
233
330
1F
100
AcDbEntity
  8
0
  6
Continuous
 62
     7
370
    25
100
AcDbSpline
210
0.0
220
0.0
230
1.0
 70
     8
 71
     3
 72
    12
 73
     8
 74
     0
 42
0.000000001
 43
0.00000001
 40
0.0
 40
0.0
 40
0.0
 40
0.0
 40
0.2419093067872784
 40
0.4838199703133506
 40
0.7257015959757008
 40
0.9675792826333428
 40
1.0
 40
1.0
 40
1.0
 40
1.0
 10
208.7049996886224
 20
70.37922490828232
 30
0.0
 10
208.5920388956523
 20
70.37885899362178
 30
0.0
 10
208.3661166761759
 20
70.37812716224843
 30
0.0
 10
208.0531016294195
 20
70.34028062272189
 30
0.0
 10
207.8052651839943
 20
70.27989670041009
 30
0.0
 10
207.6925700238244
 20
70.22369331645872
 30
0.0
 10
207.6579743654434
 20
70.19210071635149
 30
0.0
 10
207.6538853293934
 20
70.18836662696592
 30
0.0
  0
ARC
  5
234
330
1F
100
AcDbEntity
  8
0
  6
Continuous
 62
     7
370
    25
100
AcDbCircle
 10
241.3544316294175
 20
100.6611903602449
 30
0.0
 40
2.285071418210746
100
AcDbArc
 50
341.6133042616705
 51
358.8053886718066
  0
LINE
  5
235
330
1F
100
AcDbEntity
  8
0
  6
Continuous
 62
     7
370
    25
100
AcDbLine
 10
243.522848508237
 20
99.94041326156984
 30
0.0
 11
243.4284151727934
 21
95.0902476526505
 31
0.0
  0
LINE
  5
236
330
1F
100
AcDbEntity
  8
0
  6
Continuous
 62
     7
370
    25
100
AcDbLine
 10
242.4914897568227
 20
111.727676377472
 30
0.0
 11
242.5573344153467
 21
117.0893548732983
 31
0.0
  0
LWPOLYLINE
  5
237
330
1F
100
AcDbEntity
  8
0
  6
Continuous
 62
     7
370
    25
100
AcDbPolyline
 90
        8
 70
   128
 43
0.0
 10
243.4284151727934
 20
95.0902476526505
 10
243.1415738759784
 20
94.49064238208248
 10
242.6891777983152
 20
93.89791285848625
 10
242.073560923358
 20
93.31511706805655
 10
241.2978993167991
 20
92.74526174727362
 10
240.3661947406403
 20
92.19128687066983
 10
239.2832540074629
 20
91.65605048303199
 10
238.8049367672818
 20
91.44611669826519
  0
SPLINE
  5
238
330
1F
100
AcDbEntity
  8
0
  6
Continuous
 62
     7
370
    25
100
AcDbSpline
210
0.0
220
0.0
230
1.0
 70
     8
 71
     3
 72
     9
 73
     5
 74
     0
 42
0.000000001
 43
0.00000001
 40
0.0
 40
0.0
 40
0.0
 40
0.0
 40
0.8042864138708153
 40
1.0
 40
1.0
 40
1.0
 40
1.0
 10
199.572203339236
 20
70.99136931810077
 30
0.0
 10
199.5257006668465
 20
71.00208623975423
 30
0.0
 10
199.4678821191408
 20
71.01541099753786
 30
0.0
 10
199.3984798373334
 20
71.02391331943626
 30
0.0
 10
199.3848968678753
 20
71.0255773393454
 30
0.0
  0
ARC
  5
239
330
1F
100
AcDbEntity
  8
0
  6
Continuous
 62
     7
370
    25
100
AcDbCircle
 10
208.7143282207692
 20
148.0390796325566
 30
0.0
 40
77.57652882692551
100
AcDbArc
 50
262.0412160353254
 51
263.0928338232881
  0
SPLINE
  5
23A
330
1F
100
AcDbEntity
  8
0
  6
Continuous
 62
     7
370
    25
100
AcDbSpline
210
0.0
220
0.0
230
1.0
 70
     8
 71
     3
 72
    11
 73
     7
 74
     0
 42
0.000000001
 43
0.00000001
 40
0.0
 40
0.0
 40
0.0
 40
0.0
 40
0.2632637077222338
 40
0.526528617417129
 40
0.7897686438226664
 40
1.0
 40
1.0
 40
1.0
 40
1.0
 10
197.9730269437793
 20
71.20977355921151
 30
0.0
 10
197.9209095377232
 20
71.21544420589261
 30
0.0
 10
197.8166744876605
 20
71.22678552514505
 30
0.0
 10
197.6446176206035
 20
71.2254509415879
 30
0.0
 10
197.4930034338655
 20
71.2120319894761
 30
0.0
 10
197.4159679227174
 20
71.19500653366372
 30
0.0
 10
197.3817625185933
 20
71.18744686945452
 30
0.0
  0
LINE
  5
23B
330
1F
100
AcDbEntity
  8
0
  6
Continuous
 62
     7
370
    25
100
AcDbLine
 10
197.263505251674
 20
71.15683963655403
 30
0.0
 11
197.263505251674
 21
87.38952556923742
 31
0.0
  0
LINE
  5
23C
330
1F
100
AcDbEntity
  8
0
  6
Continuous
 62
     7
370
    25
100
AcDbLine
 10
197.3817625185933
 20
71.18744686945452
 30
0.0
 11
197.263505251674
 21
71.15683963655403
 31
0.0
  0
LINE
  5
23D
330
1F
100
AcDbEntity
  8
0
  6
Continuous
 62
     7
370
    25
100
AcDbLine
 10
187.3874528318011
 20
73.71295009324801
 30
0.0
 11
186.6569035338758
 21
73.90203016493733
 31
0.0
  0
LINE
  5
23E
330
1F
100
AcDbEntity
  8
0
  6
Continuous
 62
     7
370
    25
100
AcDbLine
 10
186.6569035338758
 20
73.90203016493733
 30
0.0
 11
186.2676412095844
 21
89.13377596207405
 31
0.0
  0
LINE
  5
23F
330
1F
100
AcDbEntity
  8
0
  6
Continuous
 62
     7
370
    25
100
AcDbLine
 10
195.6879438135772
 20
73.65095689173187
 30
0.0
 11
195.8492916893009
 21
71.52286504033847
 31
0.0
  0
LINE
  5
240
330
1F
100
AcDbEntity
  8
0
  6
Continuous
 62
     7
370
    25
100
AcDbLine
 10
197.263505251674
 20
71.15683963655403
 30
0.0
 11
195.8492916893009
 21
71.52286504033847
 31
0.0
  0
SPLINE
  5
241
330
1F
100
AcDbEntity
  8
0
  6
Continuous
 62
     7
370
    25
100
AcDbSpline
210
0.0
220
0.0
230
1.0
 70
     8
 71
     3
 72
    12
 73
     8
 74
     0
 42
0.000000001
 43
0.00000001
 40
0.0
 40
0.0
 40
0.0
 40
0.0
 40
0.2419093068297573
 40
0.4838199703892263
 40
0.7257015962042352
 40
0.9675792827438168
 40
1.0
 40
1.0
 40
1.0
 40
1.0
 10
228.0635550381169
 20
71.60378444875884
 30
0.0
 10
227.9762431694351
 20
71.6223379604349
 30
0.0
 10
227.8016189423894
 20
71.65944508784298
 30
0.0
 10
227.4680044052271
 20
71.68268457314181
 30
0.0
 10
227.1281500907758
 20
71.67781882264751
 30
0.0
 10
226.9020672357127
 20
71.65361923616221
 30
0.0
 10
226.7969748193935
 20
71.63522273692278
 30
0.0
 10
226.7845534145727
 20
71.6330483615269
 30
0.0
  0
LINE
  5
242
330
1F
100
AcDbEntity
  8
0
  6
Continuous
 62
     7
370
    25
100
AcDbLine
 10
228.7175618919847
 20
71.43451501935029
 30
0.0
 11
228.0635550381169
 21
71.60378444875884
 31
0.0
  0
LWPOLYLINE
  5
243
330
1F
100
AcDbEntity
  8
0
  6
Continuous
 62
     7
370
    25
100
AcDbPolyline
 90
        5
 70
   128
 43
0.0
 10
235.2530629852546
 20
72.34594698400946
 10
235.2073831890077
 20
72.21454888225476
 10
235.0535007105257
 20
72.07109448902956
 10
234.7966598693707
 20
71.93787870831262
 10
234.4463035544456
 20
71.81979928849854
  0
LINE
  5
244
330
1F
100
AcDbEntity
  8
0
  6
Continuous
 62
     7
370
    25
100
AcDbLine
 10
246.8695936914092
 20
114.3073603779187
 30
0.0
 11
246.9241132978901
 21
118.7266926522959
 31
0.0
  0
LINE
  5
245
330
1F
100
AcDbEntity
  8
0
  6
Continuous
 62
     7
370
    25
100
AcDbLine
 10
243.8830825565837
 20
111.6311689240163
 30
0.0
 11
246.8695936914092
 21
114.3073603779187
 31
0.0
  0
LINE
  5
246
330
1F
100
AcDbEntity
  8
0
  6
Continuous
 62
     7
370
    25
100
AcDbLine
 10
243.8830825565837
 20
111.6311689240163
 30
0.0
 11
242.4914897568227
 21
111.727676377472
 31
0.0
  0
LINE
  5
247
330
1F
100
AcDbEntity
  8
0
  6
Continuous
 62
     7
370
    25
100
AcDbLine
 10
179.017510684245
 20
111.686400813153
 30
0.0
 11
178.2210924130396
 21
111.6311689240164
 31
0.0
  0
LINE
  5
248
330
1F
100
AcDbEntity
  8
0
  6
Continuous
 62
     7
370
    25
100
AcDbLine
 10
175.234581278214
 20
114.3073603779188
 30
0.0
 11
178.2210924130396
 21
111.6311689240164
 31
0.0
  0
LINE
  5
249
330
1F
100
AcDbEntity
  8
0
  6
Continuous
 62
     7
370
    25
100
AcDbLine
 10
175.234581278214
 20
114.3073603779188
 30
0.0
 11
175.1799377835841
 21
118.7367349642397
 31
0.0
  0
LINE
  5
24A
330
1F
100
AcDbEntity
  8
0
  6
Continuous
 62
     7
370
    25
100
AcDbLine
 10
247.4143338726273
 20
114.8335389875746
 30
0.0
 11
247.5039039225379
 21
118.9902113787017
 31
0.0
  0
ARC
  5
24B
330
1F
100
AcDbEntity
  8
0
  6
Continuous
 62
     7
370
    25
100
AcDbCircle
 10
242.4736017468476
 20
119.4034936992898
 30
0.0
 40
6.730179790008525
100
AcDbArc
 50
310.7814892226606
 51
317.2325651686107
  0
ARC
  5
24C
330
1F
100
AcDbEntity
  8
0
  6
Continuous
 62
     7
370
    25
100
AcDbCircle
 10
179.6305732227849
 20
119.4034936992988
 30
0.0
 40
6.730179790021353
100
AcDbArc
 50
222.7674348313934
 51
229.2185107773308
  0
LINE
  5
24D
330
1F
100
AcDbEntity
  8
0
  6
Continuous
 62
     7
370
    25
100
AcDbLine
 10
174.689841096996
 20
114.8335389875747
 30
0.0
 11
174.6004380219129
 21
118.9824625870424
 31
0.0
  0
LWPOLYLINE
  5
24E
330
1F
100
AcDbEntity
  8
0
  6
Continuous
 62
     7
370
    25
100
AcDbPolyline
 90
        3
 70
   128
 43
0.0
 10
243.9780793188874
 20
111.7147586911264
 10
243.9539416595584
 20
111.6932296379249
 10
243.8830825565837
 20
111.6311689240163
  0
LWPOLYLINE
  5
24F
330
1F
100
AcDbEntity
  8
0
  6
Continuous
 62
     7
370
    25
100
AcDbPolyline
 90
        3
 70
   128
 43
0.0
 10
178.2210924130396
 20
111.6311689240164
 10
178.1502333100649
 20
111.6932296379251
 10
178.126095650736
 20
111.7147586911264
  0
ARC
  5
250
330
1F
100
AcDbEntity
  8
0
  6
Continuous
 62
     7
370
    25
100
AcDbCircle
 10
233.8603037328689
 20
78.77036892769402
 30
0.0
 40
4.87714898021979
100
AcDbArc
 50
286.9830868001598
 51
344.139813592297
  0
ARC
  5
251
330
1F
100
AcDbEntity
  8
0
  6
Continuous
 62
     7
370
    25
100
AcDbCircle
 10
192.5685443790839
 20
86.08962342904631
 30
0.0
 40
13.29121976128379
100
AcDbArc
 50
241.1227117234654
 51
243.555552987088
  0
SPLINE
  5
252
330
1F
100
AcDbEntity
  8
0
  6
Continuous
 62
     7
370
    25
100
AcDbSpline
210
0.0
220
0.0
230
1.0
 70
     8
 71
     3
 72
    12
 73
     8
 74
     0
 42
0.000000001
 43
0.00000001
 40
0.0
 40
0.0
 40
0.0
 40
0.0
 40
0.2419093067872811
 40
0.4838199703133538
 40
0.725701595975709
 40
0.9675792826333538
 40
0.9999999999999999
 40
0.9999999999999999
 40
0.9999999999999999
 40
0.9999999999999999
 10
186.1497449623085
 20
74.45108671733104
 30
0.0
 10
186.092040191506
 20
74.47622322907417
 30
0.0
 10
185.9766303262663
 20
74.52649639353756
 30
0.0
 10
185.6934858134722
 20
74.57773352710964
 30
0.0
 10
185.3675190487696
 20
74.60309258547312
 30
0.0
 10
185.1231112806824
 20
74.60025082260753
 30
0.0
 10
185.0001025512233
 20
74.59220892724093
 30
0.0
 10
184.9855635265957
 20
74.59125841490493
 30
0.0
  0
LINE
  5
253
330
1F
100
AcDbEntity
  8
0
  6
Continuous
 62
     7
370
    25
100
AcDbLine
 10
184.9855635265957
 20
74.59125841490493
 30
0.0
 11
184.0921735499635
 21
74.52930150365731
 31
0.0
  0
LWPOLYLINE
  5
254
330
1F
100
AcDbEntity
  8
0
  6
Continuous
 62
     7
370
    25
100
AcDbPolyline
 90
        3
 70
   128
 43
0.0
 10
179.8752497906203
 20
75.60432119177676
 10
179.7999442438222
 20
75.75192041243717
 10
179.7981111371136
 20
75.77566995885536
  0
SPLINE
  5
255
330
1F
100
AcDbEntity
  8
0
  6
Continuous
 62
     7
370
    25
100
AcDbSpline
210
0.0
220
0.0
230
1.0
 70
     8
 71
     3
 72
    10
 73
     6
 74
     0
 42
0.000000001
 43
0.00000001
 40
0.0
 40
0.0
 40
0.0
 40
0.0
 40
0.3985727840264027
 40
0.7971478034175558
 40
1.0
 40
1.0
 40
1.0
 40
1.0
 10
239.1891638038478
 20
78.35029728876627
 30
0.0
 10
239.0844193857276
 20
78.33987908385868
 30
0.0
 10
238.8749299620361
 20
78.31904261561374
 30
0.0
 10
238.6579318144653
 20
78.26778298314365
 30
0.0
 10
238.5890535510452
 20
78.22768579003652
 30
0.0
 10
238.5658219668061
 20
78.21416162039048
 30
0.0
  0
LINE
  5
256
330
1F
100
AcDbEntity
  8
0
  6
Continuous
 62
     7
370
    25
100
AcDbLine
 10
240.0825537804803
 20
78.4122542000139
 30
0.0
 11
239.1891638038478
 21
78.35029728876627
 31
0.0
  0
ARC
  5
257
330
1F
100
AcDbEntity
  8
0
  6
Continuous
 62
     7
370
    25
100
AcDbCircle
 10
240.3768615274342
 20
81.22069976447318
 30
0.0
 40
2.823824275419436
100
AcDbArc
 50
264.017591562708
 51
313.0932543223984
  0
ARC
  5
25B
330
1F
100
AcDbEntity
  8
0
  6
Continuous
 62
     8
370
    25
100
AcDbCircle
 10
210.5884312822201
 20
49.79765372735798
 30
0.0
 40
0.2636456802979407
100
AcDbArc
 50
217.1570259202973
 51
253.9751429304544
  0
LINE
  5
25D
330
1F
100
AcDbEntity
  8
0
  6
Continuous
 62
     8
370
    25
100
AcDbLine
 10
210.5156507423007
 20
49.54425278468253
 30
0.0
 11
209.9990457134548
 21
49.67796000494359
 31
0.0
  0
LINE
  5
262
330
1F
100
AcDbEntity
  8
0
  6
Continuous
 62
     8
370
    25
100
AcDbLine
 10
195.6137373915444
 20
74.6296997561235
 30
0.0
 11
194.9458098507186
 21
74.45682738780931
 31
0.0
  0
LINE
  5
263
330
1F
100
AcDbEntity
  8
0
  6
Continuous
 62
     8
370
    25
100
AcDbLine
 10
193.5369777979131
 20
76.58493964134566
 30
0.0
 11
194.1823716052156
 21
76.75197985026679
 31
0.0
  0
LINE
  5
264
330
1F
100
AcDbEntity
  8
0
  6
Continuous
 62
     8
370
    25
100
AcDbLine
 10
189.6146112325663
 20
77.93420322817303
 30
0.0
 11
188.9692174252638
 21
77.7671630192519
 31
0.0
  0
LINE
  5
265
330
1F
100
AcDbEntity
  8
0
  6
Continuous
 62
     8
370
    25
100
AcDbLine
 10
244.5689489130541
 20
99.92285307371363
 30
0.0
 11
243.5874020903899
 21
100.176896085079
 31
0.0
  0
LINE
  5
266
330
1F
100
AcDbEntity
  8
0
  6
Continuous
 62
     8
370
    25
100
AcDbLine
 10
243.7986690663922
 20
109.4488437736889
 30
0.0
 11
246.1716639384596
 21
108.8346675068672
 31
0.0
  0
LINE
  5
267
330
1F
100
AcDbEntity
  8
0
  6
Continuous
 62
     8
370
    25
100
AcDbLine
 10
246.1671117542636
 20
108.6715721178395
 30
0.0
 11
243.7957142965867
 21
109.285334943394
 31
0.0
  0
LINE
  5
268
330
1F
100
AcDbEntity
  8
0
  6
Continuous
 62
     8
370
    25
100
AcDbLine
 10
243.6824503561255
 20
103.0176201505649
 30
0.0
 11
244.802852780172
 21
102.7276386650426
 31
0.0
  0
LINE
  5
269
330
1F
100
AcDbEntity
  8
0
  6
Continuous
 62
     8
370
    25
100
AcDbLine
 10
244.7810809474101
 20
102.5387321603658
 30
0.0
 11
243.6789511613253
 21
102.8239843391793
 31
0.0
  0
LINE
  5
26A
330
1F
100
AcDbEntity
  8
0
  6
Continuous
 62
     8
370
    25
100
AcDbLine
 10
243.6375284283637
 20
100.5635078031722
 30
0.0
 11
244.7810809474101
 21
100.267534632168
 31
0.0
  0
LINE
  5
26B
330
1F
100
AcDbEntity
  8
0
  6
Continuous
 62
     8
370
    25
100
AcDbLine
 10
195.0723128442772
 20
87.18495197266759
 30
0.0
 11
195.212895586233
 21
87.1485664816367
 31
0.0
  0
ARC
  5
26C
330
1F
100
AcDbEntity
  8
0
  6
Continuous
 62
     8
370
    25
100
AcDbCircle
 10
206.6660350273516
 20
121.2355634539786
 30
0.0
 40
54.80489629170995
100
AcDbArc
 50
255.9843859855101
 51
262.7646414143501
  0
ARC
  5
26D
330
1F
100
AcDbEntity
  8
0
  6
Continuous
 62
     8
370
    25
100
AcDbCircle
 10
211.333801491241
 20
145.3471608388691
 30
0.0
 40
79.21676980173477
100
AcDbArc
 50
266.5384305088639
 51
282.6196127643773
  0
ARC
  5
26E
330
1F
100
AcDbEntity
  8
0
  6
Continuous
 62
     8
370
    25
100
AcDbCircle
 10
197.5398094990694
 20
86.78198586723222
 30
0.0
 40
19.17355634198538
100
AcDbArc
 50
239.9068063983543
 51
257.5096328009691
  0
LINE
  5
27D
330
1F
100
AcDbEntity
  8
0
  6
Continuous
 62
     8
370
    25
100
AcDbLine
 10
209.2843743797393
 20
65.80687451020471
 30
0.0
 11
209.2830645326719
 21
65.84048465650443
 31
0.0
  0
LINE
  5
27E
330
1F
100
AcDbEntity
  8
0
  6
Continuous
 62
     8
370
    25
100
AcDbLine
 10
209.9913734651381
 20
65.80687451020471
 30
0.0
 11
209.9920770238339
 21
65.82985962299838
 31
0.0
  0
LINE
  5
27F
330
1F
100
AcDbEntity
  8
0
  6
Continuous
 62
     8
370
    25
100
AcDbLine
 10
209.2843743797393
 20
65.80687451020471
 30
0.0
 11
209.1440413025692
 21
65.84319538323417
 31
0.0
  0
LINE
  5
280
330
1F
100
AcDbEntity
  8
0
  6
Continuous
 62
     8
370
    25
100
AcDbLine
 10
210.0766607332405
 20
65.82894847949437
 30
0.0
 11
209.9913734651381
 21
65.80687451020471
 31
0.0
  0
ELLIPSE
  5
282
330
1F
100
AcDbEntity
  8
0
  6
Continuous
 62
     8
370
    25
100
AcDbEllipse
 10
191.1548954061356
 20
57.52863552676747
 30
0.0
 11
-0.9517029455087425
 21
3.368603161218729
 31
0.0
210
0.0
220
0.0
230
1.0
 40
0.6783163797203219
 41
1.53828230117282
 42
2.764393372097255
  0
LINE
  5
283
330
1F
100
AcDbEntity
  8
0
  6
Continuous
 62
     8
370
    25
100
AcDbLine
 10
188.3853584789131
 20
69.68462932882565
 30
0.0
 11
188.6122904549281
 21
60.80483296478191
 31
0.0
  0
LINE
  5
28B
330
1F
100
AcDbEntity
  8
0
  6
Continuous
 62
     8
370
    25
100
AcDbLine
 10
186.8613979923538
 20
72.99666031150808
 30
0.0
 11
186.8613979923538
 21
73.11975475761469
 31
0.0
  0
LWPOLYLINE
  5
297
330
1F
100
AcDbEntity
  8
0
  6
Continuous
 62
     8
370
    25
100
AcDbPolyline
 90
       25
 70
   128
 43
0.0
 10
221.4048492889125
 20
231.1952054078326
 10
218.3796407063448
 20
231.0176356807689
 10
215.3103633565104
 20
230.9012750555816
 10
212.2154762345361
 20
230.846823338762
 10
209.1135923557316
 20
230.8546080093421
 10
206.0233668147252
 20
230.9245822493972
 10
202.9633845915301
 20
231.0563252256139
 10
199.9520487792878
 20
231.2490446202319
 10
197.0074699059001
 20
231.5015813961357
 10
194.1473570151837
 20
231.8124167674405
 10
191.3889111625968
 20
232.1796813336489
 10
188.7487219660679
 20
232.6011663224458
 10
186.2426678340813
 20
233.0743368735149
 10
183.8858204710599
 20
233.5963472834866
 10
181.6923542343622
 20
234.1640581203333
 10
179.6754608880286
 20
234.7740551042829
 10
177.8472702659605
 20
235.4226696416989
 10
176.218777321672
 20
236.1060008884345
 10
174.7997760033457
 20
236.8199392099681
 10
173.598800351876
 20
237.5601908972287
 10
172.6230731761428
 20
238.322303989468
 10
171.8784626141896
 20
239.1016950488756
 10
171.36944684155
 20
239.8936767259136
 10
171.0990871389737
 20
240.6934859495883
 10
171.0520875042967
 20
241.1948822675393
  0
LWPOLYLINE
  5
298
330
1F
100
AcDbEntity
  8
0
  6
Continuous
 62
     8
370
    25
100
AcDbPolyline
 90
       18
 70
   128
 43
0.0
 10
251.0520764711375
 20
241.2028879916344
 10
250.9599854837275
 20
240.4930623327998
 10
250.6297530280494
 20
239.6947603905992
 10
250.0614958349112
 20
238.9054823012811
 10
249.2586314699364
 20
238.1299748761448
 10
248.2259884538844
 20
237.3729021080946
 10
246.9697772233589
 20
236.6388171218381
 10
245.4975527805119
 20
235.9321347908583
 10
243.818169256371
 20
235.2571051858452
 10
241.9417266610541
 20
234.6177880142702
 10
239.8795101411199
 20
234.018028204828
 10
237.6439221093688
 20
233.4614327835831
 10
235.2484076552729
 20
232.9513491808902
 10
232.707373684626
 20
232.4908450995547
 10
230.0361022747168
 20
232.0826900653067
 10
227.2506587661181
 20
231.7293387705474
 10
224.3677951438382
 20
231.4329163115405
 10
221.4048492889125
 20
231.1952054078326
  0
LWPOLYLINE
  5
29A
330
1F
100
AcDbEntity
  8
0
  6
Continuous
 62
     8
370
    25
100
AcDbPolyline
 90
       11
 70
   128
 43
0.0
 10
172.7795915889103
 20
130.126656020688
 10
172.722100829822
 20
130.0829095401053
 10
171.8437858410314
 20
129.3136710238565
 10
171.1955607567824
 20
128.5292880744954
 10
170.7812296196245
 20
127.7343637630651
 10
170.6032238894223
 20
126.9335630215128
 10
170.6625881745812
 20
126.1315852670143
 10
170.958974101871
 20
125.3331368239256
 10
171.4906423608176
 20
124.5429033051995
 10
172.2544729106688
 20
123.7655221153467
 10
173.1700112239187
 20
123.057587856518
  0
LWPOLYLINE
  5
29B
330
1F
100
AcDbEntity
  8
0
  6
Continuous
 62
     8
370
    25
100
AcDbPolyline
 90
       11
 70
   128
 43
0.0
 10
249.0367685165718
 20
123.1292234990752
 10
249.3820741398015
 20
123.3830804450509
 10
250.260389128592
 20
124.1523189612997
 10
250.9086142128411
 20
124.9367019106608
 10
251.3229453499989
 20
125.7316262220911
 10
251.5009510802011
 20
126.5324269636434
 10
251.4415867950421
 20
127.3344047181419
 10
251.1452008677523
 20
128.1328531612307
 10
250.6135326088057
 20
128.9230866799567
 10
249.8497020589544
 20
129.7004678698095
 10
249.3657867875309
 20
130.0953675539419
  0
LWPOLYLINE
  5
29C
330
1F
100
AcDbEntity
  8
0
  6
Continuous
 62
     8
370
    25
100
AcDbPolyline
 90
       39
 70
   128
 43
0.0
 10
251.6401563033819
 20
124.8403827073106
 10
251.4011267511261
 20
124.4399708238943
 10
250.7448914610755
 20
123.645895147417
 10
249.8557230141427
 20
122.8671510458779
 10
248.7388394043363
 20
122.1083084993191
 10
247.400794948788
 20
121.373820697544
 10
245.8494418244131
 20
120.6679979070298
 10
244.0938839882137
 20
119.9949821765693
 10
242.1444237516395
 20
119.3587230300818
 10
240.0125013225276
 20
118.7629542892363
 10
237.7106276694137
 20
118.2111721619009
 10
235.252311102194
 20
117.7066147250055
 10
232.6519779999917
 20
117.2522429222181
 10
229.9248881514274
 20
116.8507231879505
 10
227.0870452041122
 20
116.5044117996608
 10
224.1551027488794
 20
116.2153410502801
 10
221.1462665898922
 20
115.9852073219097
 10
218.0781937741424
 20
115.8153611307762
 10
214.9688889728785
 20
115.7067992018657
 10
211.836598823035
 20
115.6601586197448
 10
208.6997048487116
 20
115.6757130898951
 10
205.5766155910807
 20
115.7533713325008
 10
202.4856585797478
 20
115.8926776181149
 10
199.4449727795206
 20
116.0928144420607
 10
196.4724021437503
 20
116.3526073218744
 10
193.5853908989183
 20
116.6705316896351
 10
190.8008811749789
 20
117.0447218387357
 10
188.1352135822039
 20
117.4729818725912
 10
185.6040313179836
 20
117.9527985910328
 10
183.2221883663249
 20
118.4813562387659
 10
181.0036623287664
 20
119.0555530293418
 10
178.9614723982546
 20
119.6720193476743
 10
177.1076029573428
 20
120.3271375242803
 10
175.4529332490691
 20
121.017063065203
 10
174.0071735332321
 20
121.7377472130317
 10
172.7788081027254
 20
122.4849607066194
 10
171.7750454943333
 20
123.2543186000693
 10
171.0017761861705
 20
124.0413059953409
 10
170.4888094818483
 20
124.7936362198087
  0
MTEXT
  5
2E2
330
1F
100
AcDbEntity
  8
0
100
AcDbMText
 10
283.3654015459376
 20
75.7043481238418
 30
0.0
 40
6.0
 41
231.4298032286652
 46
3.0
 71
     1
 72
     5
  1
{\fＭＳ Ｐゴシック|b0|i0|c0|p0;HBE-D21T}
 73
     1
 44
1.0
  0
ENDSEC
  0
SECTION
  2
OBJECTS
  0
DICTIONARY
  5
C
330
0
100
AcDbDictionary
281
     1
  3
ACAD_DETAILVIEWSTYLE
350
2E8
  3
ACAD_GROUP
350
D
  3
ACAD_LAYOUT
350
1A
  3
ACAD_MATERIAL
350
304
  3
ACAD_MLEADERSTYLE
350
30A
  3
ACAD_MLINESTYLE
350
17
  3
ACAD_PLOTSETTINGS
350
19
  3
ACAD_PLOTSTYLENAME
350
E
  3
ACAD_SCALELIST
350
47
  3
ACAD_SECTIONVIEWSTYLE
350
2E9
  3
ACAD_TABLESTYLE
350
308
  3
ACAD_VISUALSTYLE
350
2EB
  3
ACDB_RECOMPOSE_DATA
350
314
  3
AcDbVariableDictionary
350
2E3
  3
APPDATA
350
2D2
  0
SUN
  5
310
330
29
100
AcDbSun
 90
        1
290
     0
 63
     7
421
 16777215
 40
1.0
291
     1
 91
  2455826
 92
 54000000
292
     0
 70
     2
 71
   256
280
     1
  0
DICTIONARY
  5
2DD
330
2
100
AcDbDictionary
280
     1
281
     1
  3
ACAD_LAYERSTATES
360
2DE
  0
DICTIONARY
  5
2E8
102
{ACAD_REACTORS
330
C
102
}
330
C
100
AcDbDictionary
281
     1
  0
DICTIONARY
  5
D
102
{ACAD_REACTORS
330
C
102
}
330
C
100
AcDbDictionary
281
     1
  0
DICTIONARY
  5
1A
102
{ACAD_REACTORS
330
C
102
}
330
C
100
AcDbDictionary
281
     1
  3
Layout1
350
1E
  3
Layout2
350
26
  3
Model
350
22
  0
DICTIONARY
  5
304
102
{ACAD_REACTORS
330
C
102
}
330
C
100
AcDbDictionary
281
     1
  3
ByBlock
350
306
  3
ByLayer
350
305
  3
Global
350
307
  0
DICTIONARY
  5
30A
102
{ACAD_REACTORS
330
C
102
}
330
C
100
AcDbDictionary
281
     1
  3
Standard
350
30B
  0
DICTIONARY
  5
17
102
{ACAD_REACTORS
330
C
102
}
330
C
100
AcDbDictionary
281
     1
  3
Standard
350
18
  0
DICTIONARY
  5
19
102
{ACAD_REACTORS
330
C
102
}
330
C
100
AcDbDictionary
281
     1
  0
ACDBDICTIONARYWDFLT
  5
E
102
{ACAD_REACTORS
330
C
102
}
330
C
100
AcDbDictionary
281
     1
  3
Normal
350
F
100
AcDbDictionaryWithDefault
340
F
  0
DICTIONARY
  5
47
102
{ACAD_REACTORS
330
C
102
}
330
C
100
AcDbDictionary
281
     1
  3
A0
350
48
  3
A1
350
49
  3
A2
350
4A
  3
A3
350
4B
  3
A4
350
4C
  3
A5
350
4D
  3
A6
350
4E
  3
A7
350
4F
  3
A8
350
50
  3
A9
350
51
  3
B0
350
52
  3
B1
350
53
  3
B2
350
54
  3
B3
350
55
  3
B4
350
56
  3
B5
350
57
  3
B6
350
58
  3
B7
350
59
  3
B8
350
5A
  3
B9
350
5B
  3
C0
350
5C
  3
C1
350
5D
  3
C2
350
5E
  3
C3
350
5F
  3
C4
350
60
  3
C5
350
61
  3
C6
350
62
  3
C7
350
63
  3
C8
350
64
  3
C9
350
65
  3
D0
350
66
  3
D1
350
67
  3
D2
350
68
  0
DICTIONARY
  5
2E9
102
{ACAD_REACTORS
330
C
102
}
330
C
100
AcDbDictionary
281
     1
  0
DICTIONARY
  5
308
102
{ACAD_REACTORS
330
C
102
}
330
C
100
AcDbDictionary
281
     1
  3
Standard
350
309
  0
DICTIONARY
  5
2EB
102
{ACAD_REACTORS
330
C
102
}
330
C
100
AcDbDictionary
281
     1
  3
2dWireframe
350
2F0
  3
Basic
350
2F3
  3
Brighten
350
2F7
  3
ColorChange
350
2FB
  3
Conceptual
350
2F5
  3
Dim
350
2F6
  3
EdgeColorOff
350
2FE
  3
Facepattern
350
2FA
  3
Flat
350
2EC
  3
FlatWithEdges
350
2ED
  3
Gouraud
350
2EE
  3
GouraudWithEdges
350
2EF
  3
Hidden
350
2F2
  3
JitterOff
350
2FC
  3
Linepattern
350
2F9
  3
OverhangOff
350
2FD
  3
Realistic
350
2F4
  3
Shaded
350
303
  3
Shaded with edges
350
302
  3
Shades of Gray
350
2FF
  3
Sketchy
350
300
  3
Thicken
350
2F8
  3
Wireframe
350
2F1
  3
X-Ray
350
301
  0
XRECORD
  5
314
102
{ACAD_REACTORS
330
C
102
}
330
C
100
AcDbXrecord
280
     1
 90
        1
330
309
  0
DICTIONARY
  5
2E3
102
{ACAD_REACTORS
330
C
102
}
330
C
100
AcDbDictionary
281
     1
  3
CANNOSCALE
350
30C
  3
CMLEADERSTYLE
350
30E
  3
CTABLESTYLE
350
30D
  3
MSLTSCALE
350
30F
  0
DICTIONARY
  5
2D2
102
{ACAD_REACTORS
330
C
102
}
330
C
100
AcDbDictionary
281
     1
  0
DICTIONARY
  5
2DE
102
{ACAD_REACTORS
330
2DD
102
}
330
2DD
100
AcDbDictionary
281
     1
  0
LAYOUT
  5
1E
102
{ACAD_REACTORS
330
1A
102
}
330
1A
100
AcDbPlotSettings
  1

  2
none_device
  4

  6

 40
0.0
 41
0.0
 42
0.0
 43
0.0
 44
0.0
 45
0.0
 46
0.0
 47
0.0
 48
0.0
 49
0.0
140
0.0
141
0.0
142
1.0
143
1.0
 70
   688
 72
     1
 73
     0
 74
     5
  7

 75
    16
 76
     0
 77
     2
 78
   300
147
1.0
148
0.0
149
0.0
100
AcDbLayout
  1
Layout1
 70
     1
 71
     1
 10
0.0
 20
0.0
 11
420.0
 21
297.0
 12
0.0
 22
0.0
 32
0.0
 14
1.000000000000000E+20
 24
1.000000000000000E+20
 34
1.000000000000000E+20
 15
-1.000000000000000E+20
 25
-1.000000000000000E+20
 35
-1.000000000000000E+20
146
0.0
 13
0.0
 23
0.0
 33
0.0
 16
1.0
 26
0.0
 36
0.0
 17
0.0
 27
1.0
 37
0.0
 76
     0
330
1B
  0
LAYOUT
  5
26
102
{ACAD_REACTORS
330
1A
102
}
330
1A
100
AcDbPlotSettings
  1

  2
none_device
  4

  6

 40
0.0
 41
0.0
 42
0.0
 43
0.0
 44
0.0
 45
0.0
 46
0.0
 47
0.0
 48
0.0
 49
0.0
140
0.0
141
0.0
142
1.0
143
1.0
 70
   688
 72
     1
 73
     0
 74
     5
  7

 75
    16
 76
     0
 77
     2
 78
   300
147
1.0
148
0.0
149
0.0
100
AcDbLayout
  1
Layout2
 70
     1
 71
     2
 10
0.0
 20
0.0
 11
0.0
 21
0.0
 12
0.0
 22
0.0
 32
0.0
 14
0.0
 24
0.0
 34
0.0
 15
0.0
 25
0.0
 35
0.0
146
0.0
 13
0.0
 23
0.0
 33
0.0
 16
1.0
 26
0.0
 36
0.0
 17
0.0
 27
1.0
 37
0.0
 76
     0
330
23
  0
LAYOUT
  5
22
102
{ACAD_REACTORS
330
1A
102
}
330
1A
100
AcDbPlotSettings
  1

  2
none_device
  4
Letter_(8.50_x_11.00_Inches)
  6

 40
6.35
 41
6.35
 42
6.35000508
 43
6.35000508
 44
215.9
 45
279.4
 46
0.0
 47
0.0
 48
0.0
 49
0.0
140
0.0
141
0.0
142
1.0
143
1.0
 70
  1712
 72
     1
 73
     0
 74
     0
  7

 75
     0
 76
     0
 77
     2
 78
   300
147
1.0
148
0.0
149
0.0
100
AcDbLayout
  1
Model
 70
     1
 71
     0
 10
0.0
 20
0.0
 11
431.8
 21
279.4
 12
0.0
 22
0.0
 32
0.0
 14
170.0525359245374
 24
48.91926069558721
 34
0.0
 15
322.5060793000954
 25
255.2538705671755
 35
0.0
146
0.0
 13
0.0
 23
0.0
 33
0.0
 16
1.0
 26
0.0
 36
0.0
 17
0.0
 27
1.0
 37
0.0
 76
     0
330
1F
331
29
  0
MATERIAL
  5
306
102
{ACAD_REACTORS
330
304
102
}
330
304
100
AcDbMaterial
  1
ByBlock
 72
     1
 94
      127
  0
MATERIAL
  5
305
102
{ACAD_REACTORS
330
304
102
}
330
304
100
AcDbMaterial
  1
ByLayer
 72
     1
 94
      127
  0
MATERIAL
  5
307
102
{ACAD_REACTORS
330
304
102
}
330
304
100
AcDbMaterial
  1
Global
 72
     1
 94
      127
  0
MLEADERSTYLE
  5
30B
102
{ACAD_REACTORS
330
30A
102
}
330
30A
100
AcDbMLeaderStyle
179
     2
170
     2
171
     1
172
     0
 90
        2
 40
0.0
 41
0.0
173
     1
 91
-1056964608
340
14
 92
       -2
290
     1
 42
2.0
291
     1
 43
8.0
  3
Standard
341
0
 44
4.0
300

342
11
174
     1
178
     1
175
     1
176
     0
 93
-1056964608
 45
4.0
292
     0
297
     0
 46
4.0
343
0
 94
-1056964608
 47
1.0
 49
1.0
140
1.0
293
     1
141
0.0
294
     1
177
     0
142
1.0
295
     0
296
     0
143
3.75
271
     0
272
     9
273
     9
298
     0
  0
MLINESTYLE
  5
18
102
{ACAD_REACTORS
330
17
102
}
330
17
100
AcDbMlineStyle
  2
Standard
 70
     0
  3

 62
   256
 51
90.0
 52
90.0
 71
     2
 49
0.5
 62
   256
  6
BYLAYER
 49
-0.5
 62
   256
  6
BYLAYER
  0
ACDBPLACEHOLDER
  5
F
102
{ACAD_REACTORS
330
E
102
}
330
E
  0
SCALE
  5
48
102
{ACAD_REACTORS
330
47
102
}
330
47
100
AcDbScale
 70
     0
300
1:1
140
1.0
141
1.0
290
     1
  0
SCALE
  5
49
102
{ACAD_REACTORS
330
47
102
}
330
47
100
AcDbScale
 70
     0
300
1:2
140
1.0
141
2.0
290
     0
  0
SCALE
  5
4A
102
{ACAD_REACTORS
330
47
102
}
330
47
100
AcDbScale
 70
     0
300
1:4
140
1.0
141
4.0
290
     0
  0
SCALE
  5
4B
102
{ACAD_REACTORS
330
47
102
}
330
47
100
AcDbScale
 70
     0
300
1:5
140
1.0
141
5.0
290
     0
  0
SCALE
  5
4C
102
{ACAD_REACTORS
330
47
102
}
330
47
100
AcDbScale
 70
     0
300
1:8
140
1.0
141
8.0
290
     0
  0
SCALE
  5
4D
102
{ACAD_REACTORS
330
47
102
}
330
47
100
AcDbScale
 70
     0
300
1:10
140
1.0
141
10.0
290
     0
  0
SCALE
  5
4E
102
{ACAD_REACTORS
330
47
102
}
330
47
100
AcDbScale
 70
     0
300
1:16
140
1.0
141
16.0
290
     0
  0
SCALE
  5
4F
102
{ACAD_REACTORS
330
47
102
}
330
47
100
AcDbScale
 70
     0
300
1:20
140
1.0
141
20.0
290
     0
  0
SCALE
  5
50
102
{ACAD_REACTORS
330
47
102
}
330
47
100
AcDbScale
 70
     0
300
1:30
140
1.0
141
30.0
290
     0
  0
SCALE
  5
51
102
{ACAD_REACTORS
330
47
102
}
330
47
100
AcDbScale
 70
     0
300
1:40
140
1.0
141
40.0
290
     0
  0
SCALE
  5
52
102
{ACAD_REACTORS
330
47
102
}
330
47
100
AcDbScale
 70
     0
300
1:50
140
1.0
141
50.0
290
     0
  0
SCALE
  5
53
102
{ACAD_REACTORS
330
47
102
}
330
47
100
AcDbScale
 70
     0
300
1:100
140
1.0
141
100.0
290
     0
  0
SCALE
  5
54
102
{ACAD_REACTORS
330
47
102
}
330
47
100
AcDbScale
 70
     0
300
2:1
140
2.0
141
1.0
290
     0
  0
SCALE
  5
55
102
{ACAD_REACTORS
330
47
102
}
330
47
100
AcDbScale
 70
     0
300
4:1
140
4.0
141
1.0
290
     0
  0
SCALE
  5
56
102
{ACAD_REACTORS
330
47
102
}
330
47
100
AcDbScale
 70
     0
300
8:1
140
8.0
141
1.0
290
     0
  0
SCALE
  5
57
102
{ACAD_REACTORS
330
47
102
}
330
47
100
AcDbScale
 70
     0
300
10:1
140
10.0
141
1.0
290
     0
  0
SCALE
  5
58
102
{ACAD_REACTORS
330
47
102
}
330
47
100
AcDbScale
 70
     0
300
100:1
140
100.0
141
1.0
290
     0
  0
SCALE
  5
59
102
{ACAD_REACTORS
330
47
102
}
330
47
100
AcDbScale
 70
     0
300
1/128" = 1'-0"
140
0.0078125
141
12.0
290
     0
  0
SCALE
  5
5A
102
{ACAD_REACTORS
330
47
102
}
330
47
100
AcDbScale
 70
     0
300
1/64" = 1'-0"
140
0.015625
141
12.0
290
     0
  0
SCALE
  5
5B
102
{ACAD_REACTORS
330
47
102
}
330
47
100
AcDbScale
 70
     0
300
1/32" = 1'-0"
140
0.03125
141
12.0
290
     0
  0
SCALE
  5
5C
102
{ACAD_REACTORS
330
47
102
}
330
47
100
AcDbScale
 70
     0
300
1/16" = 1'-0"
140
0.0625
141
12.0
290
     0
  0
SCALE
  5
5D
102
{ACAD_REACTORS
330
47
102
}
330
47
100
AcDbScale
 70
     0
300
3/32" = 1'-0"
140
0.09375
141
12.0
290
     0
  0
SCALE
  5
5E
102
{ACAD_REACTORS
330
47
102
}
330
47
100
AcDbScale
 70
     0
300
1/8" = 1'-0"
140
0.125
141
12.0
290
     0
  0
SCALE
  5
5F
102
{ACAD_REACTORS
330
47
102
}
330
47
100
AcDbScale
 70
     0
300
3/16" = 1'-0"
140
0.1875
141
12.0
290
     0
  0
SCALE
  5
60
102
{ACAD_REACTORS
330
47
102
}
330
47
100
AcDbScale
 70
     0
300
1/4" = 1'-0"
140
0.25
141
12.0
290
     0
  0
SCALE
  5
61
102
{ACAD_REACTORS
330
47
102
}
330
47
100
AcDbScale
 70
     0
300
3/8" = 1'-0"
140
0.375
141
12.0
290
     0
  0
SCALE
  5
62
102
{ACAD_REACTORS
330
47
102
}
330
47
100
AcDbScale
 70
     0
300
1/2" = 1'-0"
140
0.5
141
12.0
290
     0
  0
SCALE
  5
63
102
{ACAD_REACTORS
330
47
102
}
330
47
100
AcDbScale
 70
     0
300
3/4" = 1'-0"
140
0.75
141
12.0
290
     0
  0
SCALE
  5
64
102
{ACAD_REACTORS
330
47
102
}
330
47
100
AcDbScale
 70
     0
300
1" = 1'-0"
140
1.0
141
12.0
290
     0
  0
SCALE
  5
65
102
{ACAD_REACTORS
330
47
102
}
330
47
100
AcDbScale
 70
     0
300
1-1/2" = 1'-0"
140
1.5
141
12.0
290
     0
  0
SCALE
  5
66
102
{ACAD_REACTORS
330
47
102
}
330
47
100
AcDbScale
 70
     0
300
3" = 1'-0"
140
3.0
141
12.0
290
     0
  0
SCALE
  5
67
102
{ACAD_REACTORS
330
47
102
}
330
47
100
AcDbScale
 70
     0
300
6" = 1'-0"
140
6.0
141
12.0
290
     0
  0
SCALE
  5
68
102
{ACAD_REACTORS
330
47
102
}
330
47
100
AcDbScale
 70
     0
300
1'-0" = 1'-0"
140
12.0
141
12.0
290
     0
  0
TABLESTYLE
  5
309
102
{ACAD_REACTORS
330
308
102
}
102
{ACAD_XDICTIONARY
360
312
102
}
330
308
100
AcDbTableStyle
  3
Standard
 70
     0
 71
     0
 40
1.5
 41
1.5
280
     0
281
     0
  7
Standard
140
4.5
170
     2
 62
     0
 63
   257
283
     0
 90
        4
 91
        0
  1

274
    -2
284
     1
 64
     0
275
    -2
285
     1
 65
     0
276
    -2
286
     1
 66
     0
277
    -2
287
     1
 67
     0
278
    -2
288
     1
 68
     0
279
    -2
289
     1
 69
     0
  7
Standard
140
6.0
170
     5
 62
     0
 63
   257
283
     0
 90
        4
 91
        0
  1

274
    -2
284
     1
 64
     0
275
    -2
285
     1
 65
     0
276
    -2
286
     1
 66
     0
277
    -2
287
     1
 67
     0
278
    -2
288
     1
 68
     0
279
    -2
289
     1
 69
     0
  7
Standard
140
4.5
170
     5
 62
     0
 63
   257
283
     0
 90
        4
 91
        0
  1

274
    -2
284
     1
 64
     0
275
    -2
285
     1
 65
     0
276
    -2
286
     1
 66
     0
277
    -2
287
     1
 67
     0
278
    -2
288
     1
 68
     0
279
    -2
289
     1
 69
     0
  0
VISUALSTYLE
  5
2F0
102
{ACAD_REACTORS
330
2EB
102
}
330
2EB
100
AcDbVisualStyle
  2
2dWireframe
 70
     4
177
     3
291
     0
 70
    58
 90
        0
176
     1
 90
        2
176
     1
 90
        0
176
     1
 90
        0
176
     1
 40
0.6
176
     1
 40
30.0
176
     1
 62
     7
420
 16777215
176
     1
 90
        1
176
     1
 90
        4
176
     1
 62
     7
176
     1
 62
   257
176
     1
 90
        1
176
     1
 90
        1
176
     1
 40
1.0
176
     1
 90
        0
176
     1
 62
   257
176
     1
 40
1.0
176
     1
 90
        1
176
     1
 90
        6
176
     1
 90
        2
176
     1
 62
     7
176
     1
 90
        5
176
     1
 90
        0
176
     1
 90
        0
176
     1
290
     0
176
     1
 90
        1
176
     1
 40
0.0
176
     1
 90
        0
176
     1
290
     1
176
     1
290
     1
176
     1
290
     0
176
     1
290
     0
176
     1
290
     0
176
     1
290
     0
176
     1
290
     0
176
     1
290
     0
176
     1
290
     0
176
     1
 90
       50
176
     1
 40
0.0
176
     1
 40
1.0
176
     1
 90
        0
176
     1
 62
    18
420
        0
176
     1
 90
       50
176
     1
 90
        3
176
     1
 62
     5
420
      255
176
     1
290
     0
176
     1
 90
       50
176
     1
 90
       50
176
     1
 90
       50
176
     1
290
     0
176
     1
 90
       50
176
     1
 62
   256
176
     0
 40
1.0
176
     0
 90
        2
176
     1
  1
strokes_ogs.tif
176
     1
290
     0
176
     1
 40
1.0
176
     1
 40
1.0
176
     1
  0
VISUALSTYLE
  5
2F3
102
{ACAD_REACTORS
330
2EB
102
}
330
2EB
100
AcDbVisualStyle
  2
Basic
 70
     7
177
     3
291
     1
 70
    58
 90
        1
176
     1
 90
        0
176
     1
 90
        1
176
     1
 90
        0
176
     1
 40
0.6
176
     1
 40
30.0
176
     1
 62
     7
420
 16777215
176
     1
 90
        0
176
     1
 90
        4
176
     1
 62
     7
176
     1
 62
   257
176
     1
 90
        1
176
     1
 90
        1
176
     1
 40
1.0
176
     1
 90
        8
176
     1
 62
     7
176
     1
 40
1.0
176
     1
 90
        1
176
     1
 90
        6
176
     1
 90
        2
176
     1
 62
     7
176
     1
 90
        5
176
     1
 90
        0
176
     1
 90
        0
176
     1
290
     0
176
     1
 90
        1
176
     1
 40
0.0
176
     1
 90
        0
176
     1
290
     0
176
     1
290
     1
176
     1
290
     1
176
     1
290
     0
176
     1
290
     0
176
     1
290
     0
176
     1
290
     0
176
     1
290
     0
176
     1
290
     0
176
     1
 90
       50
176
     1
 40
0.0
176
     1
 40
1.0
176
     1
 90
        0
176
     1
 62
    18
420
        0
176
     1
 90
       50
176
     1
 90
        3
176
     1
 62
     5
420
      255
176
     1
290
     0
176
     1
 90
       50
176
     1
 90
       50
176
     1
 90
       50
176
     1
290
     0
176
     1
 90
       50
176
     1
 62
   256
176
     0
 40
1.0
176
     0
 90
        2
176
     1
  1
strokes_ogs.tif
176
     1
290
     0
176
     1
 40
1.0
176
     1
 40
1.0
176
     1
  0
VISUALSTYLE
  5
2F7
102
{ACAD_REACTORS
330
2EB
102
}
330
2EB
100
AcDbVisualStyle
  2
Brighten
 70
    12
177
     3
291
     1
 70
    58
 90
        2
176
     1
 90
        2
176
     1
 90
        0
176
     1
 90
        0
176
     1
 40
0.6
176
     1
 40
30.0
176
     1
 62
     7
420
 16777215
176
     1
 90
        1
176
     1
 90
        4
176
     1
 62
     7
176
     1
 62
   257
176
     1
 90
        1
176
     1
 90
        1
176
     1
 40
1.0
176
     1
 90
        8
176
     1
 62
     7
176
     1
 40
1.0
176
     1
 90
        1
176
     1
 90
        6
176
     1
 90
        2
176
     1
 62
     7
176
     1
 90
        5
176
     1
 90
        0
176
     1
 90
        0
176
     1
290
     0
176
     1
 90
        1
176
     1
 40
50.0
176
     1
 90
        0
176
     1
290
     0
176
     1
290
     1
176
     1
290
     1
176
     1
290
     0
176
     1
290
     0
176
     1
290
     0
176
     1
290
     0
176
     1
290
     0
176
     1
290
     0
176
     1
 90
       50
176
     1
 40
0.0
176
     1
 40
1.0
176
     1
 90
        0
176
     1
 62
    18
420
        0
176
     1
 90
       50
176
     1
 90
        3
176
     1
 62
     5
420
      255
176
     1
290
     0
176
     1
 90
       50
176
     1
 90
       50
176
     1
 90
       50
176
     1
290
     0
176
     1
 90
       50
176
     1
 62
   256
176
     0
 40
1.0
176
     0
 90
        2
176
     1
  1
strokes_ogs.tif
176
     1
290
     0
176
     1
 40
1.0
176
     1
 40
1.0
176
     1
  0
VISUALSTYLE
  5
2FB
102
{ACAD_REACTORS
330
2EB
102
}
330
2EB
100
AcDbVisualStyle
  2
ColorChange
 70
    16
177
     3
291
     1
 70
    58
 90
        2
176
     1
 90
        2
176
     1
 90
        3
176
     1
 90
        0
176
     1
 40
0.6
176
     1
 40
30.0
176
     1
 62
     8
420
  8421504
176
     1
 90
        1
176
     1
 90
        4
176
     1
 62
     7
176
     1
 62
   257
176
     1
 90
        1
176
     1
 90
        1
176
     1
 40
1.0
176
     1
 90
        8
176
     1
 62
     8
420
  8421504
176
     1
 40
1.0
176
     1
 90
        1
176
     1
 90
        6
176
     1
 90
        2
176
     1
 62
     7
176
     1
 90
        5
176
     1
 90
        0
176
     1
 90
        0
176
     1
290
     0
176
     1
 90
        1
176
     1
 40
0.0
176
     1
 90
        0
176
     1
290
     0
176
     1
290
     1
176
     1
290
     1
176
     1
290
     0
176
     1
290
     0
176
     1
290
     0
176
     1
290
     0
176
     1
290
     0
176
     1
290
     0
176
     1
 90
       50
176
     1
 40
0.0
176
     1
 40
1.0
176
     1
 90
        0
176
     1
 62
    18
420
        0
176
     1
 90
       50
176
     1
 90
        3
176
     1
 62
     5
420
      255
176
     1
290
     0
176
     1
 90
       50
176
     1
 90
       50
176
     1
 90
       50
176
     1
290
     0
176
     1
 90
       50
176
     1
 62
   256
176
     0
 40
1.0
176
     0
 90
        2
176
     1
  1
strokes_ogs.tif
176
     1
290
     0
176
     1
 40
1.0
176
     1
 40
1.0
176
     1
  0
VISUALSTYLE
  5
2F5
102
{ACAD_REACTORS
330
2EB
102
}
330
2EB
100
AcDbVisualStyle
  2
Conceptual
 70
     9
177
     3
291
     0
 70
    58
 90
        3
176
     1
 90
        2
176
     1
 90
        0
176
     1
 90
        0
176
     1
 40
0.6
176
     1
 40
30.0
176
     1
 62
     7
420
 16777215
176
     1
 90
        2
176
     1
 90
        2
176
     1
 62
     7
176
     1
 62
   257
176
     1
 90
        1
176
     1
 90
        1
176
     1
 40
179.0
176
     1
 90
        8
176
     1
 62
     7
176
     1
 40
1.0
176
     1
 90
        1
176
     1
 90
        6
176
     1
 90
        2
176
     1
 62
     7
176
     1
 90
        3
176
     1
 90
        0
176
     1
 90
        0
176
     1
290
     0
176
     1
 90
        1
176
     1
 40
0.0
176
     1
 90
        0
176
     1
290
     0
176
     1
290
     1
176
     1
290
     1
176
     1
290
     0
176
     1
290
     0
176
     1
290
     0
176
     1
290
     0
176
     1
290
     0
176
     1
290
     0
176
     1
 90
       50
176
     1
 40
0.0
176
     1
 40
1.0
176
     1
 90
        0
176
     1
 62
    18
420
        0
176
     1
 90
       50
176
     1
 90
        3
176
     1
 62
     5
420
      255
176
     1
290
     0
176
     1
 90
       50
176
     1
 90
       50
176
     1
 90
       50
176
     1
290
     0
176
     1
 90
       50
176
     1
 62
   256
176
     0
 40
1.0
176
     0
 90
        2
176
     1
  1
strokes_ogs.tif
176
     1
290
     0
176
     1
 40
1.0
176
     1
 40
1.0
176
     1
  0
VISUALSTYLE
  5
2F6
102
{ACAD_REACTORS
330
2EB
102
}
330
2EB
100
AcDbVisualStyle
  2
Dim
 70
    11
177
     3
291
     1
 70
    58
 90
        2
176
     1
 90
        2
176
     1
 90
        0
176
     1
 90
        0
176
     1
 40
0.6
176
     1
 40
30.0
176
     1
 62
     7
420
 16777215
176
     1
 90
        1
176
     1
 90
        4
176
     1
 62
     7
176
     1
 62
   257
176
     1
 90
        1
176
     1
 90
        1
176
     1
 40
1.0
176
     1
 90
        8
176
     1
 62
     7
176
     1
 40
1.0
176
     1
 90
        1
176
     1
 90
        6
176
     1
 90
        2
176
     1
 62
     7
176
     1
 90
        5
176
     1
 90
        0
176
     1
 90
        0
176
     1
290
     0
176
     1
 90
        1
176
     1
 40
-50.0
176
     1
 90
        0
176
     1
290
     0
176
     1
290
     1
176
     1
290
     1
176
     1
290
     0
176
     1
290
     0
176
     1
290
     0
176
     1
290
     0
176
     1
290
     0
176
     1
290
     0
176
     1
 90
       50
176
     1
 40
0.0
176
     1
 40
1.0
176
     1
 90
        0
176
     1
 62
    18
420
        0
176
     1
 90
       50
176
     1
 90
        3
176
     1
 62
     5
420
      255
176
     1
290
     0
176
     1
 90
       50
176
     1
 90
       50
176
     1
 90
       50
176
     1
290
     0
176
     1
 90
       50
176
     1
 62
   256
176
     0
 40
1.0
176
     0
 90
        2
176
     1
  1
strokes_ogs.tif
176
     1
290
     0
176
     1
 40
1.0
176
     1
 40
1.0
176
     1
  0
VISUALSTYLE
  5
2FE
102
{ACAD_REACTORS
330
2EB
102
}
330
2EB
100
AcDbVisualStyle
  2
EdgeColorOff
 70
    22
177
     3
291
     1
 70
    58
 90
        2
176
     0
 90
        2
176
     0
 90
        0
176
     0
 90
        0
176
     0
 40
0.6
176
     0
 40
30.0
176
     0
 62
     7
420
 16777215
176
     0
 90
        1
176
     0
 90
        4
176
     0
 62
     7
176
     0
 62
   257
176
     0
 90
        1
176
     0
 90
        1
176
     0
 40
1.0
176
     0
 90
        8
176
     2
 62
     7
176
     0
 40
1.0
176
     0
 90
        1
176
     0
 90
        6
176
     0
 90
        2
176
     0
 62
     7
176
     0
 90
        5
176
     0
 90
        0
176
     0
 90
        0
176
     0
290
     0
176
     0
 90
        1
176
     0
 40
0.0
176
     0
 90
        0
176
     0
290
     0
176
     0
290
     1
176
     0
290
     1
176
     0
290
     0
176
     0
290
     0
176
     0
290
     0
176
     0
290
     0
176
     0
290
     0
176
     0
290
     0
176
     0
 90
       50
176
     0
 40
0.0
176
     0
 40
1.0
176
     0
 90
        0
176
     0
 62
    18
420
        0
176
     0
 90
       50
176
     0
 90
        3
176
     0
 62
     5
420
      255
176
     0
290
     0
176
     0
 90
       50
176
     0
 90
       50
176
     0
 90
       50
176
     0
290
     0
176
     0
 90
       50
176
     0
 62
   256
176
     0
 40
1.0
176
     0
 90
        2
176
     0
  1
strokes_ogs.tif
176
     0
290
     0
176
     0
 40
1.0
176
     0
 40
1.0
176
     0
  0
VISUALSTYLE
  5
2FA
102
{ACAD_REACTORS
330
2EB
102
}
330
2EB
100
AcDbVisualStyle
  2
Facepattern
 70
    15
177
     3
291
     1
 70
    58
 90
        2
176
     1
 90
        2
176
     1
 90
        0
176
     1
 90
        0
176
     1
 40
0.6
176
     1
 40
30.0
176
     1
 62
     7
420
 16777215
176
     1
 90
        1
176
     1
 90
        4
176
     1
 62
     7
176
     1
 62
   257
176
     1
 90
        1
176
     1
 90
        1
176
     1
 40
1.0
176
     1
 90
        8
176
     1
 62
     7
176
     1
 40
1.0
176
     1
 90
        1
176
     1
 90
        6
176
     1
 90
        2
176
     1
 62
     7
176
     1
 90
        5
176
     1
 90
        0
176
     1
 90
        0
176
     1
290
     0
176
     1
 90
        1
176
     1
 40
0.0
176
     1
 90
        0
176
     1
290
     0
176
     1
290
     1
176
     1
290
     1
176
     1
290
     0
176
     1
290
     0
176
     1
290
     0
176
     1
290
     0
176
     1
290
     0
176
     1
290
     0
176
     1
 90
       50
176
     1
 40
0.0
176
     1
 40
1.0
176
     1
 90
        0
176
     1
 62
    18
420
        0
176
     1
 90
       50
176
     1
 90
        3
176
     1
 62
     5
420
      255
176
     1
290
     0
176
     1
 90
       50
176
     1
 90
       50
176
     1
 90
       50
176
     1
290
     0
176
     1
 90
       50
176
     1
 62
   256
176
     0
 40
1.0
176
     0
 90
        2
176
     1
  1
strokes_ogs.tif
176
     1
290
     0
176
     1
 40
1.0
176
     1
 40
1.0
176
     1
  0
VISUALSTYLE
  5
2EC
102
{ACAD_REACTORS
330
2EB
102
}
330
2EB
100
AcDbVisualStyle
  2
Flat
 70
     0
177
     3
291
     1
 70
    58
 90
        2
176
     1
 90
        1
176
     1
 90
        1
176
     1
 90
        2
176
     1
 40
0.6
176
     1
 40
30.0
176
     1
 62
     7
420
 16777215
176
     1
 90
        0
176
     1
 90
        0
176
     1
 62
     7
176
     1
 62
   257
176
     1
 90
        1
176
     1
 90
        1
176
     1
 40
1.0
176
     1
 90
        8
176
     1
 62
     7
176
     1
 40
1.0
176
     1
 90
        1
176
     1
 90
        6
176
     1
 90
        2
176
     1
 62
     7
176
     1
 90
        5
176
     1
 90
        0
176
     1
 90
        0
176
     1
290
     0
176
     1
 90
       13
176
     1
 40
0.0
176
     1
 90
        0
176
     1
290
     0
176
     1
290
     1
176
     1
290
     1
176
     1
290
     0
176
     1
290
     0
176
     1
290
     0
176
     1
290
     0
176
     1
290
     0
176
     1
290
     0
176
     1
 90
       50
176
     1
 40
0.0
176
     1
 40
1.0
176
     1
 90
        0
176
     1
 62
    18
420
        0
176
     1
 90
       50
176
     1
 90
        3
176
     1
 62
     5
420
      255
176
     1
290
     0
176
     1
 90
       50
176
     1
 90
       50
176
     1
 90
       50
176
     1
290
     0
176
     1
 90
       50
176
     1
 62
   256
176
     0
 40
1.0
176
     0
 90
        2
176
     1
  1
strokes_ogs.tif
176
     1
290
     0
176
     1
 40
1.0
176
     1
 40
1.0
176
     1
  0
VISUALSTYLE
  5
2ED
102
{ACAD_REACTORS
330
2EB
102
}
330
2EB
100
AcDbVisualStyle
  2
FlatWithEdges
 70
     1
177
     3
291
     1
 70
    58
 90
        2
176
     1
 90
        1
176
     1
 90
        1
176
     1
 90
        2
176
     1
 40
0.6
176
     1
 40
30.0
176
     1
 62
     7
420
 16777215
176
     1
 90
        1
176
     1
 90
        0
176
     1
 62
     7
176
     1
 62
   257
176
     1
 90
        1
176
     1
 90
        1
176
     1
 40
1.0
176
     1
 90
        0
176
     1
 62
   257
176
     1
 40
1.0
176
     1
 90
        1
176
     1
 90
        6
176
     1
 90
        2
176
     1
 62
     7
176
     1
 90
        5
176
     1
 90
        0
176
     1
 90
        0
176
     1
290
     0
176
     1
 90
       13
176
     1
 40
0.0
176
     1
 90
        0
176
     1
290
     0
176
     1
290
     1
176
     1
290
     1
176
     1
290
     0
176
     1
290
     0
176
     1
290
     0
176
     1
290
     0
176
     1
290
     0
176
     1
290
     0
176
     1
 90
       50
176
     1
 40
0.0
176
     1
 40
1.0
176
     1
 90
        0
176
     1
 62
    18
420
        0
176
     1
 90
       50
176
     1
 90
        3
176
     1
 62
     5
420
      255
176
     1
290
     0
176
     1
 90
       50
176
     1
 90
       50
176
     1
 90
       50
176
     1
290
     0
176
     1
 90
       50
176
     1
 62
   256
176
     0
 40
1.0
176
     0
 90
        2
176
     1
  1
strokes_ogs.tif
176
     1
290
     0
176
     1
 40
1.0
176
     1
 40
1.0
176
     1
  0
VISUALSTYLE
  5
2EE
102
{ACAD_REACTORS
330
2EB
102
}
330
2EB
100
AcDbVisualStyle
  2
Gouraud
 70
     2
177
     3
291
     1
 70
    58
 90
        2
176
     1
 90
        2
176
     1
 90
        1
176
     1
 90
        2
176
     1
 40
0.6
176
     1
 40
30.0
176
     1
 62
     7
420
 16777215
176
     1
 90
        0
176
     1
 90
        0
176
     1
 62
     7
176
     1
 62
   257
176
     1
 90
        1
176
     1
 90
        1
176
     1
 40
1.0
176
     1
 90
        0
176
     1
 62
     7
176
     1
 40
1.0
176
     1
 90
        1
176
     1
 90
        6
176
     1
 90
        2
176
     1
 62
     7
176
     1
 90
        5
176
     1
 90
        0
176
     1
 90
        0
176
     1
290
     0
176
     1
 90
       13
176
     1
 40
0.0
176
     1
 90
        0
176
     1
290
     0
176
     1
290
     1
176
     1
290
     1
176
     1
290
     0
176
     1
290
     0
176
     1
290
     0
176
     1
290
     0
176
     1
290
     0
176
     1
290
     0
176
     1
 90
       50
176
     1
 40
0.0
176
     1
 40
1.0
176
     1
 90
        0
176
     1
 62
    18
420
        0
176
     1
 90
       50
176
     1
 90
        3
176
     1
 62
     5
420
      255
176
     1
290
     0
176
     1
 90
       50
176
     1
 90
       50
176
     1
 90
       50
176
     1
290
     0
176
     1
 90
       50
176
     1
 62
   256
176
     0
 40
1.0
176
     0
 90
        2
176
     1
  1
strokes_ogs.tif
176
     1
290
     0
176
     1
 40
1.0
176
     1
 40
1.0
176
     1
  0
VISUALSTYLE
  5
2EF
102
{ACAD_REACTORS
330
2EB
102
}
330
2EB
100
AcDbVisualStyle
  2
GouraudWithEdges
 70
     3
177
     3
291
     1
 70
    58
 90
        2
176
     1
 90
        2
176
     1
 90
        1
176
     1
 90
        2
176
     1
 40
0.6
176
     1
 40
30.0
176
     1
 62
     7
420
 16777215
176
     1
 90
        1
176
     1
 90
        0
176
     1
 62
     7
176
     1
 62
   257
176
     1
 90
        1
176
     1
 90
        1
176
     1
 40
1.0
176
     1
 90
        0
176
     1
 62
   257
176
     1
 40
1.0
176
     1
 90
        1
176
     1
 90
        6
176
     1
 90
        2
176
     1
 62
     7
176
     1
 90
        5
176
     1
 90
        0
176
     1
 90
        0
176
     1
290
     0
176
     1
 90
       13
176
     1
 40
0.0
176
     1
 90
        0
176
     1
290
     0
176
     1
290
     1
176
     1
290
     1
176
     1
290
     0
176
     1
290
     0
176
     1
290
     0
176
     1
290
     0
176
     1
290
     0
176
     1
290
     0
176
     1
 90
       50
176
     1
 40
0.0
176
     1
 40
1.0
176
     1
 90
        0
176
     1
 62
    18
420
        0
176
     1
 90
       50
176
     1
 90
        3
176
     1
 62
     5
420
      255
176
     1
290
     0
176
     1
 90
       50
176
     1
 90
       50
176
     1
 90
       50
176
     1
290
     0
176
     1
 90
       50
176
     1
 62
   256
176
     0
 40
1.0
176
     0
 90
        2
176
     1
  1
strokes_ogs.tif
176
     1
290
     0
176
     1
 40
1.0
176
     1
 40
1.0
176
     1
  0
VISUALSTYLE
  5
2F2
102
{ACAD_REACTORS
330
2EB
102
}
330
2EB
100
AcDbVisualStyle
  2
Hidden
 70
     6
177
     3
291
     0
 70
    58
 90
        1
176
     1
 90
        2
176
     1
 90
        2
176
     1
 90
        0
176
     1
 40
0.6
176
     1
 40
30.0
176
     1
 62
     7
420
 16777215
176
     1
 90
        2
176
     1
 90
        2
176
     1
 62
     7
176
     1
 62
   257
176
     1
 90
        2
176
     1
 90
        1
176
     1
 40
40.0
176
     1
 90
        0
176
     1
 62
   257
176
     1
 40
1.0
176
     1
 90
        1
176
     1
 90
        6
176
     1
 90
        2
176
     1
 62
     7
176
     1
 90
        3
176
     1
 90
        0
176
     1
 90
        0
176
     1
290
     0
176
     1
 90
        1
176
     1
 40
0.0
176
     1
 90
        0
176
     1
290
     0
176
     1
290
     1
176
     1
290
     1
176
     1
290
     0
176
     1
290
     0
176
     1
290
     0
176
     1
290
     0
176
     1
290
     0
176
     1
290
     0
176
     1
 90
       50
176
     1
 40
0.0
176
     1
 40
1.0
176
     1
 90
        0
176
     1
 62
    18
420
        0
176
     1
 90
       50
176
     1
 90
        3
176
     1
 62
     5
420
      255
176
     1
290
     0
176
     1
 90
       50
176
     1
 90
       50
176
     1
 90
       50
176
     1
290
     0
176
     1
 90
       50
176
     1
 62
   256
176
     0
 40
1.0
176
     0
 90
        2
176
     1
  1
strokes_ogs.tif
176
     1
290
     0
176
     1
 40
1.0
176
     1
 40
1.0
176
     1
  0
VISUALSTYLE
  5
2FC
102
{ACAD_REACTORS
330
2EB
102
}
330
2EB
100
AcDbVisualStyle
  2
JitterOff
 70
    20
177
     3
291
     1
 70
    58
 90
        2
176
     0
 90
        2
176
     0
 90
        0
176
     0
 90
        0
176
     0
 40
0.6
176
     0
 40
30.0
176
     0
 62
     7
420
 16777215
176
     0
 90
        1
176
     0
 90
        4
176
     0
 62
     7
176
     0
 62
   257
176
     0
 90
        1
176
     0
 90
        1
176
     0
 40
1.0
176
     0
 90
       10
176
     2
 62
     7
176
     0
 40
1.0
176
     0
 90
        1
176
     0
 90
        6
176
     0
 90
        2
176
     0
 62
     7
176
     0
 90
        5
176
     0
 90
        0
176
     0
 90
        0
176
     0
290
     0
176
     0
 90
        1
176
     0
 40
0.0
176
     0
 90
        0
176
     0
290
     0
176
     0
290
     1
176
     0
290
     1
176
     0
290
     0
176
     0
290
     0
176
     0
290
     0
176
     0
290
     0
176
     0
290
     0
176
     0
290
     0
176
     0
 90
       50
176
     0
 40
0.0
176
     0
 40
1.0
176
     0
 90
        0
176
     0
 62
    18
420
        0
176
     0
 90
       50
176
     0
 90
        3
176
     0
 62
     5
420
      255
176
     0
290
     0
176
     0
 90
       50
176
     0
 90
       50
176
     0
 90
       50
176
     0
290
     0
176
     0
 90
       50
176
     0
 62
   256
176
     0
 40
1.0
176
     0
 90
        2
176
     0
  1
strokes_ogs.tif
176
     0
290
     0
176
     0
 40
1.0
176
     0
 40
1.0
176
     0
  0
VISUALSTYLE
  5
2F9
102
{ACAD_REACTORS
330
2EB
102
}
330
2EB
100
AcDbVisualStyle
  2
Linepattern
 70
    14
177
     3
291
     1
 70
    58
 90
        2
176
     1
 90
        2
176
     1
 90
        0
176
     1
 90
        0
176
     1
 40
0.6
176
     1
 40
30.0
176
     1
 62
     7
420
 16777215
176
     1
 90
        1
176
     1
 90
        4
176
     1
 62
     7
176
     1
 62
   257
176
     1
 90
        7
176
     1
 90
        7
176
     1
 40
1.0
176
     1
 90
        8
176
     1
 62
     7
176
     1
 40
1.0
176
     1
 90
        1
176
     1
 90
        6
176
     1
 90
        2
176
     1
 62
     7
176
     1
 90
        5
176
     1
 90
        0
176
     1
 90
        0
176
     1
290
     0
176
     1
 90
        1
176
     1
 40
0.0
176
     1
 90
        0
176
     1
290
     0
176
     1
290
     1
176
     1
290
     1
176
     1
290
     0
176
     1
290
     0
176
     1
290
     0
176
     1
290
     0
176
     1
290
     0
176
     1
290
     0
176
     1
 90
       50
176
     1
 40
0.0
176
     1
 40
1.0
176
     1
 90
        0
176
     1
 62
    18
420
        0
176
     1
 90
       50
176
     1
 90
        3
176
     1
 62
     5
420
      255
176
     1
290
     0
176
     1
 90
       50
176
     1
 90
       50
176
     1
 90
       50
176
     1
290
     0
176
     1
 90
       50
176
     1
 62
   256
176
     0
 40
1.0
176
     0
 90
        2
176
     1
  1
strokes_ogs.tif
176
     1
290
     0
176
     1
 40
1.0
176
     1
 40
1.0
176
     1
  0
VISUALSTYLE
  5
2FD
102
{ACAD_REACTORS
330
2EB
102
}
330
2EB
100
AcDbVisualStyle
  2
OverhangOff
 70
    21
177
     3
291
     1
 70
    58
 90
        2
176
     0
 90
        2
176
     0
 90
        0
176
     0
 90
        0
176
     0
 40
0.6
176
     0
 40
30.0
176
     0
 62
     7
420
 16777215
176
     0
 90
        1
176
     0
 90
        4
176
     0
 62
     7
176
     0
 62
   257
176
     0
 90
        1
176
     0
 90
        1
176
     0
 40
1.0
176
     0
 90
        9
176
     2
 62
     7
176
     0
 40
1.0
176
     0
 90
        1
176
     0
 90
        6
176
     0
 90
        2
176
     0
 62
     7
176
     0
 90
        5
176
     0
 90
        0
176
     0
 90
        0
176
     0
290
     0
176
     0
 90
        1
176
     0
 40
0.0
176
     0
 90
        0
176
     0
290
     0
176
     0
290
     1
176
     0
290
     1
176
     0
290
     0
176
     0
290
     0
176
     0
290
     0
176
     0
290
     0
176
     0
290
     0
176
     0
290
     0
176
     0
 90
       50
176
     0
 40
0.0
176
     0
 40
1.0
176
     0
 90
        0
176
     0
 62
    18
420
        0
176
     0
 90
       50
176
     0
 90
        3
176
     0
 62
     5
420
      255
176
     0
290
     0
176
     0
 90
       50
176
     0
 90
       50
176
     0
 90
       50
176
     0
290
     0
176
     0
 90
       50
176
     0
 62
   256
176
     0
 40
1.0
176
     0
 90
        2
176
     0
  1
strokes_ogs.tif
176
     0
290
     0
176
     0
 40
1.0
176
     0
 40
1.0
176
     0
  0
VISUALSTYLE
  5
2F4
102
{ACAD_REACTORS
330
2EB
102
}
330
2EB
100
AcDbVisualStyle
  2
Realistic
 70
     8
177
     3
291
     0
 70
    58
 90
        2
176
     1
 90
        3
176
     1
 90
        0
176
     1
 90
        2
176
     1
 40
0.6
176
     1
 40
30.0
176
     1
 62
     7
420
 16777215
176
     1
 90
        0
176
     1
 90
        0
176
     1
 62
     7
176
     1
 62
   257
176
     1
 90
        1
176
     1
 90
        1
176
     1
 40
1.0
176
     1
 90
        8
176
     1
 62
   257
176
     1
 40
1.0
176
     1
 90
        1
176
     1
 90
        6
176
     1
 90
        2
176
     1
 62
     7
176
     1
 90
        3
176
     1
 90
        0
176
     1
 90
        0
176
     1
290
     0
176
     1
 90
       13
176
     1
 40
0.0
176
     1
 90
        0
176
     1
290
     0
176
     1
290
     1
176
     1
290
     1
176
     1
290
     0
176
     1
290
     0
176
     1
290
     0
176
     1
290
     0
176
     1
290
     0
176
     1
290
     0
176
     1
 90
       50
176
     1
 40
0.0
176
     1
 40
1.0
176
     1
 90
        0
176
     1
 62
    18
420
        0
176
     1
 90
       50
176
     1
 90
        3
176
     1
 62
     5
420
      255
176
     1
290
     0
176
     1
 90
       50
176
     1
 90
       50
176
     1
 90
       50
176
     1
290
     0
176
     1
 90
       50
176
     1
 62
   256
176
     0
 40
1.0
176
     0
 90
        2
176
     1
  1
strokes_ogs.tif
176
     1
290
     0
176
     1
 40
1.0
176
     1
 40
1.0
176
     1
  0
VISUALSTYLE
  5
303
102
{ACAD_REACTORS
330
2EB
102
}
330
2EB
100
AcDbVisualStyle
  2
Shaded
 70
    27
177
     3
291
     0
 70
    58
 90
        2
176
     1
 90
        2
176
     1
 90
        1
176
     1
 90
        2
176
     1
 40
0.6
176
     1
 40
30.0
176
     1
 62
     7
420
 16777215
176
     1
 90
        0
176
     1
 90
        4
176
     1
 62
     7
176
     1
 62
   257
176
     1
 90
        1
176
     1
 90
        1
176
     1
 40
1.0
176
     1
 90
        8
176
     1
 62
   257
176
     1
 40
1.0
176
     1
 90
        1
176
     1
 90
        6
176
     1
 90
        2
176
     1
 62
     8
420
  7895160
176
     1
 90
        3
176
     1
 90
        0
176
     1
 90
        0
176
     1
290
     0
176
     1
 90
        5
176
     1
 40
0.0
176
     1
 90
        0
176
     1
290
     0
176
     1
290
     1
176
     1
290
     1
176
     1
290
     0
176
     1
290
     0
176
     1
290
     0
176
     1
290
     0
176
     1
290
     0
176
     1
290
     0
176
     1
 90
       50
176
     1
 40
0.0
176
     1
 40
1.0
176
     1
 90
        0
176
     1
 62
    18
420
        0
176
     1
 90
       50
176
     1
 90
        3
176
     1
 62
     5
420
      255
176
     1
290
     0
176
     1
 90
       50
176
     1
 90
       50
176
     1
 90
       50
176
     1
290
     0
176
     1
 90
       50
176
     1
 62
   256
176
     0
 40
1.0
176
     0
 90
        2
176
     1
  1
strokes_ogs.tif
176
     1
290
     0
176
     1
 40
1.0
176
     1
 40
1.0
176
     1
  0
VISUALSTYLE
  5
302
102
{ACAD_REACTORS
330
2EB
102
}
330
2EB
100
AcDbVisualStyle
  2
Shaded with edges
 70
    26
177
     3
291
     0
 70
    58
 90
        2
176
     1
 90
        2
176
     1
 90
        1
176
     1
 90
        2
176
     1
 40
0.6
176
     1
 40
30.0
176
     1
 62
     7
420
 16777215
176
     1
 90
        1
176
     1
 90
       10
176
     1
 62
     7
176
     1
 62
   257
176
     1
 90
        2
176
     1
 90
        1
176
     1
 40
1.0
176
     1
 90
        8
176
     1
 62
   257
176
     1
 40
1.0
176
     1
 90
        1
176
     1
 90
        6
176
     1
 90
        2
176
     1
 62
     7
176
     1
 90
        3
176
     1
 90
        0
176
     1
 90
        0
176
     1
290
     0
176
     1
 90
        5
176
     1
 40
0.0
176
     1
 90
        0
176
     1
290
     0
176
     1
290
     1
176
     1
290
     1
176
     1
290
     0
176
     1
290
     0
176
     1
290
     0
176
     1
290
     0
176
     1
290
     0
176
     1
290
     0
176
     1
 90
       50
176
     1
 40
0.0
176
     1
 40
1.0
176
     1
 90
        0
176
     1
 62
    18
420
        0
176
     1
 90
       50
176
     1
 90
        3
176
     1
 62
     5
420
      255
176
     1
290
     0
176
     1
 90
       50
176
     1
 90
       50
176
     1
 90
       50
176
     1
290
     0
176
     1
 90
       50
176
     1
 62
   256
176
     0
 40
1.0
176
     0
 90
        2
176
     1
  1
strokes_ogs.tif
176
     1
290
     0
176
     1
 40
1.0
176
     1
 40
1.0
176
     1
  0
VISUALSTYLE
  5
2FF
102
{ACAD_REACTORS
330
2EB
102
}
330
2EB
100
AcDbVisualStyle
  2
Shades of Gray
 70
    23
177
     3
291
     0
 70
    58
 90
        2
176
     1
 90
        2
176
     1
 90
        3
176
     1
 90
        0
176
     1
 40
0.6
176
     1
 40
30.0
176
     1
 62
     7
420
 16777215
176
     1
 90
        2
176
     1
 90
        2
176
     1
 62
     7
176
     1
 62
     7
176
     1
 90
        1
176
     1
 90
        1
176
     1
 40
40.0
176
     1
 90
        8
176
     1
 62
     7
176
     1
 40
1.0
176
     1
 90
        1
176
     1
 90
        6
176
     1
 90
        2
176
     1
 62
     7
176
     1
 90
        3
176
     1
 90
        0
176
     1
 90
        0
176
     1
290
     0
176
     1
 90
        1
176
     1
 40
0.0
176
     1
 90
        0
176
     1
290
     0
176
     1
290
     1
176
     1
290
     1
176
     1
290
     0
176
     1
290
     0
176
     1
290
     0
176
     1
290
     0
176
     1
290
     0
176
     1
290
     0
176
     1
 90
       50
176
     1
 40
0.0
176
     1
 40
1.0
176
     1
 90
        0
176
     1
 62
    18
420
        0
176
     1
 90
       50
176
     1
 90
        3
176
     1
 62
     5
420
      255
176
     1
290
     0
176
     1
 90
       50
176
     1
 90
       50
176
     1
 90
       50
176
     1
290
     0
176
     1
 90
       50
176
     1
 62
   256
176
     0
 40
1.0
176
     0
 90
        2
176
     1
  1
strokes_ogs.tif
176
     1
290
     0
176
     1
 40
1.0
176
     1
 40
1.0
176
     1
  0
VISUALSTYLE
  5
300
102
{ACAD_REACTORS
330
2EB
102
}
330
2EB
100
AcDbVisualStyle
  2
Sketchy
 70
    24
177
     3
291
     0
 70
    58
 90
        1
176
     1
 90
        2
176
     1
 90
        2
176
     1
 90
        0
176
     1
 40
0.6
176
     1
 40
30.0
176
     1
 62
     7
420
 16777215
176
     1
 90
        2
176
     1
 90
        2
176
     1
 62
     7
176
     1
 62
     7
176
     1
 90
        1
176
     1
 90
        1
176
     1
 40
40.0
176
     1
 90
       11
176
     1
 62
     7
176
     1
 40
1.0
176
     1
 90
        1
176
     1
 90
        6
176
     1
 90
        2
176
     1
 62
     7
176
     1
 90
        6
176
     1
 90
        0
176
     1
 90
        0
176
     1
290
     0
176
     1
 90
        1
176
     1
 40
0.0
176
     1
 90
        0
176
     1
290
     0
176
     1
290
     1
176
     1
290
     1
176
     1
290
     0
176
     1
290
     0
176
     1
290
     0
176
     1
290
     0
176
     1
290
     0
176
     1
290
     0
176
     1
 90
       50
176
     1
 40
0.0
176
     1
 40
1.0
176
     1
 90
        0
176
     1
 62
    18
420
        0
176
     1
 90
       50
176
     1
 90
        3
176
     1
 62
     5
420
      255
176
     1
290
     0
176
     1
 90
       50
176
     1
 90
       50
176
     1
 90
       50
176
     1
290
     0
176
     1
 90
       50
176
     1
 62
   256
176
     0
 40
1.0
176
     0
 90
        2
176
     1
  1
strokes_ogs.tif
176
     1
290
     0
176
     1
 40
1.0
176
     1
 40
1.0
176
     1
  0
VISUALSTYLE
  5
2F8
102
{ACAD_REACTORS
330
2EB
102
}
330
2EB
100
AcDbVisualStyle
  2
Thicken
 70
    13
177
     3
291
     1
 70
    58
 90
        2
176
     1
 90
        2
176
     1
 90
        0
176
     1
 90
        0
176
     1
 40
0.6
176
     1
 40
30.0
176
     1
 62
     7
420
 16777215
176
     1
 90
        1
176
     1
 90
        4
176
     1
 62
     7
176
     1
 62
   257
176
     1
 90
        1
176
     1
 90
        1
176
     1
 40
1.0
176
     1
 90
       12
176
     1
 62
     7
176
     1
 40
1.0
176
     1
 90
        1
176
     1
 90
        6
176
     1
 90
        2
176
     1
 62
     7
176
     1
 90
        5
176
     1
 90
        0
176
     1
 90
        0
176
     1
290
     0
176
     1
 90
        1
176
     1
 40
0.0
176
     1
 90
        0
176
     1
290
     0
176
     1
290
     1
176
     1
290
     1
176
     1
290
     0
176
     1
290
     0
176
     1
290
     0
176
     1
290
     0
176
     1
290
     0
176
     1
290
     0
176
     1
 90
       50
176
     1
 40
0.0
176
     1
 40
1.0
176
     1
 90
        0
176
     1
 62
    18
420
        0
176
     1
 90
       50
176
     1
 90
        3
176
     1
 62
     5
420
      255
176
     1
290
     0
176
     1
 90
       50
176
     1
 90
       50
176
     1
 90
       50
176
     1
290
     0
176
     1
 90
       50
176
     1
 62
   256
176
     0
 40
1.0
176
     0
 90
        2
176
     1
  1
strokes_ogs.tif
176
     1
290
     0
176
     1
 40
1.0
176
     1
 40
1.0
176
     1
  0
VISUALSTYLE
  5
2F1
102
{ACAD_REACTORS
330
2EB
102
}
330
2EB
100
AcDbVisualStyle
  2
Wireframe
 70
     5
177
     3
291
     0
 70
    58
 90
        0
176
     1
 90
        2
176
     1
 90
        0
176
     1
 90
        0
176
     1
 40
0.6
176
     1
 40
30.0
176
     1
 62
     7
420
 16777215
176
     1
 90
        1
176
     1
 90
        4
176
     1
 62
     7
176
     1
 62
   257
176
     1
 90
        1
176
     1
 90
        1
176
     1
 40
1.0
176
     1
 90
        0
176
     1
 62
   257
176
     1
 40
1.0
176
     1
 90
        1
176
     1
 90
        6
176
     1
 90
        2
176
     1
 62
     7
176
     1
 90
        3
176
     1
 90
        0
176
     1
 90
        0
176
     1
290
     0
176
     1
 90
        1
176
     1
 40
0.0
176
     1
 90
        0
176
     1
290
     0
176
     1
290
     1
176
     1
290
     1
176
     1
290
     0
176
     1
290
     0
176
     1
290
     0
176
     1
290
     0
176
     1
290
     0
176
     1
290
     0
176
     1
 90
       50
176
     1
 40
0.0
176
     1
 40
1.0
176
     1
 90
        0
176
     1
 62
    18
420
        0
176
     1
 90
       50
176
     1
 90
        3
176
     1
 62
     5
420
      255
176
     1
290
     0
176
     1
 90
       50
176
     1
 90
       50
176
     1
 90
       50
176
     1
290
     0
176
     1
 90
       50
176
     1
 62
   256
176
     0
 40
1.0
176
     0
 90
        2
176
     1
  1
strokes_ogs.tif
176
     1
290
     0
176
     1
 40
1.0
176
     1
 40
1.0
176
     1
  0
VISUALSTYLE
  5
301
102
{ACAD_REACTORS
330
2EB
102
}
330
2EB
100
AcDbVisualStyle
  2
X-Ray
 70
    25
177
     3
291
     0
 70
    58
 90
        2
176
     1
 90
        2
176
     1
 90
        1
176
     1
 90
        1
176
     1
 40
0.5
176
     1
 40
30.0
176
     1
 62
     7
420
 16777215
176
     1
 90
        1
176
     1
 90
        0
176
     1
 62
     7
176
     1
 62
   257
176
     1
 90
        1
176
     1
 90
        1
176
     1
 40
1.0
176
     1
 90
        8
176
     1
 62
     7
176
     1
 40
1.0
176
     1
 90
        1
176
     1
 90
        6
176
     1
 90
        2
176
     1
 62
     7
176
     1
 90
        3
176
     1
 90
        0
176
     1
 90
        0
176
     1
290
     0
176
     1
 90
       13
176
     1
 40
0.0
176
     1
 90
        0
176
     1
290
     0
176
     1
290
     1
176
     1
290
     1
176
     1
290
     0
176
     1
290
     0
176
     1
290
     0
176
     1
290
     0
176
     1
290
     0
176
     1
290
     0
176
     1
 90
       50
176
     1
 40
0.0
176
     1
 40
1.0
176
     1
 90
        0
176
     1
 62
    18
420
        0
176
     1
 90
       50
176
     1
 90
        3
176
     1
 62
     5
420
      255
176
     1
290
     0
176
     1
 90
       50
176
     1
 90
       50
176
     1
 90
       50
176
     1
290
     0
176
     1
 90
       50
176
     1
 62
   256
176
     0
 40
1.0
176
     0
 90
        2
176
     1
  1
strokes_ogs.tif
176
     1
290
     0
176
     1
 40
1.0
176
     1
 40
1.0
176
     1
  0
DICTIONARYVAR
  5
30C
102
{ACAD_REACTORS
330
2E3
102
}
330
2E3
100
DictionaryVariables
280
     0
  1
1:1
  0
DICTIONARYVAR
  5
30E
102
{ACAD_REACTORS
330
2E3
102
}
330
2E3
100
DictionaryVariables
280
     0
  1
Standard
  0
DICTIONARYVAR
  5
30D
102
{ACAD_REACTORS
330
2E3
102
}
330
2E3
100
DictionaryVariables
280
     0
  1
Standard
  0
DICTIONARYVAR
  5
30F
102
{ACAD_REACTORS
330
2E3
102
}
330
2E3
100
DictionaryVariables
280
     0
  1
0
  0
DICTIONARY
  5
312
330
309
100
AcDbDictionary
280
     1
281
     1
  3
ACAD_ROUNDTRIP_2008_TABLESTYLE_CELLSTYLEMAP
360
313
  0
CELLSTYLEMAP
  5
313
102
{ACAD_REACTORS
330
312
102
}
330
312
100
AcDbCellStyleMap
 90
        3
300
CELLSTYLE
  1
TABLEFORMAT_BEGIN
 90
        5
170
     1
 91
        0
 92
    32768
 62
   257
 93
        1
300
CONTENTFORMAT
  1
CONTENTFORMAT_BEGIN
 90
        0
 91
        0
 92
        4
 93
        0
300

 40
0.0
140
1.0
 94
        5
 62
     0
340
11
144
6.0
309
CONTENTFORMAT_END
171
     1
301
MARGIN
  1
CELLMARGIN_BEGIN
 40
1.5
 40
1.5
 40
1.5
 40
1.5
 40
1.5
 40
1.5
309
CELLMARGIN_END
 94
        6
 95
        1
302
GRIDFORMAT
  1
GRIDFORMAT_BEGIN
 90
        0
 91
        1
 62
     0
 92
       -2
340
14
 93
        0
 40
0.045
309
GRIDFORMAT_END
 95
        2
302
GRIDFORMAT
  1
GRIDFORMAT_BEGIN
 90
        0
 91
        1
 62
     0
 92
       -2
340
14
 93
        0
 40
0.045
309
GRIDFORMAT_END
 95
        4
302
GRIDFORMAT
  1
GRIDFORMAT_BEGIN
 90
        0
 91
        1
 62
     0
 92
       -2
340
14
 93
        0
 40
0.045
309
GRIDFORMAT_END
 95
        8
302
GRIDFORMAT
  1
GRIDFORMAT_BEGIN
 90
        0
 91
        1
 62
     0
 92
       -2
340
14
 93
        0
 40
0.045
309
GRIDFORMAT_END
 95
       16
302
GRIDFORMAT
  1
GRIDFORMAT_BEGIN
 90
        0
 91
        1
 62
     0
 92
       -2
340
14
 93
        0
 40
0.045
309
GRIDFORMAT_END
 95
       32
302
GRIDFORMAT
  1
GRIDFORMAT_BEGIN
 90
        0
 91
        1
 62
     0
 92
       -2
340
14
 93
        0
 40
0.045
309
GRIDFORMAT_END
309
TABLEFORMAT_END
  1
CELLSTYLE_BEGIN
 90
        1
 91
        1
300
_TITLE
309
CELLSTYLE_END
300
CELLSTYLE
  1
TABLEFORMAT_BEGIN
 90
        5
170
     1
 91
        0
 92
        0
 62
   257
 93
        1
300
CONTENTFORMAT
  1
CONTENTFORMAT_BEGIN
 90
        0
 91
        0
 92
        4
 93
        0
300

 40
0.0
140
1.0
 94
        5
 62
     0
340
11
144
4.5
309
CONTENTFORMAT_END
171
     1
301
MARGIN
  1
CELLMARGIN_BEGIN
 40
1.5
 40
1.5
 40
1.5
 40
1.5
 40
1.5
 40
1.5
309
CELLMARGIN_END
 94
        6
 95
        1
302
GRIDFORMAT
  1
GRIDFORMAT_BEGIN
 90
        0
 91
        1
 62
     0
 92
       -2
340
14
 93
        0
 40
0.045
309
GRIDFORMAT_END
 95
        2
302
GRIDFORMAT
  1
GRIDFORMAT_BEGIN
 90
        0
 91
        1
 62
     0
 92
       -2
340
14
 93
        0
 40
0.045
309
GRIDFORMAT_END
 95
        4
302
GRIDFORMAT
  1
GRIDFORMAT_BEGIN
 90
        0
 91
        1
 62
     0
 92
       -2
340
14
 93
        0
 40
0.045
309
GRIDFORMAT_END
 95
        8
302
GRIDFORMAT
  1
GRIDFORMAT_BEGIN
 90
        0
 91
        1
 62
     0
 92
       -2
340
14
 93
        0
 40
0.045
309
GRIDFORMAT_END
 95
       16
302
GRIDFORMAT
  1
GRIDFORMAT_BEGIN
 90
        0
 91
        1
 62
     0
 92
       -2
340
14
 93
        0
 40
0.045
309
GRIDFORMAT_END
 95
       32
302
GRIDFORMAT
  1
GRIDFORMAT_BEGIN
 90
        0
 91
        1
 62
     0
 92
       -2
340
14
 93
        0
 40
0.045
309
GRIDFORMAT_END
309
TABLEFORMAT_END
  1
CELLSTYLE_BEGIN
 90
        2
 91
        1
300
_HEADER
309
CELLSTYLE_END
300
CELLSTYLE
  1
TABLEFORMAT_BEGIN
 90
        5
170
     1
 91
        0
 92
        0
 62
   257
 93
        1
300
CONTENTFORMAT
  1
CONTENTFORMAT_BEGIN
 90
        0
 91
        0
 92
        4
 93
        0
300

 40
0.0
140
1.0
 94
        2
 62
     0
340
11
144
4.5
309
CONTENTFORMAT_END
171
     1
301
MARGIN
  1
CELLMARGIN_BEGIN
 40
1.5
 40
1.5
 40
1.5
 40
1.5
 40
1.5
 40
1.5
309
CELLMARGIN_END
 94
        6
 95
        1
302
GRIDFORMAT
  1
GRIDFORMAT_BEGIN
 90
        0
 91
        1
 62
     0
 92
       -2
340
14
 93
        0
 40
0.045
309
GRIDFORMAT_END
 95
        2
302
GRIDFORMAT
  1
GRIDFORMAT_BEGIN
 90
        0
 91
        1
 62
     0
 92
       -2
340
14
 93
        0
 40
0.045
309
GRIDFORMAT_END
 95
        4
302
GRIDFORMAT
  1
GRIDFORMAT_BEGIN
 90
        0
 91
        1
 62
     0
 92
       -2
340
14
 93
        0
 40
0.045
309
GRIDFORMAT_END
 95
        8
302
GRIDFORMAT
  1
GRIDFORMAT_BEGIN
 90
        0
 91
        1
 62
     0
 92
       -2
340
14
 93
        0
 40
0.045
309
GRIDFORMAT_END
 95
       16
302
GRIDFORMAT
  1
GRIDFORMAT_BEGIN
 90
        0
 91
        1
 62
     0
 92
       -2
340
14
 93
        0
 40
0.045
309
GRIDFORMAT_END
 95
       32
302
GRIDFORMAT
  1
GRIDFORMAT_BEGIN
 90
        0
 91
        1
 62
     0
 92
       -2
340
14
 93
        0
 40
0.045
309
GRIDFORMAT_END
309
TABLEFORMAT_END
  1
CELLSTYLE_BEGIN
 90
        3
 91
        2
300
_DATA
309
CELLSTYLE_END
  0
ENDSEC
  0
EOF
