  0
SECTION
  2
HEADER
  9
$ACADVER
  1
AC1032
  9
$ACADMAINTVER
 90
        4
  9
$DWGCODEPAGE
  3
ANSI_932
  9
$LASTSAVEDBY
  1
9128
  9
$REQUIREDVERSIONS
160
                 0
  9
$INSBASE
 10
0.0
 20
0.0
 30
0.0
  9
$EXTMIN
 10
164.0139240963068
 20
59.11095878051771
 30
0.0
  9
$EXTMAX
 10
328.9861166176948
 20
218.6927070547209
 30
0.0
  9
$LIMMIN
 10
0.0
 20
0.0
  9
$LIMMAX
 10
431.8
 20
279.4
  9
$ORTHOMODE
 70
     0
  9
$REGENMODE
 70
     1
  9
$FILLMODE
 70
     1
  9
$QTEXTMODE
 70
     0
  9
$MIRRTEXT
 70
     1
  9
$LTSCALE
 40
1.0
  9
$ATTMODE
 70
     1
  9
$TEXTSIZE
 40
3.5
  9
$TRACEWID
 40
1.0
  9
$TEXTSTYLE
  7
Standard
  9
$CLAYER
  8
0
  9
$CELTYPE
  6
ByLayer
  9
$CECOLOR
 62
   256
  9
$CELTSCALE
 40
1.0
  9
$DISPSILH
 70
     0
  9
$DIMSCALE
 40
1.0
  9
$DIMASZ
 40
3.302
  9
$DIMEXO
 40
1.0
  9
$DIMDLI
 40
3.75
  9
$DIMRND
 40
0.0
  9
$DIMDLE
 40
0.0
  9
$DIMEXE
 40
1.0
  9
$DIMTP
 40
0.0
  9
$DIMTM
 40
0.0
  9
$DIMTXT
 40
3.5
  9
$DIMCEN
 40
2.5
  9
$DIMTSZ
 40
0.0
  9
$DIMTOL
 70
     0
  9
$DIMLIM
 70
     0
  9
$DIMTIH
 70
     1
  9
$DIMTOH
 70
     1
  9
$DIMSE1
 70
     0
  9
$DIMSE2
 70
     0
  9
$DIMTAD
 70
     1
  9
$DIMZIN
 70
     1
  9
$DIMBLK
  1

  9
$DIMASO
 70
     1
  9
$DIMSHO
 70
     1
  9
$DIMPOST
  1

  9
$DIMAPOST
  1

  9
$DIMALT
 70
     0
  9
$DIMALTD
 70
     3
  9
$DIMALTF
 40
0.0393700787401575
  9
$DIMLFAC
 40
2.0
  9
$DIMTOFL
 70
     1
  9
$DIMTVP
 40
0.0
  9
$DIMTIX
 70
     0
  9
$DIMSOXD
 70
     0
  9
$DIMSAH
 70
     0
  9
$DIMBLK1
  1

  9
$DIMBLK2
  1

  9
$DIMSTYLE
  2
ISO-25
  9
$DIMCLRD
 70
     0
  9
$DIMCLRE
 70
     0
  9
$DIMCLRT
 70
     0
  9
$DIMTFAC
 40
1.0
  9
$DIMGAP
 40
1.524
  9
$DIMJUST
 70
     0
  9
$DIMSD1
 70
     0
  9
$DIMSD2
 70
     0
  9
$DIMTOLJ
 70
     0
  9
$DIMTZIN
 70
     1
  9
$DIMALTZ
 70
     0
  9
$DIMALTTZ
 70
     0
  9
$DIMUPT
 70
     0
  9
$DIMDEC
 70
     2
  9
$DIMTDEC
 70
     2
  9
$DIMALTU
 70
     2
  9
$DIMALTTD
 70
     3
  9
$DIMTXSTY
  7
Standard
  9
$DIMAUNIT
 70
     0
  9
$DIMADEC
 70
     2
  9
$DIMALTRND
 40
0.0
  9
$DIMAZIN
 70
     0
  9
$DIMDSEP
 70
    44
  9
$DIMATFIT
 70
     3
  9
$DIMFRAC
 70
     0
  9
$DIMLDRBLK
  1

  9
$DIMLUNIT
 70
     2
  9
$DIMLWD
 70
    -2
  9
$DIMLWE
 70
    -2
  9
$DIMTMOVE
 70
     0
  9
$DIMFXL
 40
1.0
  9
$DIMFXLON
 70
     0
  9
$DIMJOGANG
 40
0.7853981633974483
  9
$DIMTFILL
 70
     0
  9
$DIMTFILLCLR
 70
     0
  9
$DIMARCSYM
 70
     0
  9
$DIMLTYPE
  6

  9
$DIMLTEX1
  6

  9
$DIMLTEX2
  6

  9
$DIMTXTDIRECTION
 70
     0
  9
$LUNITS
 70
     2
  9
$LUPREC
 70
     2
  9
$SKETCHINC
 40
1.0
  9
$FILLETRAD
 40
10.0
  9
$AUNITS
 70
     0
  9
$AUPREC
 70
     2
  9
$MENU
  1
.
  9
$ELEVATION
 40
0.0
  9
$PELEVATION
 40
0.0
  9
$THICKNESS
 40
0.0
  9
$LIMCHECK
 70
     0
  9
$CHAMFERA
 40
0.0
  9
$CHAMFERB
 40
0.0
  9
$CHAMFERC
 40
0.0
  9
$CHAMFERD
 40
0.0
  9
$SKPOLY
 70
     0
  9
$TDCREATE
 40
2459606.462038009
  9
$TDUCREATE
 40
2459606.087038009
  9
$TDUPDATE
 40
2459608.569619792
  9
$TDUUPDATE
 40
2459608.194619792
  9
$TDINDWG
 40
0.0047462037
  9
$TDUSRTIMER
 40
0.0000710995
  9
$USRTIMER
 70
     1
  9
$ANGBASE
 50
0.0
  9
$ANGDIR
 70
     0
  9
$PDMODE
 70
     0
  9
$PDSIZE
 40
-1.0
  9
$PLINEWID
 40
0.0
  9
$SPLFRAME
 70
     0
  9
$SPLINETYPE
 70
     6
  9
$SPLINESEGS
 70
     8
  9
$HANDSEED
  5
2F8
  9
$SURFTAB1
 70
     6
  9
$SURFTAB2
 70
     6
  9
$SURFTYPE
 70
     6
  9
$SURFU
 70
     6
  9
$SURFV
 70
     6
  9
$UCSBASE
  2

  9
$UCSNAME
  2

  9
$UCSORG
 10
0.0
 20
0.0
 30
0.0
  9
$UCSXDIR
 10
1.0
 20
0.0
 30
0.0
  9
$UCSYDIR
 10
0.0
 20
1.0
 30
0.0
  9
$UCSORTHOREF
  2

  9
$UCSORTHOVIEW
 70
     0
  9
$UCSORGTOP
 10
0.0
 20
0.0
 30
0.0
  9
$UCSORGBOTTOM
 10
0.0
 20
0.0
 30
0.0
  9
$UCSORGLEFT
 10
0.0
 20
0.0
 30
0.0
  9
$UCSORGRIGHT
 10
0.0
 20
0.0
 30
0.0
  9
$UCSORGFRONT
 10
0.0
 20
0.0
 30
0.0
  9
$UCSORGBACK
 10
0.0
 20
0.0
 30
0.0
  9
$PUCSBASE
  2

  9
$PUCSNAME
  2

  9
$PUCSORG
 10
0.0
 20
0.0
 30
0.0
  9
$PUCSXDIR
 10
1.0
 20
0.0
 30
0.0
  9
$PUCSYDIR
 10
0.0
 20
1.0
 30
0.0
  9
$PUCSORTHOREF
  2

  9
$PUCSORTHOVIEW
 70
     0
  9
$PUCSORGTOP
 10
0.0
 20
0.0
 30
0.0
  9
$PUCSORGBOTTOM
 10
0.0
 20
0.0
 30
0.0
  9
$PUCSORGLEFT
 10
0.0
 20
0.0
 30
0.0
  9
$PUCSORGRIGHT
 10
0.0
 20
0.0
 30
0.0
  9
$PUCSORGFRONT
 10
0.0
 20
0.0
 30
0.0
  9
$PUCSORGBACK
 10
0.0
 20
0.0
 30
0.0
  9
$USERI1
 70
     0
  9
$USERI2
 70
     0
  9
$USERI3
 70
     0
  9
$USERI4
 70
     0
  9
$USERI5
 70
     0
  9
$USERR1
 40
0.0
  9
$USERR2
 40
0.0
  9
$USERR3
 40
0.0
  9
$USERR4
 40
0.0
  9
$USERR5
 40
0.0
  9
$WORLDVIEW
 70
     1
  9
$SHADEDGE
 70
     3
  9
$SHADEDIF
 70
    70
  9
$TILEMODE
 70
     1
  9
$MAXACTVP
 70
    64
  9
$PINSBASE
 10
0.0
 20
0.0
 30
0.0
  9
$PLIMCHECK
 70
     0
  9
$PEXTMIN
 10
1.000000000000000E+20
 20
1.000000000000000E+20
 30
1.000000000000000E+20
  9
$PEXTMAX
 10
-1.000000000000000E+20
 20
-1.000000000000000E+20
 30
-1.000000000000000E+20
  9
$PLIMMIN
 10
0.0
 20
0.0
  9
$PLIMMAX
 10
0.0
 20
0.0
  9
$UNITMODE
 70
     0
  9
$VISRETAIN
 70
     1
  9
$PLINEGEN
 70
     0
  9
$PSLTSCALE
 70
     1
  9
$TREEDEPTH
 70
  3020
  9
$CMLSTYLE
  2
Standard
  9
$CMLJUST
 70
     0
  9
$CMLSCALE
 40
20.0
  9
$PROXYGRAPHICS
 70
     1
  9
$MEASUREMENT
 70
     1
  9
$CELWEIGHT
370
    -1
  9
$ENDCAPS
280
     0
  9
$JOINSTYLE
280
     0
  9
$LWDISPLAY
290
     1
  9
$INSUNITS
 70
     4
  9
$HYPERLINKBASE
  1

  9
$STYLESHEET
  1

  9
$XEDIT
290
     1
  9
$CEPSNTYPE
380
     0
  9
$PSTYLEMODE
290
     1
  9
$FINGERPRINTGUID
  2
{e73df949-8be1-4c3c-84a2-4ef4e38ded1b}
  9
$VERSIONGUID
  2
{FAEB1C32-E019-11D5-929B-00C0DF256EC4}
  9
$EXTNAMES
290
     1
  9
$PSVPSCALE
 40
0.0
  9
$OLESTARTUP
290
     0
  9
$SORTENTS
280
   127
  9
$INDEXCTL
280
     0
  9
$HIDETEXT
280
     1
  9
$XCLIPFRAME
280
     2
  9
$HALOGAP
280
     0
  9
$OBSCOLOR
 70
   257
  9
$OBSLTYPE
280
     0
  9
$INTERSECTIONDISPLAY
280
     0
  9
$INTERSECTIONCOLOR
 70
   257
  9
$DIMASSOC
280
     2
  9
$PROJECTNAME
  1

  9
$CAMERADISPLAY
290
     0
  9
$LENSLENGTH
 40
50.0
  9
$CAMERAHEIGHT
 40
0.0
  9
$STEPSPERSEC
 40
2.0
  9
$STEPSIZE
 40
6.0
  9
$3DDWFPREC
 40
2.0
  9
$PSOLWIDTH
 40
0.25
  9
$PSOLHEIGHT
 40
4.0
  9
$LOFTANG1
 40
1.570796326794897
  9
$LOFTANG2
 40
1.570796326794897
  9
$LOFTMAG1
 40
0.0
  9
$LOFTMAG2
 40
0.0
  9
$LOFTPARAM
 70
     7
  9
$LOFTNORMALS
280
     1
  9
$LATITUDE
 40
37.795
  9
$LONGITUDE
 40
-122.394
  9
$NORTHDIRECTION
 40
0.0
  9
$TIMEZONE
 70
 -8000
  9
$LIGHTGLYPHDISPLAY
280
     1
  9
$TILEMODELIGHTSYNCH
280
     1
  9
$SOLIDHIST
280
     0
  9
$SHOWHIST
280
     1
  9
$DWFFRAME
280
     2
  9
$DGNFRAME
280
     2
  9
$REALWORLDSCALE
290
     1
  9
$INTERFERECOLOR
 62
   256
  9
$CSHADOW
280
     0
  9
$SHADOWPLANELOCATION
 40
0.0
  0
ENDSEC
  0
SECTION
  2
CLASSES
  0
CLASS
  1
ACDBDICTIONARYWDFLT
  2
AcDbDictionaryWithDefault
  3
ObjectDBX Classes
 90
        0
 91
        3
280
     0
281
     0
  0
CLASS
  1
VISUALSTYLE
  2
AcDbVisualStyle
  3
ObjectDBX Classes
 90
     4095
 91
        3
280
     0
281
     0
  0
CLASS
  1
MATERIAL
  2
AcDbMaterial
  3
ObjectDBX Classes
 90
     1153
 91
        3
280
     0
281
     0
  0
CLASS
  1
SCALE
  2
AcDbScale
  3
ObjectDBX Classes
 90
     1153
 91
        3
280
     0
281
     0
  0
CLASS
  1
TABLESTYLE
  2
AcDbTableStyle
  3
ObjectDBX Classes
 90
     4095
 91
        3
280
     0
281
     0
  0
CLASS
  1
MLEADERSTYLE
  2
AcDbMLeaderStyle
  3
ACDB_MLEADERSTYLE_CLASS
 90
     4095
 91
        3
280
     0
281
     0
  0
CLASS
  1
SUN
  2
AcDbSun
  3
SCENEOE
 90
     1153
 91
        3
280
     0
281
     0
  0
CLASS
  1
ACDBPLACEHOLDER
  2
AcDbPlaceHolder
  3
ObjectDBX Classes
 90
        0
 91
        1
280
     0
281
     0
  0
CLASS
  1
LAYOUT
  2
AcDbLayout
  3
ObjectDBX Classes
 90
        0
 91
        1
280
     0
281
     0
  0
CLASS
  1
DICTIONARYVAR
  2
AcDbDictionaryVar
  3
ObjectDBX Classes
 90
        0
 91
        3
280
     0
281
     0
  0
CLASS
  1
CELLSTYLEMAP
  2
AcDbCellStyleMap
  3
ObjectDBX Classes
 90
     1152
 91
        3
280
     0
281
     0
  0
ENDSEC
  0
SECTION
  2
TABLES
  0
TABLE
  2
VPORT
  5
8
330
0
100
AcDbSymbolTable
 70
     1
  0
VPORT
  5
29
330
8
100
AcDbSymbolTableRecord
100
AcDbViewportTableRecord
  2
*Active
 70
     0
 10
0.0
 20
0.0
 11
1.0
 21
1.0
 12
237.1250706932853
 22
139.5807917643961
 13
0.0
 23
0.0
 14
10.0
 24
10.0
 15
10.0
 25
10.0
 16
0.0
 26
0.0
 36
1.0
 17
0.0
 27
0.0
 37
0.0
 40
452.886705443298
 41
0.9324116743471582
 42
50.0
 43
0.0
 44
0.0
 50
0.0
 51
0.0
 71
    16
 72
  2000
 73
     1
 74
     3
 75
     0
 76
     0
 77
     0
 78
     0
281
     0
 65
     1
110
0.0
120
0.0
130
0.0
111
1.0
121
0.0
131
0.0
112
0.0
122
1.0
132
0.0
 79
     0
146
0.0
348
2CD
 60
     3
 61
     5
292
     1
282
     1
141
0.0
142
0.0
 63
   256
361
2F3
  0
ENDTAB
  0
TABLE
  2
LTYPE
  5
5
330
0
100
AcDbSymbolTable
 70
     6
  0
LTYPE
  5
14
330
5
100
AcDbSymbolTableRecord
100
AcDbLinetypeTableRecord
  2
ByBlock
 70
     0
  3

 72
    65
 73
     0
 40
0.0
  0
LTYPE
  5
15
330
5
100
AcDbSymbolTableRecord
100
AcDbLinetypeTableRecord
  2
ByLayer
 70
     0
  3

 72
    65
 73
     0
 40
0.0
  0
LTYPE
  5
16
330
5
100
AcDbSymbolTableRecord
100
AcDbLinetypeTableRecord
  2
Continuous
 70
     0
  3
Solid line
 72
    65
 73
     0
 40
0.0
  0
LTYPE
  5
6E
330
5
100
AcDbSymbolTableRecord
100
AcDbLinetypeTableRecord
  2
HIDDEN
 70
     0
  3
Hidden __ __ __ __ __ __ __ __ __ __ __ __ __ __
 72
    65
 73
     2
 40
1.905
 49
1.27
 74
     0
 49
-0.635
 74
     0
  0
LTYPE
  5
6F
330
5
100
AcDbSymbolTableRecord
100
AcDbLinetypeTableRecord
  2
PHANTOM
 70
     0
  3
Phantom ______  __  __  ______  __  __  ______
 72
    65
 73
     6
 40
12.7
 49
6.35
 74
     0
 49
-1.27
 74
     0
 49
1.27
 74
     0
 49
-1.27
 74
     0
 49
1.27
 74
     0
 49
-1.27
 74
     0
  0
LTYPE
  5
70
330
5
100
AcDbSymbolTableRecord
100
AcDbLinetypeTableRecord
  2
CENTER
 70
     0
  3
Center ____ _ ____ _ ____ _ ____ _ ____ _ ____
 72
    65
 73
     4
 40
10.16
 49
6.35
 74
     0
 49
-1.27
 74
     0
 49
1.27
 74
     0
 49
-1.27
 74
     0
  0
LTYPE
  5
71
330
5
100
AcDbSymbolTableRecord
100
AcDbLinetypeTableRecord
  2
CENTERX2
 70
     0
  3
Center (2x) ________  __  ________  __  _____
 72
    65
 73
     4
 40
20.32
 49
12.7
 74
     0
 49
-2.54
 74
     0
 49
2.54
 74
     0
 49
-2.54
 74
     0
  0
LTYPE
  5
72
330
5
100
AcDbSymbolTableRecord
100
AcDbLinetypeTableRecord
  2
DOT2
 70
     0
  3
Dot (.5x) ........................................
 72
    65
 73
     2
 40
0.635
 49
0.0
 74
     0
 49
-0.635
 74
     0
  0
ENDTAB
  0
TABLE
  2
LAYER
  5
2
102
{ACAD_XDICTIONARY
360
2BA
102
}
330
0
100
AcDbSymbolTable
 70
     1
  0
LAYER
  5
10
330
2
100
AcDbSymbolTableRecord
100
AcDbLayerTableRecord
  2
0
 70
     0
 62
     7
  6
Continuous
370
    -3
390
F
347
2E4
348
0
  0
ENDTAB
  0
TABLE
  2
STYLE
  5
3
330
0
100
AcDbSymbolTable
 70
     1
  0
STYLE
  5
11
330
3
100
AcDbSymbolTableRecord
100
AcDbTextStyleTableRecord
  2
Standard
 70
     0
 40
0.0
 41
1.0
 50
0.0
 71
     0
 42
3.5
  3
txt
  4
bigfont
  0
ENDTAB
  0
TABLE
  2
VIEW
  5
6
330
0
100
AcDbSymbolTable
 70
     0
  0
ENDTAB
  0
TABLE
  2
UCS
  5
7
330
0
100
AcDbSymbolTable
 70
     0
  0
ENDTAB
  0
TABLE
  2
APPID
  5
9
330
0
100
AcDbSymbolTable
 70
     2
  0
APPID
  5
12
330
9
100
AcDbSymbolTableRecord
100
AcDbRegAppTableRecord
  2
ACAD
 70
     0
  0
APPID
  5
2F4
330
9
100
AcDbSymbolTableRecord
100
AcDbRegAppTableRecord
  2
PLOTTRANSPARENCY
 70
     0
  0
ENDTAB
  0
TABLE
  2
DIMSTYLE
  5
A
330
0
100
AcDbSymbolTable
 70
     2
100
AcDbDimStyleTable
  0
DIMSTYLE
105
27
330
A
100
AcDbSymbolTableRecord
100
AcDbDimStyleTableRecord
  2
ISO-25
 70
     0
 41
2.5
 42
0.625
 43
3.75
 44
1.25
 73
     0
 74
     0
 77
     1
 78
     8
140
2.5
141
2.5
143
0.03937007874016
147
0.625
171
     3
172
     1
178
     0
271
     2
272
     2
274
     3
278
    44
283
     0
284
     8
340
11
  0
DIMSTYLE
105
2B2
330
A
100
AcDbSymbolTableRecord
100
AcDbDimStyleTableRecord
  2
Standard
 70
     0
178
     0
340
11
  0
ENDTAB
  0
TABLE
  2
BLOCK_RECORD
  5
1
330
0
100
AcDbSymbolTable
 70
     1
  0
BLOCK_RECORD
  5
1F
330
1
100
AcDbSymbolTableRecord
100
AcDbBlockTableRecord
  2
*Model_Space
340
22
 70
     0
280
     1
281
     0
  0
BLOCK_RECORD
  5
1B
330
1
100
AcDbSymbolTableRecord
100
AcDbBlockTableRecord
  2
*Paper_Space
340
1E
 70
     0
280
     1
281
     0
  0
BLOCK_RECORD
  5
23
330
1
100
AcDbSymbolTableRecord
100
AcDbBlockTableRecord
  2
*Paper_Space0
340
26
 70
     0
280
     1
281
     0
  0
ENDTAB
  0
ENDSEC
  0
SECTION
  2
BLOCKS
  0
BLOCK
  5
20
330
1F
100
AcDbEntity
  8
0
100
AcDbBlockBegin
  2
*Model_Space
 70
     0
 10
0.0
 20
0.0
 30
0.0
  3
*Model_Space
  1

  0
ENDBLK
  5
21
330
1F
100
AcDbEntity
  8
0
100
AcDbBlockEnd
  0
BLOCK
  5
1C
330
1B
100
AcDbEntity
 67
     1
  8
0
100
AcDbBlockBegin
  2
*Paper_Space
 70
     0
 10
0.0
 20
0.0
 30
0.0
  3
*Paper_Space
  1

  0
ENDBLK
  5
1D
330
1B
100
AcDbEntity
 67
     1
  8
0
100
AcDbBlockEnd
  0
BLOCK
  5
24
330
23
100
AcDbEntity
  8
0
100
AcDbBlockBegin
  2
*Paper_Space0
 70
     0
 10
0.0
 20
0.0
 30
0.0
  3
*Paper_Space0
  1

  0
ENDBLK
  5
25
330
23
100
AcDbEntity
  8
0
100
AcDbBlockEnd
  0
ENDSEC
  0
SECTION
  2
ENTITIES
  0
LINE
  5
73
330
1F
100
AcDbEntity
  8
0
  6
Continuous
 62
     7
370
    25
100
AcDbLine
 10
198.8468096520912
 20
70.57877223039432
 30
0.0
 11
196.4846914385412
 21
71.14183871351757
 31
0.0
  0
LINE
  5
74
330
1F
100
AcDbEntity
  8
0
  6
Continuous
 62
     7
370
    25
100
AcDbLine
 10
195.5571845836914
 20
67.25085798442026
 30
0.0
 11
198.9394557343555
 21
66.44461403318654
 31
0.0
  0
LINE
  5
75
330
1F
100
AcDbEntity
  8
0
  6
Continuous
 62
     7
370
    25
100
AcDbLine
 10
212.988945275823
 20
66.91851819254971
 30
0.0
 11
210.6268270622729
 21
67.48158467567296
 31
0.0
  0
LINE
  5
76
330
1F
100
AcDbEntity
  8
0
  6
Continuous
 62
     7
370
    25
100
AcDbLine
 10
209.6993202074231
 20
63.59060394657565
 30
0.0
 11
213.0815913580873
 21
62.78435999534192
 31
0.0
  0
SPLINE
  5
77
330
1F
100
AcDbEntity
  8
0
  6
Continuous
 62
     7
370
    25
100
AcDbSpline
210
0.0
220
0.0
230
1.0
 70
     8
 71
     3
 72
    18
 73
    14
 74
     0
 42
0.000000001
 43
0.00000001
 40
0.0
 40
0.0
 40
0.0
 40
0.0
 40
0.0217970815498383
 40
0.1173728333957104
 40
0.2153212725890984
 40
0.3170131477790246
 40
0.4219778877656385
 40
0.5289676387604708
 40
0.637459412271754
 40
0.7477301305955948
 40
0.8481010235160679
 40
0.9453017407547067
 40
1.0
 40
1.0
 40
1.0
 40
1.0
 10
221.7150041381478
 20
59.52578076441517
 30
0.0
 10
221.7686059807146
 20
59.53071640345503
 30
0.0
 10
222.0572409579668
 20
59.55729381187559
 30
0.0
 10
222.553164097208
 20
59.79868906432475
 30
0.0
 10
223.1594984534035
 20
60.23413975203062
 30
0.0
 10
223.6726865728366
 20
60.8452228447218
 30
0.0
 10
224.0648203221049
 20
61.58516603292789
 30
0.0
 10
224.3041167441553
 20
62.41925143554089
 30
0.0
 10
224.3664896621561
 20
63.29386919696702
 30
0.0
 10
224.2424253128661
 20
64.12889805445671
 30
0.0
 10
223.942235772498
 20
64.8566540821168
 30
0.0
 10
223.5817920625163
 20
65.38996202656023
 30
0.0
 10
223.2785303063608
 20
65.61286003279618
 30
0.0
 10
223.1693268703579
 20
65.69312477988382
 30
0.0
  0
LINE
  5
78
330
1F
100
AcDbEntity
  8
0
  6
Continuous
 62
     7
370
    25
100
AcDbLine
 10
215.9088150063322
 20
60.09012125207688
 30
0.0
 11
216.9492731773018
 21
59.87003632273618
 31
0.0
  0
SPLINE
  5
79
330
1F
100
AcDbEntity
  8
0
  6
Continuous
 62
     7
370
    25
100
AcDbSpline
210
0.0
220
0.0
230
1.0
 70
     8
 71
     3
 72
    13
 73
     9
 74
     0
 42
0.000000001
 43
0.00000001
 40
0.0
 40
0.0
 40
0.0
 40
0.0
 40
0.1078644021616189
 40
0.3089338111317535
 40
0.5109994032602497
 40
0.7138546009274256
 40
0.9166380507402857
 40
1.0
 40
1.0
 40
1.0
 40
1.0
 10
220.7211752981189
 20
62.96432693068177
 30
0.0
 10
220.7565590514328
 20
63.12583018754064
 30
0.0
 10
220.8579014548982
 20
63.5883907325557
 30
0.0
 10
220.8982258561415
 20
64.36951825125217
 30
0.0
 10
220.7854251663529
 20
65.2613369829017
 30
0.0
 10
220.4937487435463
 20
66.06277987819004
 30
0.0
 10
220.1545434071827
 20
66.63955336509707
 30
0.0
 10
219.8729374237821
 20
66.86883678559843
 30
0.0
 10
219.7908979299599
 20
66.93563329159808
 30
0.0
  0
SPLINE
  5
7A
330
1F
100
AcDbEntity
  8
0
  6
Continuous
 62
     7
370
    25
100
AcDbSpline
210
0.0
220
0.0
230
1.0
 70
     8
 71
     3
 72
    15
 73
    11
 74
     0
 42
0.000000001
 43
0.00000001
 40
0.0
 40
0.0
 40
0.0
 40
0.0
 40
0.0849955898291488
 40
0.228899450654372
 40
0.3733374809990365
 40
0.5202300943592438
 40
0.6697590986874804
 40
0.8208631952156389
 40
0.9651363451671338
 40
1.0
 40
1.0
 40
1.0
 40
1.0
 10
216.8474537184976
 20
59.89396876653566
 30
0.0
 10
216.9836253134535
 20
59.86638231633754
 30
0.0
 10
217.3503455555602
 20
59.79208995236259
 30
0.0
 10
217.9737619364873
 20
59.84526773078197
 30
0.0
 10
218.6757459641745
 20
60.10082347335913
 30
0.0
 10
219.3306125626524
 20
60.55004731699425
 30
0.0
 10
219.9076876548527
 20
61.17057977715538
 30
0.0
 10
220.3662914403775
 20
61.92076017561285
 30
0.0
 10
220.6110180337076
 20
62.54527905404449
 30
0.0
 10
220.7032291458039
 20
62.89605819632644
 30
0.0
 10
220.7211752981189
 20
62.96432693068177
 30
0.0
  0
LINE
  5
7B
330
1F
100
AcDbEntity
  8
0
  6
Continuous
 62
     7
370
    25
100
AcDbLine
 10
212.1177678339026
 20
73.29327796379533
 30
0.0
 11
212.9494044078301
 21
73.09503780873794
 31
0.0
  0
LINE
  5
7C
330
1F
100
AcDbEntity
  8
0
  6
Continuous
 62
     7
370
    25
100
AcDbLine
 10
187.7721496414289
 20
100.7464777667555
 30
0.0
 11
187.7946282582758
 21
100.4983689405485
 31
0.0
  0
SPLINE
  5
7D
330
1F
100
AcDbEntity
  8
0
  6
Continuous
 62
     7
370
    25
100
AcDbSpline
210
0.0
220
0.0
230
1.0
 70
     8
 71
     3
 72
    12
 73
     8
 74
     0
 42
0.000000001
 43
0.00000001
 40
0.0
 40
0.0
 40
0.0
 40
0.0
 40
0.143383109636795
 40
0.3364210808517665
 40
0.5241882072445821
 40
0.741418229076191
 40
1.0
 40
1.0
 40
1.0
 40
1.0
 10
187.8185918182001
 20
100.4976244798043
 30
0.0
 10
187.8253780845124
 20
100.401153502469
 30
0.0
 10
187.8413007622498
 20
100.1748027799314
 30
0.0
 10
188.0321824585966
 20
99.87684723743757
 30
0.0
 10
188.2990624724363
 20
99.62594900585158
 30
0.0
 10
188.6264586529152
 20
99.44417500409133
 30
0.0
 10
188.8888786692393
 20
99.36585209962965
 30
0.0
 10
189.0314918486101
 20
99.32328721231923
 30
0.0
  0
SPLINE
  5
7E
330
1F
100
AcDbEntity
  8
0
  6
Continuous
 62
     7
370
    25
100
AcDbSpline
210
0.0
220
0.0
230
1.0
 70
     8
 71
     3
 72
    11
 73
     7
 74
     0
 42
0.000000001
 43
0.00000001
 40
0.0
 40
0.0
 40
0.0
 40
0.0
 40
0.0675512667875462
 40
0.391542002845473
 40
0.729136774264159
 40
1.0
 40
1.0
 40
1.0
 40
1.0
 10
190.5955503363662
 20
99.17049845184036
 30
0.0
 10
190.6439279150094
 20
99.16962570491368
 30
0.0
 10
190.9243350033675
 20
99.16456707173177
 30
0.0
 10
191.4328184703346
 20
99.22332090803643
 30
0.0
 10
192.0027912918379
 20
99.32279733906994
 30
0.0
 10
192.3103615828185
 20
99.47064739820395
 30
0.0
 10
192.4472806167455
 20
99.53646483199488
 30
0.0
  0
ARC
  5
7F
330
1F
100
AcDbEntity
  8
0
  6
Continuous
 62
     7
370
    25
100
AcDbCircle
 10
190.4697682190225
 20
106.1626131744036
 30
0.0
 40
6.999999999999945
100
AcDbArc
 50
263.6584954661249
 51
276.3415045338774
  0
LINE
  5
80
330
1F
100
AcDbEntity
  8
0
  6
Continuous
 62
     7
370
    25
100
AcDbLine
 10
235.8581847481934
 20
78.35724290747712
 30
0.0
 11
235.8778893789613
 21
78.13975208747006
 31
0.0
  0
LINE
  5
81
330
1F
100
AcDbEntity
  8
0
  6
Continuous
 62
     7
370
    25
100
AcDbLine
 10
241.2281693004548
 20
78.13975208747001
 30
0.0
 11
241.2829220866834
 21
78.74408862718064
 31
0.0
  0
SPLINE
  5
82
330
1F
100
AcDbEntity
  8
0
  6
Continuous
 62
     7
370
    25
100
AcDbSpline
210
0.0
220
0.0
230
1.0
 70
     8
 71
     3
 72
    14
 73
    10
 74
     0
 42
0.000000001
 43
0.00000001
 40
0.0
 40
0.0
 40
0.0
 40
0.0
 40
0.0162819738232161
 40
0.2062990796858991
 40
0.4018336681121348
 40
0.6224932651344262
 40
0.7686502835621338
 40
0.8966761945936126
 40
1.0
 40
1.0
 40
1.0
 40
1.0
 10
238.5929985828528
 20
76.80810881663086
 30
0.0
 10
238.6126460634861
 20
76.80737146632103
 30
0.0
 10
238.8615874520914
 20
76.79802894483234
 30
0.0
 10
239.3509256202248
 20
76.84148908501292
 30
0.0
 10
240.0019667301148
 20
76.9487452339245
 30
0.0
 10
240.504272217067
 20
77.12179555305774
 30
0.0
 10
240.9063398347431
 20
77.4123171208853
 30
0.0
 10
241.1608073914641
 20
77.75936095722916
 30
0.0
 10
241.1984290957693
 20
78.02213472474723
 30
0.0
 10
241.2152314403518
 20
78.1394929218481
 30
0.0
  0
SPLINE
  5
83
330
1F
100
AcDbEntity
  8
0
  6
Continuous
 62
     7
370
    25
100
AcDbSpline
210
0.0
220
0.0
230
1.0
 70
     8
 71
     3
 72
    14
 73
    10
 74
     0
 42
0.000000001
 43
0.00000001
 40
0.0
 40
0.0
 40
0.0
 40
0.0
 40
0.1119030326611211
 40
0.2201125631441544
 40
0.33110708811124
 40
0.4631468262137112
 40
0.6443812915394043
 40
0.8266627943755515
 40
1.0
 40
1.0
 40
1.0
 40
1.0
 10
235.8872973308335
 20
78.12877132867874
 30
0.0
 10
235.9104842697004
 20
77.99999662501686
 30
0.0
 10
235.9560928329726
 20
77.74669759087023
 30
0.0
 10
236.1817305664315
 20
77.44174009302421
 30
0.0
 10
236.4658806694314
 20
77.21210917479046
 30
0.0
 10
236.8363964652839
 20
77.03570561142718
 30
0.0
 10
237.3186639964249
 20
76.90574963305654
 30
0.0
 10
237.9336811491006
 20
76.81785945961805
 30
0.0
 10
238.3769423132414
 20
76.81130407196962
 30
0.0
 10
238.5929985828528
 20
76.80810881663086
 30
0.0
  0
ARC
  5
84
330
1F
100
AcDbEntity
  8
0
  6
Continuous
 62
     7
370
    25
100
AcDbCircle
 10
238.5530293397079
 20
83.80399632132522
 30
0.0
 40
7.000000000000003
100
AcDbArc
 50
263.6584954661238
 51
276.3415045338785
  0
LINE
  5
85
330
1F
100
AcDbEntity
  8
0
  6
Continuous
 62
     7
370
    25
100
AcDbLine
 10
198.3787513592271
 20
98.00128723837223
 30
0.0
 11
198.401229976074
 21
97.75317841216524
 31
0.0
  0
SPLINE
  5
86
330
1F
100
AcDbEntity
  8
0
  6
Continuous
 62
     7
370
    25
100
AcDbSpline
210
0.0
220
0.0
230
1.0
 70
     8
 71
     3
 72
    12
 73
     8
 74
     0
 42
0.000000001
 43
0.00000001
 40
0.0
 40
0.0
 40
0.0
 40
0.0
 40
0.143383109636795
 40
0.3364210808517663
 40
0.5241882072445818
 40
0.7414182290761904
 40
1.0
 40
1.0
 40
1.0
 40
1.0
 10
198.4251935359982
 20
97.75243395142105
 30
0.0
 10
198.4319798023106
 20
97.65596297408572
 30
0.0
 10
198.447902480048
 20
97.42961225154812
 30
0.0
 10
198.6387841763948
 20
97.13165670905427
 30
0.0
 10
198.9056641902345
 20
96.88075847746828
 30
0.0
 10
199.2330603707134
 20
96.69898447570804
 30
0.0
 10
199.4954803870375
 20
96.62066157124636
 30
0.0
 10
199.6380935664082
 20
96.57809668393593
 30
0.0
  0
SPLINE
  5
87
330
1F
100
AcDbEntity
  8
0
  6
Continuous
 62
     7
370
    25
100
AcDbSpline
210
0.0
220
0.0
230
1.0
 70
     8
 71
     3
 72
    13
 73
     9
 74
     0
 42
0.000000001
 43
0.00000001
 40
0.0
 40
0.0
 40
0.0
 40
0.0
 40
0.0509795049374964
 40
0.2954884255550041
 40
0.5502640224441041
 40
0.7963721437508615
 40
0.9756592162665544
 40
1.0
 40
1.0
 40
1.0
 40
1.0
 10
201.2021520541644
 20
96.42530792345705
 30
0.0
 10
201.2505288577552
 20
96.4244481668041
 30
0.0
 10
201.5309314537386
 20
96.41946482810634
 30
0.0
 10
202.0395520246812
 20
96.47592073199505
 30
0.0
 10
202.6426760623934
 20
96.59166653395451
 30
0.0
 10
203.0916355653541
 20
96.78779798325726
 30
0.0
 10
203.4027743540638
 20
96.98422088217504
 30
0.0
 10
203.4902568912098
 20
97.13613737456106
 30
0.0
 10
203.5007141712516
 20
97.15429680792556
 30
0.0
  0
ARC
  5
88
330
1F
100
AcDbEntity
  8
0
  6
Continuous
 62
     7
370
    25
100
AcDbCircle
 10
201.0763699368206
 20
103.4174226460203
 30
0.0
 40
6.999999999999945
100
AcDbArc
 50
263.6584954661249
 51
276.3415045338774
  0
LINE
  5
89
330
1F
100
AcDbEntity
  8
0
  6
Continuous
 62
     7
370
    25
100
AcDbLine
 10
248.7339216084268
 20
85.38975208746972
 30
0.0
 11
248.7658713622634
 21
85.74239904862397
 31
0.0
  0
SPLINE
  5
8A
330
1F
100
AcDbEntity
  8
0
  6
Continuous
 62
     7
370
    25
100
AcDbSpline
210
0.0
220
0.0
230
1.0
 70
     8
 71
     3
 72
    14
 73
    10
 74
     0
 42
0.000000001
 43
0.00000001
 40
0.0
 40
0.0
 40
0.0
 40
0.0
 40
0.1449824266921938
 40
0.3288569272677772
 40
0.5235746095241239
 40
0.6777113075947998
 40
0.8036035371737125
 40
0.9260961207159831
 40
1.0
 40
1.0
 40
1.0
 40
1.0
 10
245.9344898848619
 20
84.06175393508347
 30
0.0
 10
246.1194528204428
 20
84.0605197497378
 30
0.0
 10
246.5389956853356
 20
84.05772030424835
 30
0.0
 10
247.1728169165027
 20
84.13238519264077
 30
0.0
 10
247.7195113746962
 20
84.26336723521244
 30
0.0
 10
248.1462641999437
 20
84.45514672067561
 30
0.0
 10
248.4756078229728
 20
84.73487026447249
 30
0.0
 10
248.6877756057624
 20
85.06093098915612
 30
0.0
 10
248.7061135464238
 20
85.29499726640294
 30
0.0
 10
248.7130141032538
 20
85.3830762758167
 30
0.0
  0
SPLINE
  5
8B
330
1F
100
AcDbEntity
  8
0
  6
Continuous
 62
     7
370
    25
100
AcDbSpline
210
0.0
220
0.0
230
1.0
 70
     8
 71
     3
 72
     9
 73
     5
 74
     0
 42
0.000000001
 43
0.00000001
 40
0.0
 40
0.0
 40
0.0
 40
0.0
 40
0.7285595740213525
 40
1.0
 40
1.0
 40
1.0
 40
1.0
 10
245.4243514827521
 20
84.09260782632715
 30
0.0
 10
245.5450810829622
 20
84.07737330400073
 30
0.0
 10
245.7107910736273
 20
84.0564628350842
 30
0.0
 10
245.8867323184264
 20
84.06062433560845
 30
0.0
 10
245.9344898848619
 20
84.06175393508347
 30
0.0
  0
ARC
  5
8C
330
1F
100
AcDbEntity
  8
0
  6
Continuous
 62
     7
370
    25
100
AcDbCircle
 10
246.0587816476798
 20
91.05399632132489
 30
0.0
 40
7.000000000000013
100
AcDbArc
 50
271.6031128750338
 51
273.9671308008383
  0
ARC
  5
8D
330
1F
100
AcDbEntity
  8
0
  6
Continuous
 62
     7
370
    25
100
AcDbCircle
 10
246.0587816476798
 20
91.05399632132489
 30
0.0
 40
7.000000000000012
100
AcDbArc
 50
263.6584954661247
 51
271.6031128750338
  0
ARC
  5
8E
330
1F
100
AcDbEntity
  8
0
  6
Continuous
 62
     7
370
    25
100
AcDbCircle
 10
246.0587816476798
 20
91.05399632132489
 30
0.0
 40
7.000000000000013
100
AcDbArc
 50
273.9671308008383
 51
276.3415045338776
  0
LINE
  5
8F
330
1F
100
AcDbEntity
  8
0
  6
Continuous
 62
     7
370
    25
100
AcDbLine
 10
187.2893410020849
 20
82.28377019387817
 30
0.0
 11
187.359943762169
 21
81.50448879721905
 31
0.0
  0
SPLINE
  5
90
330
1F
100
AcDbEntity
  8
0
  6
Continuous
 62
     7
370
    25
100
AcDbSpline
210
0.0
220
0.0
230
1.0
 70
     8
 71
     3
 72
    14
 73
    10
 74
     0
 42
0.000000001
 43
0.00000001
 40
0.0
 40
0.0
 40
0.0
 40
0.0
 40
0.0338106092147673
 40
0.2208062686283301
 40
0.4131782844247039
 40
0.630042965197646
 40
0.7739169479572793
 40
0.899941321075375
 40
1.0
 40
1.0
 40
1.0
 40
1.0
 10
190.0053922244025
 20
80.17509982633322
 30
0.0
 10
190.0468278442014
 20
80.17339230291115
 30
0.0
 10
190.3174306167805
 20
80.16224101388735
 30
0.0
 10
190.8288009262055
 20
80.20509557629812
 30
0.0
 10
191.4801344407848
 20
80.31274623695883
 30
0.0
 10
191.9826778635997
 20
80.48487446816475
 30
0.0
 10
192.384762814711
 20
80.77368660317933
 30
0.0
 10
192.6397875201855
 20
81.11772569870939
 30
0.0
 10
192.6784820271274
 20
81.37838160380032
 30
0.0
 10
192.6956072437735
 20
81.49374135890648
 30
0.0
  0
SPLINE
  5
91
330
1F
100
AcDbEntity
  8
0
  6
Continuous
 62
     7
370
    25
100
AcDbSpline
210
0.0
220
0.0
230
1.0
 70
     8
 71
     3
 72
    14
 73
    10
 74
     0
 42
0.000000001
 43
0.00000001
 40
0.0
 40
0.0
 40
0.0
 40
0.0
 40
0.112265838783596
 40
0.2227408882041288
 40
0.3359329746598352
 40
0.4705080530199657
 40
0.6550432344187991
 40
0.841145097495336
 40
1.0
 40
1.0
 40
1.0
 40
1.0
 10
187.3708506263087
 20
81.48949174132754
 30
0.0
 10
187.3934100731448
 20
81.36286166352147
 30
0.0
 10
187.4381691136518
 20
81.11162142597914
 30
0.0
 10
187.6623538463433
 20
80.80806924047518
 30
0.0
 10
187.946062672481
 20
80.5779871033031
 30
0.0
 10
188.3158822699694
 20
80.40135175609889
 30
0.0
 10
188.7973381751805
 20
80.27140601267482
 30
0.0
 10
189.3905242875023
 20
80.18515418787759
 30
0.0
 10
189.8115206006256
 20
80.17827002806544
 30
0.0
 10
190.0053922244025
 20
80.17509982633322
 30
0.0
  0
ARC
  5
92
330
1F
100
AcDbEntity
  8
0
  6
Continuous
 62
     7
370
    25
100
AcDbCircle
 10
190.0350837229159
 20
87.16873303107425
 30
0.0
 40
6.999999999999999
100
AcDbArc
 50
271.6031128750343
 51
276.3415045338776
  0
ARC
  5
93
330
1F
100
AcDbEntity
  8
0
  6
Continuous
 62
     7
370
    25
100
AcDbCircle
 10
190.0350837229159
 20
87.16873303107425
 30
0.0
 40
6.999999999999999
100
AcDbArc
 50
263.6584954661238
 51
271.6031128750343
  0
LINE
  5
94
330
1F
100
AcDbEntity
  8
0
  6
Continuous
 62
     7
370
    25
100
AcDbLine
 10
207.8285383100328
 20
76.6110517664327
 30
0.0
 11
207.8660404165775
 21
76.19712044234475
 31
0.0
  0
LINE
  5
95
330
1F
100
AcDbEntity
  8
0
  6
Continuous
 62
     7
370
    25
100
AcDbLine
 10
213.216320338071
 20
76.19712044234478
 30
0.0
 11
213.2419795217295
 21
76.48033492935205
 31
0.0
  0
SPLINE
  5
96
330
1F
100
AcDbEntity
  8
0
  6
Continuous
 62
     7
370
    25
100
AcDbSpline
210
0.0
220
0.0
230
1.0
 70
     8
 71
     3
 72
    14
 73
    10
 74
     0
 42
0.000000001
 43
0.00000001
 40
0.0
 40
0.0
 40
0.0
 40
0.0
 40
0.1501129007702886
 40
0.3168922117681737
 40
0.4890675119021281
 40
0.6858019629718727
 40
0.8131185511083013
 40
0.925203559797014
 40
1.0
 40
1.0
 40
1.0
 40
1.0
 10
210.0667353806821
 20
74.88134760853323
 30
0.0
 10
210.273813111068
 20
74.87174106559227
 30
0.0
 10
210.7109595498696
 20
74.85146140525406
 30
0.0
 10
211.3855806437869
 20
74.90077528750349
 30
0.0
 10
212.0338628939804
 20
75.01823124403775
 30
0.0
 10
212.5345515828326
 20
75.197484518294
 30
0.0
 10
212.9325773760838
 20
75.50974316048722
 30
0.0
 10
213.1636154956699
 20
75.85190178749451
 30
0.0
 10
213.1875603551655
 20
76.09509110294884
 30
0.0
 10
213.1971439187673
 20
76.19242390510368
 30
0.0
  0
SPLINE
  5
97
330
1F
100
AcDbEntity
  8
0
  6
Continuous
 62
     7
370
    25
100
AcDbSpline
210
0.0
220
0.0
230
1.0
 70
     8
 71
     3
 72
    14
 73
    10
 74
     0
 42
0.000000001
 43
0.00000001
 40
0.0
 40
0.0
 40
0.0
 40
0.0
 40
0.1408864095624214
 40
0.2657200197128628
 40
0.3953537016593905
 40
0.5505613333235333
 40
0.7658005702630127
 40
0.9759690752367195
 40
1.0
 40
1.0
 40
1.0
 40
1.0
 10
207.8679419585965
 20
76.19302038671263
 30
0.0
 10
207.8964396263357
 20
76.05375922203173
 30
0.0
 10
207.9501878967115
 20
75.79110450935092
 30
0.0
 10
208.186202364079
 20
75.48184874760065
 30
0.0
 10
208.4749104072928
 20
75.25710708439834
 30
0.0
 10
208.8527469036341
 20
75.08204710225577
 30
0.0
 10
209.3485767615073
 20
74.9584584298219
 30
0.0
 10
209.79115523449
 20
74.88774171986661
 30
0.0
 10
210.0410898837683
 20
74.88194264473134
 30
0.0
 10
210.0667353806821
 20
74.88134760853323
 30
0.0
  0
ARC
  5
98
330
1F
100
AcDbEntity
  8
0
  6
Continuous
 62
     7
370
    25
100
AcDbCircle
 10
210.5411803773243
 20
81.86136467619997
 30
0.0
 40
7.000000000000013
100
AcDbArc
 50
263.6584954661234
 51
266.0328691991633
  0
ARC
  5
99
330
1F
100
AcDbEntity
  8
0
  6
Continuous
 62
     7
370
    25
100
AcDbCircle
 10
210.5411803773243
 20
81.86136467619997
 30
0.0
 40
7.000000000000016
100
AcDbArc
 50
268.9929271073104
 51
276.3415045338783
  0
ARC
  5
9A
330
1F
100
AcDbEntity
  8
0
  6
Continuous
 62
     7
370
    25
100
AcDbCircle
 10
210.5411803773243
 20
81.86136467619997
 30
0.0
 40
7.000000000000016
100
AcDbArc
 50
266.0328691991633
 51
268.9929271073104
  0
LINE
  5
9B
330
1F
100
AcDbEntity
  8
0
  6
Continuous
 62
     7
370
    25
100
AcDbLine
 10
206.5797182756696
 20
80.48195907944088
 30
0.0
 11
206.5797182756696
 21
79.51784903548997
 31
0.0
  0
LINE
  5
9C
330
1F
100
AcDbEntity
  8
0
  6
Continuous
 62
     7
370
    25
100
AcDbLine
 10
242.2479409984037
 20
81.57535078745273
 30
0.0
 11
242.2479409984037
 21
82.539460831416
 31
0.0
  0
LINE
  5
9D
330
1F
100
AcDbEntity
  8
0
  6
Continuous
 62
     7
370
    25
100
AcDbLine
 10
196.1099325636521
 20
88.1306649143502
 30
0.0
 11
195.4629370115784
 21
87.96321014337691
 31
0.0
  0
LINE
  5
9E
330
1F
100
AcDbEntity
  8
0
  6
Continuous
 62
     7
370
    25
100
AcDbLine
 10
245.5469326852979
 20
86.69655011047693
 30
0.0
 11
245.5469326852979
 21
87.64583126539831
 31
0.0
  0
LINE
  5
9F
330
1F
100
AcDbEntity
  8
0
  6
Continuous
 62
     7
370
    25
100
AcDbLine
 10
186.7929235249369
 20
85.96918380625522
 30
0.0
 11
186.7929235249369
 21
85.0050737622986
 31
0.0
  0
LINE
  5
A0
330
1F
100
AcDbEntity
  8
0
  6
Continuous
 62
     7
370
    25
100
AcDbLine
 10
249.3009418456588
 20
88.38802645865526
 30
0.0
 11
249.3009418456588
 21
89.35213650261151
 31
0.0
  0
LINE
  5
A1
330
1F
100
AcDbEntity
  8
0
  6
Continuous
 62
     7
370
    25
100
AcDbLine
 10
184.379733572804
 20
101.6244996542275
 30
0.0
 11
202.0574031024677
 21
97.04918210692199
 31
0.0
  0
LINE
  5
A2
330
1F
100
AcDbEntity
  8
0
  6
Continuous
 62
     7
370
    25
100
AcDbLine
 10
195.484075498106
 20
115.7591921847022
 30
0.0
 11
195.2719434637501
 21
115.7042883741345
 31
0.0
  0
LINE
  5
A3
330
1F
100
AcDbEntity
  8
0
  6
Continuous
 62
     7
370
    25
100
AcDbLine
 10
184.8774737803078
 20
118.5043827130855
 30
0.0
 11
184.6653417459519
 21
118.4494789025178
 31
0.0
  0
LINE
  5
A4
330
1F
100
AcDbEntity
  8
0
  6
Continuous
 62
     7
370
    25
100
AcDbLine
 10
242.2479409984038
 20
81.0565187995983
 30
0.0
 11
242.3026908449567
 21
81.1330666251316
 31
0.0
  0
SPLINE
  5
A5
330
1F
100
AcDbEntity
  8
0
  6
Continuous
 62
     7
370
    25
100
AcDbSpline
210
0.0
220
0.0
230
1.0
 70
     8
 71
     3
 72
    11
 73
     7
 74
     0
 42
0.000000001
 43
0.00000001
 40
0.0
 40
0.0
 40
0.0
 40
0.0
 40
0.2220255706175779
 40
0.598379013416931
 40
0.9739120760585163
 40
1.0
 40
1.0
 40
1.0
 40
1.0
 10
194.4661644933198
 20
80.5022015488061
 30
0.0
 10
194.6163744227464
 20
80.37900524142137
 30
0.0
 10
195.0212037814808
 20
80.04698003970957
 30
0.0
 10
195.9144352167723
 20
79.55337897357049
 30
0.0
 10
196.6848800042805
 20
79.16779049694357
 30
0.0
 10
197.1727922480902
 20
78.9869113972207
 30
0.0
 10
197.2044853565976
 20
78.97516211032132
 30
0.0
  0
SPLINE
  5
A6
330
1F
100
AcDbEntity
  8
0
  6
Continuous
 62
     7
370
    25
100
AcDbSpline
210
0.0
220
0.0
230
1.0
 70
     8
 71
     3
 72
    13
 73
     9
 74
     0
 42
0.000000001
 43
0.00000001
 40
0.0
 40
0.0
 40
0.0
 40
0.0
 40
0.0971098035525228
 40
0.2832765085122865
 40
0.470438595658997
 40
0.6601211865035886
 40
0.8575591040405672
 40
1.0
 40
1.0
 40
1.0
 40
1.0
 10
210.9182966980293
 20
76.32251331789708
 30
0.0
 10
211.0499807485268
 20
76.31625534401672
 30
0.0
 10
211.4341129029239
 20
76.29800036947938
 30
0.0
 10
212.0898767999694
 20
76.31216414414251
 30
0.0
 10
212.8265202800909
 20
76.38342930832553
 30
0.0
 10
213.4754033708138
 20
76.51664044626455
 30
0.0
 10
213.9503976374109
 20
76.67516337930935
 30
0.0
 10
214.1782615678964
 20
76.85116581920829
 30
0.0
 10
214.273757789274
 20
76.9249272430886
 30
0.0
  0
LINE
  5
A7
330
1F
100
AcDbEntity
  8
0
  6
Continuous
 62
     7
370
    25
100
AcDbLine
 10
206.5797182756697
 20
79.51784903548996
 30
0.0
 11
206.5797182756697
 21
77.58599738291183
 31
0.0
  0
SPLINE
  5
A8
330
1F
100
AcDbEntity
  8
0
  6
Continuous
 62
     7
370
    25
100
AcDbSpline
210
0.0
220
0.0
230
1.0
 70
     8
 71
     3
 72
    14
 73
    10
 74
     0
 42
0.000000001
 43
0.00000001
 40
0.0
 40
0.0
 40
0.0
 40
0.0
 40
0.0314310417913411
 40
0.163142240158446
 40
0.2938862364347067
 40
0.4591452539532463
 40
0.6884729487624511
 40
0.9135407229283646
 40
1.0
 40
1.0
 40
1.0
 40
1.0
 10
206.5958694089482
 20
77.59277578718985
 30
0.0
 10
206.5906233912338
 20
77.56578103433958
 30
0.0
 10
206.5633940334698
 20
77.42566526974758
 30
0.0
 10
206.6943053811224
 20
77.17913544090314
 30
0.0
 10
206.9190085488756
 20
76.95249381772233
 30
0.0
 10
207.2668606817866
 20
76.76478432646232
 30
0.0
 10
207.785452859539
 20
76.60532135169646
 30
0.0
 10
208.3533192321095
 20
76.5095686342648
 30
0.0
 10
208.7111055006941
 20
76.47757622745895
 30
0.0
 10
208.8104032727659
 20
76.46869725417804
 30
0.0
  0
LINE
  5
A9
330
1F
100
AcDbEntity
  8
0
  6
Continuous
 62
     7
370
    25
100
AcDbLine
 10
214.2737577892739
 20
76.9249272430886
 30
0.0
 11
214.5131078961903
 21
77.15612169288423
 31
0.0
  0
SPLINE
  5
AA
330
1F
100
AcDbEntity
  8
0
  6
Continuous
 62
     7
370
    25
100
AcDbSpline
210
0.0
220
0.0
230
1.0
 70
     8
 71
     3
 72
    14
 73
    10
 74
     0
 42
0.000000001
 43
0.00000001
 40
0.0
 40
0.0
 40
0.0
 40
0.0
 40
0.0223126173640939
 40
0.1330707749067089
 40
0.2776566341884809
 40
0.4683227979070537
 40
0.7027649211316033
 40
0.9647147088010639
 40
1.0
 40
1.0
 40
1.0
 40
1.0
 10
214.4981062054655
 20
77.14332054687767
 30
0.0
 10
214.496651750237
 20
77.14213028244873
 30
0.0
 10
214.4879774884434
 20
77.13503163475005
 30
0.0
 10
214.5317826720816
 20
77.16172421548431
 30
0.0
 10
214.6457329104465
 20
77.19938090760812
 30
0.0
 10
214.8791657163292
 20
77.2529020532706
 30
0.0
 10
215.2330701285992
 20
77.29528119042924
 30
0.0
 10
215.5421558836147
 20
77.3057133896507
 30
0.0
 10
215.7114592550086
 20
77.30257550249009
 30
0.0
 10
215.73155755156
 20
77.30220299846857
 30
0.0
  0
SPLINE
  5
AB
330
1F
100
AcDbEntity
  8
0
  6
Continuous
 62
     7
370
    25
100
AcDbSpline
210
0.0
220
0.0
230
1.0
 70
     8
 71
     3
 72
    11
 73
     7
 74
     0
 42
0.000000001
 43
0.00000001
 40
0.0
 40
0.0
 40
0.0
 40
0.0
 40
0.0103821991017138
 40
0.3774789605983958
 40
0.7459269570012218
 40
1.0
 40
1.0
 40
1.0
 40
1.0
 10
237.7166338900503
 20
78.13191152634857
 30
0.0
 10
237.7237763978189
 20
78.13155957588761
 30
0.0
 10
237.9834657355174
 20
78.11876326049337
 30
0.0
 10
238.5139595534629
 20
78.14820065432073
 30
0.0
 10
239.1665023181621
 20
78.21269450926557
 30
0.0
 10
239.5147528642973
 20
78.28777316447632
 30
0.0
 10
239.6568863351076
 20
78.3184154419036
 30
0.0
  0
SPLINE
  5
AC
330
1F
100
AcDbEntity
  8
0
  6
Continuous
 62
     7
370
    25
100
AcDbSpline
210
0.0
220
0.0
230
1.0
 70
     8
 71
     3
 72
    10
 73
     6
 74
     0
 42
0.000000001
 43
0.00000001
 40
0.0
 40
0.0
 40
0.0
 40
0.0
 40
0.2079845630465424
 40
0.6142404431291608
 40
1.0
 40
1.0
 40
1.0
 40
1.0
 10
235.9406790795215
 20
78.3358918034164
 30
0.0
 10
236.0454197409999
 20
78.31126287767232
 30
0.0
 10
236.354750151766
 20
78.23852631472137
 30
0.0
 10
236.9507347963312
 20
78.1568050660664
 30
0.0
 10
237.465777065487
 20
78.14006496898477
 30
0.0
 10
237.7166338900503
 20
78.13191152634857
 30
0.0
  0
SPLINE
  5
AD
330
1F
100
AcDbEntity
  8
0
  6
Continuous
 62
     7
370
    25
100
AcDbSpline
210
0.0
220
0.0
230
1.0
 70
     8
 71
     3
 72
    12
 73
     8
 74
     0
 42
0.000000001
 43
0.00000001
 40
0.0
 40
0.0
 40
0.0
 40
0.0
 40
0.181359465744096
 40
0.3938932483835539
 40
0.6385793257322954
 40
0.8970966885791855
 40
1.0
 40
1.0
 40
1.0
 40
1.0
 10
204.1482955961364
 20
78.08881326558716
 30
0.0
 10
204.1915841651395
 20
78.09858377710995
 30
0.0
 10
204.2856022798959
 20
78.11980427699555
 30
0.0
 10
204.5018051987223
 20
78.144006571897
 30
0.0
 10
204.7650961862145
 20
78.15228548478774
 30
0.0
 10
204.9894310702445
 20
78.14100338697446
 30
0.0
 10
205.1038518218202
 20
78.12648279096734
 30
0.0
 10
205.1364295769701
 20
78.12234850225803
 30
0.0
  0
LINE
  5
AE
330
1F
100
AcDbEntity
  8
0
  6
Continuous
 62
     7
370
    25
100
AcDbLine
 10
204.03007846511
 20
78.05821642062011
 30
0.0
 11
204.1482955961364
 21
78.08881326558716
 31
0.0
  0
SPLINE
  5
AF
330
1F
100
AcDbEntity
  8
0
  6
Continuous
 62
     7
370
    25
100
AcDbSpline
210
0.0
220
0.0
230
1.0
 70
     8
 71
     3
 72
     9
 73
     5
 74
     0
 42
0.000000001
 43
0.00000001
 40
0.0
 40
0.0
 40
0.0
 40
0.0
 40
0.6290687046963918
 40
1.0
 40
1.0
 40
1.0
 40
1.0
 10
239.6568863351076
 20
78.3184154419036
 30
0.0
 10
239.9899526227412
 20
78.4006367858667
 30
0.0
 10
240.5194119411703
 20
78.53134006731955
 30
0.0
 10
241.0225868505908
 20
78.66910063129379
 30
0.0
 10
241.2092301715064
 20
78.7202003357305
 30
0.0
  0
LINE
  5
B0
330
1F
100
AcDbEntity
  8
0
  6
Continuous
 62
     7
370
    25
100
AcDbLine
 10
235.2867624266287
 20
78.50513788709473
 30
0.0
 11
235.9406790795215
 21
78.3358918034164
 31
0.0
  0
SPLINE
  5
B1
330
1F
100
AcDbEntity
  8
0
  6
Continuous
 62
     7
370
    25
100
AcDbSpline
210
0.0
220
0.0
230
1.0
 70
     8
 71
     3
 72
    10
 73
     6
 74
     0
 42
0.000000001
 43
0.00000001
 40
0.0
 40
0.0
 40
0.0
 40
0.0
 40
0.2518068543918707
 40
0.737919219732174
 40
1.0
 40
1.0
 40
1.0
 40
1.0
 10
234.4474345385096
 20
78.59686304044614
 30
0.0
 10
234.5287229920675
 20
78.59626848321236
 30
0.0
 10
234.7669385575952
 20
78.59452613504992
 30
0.0
 10
235.0661479992029
 20
78.55554922297861
 30
0.0
 10
235.2295316105132
 20
78.51821537222467
 30
0.0
 10
235.2867624266287
 20
78.50513788709473
 30
0.0
  0
SPLINE
  5
B2
330
1F
100
AcDbEntity
  8
0
  6
Continuous
 62
     7
370
    25
100
AcDbSpline
210
0.0
220
0.0
230
1.0
 70
     8
 71
     3
 72
    10
 73
     6
 74
     0
 42
0.000000001
 43
0.00000001
 40
0.0
 40
0.0
 40
0.0
 40
0.0
 40
0.285428727533475
 40
0.7587186024261421
 40
1.0
 40
1.0
 40
1.0
 40
1.0
 10
233.582082117196
 20
78.5410451864342
 30
0.0
 10
233.6542403620042
 20
78.55235356677478
 30
0.0
 10
233.8460493755099
 20
78.58241318481623
 30
0.0
 10
234.1541941300845
 20
78.6065254746996
 30
0.0
 10
234.3734132402619
 20
78.5993020833172
 30
0.0
 10
234.4474345385096
 20
78.59686304044614
 30
0.0
  0
LINE
  5
B3
330
1F
100
AcDbEntity
  8
0
  6
Continuous
 62
     7
370
    25
100
AcDbLine
 10
242.2479409984038
 20
79.64349913487459
 30
0.0
 11
242.2479409984038
 21
81.57535078745273
 31
0.0
  0
SPLINE
  5
B4
330
1F
100
AcDbEntity
  8
0
  6
Continuous
 62
     7
370
    25
100
AcDbSpline
210
0.0
220
0.0
230
1.0
 70
     8
 71
     3
 72
    11
 73
     7
 74
     0
 42
0.000000001
 43
0.00000001
 40
0.0
 40
0.0
 40
0.0
 40
0.0
 40
0.1858143497605561
 40
0.5800300892362528
 40
0.8090141806064475
 40
1.0
 40
1.0
 40
1.0
 40
1.0
 10
241.2092301715064
 20
78.7202003357305
 30
0.0
 10
241.3056042720342
 20
78.74964505963281
 30
0.0
 10
241.6064415227698
 20
78.84155844444196
 30
0.0
 10
241.922039581932
 20
79.00928404047708
 30
0.0
 10
242.2005612817621
 20
79.30915387052924
 30
0.0
 10
242.2265748855923
 20
79.53797252646656
 30
0.0
 10
242.2384048508245
 20
79.64203026340597
 30
0.0
  0
LINE
  5
B5
330
1F
100
AcDbEntity
  8
0
  6
Continuous
 62
     7
370
    25
100
AcDbLine
 10
218.8631131654832
 20
63.39474158342562
 30
0.0
 11
222.1940368777722
 21
76.10721607642115
 31
0.0
  0
SPLINE
  5
B6
330
1F
100
AcDbEntity
  8
0
  6
Continuous
 62
     7
370
    25
100
AcDbSpline
210
0.0
220
0.0
230
1.0
 70
     8
 71
     3
 72
    10
 73
     6
 74
     0
 42
0.000000001
 43
0.00000001
 40
0.0
 40
0.0
 40
0.0
 40
0.0
 40
0.2743290832110674
 40
0.7508004498038333
 40
1.0
 40
1.0
 40
1.0
 40
1.0
 10
214.0753860742731
 20
59.91503266431522
 30
0.0
 10
214.2092421535679
 20
59.88815724710376
 30
0.0
 10
214.575587578439
 20
59.81460297755696
 30
0.0
 10
215.0761921345488
 20
59.83547650878143
 30
0.0
 10
215.3950054944382
 20
59.98773619394894
 30
0.0
 10
215.5044878287069
 20
60.04002304213166
 30
0.0
  0
LINE
  5
B7
330
1F
100
AcDbEntity
  8
0
  6
Continuous
 62
     7
370
    25
100
AcDbLine
 10
215.2001156528094
 20
59.90669636213336
 30
0.0
 11
216.0805843920508
 21
60.13457844046643
 31
0.0
  0
SPLINE
  5
B8
330
1F
100
AcDbEntity
  8
0
  6
Continuous
 62
     7
370
    25
100
AcDbSpline
210
0.0
220
0.0
230
1.0
 70
     8
 71
     3
 72
    13
 73
     9
 74
     0
 42
0.000000001
 43
0.00000001
 40
0.0
 40
0.0
 40
0.0
 40
0.0
 40
0.0567235677070668
 40
0.2656696226160847
 40
0.4823017331722241
 40
0.7050042468065875
 40
0.9315805367821406
 40
1.0
 40
1.0
 40
1.0
 40
1.0
 10
216.4924312228262
 20
60.29821774265152
 30
0.0
 10
216.5569294342905
 20
60.32041075929209
 30
0.0
 10
216.859012257917
 20
60.42435362808455
 30
0.0
 10
217.3552551678706
 20
60.80590223607815
 30
0.0
 10
217.9485968837534
 20
61.42468440661161
 30
0.0
 10
218.4399397560265
 20
62.21131147234846
 30
0.0
 10
218.7237924678925
 20
62.89449357612526
 30
0.0
 10
218.8368835336081
 20
63.30056088160117
 30
0.0
 10
218.8631131654832
 20
63.39474158342561
 30
0.0
  0
LINE
  5
B9
330
1F
100
AcDbEntity
  8
0
  6
Continuous
 62
     7
370
    25
100
AcDbLine
 10
245.5469326852979
 20
84.76469845789879
 30
0.0
 11
245.5469326852979
 21
86.69655011047692
 31
0.0
  0
SPLINE
  5
BA
330
1F
100
AcDbEntity
  8
0
  6
Continuous
 62
     7
370
    25
100
AcDbSpline
210
0.0
220
0.0
230
1.0
 70
     8
 71
     3
 72
    14
 73
    10
 74
     0
 42
0.000000001
 43
0.00000001
 40
0.0
 40
0.0
 40
0.0
 40
0.0
 40
0.0107483390591458
 40
0.1999835160564267
 40
0.3903477930241941
 40
0.5815947263291591
 40
0.7703081016948579
 40
0.9312724324418216
 40
1.0
 40
1.0
 40
1.0
 40
1.0
 10
242.2479409984038
 20
81.10815061916057
 30
0.0
 10
242.2715407230388
 20
81.11883587205271
 30
0.0
 10
242.7106370228949
 20
81.31764560735819
 30
0.0
 10
243.3937586896959
 20
81.7374282728447
 30
0.0
 10
244.2736532634158
 20
82.37238382125601
 30
0.0
 10
244.9339621333322
 20
83.05219826348687
 30
0.0
 10
245.3484815004854
 20
83.746601556948
 30
0.0
 10
245.5447158092232
 20
84.32230399361836
 30
0.0
 10
245.5257394960141
 20
84.64434535553775
 30
0.0
 10
245.5200614731596
 20
84.74070539096415
 30
0.0
  0
LINE
  5
BB
330
1F
100
AcDbEntity
  8
0
  6
Continuous
 62
     7
370
    25
100
AcDbLine
 10
198.4211578274972
 20
63.96664507096266
 30
0.0
 11
214.0753860742731
 21
59.91503266431522
 31
0.0
  0
LINE
  5
BC
330
1F
100
AcDbEntity
  8
0
  6
Continuous
 62
     7
370
    25
100
AcDbLine
 10
193.3556410220344
 20
81.36222149518943
 30
0.0
 11
193.6517487343621
 21
81.21016616608395
 31
0.0
  0
SPLINE
  5
BD
330
1F
100
AcDbEntity
  8
0
  6
Continuous
 62
     7
370
    25
100
AcDbSpline
210
0.0
220
0.0
230
1.0
 70
     8
 71
     3
 72
    13
 73
     9
 74
     0
 42
0.000000001
 43
0.00000001
 40
0.0
 40
0.0
 40
0.0
 40
0.0
 40
0.1061541385605628
 40
0.2953855089473966
 40
0.4791914782990755
 40
0.671342667538172
 40
0.85931346547076
 40
1.0
 40
1.0
 40
1.0
 40
1.0
 10
187.5961531515433
 20
82.00292271580622
 30
0.0
 10
187.6687596296999
 20
81.95035667144886
 30
0.0
 10
187.8707951018346
 20
81.80408589975407
 30
0.0
 10
188.2890540701626
 20
81.65435885967634
 30
0.0
 10
188.9098467767923
 20
81.51784431178119
 30
0.0
 10
189.6356246115744
 20
81.4391641336103
 30
0.0
 10
190.3579821495915
 20
81.41665240949119
 30
0.0
 10
190.8020931636431
 20
81.43959797569521
 30
0.0
 10
190.9922013198955
 20
81.44942015786856
 30
0.0
  0
SPLINE
  5
BE
330
1F
100
AcDbEntity
  8
0
  6
Continuous
 62
     7
370
    25
100
AcDbSpline
210
0.0
220
0.0
230
1.0
 70
     8
 71
     3
 72
    13
 73
     9
 74
     0
 42
0.000000001
 43
0.00000001
 40
0.0
 40
0.0
 40
0.0
 40
0.0
 40
0.1421859383082944
 40
0.3895091445177098
 40
0.6389828818011892
 40
0.829907937157473
 40
0.9746664226007603
 40
1.0
 40
1.0
 40
1.0
 40
1.0
 10
191.8854680797047
 20
81.51136852398585
 30
0.0
 10
191.9724194977313
 20
81.51601077921231
 30
0.0
 10
192.2106172608373
 20
81.52872793593966
 30
0.0
 10
192.6187445324398
 20
81.51652924485315
 30
0.0
 10
193.0078752071105
 20
81.46813599242894
 30
0.0
 10
193.2523195058323
 20
81.40790696263106
 30
0.0
 10
193.3387119179026
 20
81.3713785210017
 30
0.0
 10
193.3534464544777
 20
81.36340854629425
 30
0.0
 10
193.3556410220344
 20
81.36222149518943
 30
0.0
  0
LINE
  5
BF
330
1F
100
AcDbEntity
  8
0
  6
Continuous
 62
     7
370
    25
100
AcDbLine
 10
190.9922013198955
 20
81.44942015786856
 30
0.0
 11
191.8854680797046
 21
81.51136852398585
 31
0.0
  0
SPLINE
  5
C0
330
1F
100
AcDbEntity
  8
0
  6
Continuous
 62
     7
370
    25
100
AcDbSpline
210
0.0
220
0.0
230
1.0
 70
     8
 71
     3
 72
     9
 73
     5
 74
     0
 42
0.000000001
 43
0.00000001
 40
0.0
 40
0.0
 40
0.0
 40
0.0
 40
0.6292977885708433
 40
0.9999999999999999
 40
0.9999999999999999
 40
0.9999999999999999
 40
0.9999999999999999
 10
186.9844210214439
 20
82.5942217968077
 30
0.0
 10
187.1026883508529
 20
82.46819500364782
 30
0.0
 10
187.2906237473486
 20
82.26792925434958
 30
0.0
 10
187.5135236607267
 20
82.07459292182328
 30
0.0
 10
187.5961531515433
 20
82.00292271580619
 30
0.0
  0
LINE
  5
C1
330
1F
100
AcDbEntity
  8
0
  6
Continuous
 62
     7
370
    25
100
AcDbLine
 10
186.792923524937
 20
85.00507376229858
 30
0.0
 11
186.792923524937
 21
83.07322210972046
 31
0.0
  0
SPLINE
  5
C2
330
1F
100
AcDbEntity
  8
0
  6
Continuous
 62
     7
370
    25
100
AcDbSpline
210
0.0
220
0.0
230
1.0
 70
     8
 71
     3
 72
    10
 73
     6
 74
     0
 42
0.000000001
 43
0.00000001
 40
0.0
 40
0.0
 40
0.0
 40
0.0
 40
0.0815719029681501
 40
0.713772187122234
 40
1.0
 40
1.0
 40
1.0
 40
1.0
 10
186.8032341604758
 20
83.08850818765676
 30
0.0
 10
186.7995825437096
 20
83.07377296446154
 30
0.0
 10
186.7676300896063
 20
82.9448365034367
 30
0.0
 10
186.8597372491122
 20
82.75179878316757
 30
0.0
 10
186.9547959947767
 20
82.63166229396097
 30
0.0
 10
186.9844210214439
 20
82.5942217968077
 30
0.0
  0
LINE
  5
C3
330
1F
100
AcDbEntity
  8
0
  6
Continuous
 62
     7
370
    25
100
AcDbLine
 10
195.2338946020197
 20
79.96237208597401
 30
0.0
 11
195.4653353302083
 21
70.90614927969193
 31
0.0
  0
SPLINE
  5
C4
330
1F
100
AcDbEntity
  8
0
  6
Continuous
 62
     7
370
    25
100
AcDbSpline
210
0.0
220
0.0
230
1.0
 70
     8
 71
     3
 72
    13
 73
     9
 74
     0
 42
0.000000001
 43
0.00000001
 40
0.0
 40
0.0
 40
0.0
 40
0.0
 40
0.0466585971894199
 40
0.2398752193450707
 40
0.4337060704535549
 40
0.6285257193159499
 40
0.8244181534393114
 40
1.0
 40
1.0
 40
1.0
 40
1.0
 10
195.7046023171459
 20
67.2157174972719
 30
0.0
 10
195.7184598989977
 20
67.14233115646894
 30
0.0
 10
195.7897027285415
 20
66.7650466760639
 30
0.0
 10
196.0669220717481
 20
66.11668347355574
 30
0.0
 10
196.5236413447957
 20
65.32935154262205
 30
0.0
 10
197.1050477565547
 20
64.6788811241056
 30
0.0
 10
197.7456933844748
 20
64.19867099963676
 30
0.0
 10
198.204362350241
 20
64.04111556672649
 30
0.0
 10
198.4211578274972
 20
63.96664507096266
 30
0.0
  0
SPLINE
  5
C5
330
1F
100
AcDbEntity
  8
0
  6
Continuous
 62
     7
370
    25
100
AcDbSpline
210
0.0
220
0.0
230
1.0
 70
     8
 71
     3
 72
    10
 73
     6
 74
     0
 42
0.000000001
 43
0.00000001
 40
0.0
 40
0.0
 40
0.0
 40
0.0
 40
0.0194917007689377
 40
0.5781184481706985
 40
1.0
 40
1.0
 40
1.0
 40
1.0
 10
245.546932685298
 20
85.19406273458543
 30
0.0
 10
245.5492770044826
 20
85.19473634796108
 30
0.0
 10
245.6188088624316
 20
85.2147155341799
 30
0.0
 10
245.8082292183343
 20
85.24585106247103
 30
0.0
 10
246.0047556950451
 20
85.26303205373341
 30
0.0
 10
246.0893147906033
 20
85.27042448810792
 30
0.0
  0
LINE
  5
C6
330
1F
100
AcDbEntity
  8
0
  6
Continuous
 62
     7
370
    25
100
AcDbLine
 10
249.3009418456589
 20
86.45617480607712
 30
0.0
 11
249.3009418456589
 21
88.38802645865526
 31
0.0
  0
LINE
  5
C7
330
1F
100
AcDbEntity
  8
0
  6
Continuous
 62
     7
370
    25
100
AcDbLine
 10
246.0893147906033
 20
85.27042448810792
 30
0.0
 11
246.9825815504124
 21
85.33237285422524
 31
0.0
  0
SPLINE
  5
C8
330
1F
100
AcDbEntity
  8
0
  6
Continuous
 62
     7
370
    25
100
AcDbSpline
210
0.0
220
0.0
230
1.0
 70
     8
 71
     3
 72
    13
 73
     9
 74
     0
 42
0.000000001
 43
0.00000001
 40
0.0
 40
0.0
 40
0.0
 40
0.0
 40
0.1091850008124463
 40
0.3205970839008777
 40
0.5380712126272953
 40
0.7471100328967355
 40
0.8856508783701967
 40
0.9999999999999999
 40
0.9999999999999999
 40
0.9999999999999999
 40
0.9999999999999999
 10
246.9825815504124
 20
85.33237285422524
 30
0.0
 10
247.1108872800637
 20
85.34293104071149
 30
0.0
 10
247.4876280637599
 20
85.3739327696449
 30
0.0
 10
248.061685335912
 20
85.46915428378976
 30
0.0
 10
248.6171563070649
 20
85.63327246045421
 30
0.0
 10
248.9831867101938
 20
85.83328237254815
 30
0.0
 10
249.24721610359
 20
86.11062934371039
 30
0.0
 10
249.2771128253689
 20
86.33805416701091
 30
0.0
 10
249.2906312101201
 20
86.44088872814085
 30
0.0
  0
SPLINE
  5
C9
330
1F
100
AcDbEntity
  8
0
  6
Continuous
 62
     7
370
    25
100
AcDbSpline
210
0.0
220
0.0
230
1.0
 70
     8
 71
     3
 72
     9
 73
     5
 74
     0
 42
0.000000001
 43
0.00000001
 40
0.0
 40
0.0
 40
0.0
 40
0.0
 40
0.2185432615743902
 40
1.0
 40
1.0
 40
1.0
 40
1.0
 10
188.9613098389393
 20
135.2363708437209
 30
0.0
 10
189.0111061006896
 20
135.1526955868145
 30
0.0
 10
189.2389614982502
 20
134.7698182731716
 30
0.0
 10
189.5429242989589
 20
134.4614620436467
 30
0.0
 10
189.7804580778035
 20
134.2204949902489
 30
0.0
  0
SPLINE
  5
CA
330
1F
100
AcDbEntity
  8
0
  6
Continuous
 62
     7
370
    25
100
AcDbSpline
210
0.0
220
0.0
230
1.0
 70
     8
 71
     3
 72
     9
 73
     5
 74
     0
 42
0.000000001
 43
0.00000001
 40
0.0
 40
0.0
 40
0.0
 40
0.0
 40
0.612313024677707
 40
1.0
 40
1.0
 40
1.0
 40
1.0
 10
246.1485311361348
 20
134.0754860911622
 30
0.0
 10
246.3727821673237
 20
134.286959386502
 30
0.0
 10
246.7390180991935
 20
134.6323273385411
 30
0.0
 10
247.0181070574782
 20
135.0664497831798
 30
0.0
 10
247.1263062115615
 20
135.2347534006614
 30
0.0
  0
LINE
  5
CB
330
1F
100
AcDbEntity
  8
0
  6
Continuous
 62
     7
370
    25
100
AcDbLine
 10
172.9534982163032
 20
139.3794973620726
 30
0.0
 11
213.2585847439365
 21
128.9477733542161
 31
0.0
  0
SPLINE
  5
CC
330
1F
100
AcDbEntity
  8
0
  6
Continuous
 62
     7
370
    25
100
AcDbSpline
210
0.0
220
0.0
230
1.0
 70
     8
 71
     3
 72
    15
 73
    11
 74
     0
 42
0.000000001
 43
0.00000001
 40
0.0
 40
0.0
 40
0.0
 40
0.0
 40
0.0729238654782461
 40
0.205296117427762
 40
0.341512103834798
 40
0.4708502470469774
 40
0.5980261878340163
 40
0.7260462007132072
 40
0.8576046848629859
 40
1.0
 40
1.0
 40
1.0
 40
1.0
 10
213.2585847439365
 20
128.9477733542161
 30
0.0
 10
213.4695280646717
 20
128.8966285766409
 30
0.0
 10
214.0633781638161
 20
128.752645201733
 30
0.0
 10
215.1148277603031
 20
128.5806822705653
 30
0.0
 10
216.4127709398704
 20
128.4516358528816
 30
0.0
 10
217.7411507886263
 20
128.3995769604078
 30
0.0
 10
219.0504422295181
 20
128.4179913629756
 30
0.0
 10
220.3377434484607
 20
128.5084237047872
 30
0.0
 10
221.6187196529054
 20
128.6692933038186
 30
0.0
 10
222.4192053253324
 20
128.8525305563766
 30
0.0
 10
222.8352806266593
 20
128.9477733542161
 30
0.0
  0
LINE
  5
CD
330
1F
100
AcDbEntity
  8
0
  6
Continuous
 62
     7
370
    25
100
AcDbLine
 10
222.8352806266593
 20
128.9477733542161
 30
0.0
 11
263.1403671542924
 21
139.3794973620726
 31
0.0
  0
LINE
  5
CE
330
1F
100
AcDbEntity
  8
0
  6
Continuous
 62
     7
370
    25
100
AcDbLine
 10
190.2645520993886
 20
133.8988169984811
 30
0.0
 11
190.1475077220414
 21
133.8202683924358
 31
0.0
  0
ARC
  5
CF
330
1F
100
AcDbEntity
  8
0
  6
Continuous
 62
     7
370
    25
100
AcDbCircle
 10
258.3520192129311
 20
198.2609830468643
 30
0.0
 40
10.00000000000001
100
AcDbArc
 50
0.0000000000000204
 51
75.48918130093017
  0
ARC
  5
D0
330
1F
100
AcDbEntity
  8
0
  6
Continuous
 62
     7
370
    25
100
AcDbCircle
 10
177.7418461576646
 20
198.2609830468643
 30
0.0
 40
10.00000000000001
100
AcDbArc
 50
104.51081869907
 51
180.0
  0
LINE
  5
D1
330
1F
100
AcDbEntity
  8
0
  6
Continuous
 62
     7
370
    25
100
AcDbLine
 10
260.8576472837884
 20
207.9419865057281
 30
0.0
 11
220.5525607561551
 21
218.3737105135846
 31
0.0
  0
LINE
  5
D2
330
1F
100
AcDbEntity
  8
0
  6
Continuous
 62
     7
370
    25
100
AcDbLine
 10
167.7418461576646
 20
198.2609830468643
 30
0.0
 11
167.7418461576646
 21
145.1350626009655
 31
0.0
  0
LINE
  5
D3
330
1F
100
AcDbEntity
  8
0
  6
Continuous
 62
     7
370
    25
100
AcDbLine
 10
268.3520192129311
 20
145.1350626009656
 30
0.0
 11
268.3520192129311
 21
198.2609830468643
 31
0.0
  0
LINE
  5
D4
330
1F
100
AcDbEntity
  8
0
  6
Continuous
 62
     7
370
    25
100
AcDbLine
 10
215.5413046144405
 20
218.3737105135846
 30
0.0
 11
175.2362180868073
 21
207.941986505728
 31
0.0
  0
SPLINE
  5
D5
330
1F
100
AcDbEntity
  8
0
  6
Continuous
 62
     7
370
    25
100
AcDbSpline
210
0.0
220
0.0
230
1.0
 70
     8
 71
     3
 72
    16
 73
    12
 74
     0
 42
0.000000001
 43
0.00000001
 40
0.0
 40
0.0
 40
0.0
 40
0.0
 40
0.0847099746720084
 40
0.2340240430604111
 40
0.3538589560892672
 40
0.4685993182054255
 40
0.5816094202356841
 40
0.6945094861580421
 40
0.8078476386954495
 40
0.9216524007293123
 40
1.0
 40
1.0
 40
1.0
 40
1.0
 10
263.1403671542924
 20
139.3794973620726
 30
0.0
 10
263.3554683817242
 20
139.4389170342251
 30
0.0
 10
263.9497178677586
 20
139.6030728136157
 30
0.0
 10
264.803678253654
 20
139.9350779788876
 30
0.0
 10
265.7026641269402
 20
140.4240689664746
 30
0.0
 10
266.4743127837036
 20
141.0017403198082
 30
0.0
 10
267.1513205184701
 20
141.70315846674
 30
0.0
 10
267.7085368376526
 20
142.5240010715133
 30
0.0
 10
268.1053764898363
 20
143.4446203855946
 30
0.0
 10
268.3315768947683
 20
144.3295255375197
 30
0.0
 10
268.3266165873454
 20
144.9001313534745
 30
0.0
 10
268.3245940872023
 20
145.1327883736976
 30
0.0
  0
SPLINE
  5
D6
330
1F
100
AcDbEntity
  8
0
  6
Continuous
 62
     7
370
    25
100
AcDbSpline
210
0.0
220
0.0
230
1.0
 70
     8
 71
     3
 72
    17
 73
    13
 74
     0
 42
0.000000001
 43
0.00000001
 40
0.0
 40
0.0
 40
0.0
 40
0.0
 40
0.047195360357428
 40
0.1647317133017895
 40
0.2757513783853534
 40
0.382303640654871
 40
0.4862491522394219
 40
0.5898299955811074
 40
0.6964395696040658
 40
0.8119570601212517
 40
0.946782376994305
 40
1.0
 40
1.0
 40
1.0
 40
1.0
 10
167.7692712833934
 20
145.1373368282335
 30
0.0
 10
167.7619895494857
 20
144.9974210880221
 30
0.0
 10
167.7365732269206
 20
144.5090561422233
 30
0.0
 10
167.9131919321769
 20
143.6996767354475
 30
0.0
 10
168.2579956891495
 20
142.7725480447793
 30
0.0
 10
168.7470587706677
 20
141.9643743233155
 30
0.0
 10
169.3347369425126
 20
141.2744955872037
 30
0.0
 10
170.0042517373187
 20
140.696091610203
 30
0.0
 10
170.7489653920413
 20
140.2143908720046
 30
0.0
 10
171.5957359750909
 20
139.8073741174395
 30
0.0
 10
172.3379976198522
 20
139.5456960190284
 30
0.0
 10
172.8177301557877
 20
139.4161577153611
 30
0.0
 10
172.9534982163032
 20
139.3794973620726
 30
0.0
  0
ARC
  5
D7
330
1F
100
AcDbEntity
  8
0
  6
Continuous
 62
     7
370
    25
100
AcDbCircle
 10
218.0469326852978
 20
208.6927070547208
 30
0.0
 40
10.00000000000001
100
AcDbArc
 50
75.48918130093013
 51
93.96713080083771
  0
ARC
  5
D8
330
1F
100
AcDbEntity
  8
0
  6
Continuous
 62
     7
370
    25
100
AcDbCircle
 10
218.0469326852978
 20
208.6927070547208
 30
0.0
 40
10.00000000000001
100
AcDbArc
 50
93.96713080083771
 51
104.5108186990699
  0
LINE
  5
D9
330
1F
100
AcDbEntity
  8
0
  6
Continuous
 62
     7
370
    25
100
AcDbLine
 10
206.2914850589453
 20
96.43199215167277
 30
0.0
 11
206.5797510883323
 21
80.48014331697712
 31
0.0
  0
LINE
  5
DA
330
1F
100
AcDbEntity
  8
0
  6
Continuous
 62
     7
370
    25
100
AcDbLine
 10
242.2479081857407
 20
82.53764506893985
 30
0.0
 11
242.5586557318339
 21
99.73355917498944
 31
0.0
  0
LINE
  5
DB
330
1F
100
AcDbEntity
  8
0
  6
Continuous
 62
     7
370
    25
100
AcDbLine
 10
245.546631902555
 20
87.62918677608162
 30
0.0
 11
245.7804388160869
 21
100.5674179963832
 31
0.0
  0
SPLINE
  5
DC
330
1F
100
AcDbEntity
  8
0
  6
Continuous
 62
     7
370
    25
100
AcDbSpline
210
0.0
220
0.0
230
1.0
 70
     8
 71
     3
 72
    11
 73
     7
 74
     0
 42
0.000000001
 43
0.00000001
 40
0.0
 40
0.0
 40
0.0
 40
0.0
 40
0.2643789788751691
 40
0.522493928219364
 40
0.7690838520813095
 40
0.9999999999999999
 40
0.9999999999999999
 40
0.9999999999999999
 40
0.9999999999999999
 10
272.0361407011903
 20
136.4513240229355
 30
0.0
 10
272.0286882362392
 20
136.5073147866216
 30
0.0
 10
272.0139598803625
 20
136.6179697039936
 30
0.0
 10
271.9121074924749
 20
136.7695887496471
 30
0.0
 10
271.7691442800495
 20
136.8982672988897
 30
0.0
 10
271.6477610910745
 20
136.9559350772797
 30
0.0
 10
271.5890616523099
 20
136.9838225158524
 30
0.0
  0
SPLINE
  5
DD
330
1F
100
AcDbEntity
  8
0
  6
Continuous
 62
     7
370
    25
100
AcDbSpline
210
0.0
220
0.0
230
1.0
 70
     8
 71
     3
 72
    11
 73
     7
 74
     0
 42
0.000000001
 43
0.00000001
 40
0.0
 40
0.0
 40
0.0
 40
0.0
 40
0.2309161479186902
 40
0.4775060717806353
 40
0.7356210211248368
 40
1.0
 40
1.0
 40
1.0
 40
1.0
 10
164.5048037182858
 20
136.9838225158524
 30
0.0
 10
164.4461042795213
 20
136.9559350772798
 30
0.0
 10
164.3247210905461
 20
136.8982672988897
 30
0.0
 10
164.1817578781207
 20
136.7695887496471
 30
0.0
 10
164.0799054902332
 20
136.6179697039936
 30
0.0
 10
164.0651771343565
 20
136.5073147866216
 30
0.0
 10
164.0577246694054
 20
136.4513240229356
 30
0.0
  0
LINE
  5
DE
330
1F
100
AcDbEntity
  8
0
  6
Continuous
 62
     7
370
    25
100
AcDbLine
 10
272.0799303367346
 20
134.0281261135752
 30
0.0
 11
272.0361408369256
 21
136.451316535929
 31
0.0
  0
LINE
  5
DF
330
1F
100
AcDbEntity
  8
0
  6
Continuous
 62
     7
370
    25
100
AcDbLine
 10
164.0577245336701
 20
136.451316535929
 30
0.0
 11
164.0139350338611
 21
134.0281261135753
 31
0.0
  0
LINE
  5
E0
330
1F
100
AcDbEntity
  8
0
  6
Continuous
 62
     7
370
    25
100
AcDbLine
 10
271.5278657253867
 20
137.0092865027842
 30
0.0
 11
262.7552206743647
 21
139.2798141179131
 31
0.0
  0
LINE
  5
E1
330
1F
100
AcDbEntity
  8
0
  6
Continuous
 62
     7
370
    25
100
AcDbLine
 10
173.3386446962308
 20
139.2798141179131
 30
0.0
 11
164.565999645209
 21
137.0092865027843
 31
0.0
  0
LINE
  5
E2
330
1F
100
AcDbEntity
  8
0
  6
Continuous
 62
     7
370
    25
100
AcDbLine
 10
186.5200265570737
 20
101.0705510677992
 30
0.0
 11
186.7929563375997
 21
85.96736804378577
 31
0.0
  0
LINE
  5
E3
330
1F
100
AcDbEntity
  8
0
  6
Continuous
 62
     7
370
    25
100
AcDbLine
 10
249.3009090329959
 20
89.35032074014238
 30
0.0
 11
249.5211088856018
 21
101.5355746518187
 31
0.0
  0
LWPOLYLINE
  5
E4
330
1F
100
AcDbEntity
  8
0
  6
Continuous
 62
     7
370
    25
100
AcDbPolyline
 90
       19
 70
   128
 43
0.0
 10
194.6067244487432
 20
69.56237375275337
 10
194.8574435231058
 20
70.20400171152768
 10
195.2484972040723
 20
70.72409180339764
 10
195.7327186463805
 20
71.05991348757144
 10
196.2517035977406
 20
71.1709617127375
 10
196.7428548136165
 20
71.04384242404356
 10
197.1469322087536
 20
70.69388808378697
 10
197.4151980857511
 20
70.16330835017871
 10
197.5152956206605
 20
69.51609896961482
 10
197.4351515734894
 20
68.83032294518448
 10
197.1844324991268
 20
68.18869498641014
 10
196.7933788181603
 20
67.66860489454018
 10
196.3091573758521
 20
67.33278321036642
 10
195.790172424492
 20
67.22173498520034
 10
195.2990212086161
 20
67.34885427389429
 10
194.894943813479
 20
67.69880861415086
 10
194.6266779364815
 20
68.22938834775911
 10
194.5265804015721
 20
68.87659772832303
 10
194.6067244487432
 20
69.56237375275337
  0
LWPOLYLINE
  5
E5
330
1F
100
AcDbEntity
  8
0
  6
Continuous
 62
     7
370
    25
100
AcDbPolyline
 90
       19
 70
   128
 43
0.0
 10
208.7488600724749
 20
65.90211971490874
 10
208.9995791468375
 20
66.54374767368306
 10
209.390632827804
 20
67.06383776555302
 10
209.8748542701122
 20
67.39965944972681
 10
210.3938392214723
 20
67.51070767489288
 10
210.8849904373482
 20
67.38358838619894
 10
211.2890678324853
 20
67.03363404594236
 10
211.5573337094828
 20
66.50305431233414
 10
211.6574312443922
 20
65.85584493177024
 10
211.5772871972211
 20
65.17006890733985
 10
211.3265681228586
 20
64.52844094856555
 10
210.9355144418921
 20
64.0083508566956
 10
210.4512929995838
 20
63.67252917252179
 10
209.9323080482237
 20
63.56148094735573
 10
209.4411568323478
 20
63.68860023604968
 10
209.0370794372108
 20
64.03855457630624
 10
208.7688135602132
 20
64.5691343099145
 10
208.6687160253038
 20
65.21634369047841
 10
208.7488600724749
 20
65.90211971490874
  0
ARC
  5
E7
330
1F
100
AcDbEntity
  8
0
  6
Continuous
 62
     7
370
    25
100
AcDbCircle
 10
220.2431841483465
 20
63.58828836200912
 30
0.0
 40
3.627803806150907
100
AcDbArc
 50
338.6883517382306
 51
65.25240796925465
  0
ARC
  5
E9
330
1F
100
AcDbEntity
  8
0
  6
Continuous
 62
     7
370
    25
100
AcDbCircle
 10
220.0911045100131
 20
62.66478162933451
 30
0.0
 40
3.553822848816798
100
AcDbArc
 50
265.7397649274241
 51
353.6187579185722
  0
LINE
  5
EA
330
1F
100
AcDbEntity
  8
0
  6
Continuous
 62
     7
370
    25
100
AcDbLine
 10
219.8271029744747
 20
59.12077823909831
 30
0.0
 11
217.5104959427874
 21
59.73595086961298
 31
0.0
  0
LINE
  5
EB
330
1F
100
AcDbEntity
  8
0
  6
Continuous
 62
     7
370
    25
100
AcDbLine
 10
219.903136215072
 20
67.36399084639932
 30
0.0
 11
221.7618610756584
 21
66.88291745287403
 31
0.0
  0
LINE
  5
EC
330
1F
100
AcDbEntity
  8
0
  6
Continuous
 62
     7
370
    25
100
AcDbLine
 10
216.8557919668888
 20
59.88981011678429
 30
0.0
 11
219.8271029744747
 21
59.12077823909831
 31
0.0
  0
LWPOLYLINE
  5
ED
330
1F
100
AcDbEntity
  8
0
  6
Continuous
 62
     7
370
    25
100
AcDbPolyline
 90
        3
 70
   128
 43
0.0
 10
213.9957348237006
 20
74.87274292455953
 10
214.0758788708717
 20
75.5585189489899
 10
214.0050897771826
 20
76.10259303068386
  0
LWPOLYLINE
  5
EE
330
1F
100
AcDbEntity
  8
0
  6
Continuous
 62
     7
370
    25
100
AcDbPolyline
 90
        9
 70
   128
 43
0.0
 10
211.0879540628016
 20
74.88319201241043
 10
211.1872611866927
 20
74.27180832713415
 10
211.4555270636902
 20
73.74122859352592
 10
211.8596044588273
 20
73.39127425326936
 10
212.3507556747032
 20
73.26415496457541
 10
212.8697406260633
 20
73.37520318974147
 10
213.3539620683715
 20
73.71102487391529
 10
213.745015749338
 20
74.23111496578524
 10
213.9957348237006
 20
74.87274292455953
  0
LWPOLYLINE
  5
EF
330
1F
100
AcDbEntity
  8
0
  6
Continuous
 62
     7
370
    25
100
AcDbPolyline
 90
        3
 70
   128
 43
0.0
 10
221.5100204756202
 20
73.06124423358604
 10
221.6428537920081
 20
73.97531589977186
 10
221.6441527684926
 20
74.00858268907245
  0
LWPOLYLINE
  5
F0
330
1F
100
AcDbEntity
  8
0
  6
Continuous
 62
     7
370
    25
100
AcDbPolyline
 90
        3
 70
   128
 43
0.0
 10
221.1351663960766
 20
72.06603556535768
 10
221.1986934997353
 20
72.19337012590816
 10
221.5100204756202
 20
73.06124423358604
  0
ARC
  5
F1
330
1F
100
AcDbEntity
  8
0
  6
Continuous
 62
     7
370
    25
100
AcDbCircle
 10
190.4871307751604
 20
105.7636199471515
 30
0.0
 40
6.601584818833572
100
AcDbArc
 50
257.7293991636971
 51
276.5742281430319
  0
ARC
  5
F2
330
1F
100
AcDbEntity
  8
0
  6
Continuous
 62
     7
370
    25
100
AcDbCircle
 10
239.3381028498847
 20
82.44896865978265
 30
0.0
 40
4.143445027807052
100
AcDbArc
 50
272.9063475875333
 51
294.3389619592003
  0
ARC
  5
F3
330
1F
100
AcDbEntity
  8
0
  6
Continuous
 62
     7
370
    25
100
AcDbCircle
 10
238.5530293397081
 20
84.02670239782286
 30
0.0
 40
7.221385280211376
100
AcDbArc
 50
263.853667525239
 51
276.1463324747608
  0
ARC
  5
F4
330
1F
100
AcDbEntity
  8
0
  6
Continuous
 62
     7
370
    25
100
AcDbCircle
 10
201.0937324929585
 20
103.018429418767
 30
0.0
 40
6.601584818832432
100
AcDbArc
 50
257.7293991636957
 51
276.5742281430332
  0
ARC
  5
F5
330
1F
100
AcDbEntity
  8
0
  6
Continuous
 62
     7
370
    25
100
AcDbCircle
 10
246.0576903130609
 20
91.30784559074235
 30
0.0
 40
7.252466648310679
100
AcDbArc
 50
264.5053973677312
 51
276.128561958942
  0
LWPOLYLINE
  5
F6
330
1F
100
AcDbEntity
  8
0
  6
Continuous
 62
     7
370
    25
100
AcDbPolyline
 90
        3
 70
   128
 43
0.0
 10
187.6596177415035
 20
81.98050533781445
 10
187.5145375192734
 20
82.0544798019629
 10
187.4162155580468
 20
82.12193798070953
  0
ARC
  5
F7
330
1F
100
AcDbEntity
  8
0
  6
Continuous
 62
     7
370
    25
100
AcDbCircle
 10
190.0350837229158
 20
87.29587422115907
 30
0.0
 40
7.126377076018495
100
AcDbArc
 50
263.7714030226373
 51
276.2285969773655
  0
ARC
  5
F8
330
1F
100
AcDbEntity
  8
0
  6
Continuous
 62
     7
370
    25
100
AcDbCircle
 10
210.5060270403524
 20
85.41800529383205
 30
0.0
 40
9.099209415571432
100
AcDbArc
 50
259.4124537668877
 51
271.5105410117397
  0
ARC
  5
F9
330
1F
100
AcDbEntity
  8
0
  6
Continuous
 62
     7
370
    25
100
AcDbCircle
 10
210.5411803773242
 20
82.0676214319976
 30
0.0
 40
7.205030730590209
100
AcDbArc
 50
263.8396621447507
 51
276.1603378552526
  0
LWPOLYLINE
  5
FA
330
1F
100
AcDbEntity
  8
0
  6
Continuous
 62
     7
370
    25
100
AcDbPolyline
 90
        8
 70
   128
 43
0.0
 10
247.0773989809664
 20
88.60395228494434
 10
247.6161958294773
 20
88.65609497712681
 10
248.1066366720181
 20
88.73389476106371
 10
248.5306901925069
 20
88.83449128669119
 10
248.8727658397494
 20
88.9541860697213
 10
249.1202870222706
 20
89.08857846836621
 10
249.2641534933295
 20
89.2327274752531
 10
249.3009418456588
 20
89.35395228494433
  0
LINE
  5
FB
330
1F
100
AcDbEntity
  8
0
  6
Continuous
 62
     7
370
    25
100
AcDbLine
 10
247.0773989809664
 20
88.60395228494434
 30
0.0
 11
246.1841322211572
 21
88.54200391882704
 31
0.0
  0
ARC
  5
FC
330
1F
100
AcDbEntity
  8
0
  6
Continuous
 62
     7
370
    25
100
AcDbCircle
 10
246.2419125980342
 20
86.6802859936206
 30
0.0
 40
1.862614346821961
100
AcDbArc
 50
91.77766424665845
 51
111.4487505863951
  0
LWPOLYLINE
  5
FD
330
1F
100
AcDbEntity
  8
0
  6
Continuous
 62
     7
370
    25
100
AcDbPolyline
 90
        8
 70
   128
 43
0.0
 10
245.5469326852978
 20
87.66247593676599
 10
245.5469071129123
 20
87.65276942698725
 10
245.4400964880143
 20
87.03569674153671
 10
245.1269723141785
 20
86.42334468788687
 10
244.6098929082472
 20
85.82032523880206
 10
243.8927526903062
 20
85.23118007787586
 10
242.980952852584
 20
84.66034639352016
 10
242.2797124498113
 20
84.29760552571717
  0
LWPOLYLINE
  5
FE
330
1F
100
AcDbEntity
  8
0
  6
Continuous
 62
     7
370
    25
100
AcDbPolyline
 90
        5
 70
   128
 43
0.0
 10
241.4411487549318
 20
82.01149737342897
 10
241.791505069857
 20
82.12957679324306
 10
242.0483459110119
 20
82.26279257395997
 10
242.202228389494
 20
82.40624696718518
 10
242.2479409984037
 20
82.5412766137418
  0
ARC
  5
FF
330
1F
100
AcDbEntity
  8
0
  6
Continuous
 62
     7
370
    25
100
AcDbCircle
 10
228.596488790456
 20
128.4228307282389
 30
0.0
 40
48.15596695503377
100
AcDbArc
 50
283.5518390094722
 51
285.4697983886695
  0
ARC
  5
100
330
1F
100
AcDbEntity
  8
0
  6
Continuous
 62
     7
370
    25
100
AcDbCircle
 10
237.8393183588254
 20
91.20446255453925
 30
0.0
 40
9.811555129862112
100
AcDbArc
 50
257.4802482724025
 51
282.008249959921
  0
LINE
  5
101
330
1F
100
AcDbEntity
  8
0
  6
Continuous
 62
     7
370
    25
100
AcDbLine
 10
235.7124070924709
 20
81.62621310428071
 30
0.0
 11
235.0584904395782
 21
81.79545918795904
 31
0.0
  0
ARC
  5
102
330
1F
100
AcDbEntity
  8
0
  6
Continuous
 62
     7
370
    25
100
AcDbCircle
 10
234.3440554909172
 20
78.5393008823984
 30
0.0
 40
3.33361428583751
100
AcDbArc
 50
77.62480830049876
 51
99.75369549080645
  0
ARC
  5
103
330
1F
100
AcDbEntity
  8
0
  6
Continuous
 62
     7
370
    25
100
AcDbCircle
 10
218.3224168233589
 20
173.7311047417711
 30
0.0
 40
93.197087992718
100
AcDbArc
 50
268.3875557129666
 51
279.5467058887103
  0
ARC
  5
104
330
1F
100
AcDbEntity
  8
0
  6
Continuous
 62
     7
370
    25
100
AcDbCircle
 10
215.4967461185748
 20
78.69985567024115
 30
0.0
 40
1.882068461486044
100
AcDbArc
 50
83.8012485208764
 51
116.7817955855916
  0
LINE
  5
105
330
1F
100
AcDbEntity
  8
0
  6
Continuous
 62
     7
370
    25
100
AcDbLine
 10
214.6486975140313
 20
80.38003282103575
 30
0.0
 11
214.4093474071149
 21
80.14883837124015
 31
0.0
  0
ARC
  5
106
330
1F
100
AcDbEntity
  8
0
  6
Continuous
 62
     7
370
    25
100
AcDbCircle
 10
211.7076874215641
 20
85.7558620113947
 30
0.0
 40
6.223960216677066
100
AcDbArc
 50
261.9443898080611
 51
295.7263926212951
  0
ARC
  5
107
330
1F
100
AcDbEntity
  8
0
  6
Continuous
 62
     7
370
    25
100
AcDbCircle
 10
217.5312606876535
 20
191.5860846909206
 30
0.0
 40
112.1927508764424
100
AcDbArc
 50
265.4872344527734
 51
266.5785039455537
  0
LWPOLYLINE
  5
108
330
1F
100
AcDbEntity
  8
0
  6
Continuous
 62
     7
370
    25
100
AcDbPolyline
 90
        8
 70
   128
 43
0.0
 10
206.5797182756696
 20
80.48377486177904
 10
206.6021179505641
 20
80.38906820083575
 10
206.7266937254668
 20
80.24372094168281
 10
206.9561624517537
 20
80.10719939143183
 10
207.2820875907528
 20
79.98452283683675
 10
207.6924863329372
 20
79.8802015460886
 10
208.1722701522343
 20
79.7980709464283
 10
208.7037995436391
 20
79.74115061264244
  0
LWPOLYLINE
  5
109
330
1F
100
AcDbEntity
  8
0
  6
Continuous
 62
     7
370
    25
100
AcDbPolyline
 90
        3
 70
   128
 43
0.0
 10
206.3796306075304
 20
81.21728894024298
 10
206.5302440909154
 20
81.19469419178415
 10
206.5669650474949
 20
81.1876876331276
  0
ARC
  5
10A
330
1F
100
AcDbEntity
  8
0
  6
Continuous
 62
     7
370
    25
100
AcDbCircle
 10
215.6730560025954
 20
157.9539456364045
 30
0.0
 40
77.29736241605003
100
AcDbArc
 50
262.0393545504934
 51
263.0946505304941
  0
ARC
  5
10D
330
1F
100
AcDbEntity
  8
0
  6
Continuous
 62
     7
370
    25
100
AcDbCircle
 10
218.3224168233592
 20
172.7651789154798
 30
0.0
 40
93.19708799271572
100
AcDbArc
 50
268.3875557129664
 51
279.5467058887104
  0
ARC
  5
110
330
1F
100
AcDbEntity
  8
0
  6
Continuous
 62
     7
370
    25
100
AcDbCircle
 10
211.7076874215641
 20
84.78993618510559
 30
0.0
 40
6.223960216677024
100
AcDbArc
 50
261.9443898080611
 51
295.7263926212952
  0
ARC
  5
112
330
1F
100
AcDbEntity
  8
0
  6
Continuous
 62
     7
370
    25
100
AcDbCircle
 10
217.5312606876367
 20
190.6201588643895
 30
0.0
 40
112.1927508761999
100
AcDbArc
 50
265.4872344527721
 51
266.5785039455549
  0
LWPOLYLINE
  5
113
330
1F
100
AcDbEntity
  8
0
  6
Continuous
 62
     7
370
    25
100
AcDbPolyline
 90
        8
 70
   128
 43
0.0
 10
208.7037995436391
 20
78.77522478635338
 10
208.1722701522343
 20
78.83214512013924
 10
207.6924863329372
 20
78.91427571979953
 10
207.2820875907528
 20
79.01859701054767
 10
206.9561624517537
 20
79.14127356514277
 10
206.7266937254668
 20
79.27779511539373
 10
206.6021179505641
 20
79.42314237454667
 10
206.5797182756696
 20
79.51784903548997
  0
LINE
  5
115
330
1F
100
AcDbEntity
  8
0
  6
Continuous
 62
     7
370
    25
100
AcDbLine
 10
214.6486975140313
 20
79.41410699474669
 30
0.0
 11
214.4093474071149
 21
79.18291254495108
 31
0.0
  0
ARC
  5
116
330
1F
100
AcDbEntity
  8
0
  6
Continuous
 62
     7
370
    25
100
AcDbCircle
 10
215.4967461185749
 20
77.73392984395177
 30
0.0
 40
1.882068461486346
100
AcDbArc
 50
83.80124852087829
 51
116.781795585588
  0
LINE
  5
117
330
1F
100
AcDbEntity
  8
0
  6
Continuous
 62
     7
370
    25
100
AcDbLine
 10
206.3796306075304
 20
80.25136311395391
 30
0.0
 11
206.3796306075304
 21
81.21728894024298
 31
0.0
  0
LWPOLYLINE
  5
118
330
1F
100
AcDbEntity
  8
0
  6
Continuous
 62
     7
370
    25
100
AcDbPolyline
 90
        3
 70
   128
 43
0.0
 10
206.5797182756696
 20
80.2191671472672
 10
206.5302440909154
 20
80.22876836549509
 10
206.3796306075304
 20
80.25136311395391
  0
ELLIPSE
  5
119
330
1F
100
AcDbEntity
  8
0
  6
Continuous
 62
     7
370
    25
100
AcDbEllipse
 10
218.0469326852978
 20
148.385680869662
 30
0.0
 11
-19.20405229480647
 21
308.6874752844354
 31
0.0
210
0.0
220
0.0
230
1.0
 40
0.0637663085237315
 41
1.7844918637843
 42
1.787739955106641
  0
ARC
  5
11A
330
1F
100
AcDbEntity
  8
0
  6
Continuous
 62
     7
370
    25
100
AcDbCircle
 10
215.0848463690562
 20
152.5353678834558
 30
0.0
 40
72.8063055440399
100
AcDbArc
 50
260.411993801435
 51
263.132898916017
  0
ARC
  5
11D
330
1F
100
AcDbEntity
  8
0
  6
Continuous
 62
     7
370
    25
100
AcDbCircle
 10
237.8393183588254
 20
90.23853672825017
 30
0.0
 40
9.811555129862098
100
AcDbArc
 50
257.4802482724025
 51
282.008249959921
  0
LINE
  5
11E
330
1F
100
AcDbEntity
  8
0
  6
Continuous
 62
     7
370
    25
100
AcDbLine
 10
194.5552305729444
 20
86.56001398387983
 30
0.0
 11
194.2969916882924
 21
82.5947758545988
 31
0.0
  0
LWPOLYLINE
  5
11F
330
1F
100
AcDbEntity
  8
0
  6
Continuous
 62
     7
370
    25
100
AcDbPolyline
 90
        9
 70
   128
 43
0.0
 10
195.9640626257499
 20
87.95886110418229
 10
195.7033096186393
 20
87.9932273358054
 10
195.4514978364892
 20
87.96017192340358
 10
195.2172619095069
 20
87.8608283376191
 10
195.0086337915334
 20
87.69860307166454
 10
194.8327673442115
 20
87.47905883261362
 10
194.6956930309516
 20
87.20972379608311
 10
194.6021111322403
 20
86.89983346496527
 10
194.5552305729444
 20
86.56001398387983
  0
LINE
  5
120
330
1F
100
AcDbEntity
  8
0
  6
Continuous
 62
     7
370
    25
100
AcDbLine
 10
200.5318229983993
 20
86.77663772627605
 30
0.0
 11
195.9640626257499
 21
87.95886110418229
 31
0.0
  0
ARC
  5
121
330
1F
100
AcDbEntity
  8
0
  6
Continuous
 62
     7
370
    25
100
AcDbCircle
 10
199.6402552862
 20
84.6560240598562
 30
0.0
 40
2.300411986502215
100
AcDbArc
 50
359.8132342565343
 51
67.19669805172654
  0
LINE
  5
122
330
1F
100
AcDbEntity
  8
0
  6
Continuous
 62
     7
370
    25
100
AcDbLine
 10
201.9406550512048
 20
84.6485254727397
 30
0.0
 11
202.1988939358567
 21
80.54961306039074
 31
0.0
  0
LINE
  5
123
330
1F
100
AcDbEntity
  8
0
  6
Continuous
 62
     7
370
    25
100
AcDbLine
 10
202.1988939358567
 20
80.54961306039074
 30
0.0
 11
194.2969916882924
 21
82.5947758545988
 31
0.0
  0
LINE
  5
124
330
1F
100
AcDbEntity
  8
0
  6
Continuous
 62
     7
370
    25
100
AcDbLine
 10
202.9580575173965
 20
80.74609905364147
 30
0.0
 11
202.1988939358567
 21
80.54961306039074
 31
0.0
  0
ARC
  5
126
330
1F
100
AcDbEntity
  8
0
  6
Continuous
 62
     7
370
    25
100
AcDbCircle
 10
228.5964887904672
 20
127.4569049019068
 30
0.0
 40
48.15596695498934
100
AcDbArc
 50
283.5518390094712
 51
285.4697983886704
  0
LINE
  5
128
330
1F
100
AcDbEntity
  8
0
  6
Continuous
 62
     7
370
    25
100
AcDbLine
 10
235.7124070924709
 20
80.66028727799164
 30
0.0
 11
235.0584904395782
 21
80.82953336166997
 31
0.0
  0
ARC
  5
129
330
1F
100
AcDbEntity
  8
0
  6
Continuous
 62
     7
370
    25
100
AcDbCircle
 10
234.3440554909172
 20
77.57337505610869
 30
0.0
 40
3.333614285838139
100
AcDbArc
 50
77.62480830050112
 51
99.75369549080457
  0
LWPOLYLINE
  5
12A
330
1F
100
AcDbEntity
  8
0
  6
Continuous
 62
     7
370
    25
100
AcDbPolyline
 90
        5
 70
   128
 43
0.0
 10
242.2479409984037
 20
81.57535078745273
 10
242.202228389494
 20
81.44032114089612
 10
242.0483459110119
 20
81.29686674767089
 10
241.791505069857
 20
81.163650966954
 10
241.4411487549318
 20
81.0455715471399
  0
ARC
  5
12B
330
1F
100
AcDbEntity
  8
0
  6
Continuous
 62
     7
370
    25
100
AcDbCircle
 10
192.2682818535961
 20
82.26953891497836
 30
0.0
 40
2.529855113391934
100
AcDbArc
 50
69.73226764252098
 51
96.53666869431376
  0
LINE
  5
12C
330
1F
100
AcDbEntity
  8
0
  6
Continuous
 62
     7
370
    25
100
AcDbLine
 10
191.9802855102586
 20
84.78294795470498
 30
0.0
 11
191.0870187504495
 21
84.72099958858767
 31
0.0
  0
ARC
  5
12D
330
1F
100
AcDbEntity
  8
0
  6
Continuous
 62
     7
370
    25
100
AcDbCircle
 10
190.164391325845
 20
91.25451787208834
 30
0.0
 40
6.598340891881075
100
AcDbArc
 50
245.6256882363784
 51
278.0378462450396
  0
ARC
  5
12E
330
1F
100
AcDbEntity
  8
0
  6
Continuous
 62
     7
370
    25
100
AcDbCircle
 10
191.1495235040384
 20
89.65487953854112
 30
0.0
 40
5.76231818955324
100
AcDbArc
 50
222.0417160288556
 51
229.9442295798745
  0
LWPOLYLINE
  5
12F
330
1F
100
AcDbEntity
  8
0
  6
Continuous
 62
     7
370
    25
100
AcDbPolyline
 90
        3
 70
   128
 43
0.0
 10
186.7929235249369
 20
85.97099958858767
 10
186.7947894443083
 20
85.94361849736757
 10
186.8700949911064
 20
85.79601927670716
  0
ARC
  5
130
330
1F
100
AcDbEntity
  8
0
  6
Continuous
 62
     7
370
    25
100
AcDbCircle
 10
199.6163267203726
 20
96.38232212901212
 30
0.0
 40
13.40522704466919
100
AcDbArc
 50
241.1333188391574
 51
243.5452114849764
  0
LWPOLYLINE
  5
131
330
1F
100
AcDbEntity
  8
0
  6
Continuous
 62
     7
370
    25
100
AcDbPolyline
 90
        8
 70
   128
 43
0.0
 10
245.5469326852978
 20
86.69655011047692
 10
245.5469071129123
 20
86.68684360069817
 10
245.4400964880143
 20
86.06977091524764
 10
245.1269723141785
 20
85.4574188615978
 10
244.6098929082472
 20
84.85439941251298
 10
243.8927526903062
 20
84.2652542515868
 10
242.980952852584
 20
83.69442056723109
 10
242.2621039343406
 20
83.32319873352645
  0
ARC
  5
133
330
1F
100
AcDbEntity
  8
0
  6
Continuous
 62
     7
370
    25
100
AcDbCircle
 10
200.3481032493636
 20
96.82749423712293
 30
0.0
 40
14.99432609184139
100
AcDbArc
 50
241.2876570640551
 51
246.3348106202161
  0
ARC
  5
136
330
1F
100
AcDbEntity
  8
0
  6
Continuous
 62
     7
370
    25
100
AcDbCircle
 10
190.1643913258451
 20
90.2885920457994
 30
0.0
 40
6.598340891881207
100
AcDbArc
 50
245.6256882363784
 51
278.037846245039
  0
ARC
  5
138
330
1F
100
AcDbEntity
  8
0
  6
Continuous
 62
     7
370
    25
100
AcDbCircle
 10
192.268281853596
 20
81.3036130886888
 30
0.0
 40
2.529855113392407
100
AcDbArc
 50
69.73226764252357
 51
96.5366686943112
  0
LINE
  5
139
330
1F
100
AcDbEntity
  8
0
  6
Continuous
 62
     7
370
    25
100
AcDbLine
 10
191.9802855102586
 20
83.81702212841591
 30
0.0
 11
191.0870187504495
 21
83.7550737622986
 31
0.0
  0
ARC
  5
13B
330
1F
100
AcDbEntity
  8
0
  6
Continuous
 62
     7
370
    25
100
AcDbCircle
 10
191.1495235040369
 20
88.68895371225055
 30
0.0
 40
5.762318189551155
100
AcDbArc
 50
222.0417160288541
 51
229.9442295798759
  0
LWPOLYLINE
  5
13C
330
1F
100
AcDbEntity
  8
0
  6
Continuous
 62
     7
370
    25
100
AcDbPolyline
 90
        3
 70
   128
 43
0.0
 10
186.8700949911064
 20
84.83009345041809
 10
186.7947894443083
 20
84.97769267107849
 10
186.7929235249369
 20
85.0050737622986
  0
ARC
  5
13E
330
1F
100
AcDbEntity
  8
0
  6
Continuous
 62
     7
370
    25
100
AcDbCircle
 10
246.2187880616357
 20
85.8421610144743
 30
0.0
 40
1.734263377022114
100
AcDbArc
 50
91.1450196065926
 51
112.7928787431114
  0
LINE
  5
140
330
1F
100
AcDbEntity
  8
0
  6
Continuous
 62
     7
370
    25
100
AcDbLine
 10
247.0773989809664
 20
87.63802645865528
 30
0.0
 11
246.1841322211572
 21
87.57607809253797
 31
0.0
  0
LWPOLYLINE
  5
141
330
1F
100
AcDbEntity
  8
0
  6
Continuous
 62
     7
370
    25
100
AcDbPolyline
 90
        8
 70
   128
 43
0.0
 10
249.3009418456588
 20
88.38802645865526
 10
249.2641534933295
 20
88.26680164896403
 10
249.1202870222706
 20
88.12265264207714
 10
248.8727658397494
 20
87.98826024343224
 10
248.5306901925069
 20
87.86856546040211
 10
248.1066366720181
 20
87.76796893477463
 10
247.6161958294773
 20
87.69016915083775
 10
247.0773989809664
 20
87.63802645865528
  0
ARC
  5
142
330
1F
100
AcDbEntity
  8
0
  6
Continuous
 62
     7
370
    25
100
AcDbCircle
 10
201.0113046827714
 20
111.3743601113307
 30
0.0
 40
0.4186191135975968
100
AcDbArc
 50
350.0201693996224
 51
359.9142382268578
  0
LINE
  5
143
330
1F
100
AcDbEntity
  8
0
  6
Continuous
 62
     7
370
    25
100
AcDbLine
 10
201.4299233274139
 20
111.3737335118786
 30
0.0
 11
201.4299233274139
 21
112.303986067224
 31
0.0
  0
LINE
  5
144
330
1F
100
AcDbEntity
  8
0
  6
Continuous
 62
     7
370
    25
100
AcDbLine
 10
201.6420553617699
 20
112.3588898777917
 30
0.0
 11
201.4299233274139
 21
112.303986067224
 31
0.0
  0
LINE
  5
145
330
1F
100
AcDbEntity
  8
0
  6
Continuous
 62
     7
370
    25
100
AcDbLine
 10
201.6420553617699
 20
112.3588898777917
 30
0.0
 11
201.6420553617699
 21
111.4286373224463
 31
0.0
  0
ARC
  5
146
330
1F
100
AcDbEntity
  8
0
  6
Continuous
 62
     7
370
    25
100
AcDbCircle
 10
200.8048180724914
 20
111.4298905213498
 30
0.0
 40
0.837238227188573
100
AcDbArc
 50
350.0201693995822
 51
359.9142382268971
  0
LINE
  5
147
330
1F
100
AcDbEntity
  8
0
  6
Continuous
 62
     7
370
    25
100
AcDbLine
 10
201.6293878974
 20
111.2847958870035
 30
0.0
 11
200.6050257613136
 21
105.4224526548269
 31
0.0
  0
ARC
  5
148
330
1F
100
AcDbEntity
  8
0
  6
Continuous
 62
     7
370
    25
100
AcDbCircle
 10
200.9811931452543
 20
105.3526718829289
 30
0.0
 40
0.3825849668603327
100
AcDbArc
 50
169.490830886797
 51
193.7535744845092
  0
LINE
  5
149
330
1F
100
AcDbEntity
  8
0
  6
Continuous
 62
     7
370
    25
100
AcDbLine
 10
200.6095779455096
 20
105.2617136497327
 30
0.0
 11
201.9738369196012
 21
100.0239726068296
 31
0.0
  0
ARC
  5
14A
330
1F
100
AcDbEntity
  8
0
  6
Continuous
 62
     7
370
    25
100
AcDbCircle
 10
201.2889096019152
 20
99.84987273041826
 30
0.0
 40
0.7067080001521112
100
AcDbArc
 50
359.7132638462213
 51
14.26182603778597
  0
LINE
  5
14B
330
1F
100
AcDbEntity
  8
0
  6
Continuous
 62
     7
370
    25
100
AcDbLine
 10
201.9956087523632
 20
99.84633603208398
 30
0.0
 11
201.9956087523632
 21
97.57513850388615
 31
0.0
  0
LWPOLYLINE
  5
14C
330
1F
100
AcDbEntity
  8
0
  6
Continuous
 62
     7
370
    25
100
AcDbPolyline
 90
        9
 70
   128
 43
0.0
 10
202.2077407867191
 20
97.3402645665671
 10
202.1663558798267
 20
97.33512136265458
 10
202.1265613716972
 20
97.3413118055261
 10
202.0898865429611
 20
97.35859799993379
 10
202.0577407867191
 20
97.38631564712078
 10
202.0313594463562
 20
97.42339957344987
 10
202.0117563419876
 20
97.46842466442915
 10
201.9996848099208
 20
97.51966063106266
 10
201.9956087523632
 20
97.57513850388615
  0
LINE
  5
14D
330
1F
100
AcDbEntity
  8
0
  6
Continuous
 62
     7
370
    25
100
AcDbLine
 10
202.2077407867191
 20
97.3402645665671
 30
0.0
 11
202.4949653571275
 21
97.41460375561017
 31
0.0
  0
LINE
  5
14E
330
1F
100
AcDbEntity
  8
0
  6
Continuous
 62
     7
370
    25
100
AcDbLine
 10
203.0547729782628
 20
97.2697148816668
 30
0.0
 11
202.2077407867191
 21
97.05048681868037
 31
0.0
  0
LWPOLYLINE
  5
14F
330
1F
100
AcDbEntity
  8
0
  6
Continuous
 62
     7
370
    25
100
AcDbPolyline
 90
        9
 70
   128
 43
0.0
 10
201.7834767180072
 20
97.52023469331847
 10
201.7916288331225
 20
97.40927894767151
 10
201.8157718972562
 20
97.30680701440447
 10
201.8549781059933
 20
97.21675683244591
 10
201.9077407867191
 20
97.14258897978772
 10
201.972032299203
 20
97.08715368541377
 10
202.0453819566753
 20
97.05258129659839
 10
202.1249709729342
 20
97.0402004108553
 10
202.2077407867191
 20
97.05048681868037
  0
LINE
  5
150
330
1F
100
AcDbEntity
  8
0
  6
Continuous
 62
     7
370
    25
100
AcDbLine
 10
201.7834767180072
 20
97.52023469331847
 30
0.0
 11
201.7834767180072
 21
99.79143222151632
 31
0.0
  0
ARC
  5
151
330
1F
100
AcDbEntity
  8
0
  6
Continuous
 62
     7
370
    25
100
AcDbCircle
 10
201.4301271427813
 20
99.79320057068338
 30
0.0
 40
0.3533540000780009
100
AcDbArc
 50
359.7132638462343
 51
14.26182603771766
  0
LINE
  5
152
330
1F
100
AcDbEntity
  8
0
  6
Continuous
 62
     7
370
    25
100
AcDbLine
 10
201.7725908016262
 20
99.88025050888913
 30
0.0
 11
200.4083318275346
 21
105.1179915517922
 31
0.0
  0
ARC
  5
153
330
1F
100
AcDbEntity
  8
0
  6
Continuous
 62
     7
370
    25
100
AcDbCircle
 10
201.1515622270219
 20
105.2999080181847
 30
0.0
 40
0.7651699337185222
100
AcDbArc
 50
169.4908308867639
 51
193.7535744845481
  0
LINE
  5
154
330
1F
100
AcDbEntity
  8
0
  6
Continuous
 62
     7
370
    25
100
AcDbLine
 10
200.3992274591426
 20
105.4394695619806
 30
0.0
 11
201.423589595229
 21
111.3018127941572
 31
0.0
  0
LINE
  5
155
330
1F
100
AcDbEntity
  8
0
  6
Continuous
 62
     7
370
    25
100
AcDbLine
 10
201.423589595229
 20
111.3018127941572
 30
0.0
 11
194.3525217833635
 21
113.1319398130794
 31
0.0
  0
LINE
  5
156
330
1F
100
AcDbEntity
  8
0
  6
Continuous
 62
     7
370
    25
100
AcDbLine
 10
193.3281596472771
 20
107.2695965809028
 30
0.0
 11
200.3992274591426
 21
105.4394695619806
 31
0.0
  0
LINE
  5
157
330
1F
100
AcDbEntity
  8
0
  6
Continuous
 62
     7
370
    25
100
AcDbLine
 10
193.3281596472771
 20
107.2695965809028
 30
0.0
 11
194.3525217833635
 21
113.1319398130794
 31
0.0
  0
LWPOLYLINE
  5
158
330
1F
100
AcDbEntity
  8
0
  6
Continuous
 62
     7
370
    25
100
AcDbPolyline
 90
        9
 70
   128
 43
0.0
 10
195.7730690779215
 20
115.6999393349399
 10
195.4971696986386
 20
115.7342273610235
 10
195.2318729777753
 20
115.6929577418799
 10
194.9873741195344
 20
115.5777164458286
 10
194.7730690779215
 20
115.3929321312487
 10
194.5971934755022
 20
115.1457059557215
 10
194.4665061130452
 20
114.8455386825262
 10
194.3860292325994
 20
114.5039655716361
 10
194.3588555155484
 20
114.1341130861462
  0
LINE
  5
159
330
1F
100
AcDbEntity
  8
0
  6
Continuous
 62
     7
370
    25
100
AcDbLine
 10
195.7730690779215
 20
115.6999393349399
 30
0.0
 11
200.0157097650408
 21
114.6018631235866
 31
0.0
  0
ARC
  5
15A
330
1F
100
AcDbEntity
  8
0
  6
Continuous
 62
     7
370
    25
100
AcDbCircle
 10
199.0901658451183
 20
112.4481202879976
 30
0.0
 40
2.344192771415421
100
AcDbArc
 50
356.4749081676888
 51
66.7449927594109
  0
LINE
  5
15B
330
1F
100
AcDbEntity
  8
0
  6
Continuous
 62
     7
370
    25
100
AcDbLine
 10
194.3588555155484
 20
113.2038605308008
 30
0.0
 11
201.4299233274139
 21
111.3737335118786
 31
0.0
  0
LINE
  5
15C
330
1F
100
AcDbEntity
  8
0
  6
Continuous
 62
     7
370
    25
100
AcDbLine
 10
194.3588555155484
 20
113.2038605308008
 30
0.0
 11
194.3588555155484
 21
114.1341130861462
 31
0.0
  0
LINE
  5
15D
330
1F
100
AcDbEntity
  8
0
  6
Continuous
 62
     7
370
    25
100
AcDbLine
 10
200.0157097650408
 20
114.6018631235866
 30
0.0
 11
200.2278417993968
 21
114.6567669341542
 31
0.0
  0
ARC
  5
15E
330
1F
100
AcDbEntity
  8
0
  6
Continuous
 62
     7
370
    25
100
AcDbCircle
 10
199.3022978794742
 20
112.5030240985653
 30
0.0
 40
2.34419277141549
100
AcDbArc
 50
356.47490816769
 51
66.74499275940785
  0
ARC
  5
15F
330
1F
100
AcDbEntity
  8
0
  6
Continuous
 62
     7
370
    25
100
AcDbCircle
 10
193.9402368709093
 20
113.2044871302526
 30
0.0
 40
0.4186191135941885
100
AcDbArc
 50
350.0201693995798
 51
359.914238226896
  0
LINE
  5
160
330
1F
100
AcDbEntity
  8
0
  6
Continuous
 62
     7
370
    25
100
AcDbLine
 10
200.4083318275346
 20
105.1179915517922
 30
0.0
 11
193.3372640156691
 21
106.9481185707144
 31
0.0
  0
ARC
  5
161
330
1F
100
AcDbEntity
  8
0
  6
Continuous
 62
     7
370
    25
100
AcDbCircle
 10
194.0804944151571
 20
107.1300350371069
 30
0.0
 40
0.7651699337191337
100
AcDbArc
 50
169.4908308867735
 51
193.753574484538
  0
LINE
  5
162
330
1F
100
AcDbEntity
  8
0
  6
Continuous
 62
     7
370
    25
100
AcDbLine
 10
195.9852011122775
 20
115.7548431455076
 30
0.0
 11
195.7730690779215
 21
115.6999393349399
 31
0.0
  0
LINE
  5
163
330
1F
100
AcDbEntity
  8
0
  6
Continuous
 62
     7
370
    25
100
AcDbLine
 10
195.9852011122775
 20
115.7548431455076
 30
0.0
 11
200.2278417993968
 21
114.6567669341542
 31
0.0
  0
LINE
  5
164
330
1F
100
AcDbEntity
  8
0
  6
Continuous
 62
     7
370
    25
100
AcDbLine
 10
194.7015229897607
 20
101.7103775278113
 30
0.0
 11
201.7725908016262
 21
99.88025050888913
 31
0.0
  0
LINE
  5
165
330
1F
100
AcDbEntity
  8
0
  6
Continuous
 62
     7
370
    25
100
AcDbLine
 10
194.7015229897607
 20
101.7103775278113
 30
0.0
 11
193.3372640156691
 21
106.9481185707144
 31
0.0
  0
LINE
  5
166
330
1F
100
AcDbEntity
  8
0
  6
Continuous
 62
     7
370
    25
100
AcDbLine
 10
201.7834767180072
 20
99.79143222151632
 30
0.0
 11
194.7124089061417
 21
101.6215592404385
 31
0.0
  0
ARC
  5
167
330
1F
100
AcDbEntity
  8
0
  6
Continuous
 62
     7
370
    25
100
AcDbCircle
 10
194.3590593309161
 20
101.6233275896055
 30
0.0
 40
0.3533540000777154
100
AcDbArc
 50
359.713263846241
 51
14.26182603774132
  0
LINE
  5
168
330
1F
100
AcDbEntity
  8
0
  6
Continuous
 62
     7
370
    25
100
AcDbLine
 10
191.176875000209
 20
102.5366227498996
 30
0.0
 11
184.1058071883435
 21
104.3667497688218
 31
0.0
  0
LINE
  5
169
330
1F
100
AcDbEntity
  8
0
  6
Continuous
 62
     7
370
    25
100
AcDbLine
 10
191.176875000209
 20
101.6177213785065
 30
0.0
 11
191.176875000209
 21
102.5366227498996
 31
0.0
  0
LINE
  5
16A
330
1F
100
AcDbEntity
  8
0
  6
Continuous
 62
     7
370
    25
100
AcDbLine
 10
194.7124089061417
 20
100.7026578690454
 30
0.0
 11
191.176875000209
 21
101.6177213785065
 31
0.0
  0
LINE
  5
16B
330
1F
100
AcDbEntity
  8
0
  6
Continuous
 62
     7
370
    25
100
AcDbLine
 10
194.7124089061417
 20
100.7026578690454
 30
0.0
 11
194.7124089061417
 21
101.6215592404385
 31
0.0
  0
LINE
  5
16C
330
1F
100
AcDbEntity
  8
0
  6
Continuous
 62
     7
370
    25
100
AcDbLine
 10
184.1058071883435
 20
102.095552240624
 30
0.0
 11
201.7834767180072
 21
97.52023469331847
 31
0.0
  0
LINE
  5
16D
330
1F
100
AcDbEntity
  8
0
  6
Continuous
 62
     7
370
    25
100
AcDbLine
 10
184.1058071883435
 20
102.095552240624
 30
0.0
 11
184.1058071883435
 21
104.3667497688218
 31
0.0
  0
ARC
  5
16E
330
1F
100
AcDbEntity
  8
0
  6
Continuous
 62
     7
370
    25
100
AcDbCircle
 10
184.5567222831116
 20
102.0425951807561
 30
0.0
 40
0.4540141769588043
100
AcDbArc
 50
173.3016656813259
 51
247.056028237836
  0
LWPOLYLINE
  5
16F
330
1F
100
AcDbEntity
  8
0
  6
Continuous
 62
     7
370
    25
100
AcDbPolyline
 90
        3
 70
   128
 43
0.0
 10
195.484075498106
 20
115.7591921847022
 10
195.7093017329946
 20
115.7891311715911
 10
195.9852011122775
 20
115.7548431455076
  0
ARC
  5
170
330
1F
100
AcDbEntity
  8
0
  6
Continuous
 62
     7
370
    25
100
AcDbCircle
 10
190.40470296498
 20
114.1195506397134
 30
0.0
 40
0.4186191135907778
100
AcDbArc
 50
350.0201693995391
 51
359.9142382269362
  0
LINE
  5
171
330
1F
100
AcDbEntity
  8
0
  6
Continuous
 62
     7
370
    25
100
AcDbLine
 10
190.8233216096157
 20
114.1189240402619
 30
0.0
 11
190.8233216096157
 21
115.0491765956073
 31
0.0
  0
LINE
  5
172
330
1F
100
AcDbEntity
  8
0
  6
Continuous
 62
     7
370
    25
100
AcDbLine
 10
191.0354536439717
 20
115.104080406175
 30
0.0
 11
190.8233216096157
 21
115.0491765956073
 31
0.0
  0
LINE
  5
173
330
1F
100
AcDbEntity
  8
0
  6
Continuous
 62
     7
370
    25
100
AcDbLine
 10
191.0354536439717
 20
115.104080406175
 30
0.0
 11
191.0354536439717
 21
114.1738278508296
 31
0.0
  0
ARC
  5
174
330
1F
100
AcDbEntity
  8
0
  6
Continuous
 62
     7
370
    25
100
AcDbCircle
 10
190.1982163546935
 20
114.1750810497331
 30
0.0
 40
0.8372382271882322
100
AcDbArc
 50
350.02016939958
 51
359.9142382268979
  0
LINE
  5
175
330
1F
100
AcDbEntity
  8
0
  6
Continuous
 62
     7
370
    25
100
AcDbLine
 10
191.0227861796018
 20
114.0299864153868
 30
0.0
 11
189.9984240435154
 21
108.1676431832102
 31
0.0
  0
ARC
  5
176
330
1F
100
AcDbEntity
  8
0
  6
Continuous
 62
     7
370
    25
100
AcDbCircle
 10
190.3745914274556
 20
108.0978624113122
 30
0.0
 40
0.3825849668597752
100
AcDbArc
 50
169.4908308867814
 51
193.7535744845315
  0
LINE
  5
177
330
1F
100
AcDbEntity
  8
0
  6
Continuous
 62
     7
370
    25
100
AcDbLine
 10
190.0029762277114
 20
108.006904178116
 30
0.0
 11
191.367235201803
 21
102.7691631352129
 31
0.0
  0
ARC
  5
178
330
1F
100
AcDbEntity
  8
0
  6
Continuous
 62
     7
370
    25
100
AcDbCircle
 10
190.6823078841153
 20
102.5950632588014
 30
0.0
 40
0.7067080001538362
100
AcDbArc
 50
359.7132638462381
 51
14.26182603776586
  0
LINE
  5
179
330
1F
100
AcDbEntity
  8
0
  6
Continuous
 62
     7
370
    25
100
AcDbLine
 10
191.389007034565
 20
101.6726251890741
 30
0.0
 11
191.176875000209
 21
101.6177213785065
 31
0.0
  0
ARC
  5
17A
330
1F
100
AcDbEntity
  8
0
  6
Continuous
 62
     7
370
    25
100
AcDbCircle
 10
190.8235254249828
 20
102.5383910990664
 30
0.0
 40
0.3533540000783419
100
AcDbArc
 50
359.7132638462761
 51
14.26182603775211
  0
LINE
  5
17B
330
1F
100
AcDbEntity
  8
0
  6
Continuous
 62
     7
370
    25
100
AcDbLine
 10
191.165989083828
 20
102.6254410372725
 30
0.0
 11
189.8017301097364
 21
107.8631820801755
 31
0.0
  0
ARC
  5
17C
330
1F
100
AcDbEntity
  8
0
  6
Continuous
 62
     7
370
    25
100
AcDbCircle
 10
190.5449605092235
 20
108.0450985465679
 30
0.0
 40
0.765169933718312
100
AcDbArc
 50
169.4908308867541
 51
193.7535744845465
  0
LINE
  5
17D
330
1F
100
AcDbEntity
  8
0
  6
Continuous
 62
     7
370
    25
100
AcDbLine
 10
189.7926257413444
 20
108.1846600903639
 30
0.0
 11
190.8169878774308
 21
114.0470033225405
 31
0.0
  0
LINE
  5
17E
330
1F
100
AcDbEntity
  8
0
  6
Continuous
 62
     7
370
    25
100
AcDbLine
 10
191.389007034565
 20
102.5915265604673
 30
0.0
 11
191.389007034565
 21
101.6726251890741
 31
0.0
  0
LINE
  5
17F
330
1F
100
AcDbEntity
  8
0
  6
Continuous
 62
     7
370
    25
100
AcDbLine
 10
190.8169878774308
 20
114.0470033225405
 30
0.0
 11
183.7459200655653
 21
115.8771303414627
 31
0.0
  0
LINE
  5
180
330
1F
100
AcDbEntity
  8
0
  6
Continuous
 62
     7
370
    25
100
AcDbLine
 10
182.7215579294789
 20
110.0147871092861
 30
0.0
 11
189.7926257413444
 21
108.1846600903639
 31
0.0
  0
LINE
  5
181
330
1F
100
AcDbEntity
  8
0
  6
Continuous
 62
     7
370
    25
100
AcDbLine
 10
182.7215579294789
 20
110.0147871092861
 30
0.0
 11
183.7459200655653
 21
115.8771303414627
 31
0.0
  0
LWPOLYLINE
  5
182
330
1F
100
AcDbEntity
  8
0
  6
Continuous
 62
     7
370
    25
100
AcDbPolyline
 90
        9
 70
   128
 43
0.0
 10
185.1664673601234
 20
118.4451298633232
 10
184.8905679808404
 20
118.4794178894068
 10
184.6252712599772
 20
118.4381482702632
 10
184.3807724017363
 20
118.3229069742119
 10
184.1664673601233
 20
118.138122659632
 10
183.990591757704
 20
117.8908964841048
 10
183.859904395247
 20
117.5907292109095
 10
183.7794275148012
 20
117.2491561000194
 10
183.7522537977503
 20
116.8793036145295
  0
LINE
  5
183
330
1F
100
AcDbEntity
  8
0
  6
Continuous
 62
     7
370
    25
100
AcDbLine
 10
185.1664673601234
 20
118.4451298633232
 30
0.0
 11
189.4091080472426
 21
117.3470536519699
 31
0.0
  0
ARC
  5
184
330
1F
100
AcDbEntity
  8
0
  6
Continuous
 62
     7
370
    25
100
AcDbCircle
 10
188.4835641273201
 20
115.1933108163809
 30
0.0
 40
2.344192771415408
100
AcDbArc
 50
356.4749081676884
 51
66.74499275941076
  0
LINE
  5
185
330
1F
100
AcDbEntity
  8
0
  6
Continuous
 62
     7
370
    25
100
AcDbLine
 10
183.7522537977503
 20
115.9490510591841
 30
0.0
 11
190.8233216096157
 21
114.1189240402619
 31
0.0
  0
LINE
  5
186
330
1F
100
AcDbEntity
  8
0
  6
Continuous
 62
     7
370
    25
100
AcDbLine
 10
183.7522537977503
 20
115.9490510591841
 30
0.0
 11
183.7522537977503
 21
116.8793036145295
 31
0.0
  0
LINE
  5
187
330
1F
100
AcDbEntity
  8
0
  6
Continuous
 62
     7
370
    25
100
AcDbLine
 10
189.4091080472426
 20
117.3470536519699
 30
0.0
 11
189.6212400815986
 21
117.4019574625376
 31
0.0
  0
ARC
  5
188
330
1F
100
AcDbEntity
  8
0
  6
Continuous
 62
     7
370
    25
100
AcDbCircle
 10
188.695696161676
 20
115.2482146269486
 30
0.0
 40
2.344192771415468
100
AcDbArc
 50
356.4749081676892
 51
66.74499275940913
  0
ARC
  5
189
330
1F
100
AcDbEntity
  8
0
  6
Continuous
 62
     7
370
    25
100
AcDbCircle
 10
183.3336351531111
 20
115.9496776586358
 30
0.0
 40
0.4186191135941867
100
AcDbArc
 50
350.0201693995837
 51
359.9142382268999
  0
LINE
  5
18A
330
1F
100
AcDbEntity
  8
0
  6
Continuous
 62
     7
370
    25
100
AcDbLine
 10
194.7124089061417
 20
100.8124654901807
 30
0.0
 11
191.389007034565
 21
101.6726251890741
 31
0.0
  0
LINE
  5
18B
330
1F
100
AcDbEntity
  8
0
  6
Continuous
 62
     7
370
    25
100
AcDbLine
 10
189.8017301097364
 20
107.8631820801755
 30
0.0
 11
182.730662297871
 21
109.6933090990977
 31
0.0
  0
ARC
  5
18C
330
1F
100
AcDbEntity
  8
0
  6
Continuous
 62
     7
370
    25
100
AcDbCircle
 10
183.4738926973583
 20
109.8752255654902
 30
0.0
 40
0.7651699337185546
100
AcDbArc
 50
169.4908308867622
 51
193.7535744845466
  0
LINE
  5
18D
330
1F
100
AcDbEntity
  8
0
  6
Continuous
 62
     7
370
    25
100
AcDbLine
 10
185.3785993944793
 20
118.5000336738909
 30
0.0
 11
185.1664673601234
 21
118.4451298633232
 31
0.0
  0
LINE
  5
18E
330
1F
100
AcDbEntity
  8
0
  6
Continuous
 62
     7
370
    25
100
AcDbLine
 10
185.3785993944793
 20
118.5000336738909
 30
0.0
 11
189.6212400815986
 21
117.4019574625376
 31
0.0
  0
LINE
  5
18F
330
1F
100
AcDbEntity
  8
0
  6
Continuous
 62
     7
370
    25
100
AcDbLine
 10
184.0949212719625
 20
104.4555680561946
 30
0.0
 11
191.165989083828
 21
102.6254410372725
 31
0.0
  0
LINE
  5
190
330
1F
100
AcDbEntity
  8
0
  6
Continuous
 62
     7
370
    25
100
AcDbLine
 10
184.0949212719625
 20
104.4555680561946
 30
0.0
 11
182.730662297871
 21
109.6933090990977
 31
0.0
  0
ARC
  5
191
330
1F
100
AcDbEntity
  8
0
  6
Continuous
 62
     7
370
    25
100
AcDbCircle
 10
183.7524576131214
 20
104.3685181179892
 30
0.0
 40
0.3533540000742257
100
AcDbArc
 50
359.7132638461737
 51
14.2618260378162
  0
LWPOLYLINE
  5
192
330
1F
100
AcDbEntity
  8
0
  6
Continuous
 62
     7
370
    25
100
AcDbPolyline
 90
        3
 70
   128
 43
0.0
 10
184.8774737803078
 20
118.5043827130855
 10
185.1027000151963
 20
118.5343216999744
 10
185.3785993944793
 20
118.5000336738909
  0
LWPOLYLINE
  5
193
330
1F
100
AcDbEntity
  8
0
  6
Continuous
 62
     7
370
    25
100
AcDbPolyline
 90
        3
 70
   128
 43
0.0
 10
186.792923524937
 20
85.00507376229858
 10
186.7947894443084
 20
84.97769267107847
 10
186.8700949911066
 20
84.83009345041808
  0
LWPOLYLINE
  5
194
330
1F
100
AcDbEntity
  8
0
  6
Continuous
 62
     7
370
    25
100
AcDbPolyline
 90
        8
 70
   128
 43
0.0
 10
247.0773989809665
 20
87.63802645865526
 10
247.6161958294775
 20
87.69016915083775
 10
248.1066366720182
 20
87.76796893477461
 10
248.530690192507
 20
87.86856546040208
 10
248.8727658397495
 20
87.98826024343221
 10
249.1202870222707
 20
88.12265264207714
 10
249.2641534933296
 20
88.266801648964
 10
249.3009418456589
 20
88.38802645865526
  0
ARC
  5
195
330
1F
100
AcDbEntity
  8
0
  6
Continuous
 62
     7
370
    25
100
AcDbCircle
 10
246.2356423332586
 20
85.7626560590378
 30
0.0
 40
1.814153456362659
100
AcDbArc
 50
91.62704467576788
 51
112.3108536739391
  0
LWPOLYLINE
  5
196
330
1F
100
AcDbEntity
  8
0
  6
Continuous
 62
     7
370
    25
100
AcDbPolyline
 90
        8
 70
   128
 43
0.0
 10
245.546932685298
 20
86.69655011047692
 10
245.5469071129124
 20
86.68684360069817
 10
245.4400964880144
 20
86.06977091524764
 10
245.1269723141786
 20
85.45741886159777
 10
244.6098929082474
 20
84.85439941251296
 10
243.8927526903063
 20
84.26525425158677
 10
242.9809528525841
 20
83.69442056723106
 10
242.2621039343406
 20
83.3231987335264
  0
LWPOLYLINE
  5
197
330
1F
100
AcDbEntity
  8
0
  6
Continuous
 62
     7
370
    25
100
AcDbPolyline
 90
        5
 70
   128
 43
0.0
 10
241.4411487549319
 20
81.04557154713989
 10
241.7915050698571
 20
81.16365096695397
 10
242.0483459110121
 20
81.29686674767089
 10
242.2022283894941
 20
81.4403211408961
 10
242.2479409984038
 20
81.57535078745273
  0
LWPOLYLINE
  5
198
330
1F
100
AcDbEntity
  8
0
  6
Continuous
 62
     7
370
    25
100
AcDbPolyline
 90
        8
 70
   128
 43
0.0
 10
206.5797182756697
 20
79.51784903548996
 10
206.6021179505643
 20
79.42314237454666
 10
206.7266937254669
 20
79.27779511539372
 10
206.9561624517539
 20
79.14127356514275
 10
207.2820875907529
 20
79.01859701054767
 10
207.6924863329374
 20
78.91427571979952
 10
208.1722701522344
 20
78.83214512013923
 10
208.7037995436392
 20
78.77522478635338
  0
LWPOLYLINE
  5
199
330
1F
100
AcDbEntity
  8
0
  6
Continuous
 62
     7
370
    25
100
AcDbPolyline
 90
        3
 70
   128
 43
0.0
 10
206.3796306075305
 20
80.2513631139539
 10
206.5302440909155
 20
80.22876836549509
 10
206.5797182756696
 20
80.21916714726723
  0
ARC
  5
19A
330
1F
100
AcDbEntity
  8
0
  6
Continuous
 62
     7
370
    25
100
AcDbCircle
 10
215.7091558901961
 20
157.2647257617746
 30
0.0
 40
77.57640149120505
100
AcDbArc
 50
262.0412525316363
 51
263.0927525493519
  0
ARC
  5
19B
330
1F
100
AcDbEntity
  8
0
  6
Continuous
 62
     7
370
    25
100
AcDbCircle
 10
204.7342981916928
 20
78.78105145771288
 30
0.0
 40
1.67090053052685
100
AcDbArc
 50
81.9626498153384
 51
102.3624088619079
  0
LINE
  5
19C
330
1F
100
AcDbEntity
  8
0
  6
Continuous
 62
     7
370
    25
100
AcDbLine
 10
204.2583504521604
 20
80.38261189519532
 30
0.0
 11
204.3765675831869
 21
80.41320874016236
 31
0.0
  0
LINE
  5
19D
330
1F
100
AcDbEntity
  8
0
  6
Continuous
 62
     7
370
    25
100
AcDbLine
 10
204.2583504521604
 20
80.38261189519532
 30
0.0
 11
202.9060007170433
 21
80.73262576228296
 31
0.0
  0
LINE
  5
19E
330
1F
100
AcDbEntity
  8
0
  6
Continuous
 62
     7
370
    25
100
AcDbLine
 10
194.3204342050311
 20
82.95473388858613
 30
0.0
 11
193.6517487343621
 21
83.12780242357861
 31
0.0
  0
LINE
  5
19F
330
1F
100
AcDbEntity
  8
0
  6
Continuous
 62
     7
370
    25
100
AcDbLine
 10
193.7699658653886
 20
83.15839926854565
 30
0.0
 11
193.6517487343621
 21
83.12780242357861
 31
0.0
  0
LWPOLYLINE
  5
1A0
330
1F
100
AcDbEntity
  8
0
  6
Continuous
 62
     7
370
    25
100
AcDbPolyline
 90
        9
 70
   128
 43
0.0
 10
193.85624319284
 20
83.31145284254507
 10
193.8885327634371
 20
83.29251452422257
 10
193.9087421652783
 20
83.27248596942424
 10
193.9163542992461
 20
83.25187964992419
 10
193.9111743932344
 20
83.23122282079487
 10
193.8933349857938
 20
83.21104402950147
 10
193.86329253486
 20
83.19185959192791
 10
193.8218157383388
 20
83.1741603813726
 10
193.7699658653886
 20
83.15839926854565
  0
ARC
  5
1A1
330
1F
100
AcDbEntity
  8
0
  6
Continuous
 62
     7
370
    25
100
AcDbCircle
 10
199.7825448486599
 20
95.72902604053867
 30
0.0
 40
13.75925780859209
100
AcDbArc
 50
241.1556574623641
 51
244.4871343714579
  0
ARC
  5
1A2
330
1F
100
AcDbEntity
  8
0
  6
Continuous
 62
     7
370
    25
100
AcDbCircle
 10
218.2453318144048
 20
153.2380215041863
 30
0.0
 40
77.26202224990394
100
AcDbArc
 50
266.2462757678298
 51
283.2616439826955
  0
ARC
  5
1A3
330
1F
100
AcDbEntity
  8
0
  6
Continuous
 62
     7
370
    25
100
AcDbCircle
 10
211.7257469585365
 20
118.1320905071454
 30
0.0
 40
41.72040142961659
100
AcDbArc
 50
249.9373894902286
 51
264.6421763932181
  0
LWPOLYLINE
  5
1A7
330
1F
100
AcDbEntity
  8
0
  6
Continuous
 62
     7
370
    25
100
AcDbPolyline
 90
        3
 70
   128
 43
0.0
 10
233.5835069343611
 20
78.541309391712
 10
233.5490588806963
 20
78.53870163764456
 10
233.4932546598079
 20
78.55012869672342
  0
LWPOLYLINE
  5
1A8
330
1F
100
AcDbEntity
  8
0
  6
Continuous
 62
     7
370
    25
100
AcDbPolyline
 90
        3
 70
   128
 43
0.0
 10
215.7315026221065
 20
77.30220466071071
 10
215.7343147091202
 20
77.30324282077045
 10
215.7426396216351
 20
77.31911725796033
  0
ARC
  5
1A9
330
1F
100
AcDbEntity
  8
0
  6
Continuous
 62
     7
370
    25
100
AcDbCircle
 10
218.3174080208488
 20
168.7854801896698
 30
0.0
 40
91.50259548376091
100
AcDbArc
 50
268.3875557129667
 51
279.5467058887102
  0
LWPOLYLINE
  5
1AF
330
1F
100
AcDbEntity
  8
0
  6
Continuous
 62
     7
370
    25
100
AcDbPolyline
 90
        3
 70
   128
 43
0.0
 10
208.8103496862081
 20
76.46870152454672
 10
208.8213054543957
 20
76.469314458455
 10
208.8497859989776
 20
76.48418092882014
  0
ARC
  5
1B0
330
1F
100
AcDbEntity
  8
0
  6
Continuous
 62
     7
370
    25
100
AcDbCircle
 10
217.5393180625924
 20
186.5815379117604
 30
0.0
 40
110.4397391436325
100
AcDbArc
 50
265.4872344527711
 51
266.578503945555
  0
LWPOLYLINE
  5
1BA
330
1F
100
AcDbEntity
  8
0
  6
Continuous
 62
     7
370
    25
100
AcDbPolyline
 90
        3
 70
   128
 43
0.0
 10
205.1364470433727
 20
78.12234605960457
 10
205.1593288726731
 20
78.12163254094132
 10
205.2057213920486
 20
78.13456095639575
  0
ARC
  5
1BB
330
1F
100
AcDbEntity
  8
0
  6
Continuous
 62
     7
370
    25
100
AcDbCircle
 10
215.7516609228377
 20
153.5668534569602
 30
0.0
 40
76.1659214641153
100
AcDbArc
 50
262.0412525316361
 51
263.0927525493515
  0
ARC
  5
1BE
330
1F
100
AcDbEntity
  8
0
  6
Continuous
 62
     7
370
    25
100
AcDbCircle
 10
194.236688104936
 20
81.15991721580708
 30
0.0
 40
0.5860481928538734
100
AcDbArc
 50
176.4749081676895
 51
246.7449927594102
  0
LINE
  5
1BF
330
1F
100
AcDbEntity
  8
0
  6
Continuous
 62
     7
370
    25
100
AcDbLine
 10
193.6517487343621
 20
81.19595077100047
 30
0.0
 11
193.6517487343621
 21
83.12780242357861
 31
0.0
  0
LINE
  5
1C0
330
1F
100
AcDbEntity
  8
0
  6
Continuous
 62
     7
370
    25
100
AcDbLine
 10
204.2583504521604
 20
78.45076024261718
 30
0.0
 11
204.2583504521604
 21
80.38261189519532
 31
0.0
  0
LWPOLYLINE
  5
1C1
330
1F
100
AcDbEntity
  8
0
  6
Continuous
 62
     7
370
    25
100
AcDbPolyline
 90
        9
 70
   128
 43
0.0
 10
203.9047970615671
 20
78.05930368041876
 10
203.9737719063878
 20
78.05073167389789
 10
204.0400960866037
 20
78.06104907868378
 10
204.1012208011639
 20
78.0898594026966
 10
204.1547970615671
 20
78.13605548134156
 10
204.1987659621719
 20
78.19786202522339
 10
204.2314378027862
 20
78.2729038435222
 10
204.2515570228976
 20
78.35829712124473
 10
204.2583504521604
 20
78.45076024261718
  0
LINE
  5
1C2
330
1F
100
AcDbEntity
  8
0
  6
Continuous
 62
     7
370
    25
100
AcDbLine
 10
203.9047970615671
 20
78.05930368041876
 30
0.0
 11
194.0053021249554
 21
80.62148150690983
 31
0.0
  0
ELLIPSE
  5
1C9
330
1F
100
AcDbEntity
  8
0
  6
Continuous
 62
     7
370
    25
100
AcDbEllipse
 10
216.632719122925
 20
76.08174764754206
 30
0.0
 11
0.5
 21
0.0
 31
0.0
210
0.0
220
0.0
230
1.0
 40
0.2352187548298446
 41
3.927143110234807
 42
5.497634850534554
  0
LINE
  5
1CA
330
1F
100
AcDbEntity
  8
0
  6
Continuous
 62
     7
370
    25
100
AcDbLine
 10
216.2792195802255
 20
62.96946738197802
 30
0.0
 11
216.2792195802255
 21
75.9985725951351
 31
0.0
  0
ELLIPSE
  5
1CD
330
1F
100
AcDbEntity
  8
0
  6
Continuous
 62
     7
370
    25
100
AcDbEllipse
 10
213.8039688533977
 20
63.66872120505042
 30
0.0
 11
-0.9517029455087425
 21
3.368603161218729
 31
0.0
210
0.0
220
0.0
230
1.0
 40
0.6783163797203214
 41
2.764393372097266
 42
4.317736406372224
  0
LINE
  5
1CE
330
1F
100
AcDbEntity
  8
0
  6
Continuous
 62
     7
370
    25
100
AcDbLine
 10
198.1929396883406
 20
64.35077396476588
 30
0.0
 11
213.8471679351165
 21
60.29916155811843
 31
0.0
  0
ELLIPSE
  5
1D0
330
1F
100
AcDbEntity
  8
0
  6
Continuous
 62
     7
370
    25
100
AcDbEllipse
 10
214.1574683960972
 20
63.76864248419038
 30
0.0
 11
-1.077108520988929
 21
3.852670209710212
 31
0.0
210
0.0
220
0.0
230
1.0
 40
0.6789226323799389
 41
3.128452870359637
 42
3.235218496596901
  0
ELLIPSE
  5
1D1
330
1F
100
AcDbEntity
  8
0
  6
Continuous
 62
     7
370
    25
100
AcDbEllipse
 10
215.9206647144336
 20
64.22499127163051
 30
0.0
 11
0.7592933264660078
 21
4.128125845727283
 31
0.0
210
0.0
220
0.0
230
1.0
 40
0.6951454441744687
 41
3.454159652205598
 42
3.585458590544359
  0
ARC
  5
1F0
330
1F
100
AcDbEntity
  8
0
  6
Continuous
 62
     7
370
    25
100
AcDbCircle
 10
218.0469326852977
 20
124.5609794721231
 30
0.0
 40
1.481309463031008
100
AcDbArc
 50
257.4196020624188
 51
282.5803979375827
  0
ARC
  5
1F1
330
1F
100
AcDbEntity
  8
0
  6
Continuous
 62
     7
370
    25
100
AcDbCircle
 10
218.1398004334775
 20
122.5783346287615
 30
0.0
 40
0.5840016379158172
100
AcDbArc
 50
357.1412125621144
 51
66.83067594135282
  0
ARC
  5
1F2
330
1F
100
AcDbEntity
  8
0
  6
Continuous
 62
     7
370
    25
100
AcDbCircle
 10
218.0469326852978
 20
125.578964417114
 30
0.0
 40
3.104286377445745
100
AcDbArc
 50
257.4196020624202
 51
282.5803979375804
  0
ARC
  5
1F3
330
1F
100
AcDbEntity
  8
0
  6
Continuous
 62
     7
370
    25
100
AcDbCircle
 10
217.954064937118
 20
122.5783346287615
 30
0.0
 40
0.5840016379158172
100
AcDbArc
 50
113.1693240586472
 51
182.8587874378873
  0
ARC
  5
1F4
330
1F
100
AcDbEntity
  8
0
  6
Continuous
 62
     7
370
    25
100
AcDbCircle
 10
218.0469326852978
 20
123.286455647883
 30
0.0
 40
3.24644827862539
100
AcDbArc
 50
257.4196020624171
 51
282.5803979375835
  0
LINE
  5
1F5
330
1F
100
AcDbEntity
  8
0
  6
Continuous
 62
     7
370
    25
100
AcDbLine
 10
217.3398259041112
 20
120.1179502548326
 30
0.0
 11
217.3707900950434
 21
122.549207807939
 31
0.0
  0
LINE
  5
1F6
330
1F
100
AcDbEntity
  8
0
  6
Continuous
 62
     7
370
    25
100
AcDbLine
 10
218.723075275552
 20
122.549207807939
 30
0.0
 11
218.7540394664843
 21
120.1179502548326
 31
0.0
  0
LINE
  5
1F7
330
1F
100
AcDbEntity
  8
0
  6
Continuous
 62
     7
370
    25
100
AcDbLine
 10
271.7560838645432
 20
136.2751604498555
 30
0.0
 11
218.723075275552
 21
122.549207807939
 31
0.0
  0
LINE
  5
1F8
330
1F
100
AcDbEntity
  8
0
  6
Continuous
 62
     7
370
    25
100
AcDbLine
 10
218.3695757328526
 20
123.1152342701149
 30
0.0
 11
271.4025843218438
 21
136.8411869120313
 31
0.0
  0
ARC
  5
1F9
330
1F
100
AcDbEntity
  8
0
  6
Continuous
 62
     7
370
    25
100
AcDbCircle
 10
271.1728090224686
 20
136.3042872706779
 30
0.0
 40
0.5840016379158198
100
AcDbArc
 50
357.1412125621128
 51
66.83067594134714
  0
LINE
  5
1FA
330
1F
100
AcDbEntity
  8
0
  6
Continuous
 62
     7
370
    25
100
AcDbLine
 10
164.6912810487519
 20
136.8411869120314
 30
0.0
 11
217.7242896377429
 21
123.1152342701149
 31
0.0
  0
LINE
  5
1FB
330
1F
100
AcDbEntity
  8
0
  6
Continuous
 62
     7
370
    25
100
AcDbLine
 10
217.3707900950434
 20
122.549207807939
 30
0.0
 11
164.3377815060525
 21
136.2751604498555
 31
0.0
  0
ARC
  5
1FC
330
1F
100
AcDbEntity
  8
0
  6
Continuous
 62
     7
370
    25
100
AcDbCircle
 10
164.921056348127
 20
136.304287270678
 30
0.0
 40
0.5840016379157863
100
AcDbArc
 50
113.1693240586452
 51
182.8587874378861
  0
LWPOLYLINE
  5
1FD
330
1F
100
AcDbEntity
  8
0
  6
Continuous
 62
     7
370
    25
100
AcDbPolyline
 90
       15
 70
   128
 43
0.0
 10
212.0972625041003
 20
129.2483456673868
 10
211.1762848693334
 20
129.3000373224455
 10
208.5566382133246
 20
129.4906963526378
 10
206.0137923713531
 20
129.7415154760397
 10
203.5683254857739
 20
130.0504649228785
 10
201.240027653519
 20
130.415044500027
 10
199.0477407734743
 20
130.8323038239762
 10
197.0092060672096
 20
131.2988661970021
 10
195.1409205070105
 20
131.8109559333076
 10
193.4580033130761
 20
132.364428914001
 10
191.9740736002646
 20
132.954806123643
 10
190.7011401645365
 20
133.5773098969646
 10
189.6495043010061
 20
134.2269025824291
 10
188.8276764400536
 20
134.8983273097481
 10
188.387803825283
 20
135.3848051225359
  0
LWPOLYLINE
  5
1FE
330
1F
100
AcDbEntity
  8
0
  6
Continuous
 62
     7
370
    25
100
AcDbPolyline
 90
       15
 70
   128
 43
0.0
 10
247.7060615453127
 20
135.384805122536
 10
247.1553525323889
 20
134.7941486194551
 10
246.3023644392178
 20
134.1288114820377
 10
245.2228570982366
 20
133.4858884772901
 10
243.9254847460186
 20
132.8705338154434
 10
242.4206482078605
 20
132.2876806957619
 10
240.7204115160401
 20
131.7420017578784
 10
238.8384051944115
 20
131.2378716219944
 10
236.7897169846897
 20
130.7793318182545
 10
234.5907708904541
 20
130.3700583864494
 10
232.2591955085558
 20
130.013332405797
 10
229.8136827034942
 20
129.7120136910586
 10
227.2738377577488
 20
129.4685178658638
 10
224.6600221993853
 20
129.2847969970453
 10
223.9966028664955
 20
129.2483456673868
  0
LWPOLYLINE
  5
1FF
330
1F
100
AcDbEntity
  8
0
  6
Continuous
 62
     7
370
    25
100
AcDbPolyline
 90
        9
 70
   128
 43
0.0
 10
164.6912810487518
 20
137.0081992429856
 10
164.6345360083967
 20
136.9903034507181
 10
164.5923706394967
 20
136.9698862886029
 10
164.5664053335319
 20
136.9477323767299
 10
164.5576379226493
 20
136.9246930775085
 10
164.5664053335319
 20
136.9016537782871
 10
164.5923706394967
 20
136.8794998664141
 10
164.6345360083967
 20
136.8590827042989
 10
164.6912810487519
 20
136.8411869120314
  0
LWPOLYLINE
  5
200
330
1F
100
AcDbEntity
  8
0
  6
Continuous
 62
     7
370
    25
100
AcDbPolyline
 90
        9
 70
   128
 43
0.0
 10
271.4025843218438
 20
136.8411869120313
 10
271.459329362199
 20
136.8590827042988
 10
271.5014947310989
 20
136.8794998664141
 10
271.5274600370637
 20
136.901653778287
 10
271.5362274479464
 20
136.9246930775085
 10
271.5274600370637
 20
136.9477323767299
 10
271.5014947310989
 20
136.9698862886029
 10
271.459329362199
 20
136.9903034507181
 10
271.4025843218438
 20
137.0081992429856
  0
LINE
  5
201
330
1F
100
AcDbEntity
  8
0
  6
Continuous
 62
     7
370
    25
100
AcDbLine
 10
271.7870480554755
 20
133.843902896749
 30
0.0
 11
271.7560838645432
 21
136.2751604498555
 31
0.0
  0
LINE
  5
202
330
1F
100
AcDbEntity
  8
0
  6
Continuous
 62
     7
370
    25
100
AcDbLine
 10
218.7540394664843
 20
120.1179502548326
 30
0.0
 11
271.7870480554755
 21
133.843902896749
 31
0.0
  0
LINE
  5
203
330
1F
100
AcDbEntity
  8
0
  6
Continuous
 62
     7
370
    25
100
AcDbLine
 10
164.3377815060525
 20
136.2751604498555
 30
0.0
 11
164.3068173151202
 21
133.8439028967491
 31
0.0
  0
LINE
  5
204
330
1F
100
AcDbEntity
  8
0
  6
Continuous
 62
     7
370
    25
100
AcDbLine
 10
164.3068173151202
 20
133.8439028967491
 30
0.0
 11
217.3398259041112
 21
120.1179502548326
 31
0.0
  0
LINE
  5
205
330
1F
100
AcDbEntity
  8
0
  6
Continuous
 62
     7
370
    25
100
AcDbLine
 10
216.8423927370604
 20
93.70121630145815
 30
0.0
 11
216.6423721474028
 21
120.298464570147
 31
0.0
  0
LINE
  5
206
330
1F
100
AcDbEntity
  8
0
  6
Continuous
 62
     7
370
    25
100
AcDbLine
 10
219.4514932231927
 20
120.298464570147
 30
0.0
 11
219.2514726335351
 21
93.70121630145815
 31
0.0
  0
LINE
  5
207
330
1F
100
AcDbEntity
  8
0
  6
Continuous
 62
     7
370
    25
100
AcDbLine
 10
219.2514726335351
 20
93.70121630145815
 30
0.0
 11
216.8423927370604
 21
93.70121630145815
 31
0.0
  0
LINE
  5
208
330
1F
100
AcDbEntity
  8
0
  6
Continuous
 62
     7
370
    25
100
AcDbLine
 10
170.4698684475309
 20
105.7033087570677
 30
0.0
 11
184.1058071883435
 21
102.1740681130941
 31
0.0
  0
LINE
  5
209
330
1F
100
AcDbEntity
  8
0
  6
Continuous
 62
     7
370
    25
100
AcDbLine
 10
201.996903048188
 20
97.54351176681145
 30
0.0
 11
216.8423927370604
 21
93.70121630145815
 31
0.0
  0
LINE
  5
20A
330
1F
100
AcDbEntity
  8
0
  6
Continuous
 62
     7
370
    25
100
AcDbLine
 10
169.9869760272256
 20
132.3737696428512
 30
0.0
 11
170.4698684475309
 21
105.7033087570677
 31
0.0
  0
LINE
  5
20B
330
1F
100
AcDbEntity
  8
0
  6
Continuous
 62
     7
370
    25
100
AcDbLine
 10
265.6239969230647
 20
105.7033087570677
 30
0.0
 11
266.1068893433701
 21
132.3737696428512
 31
0.0
  0
LINE
  5
20C
330
1F
100
AcDbEntity
  8
0
  6
Continuous
 62
     7
370
    25
100
AcDbLine
 10
219.2514726335351
 20
93.70121630145815
 30
0.0
 11
265.6239969230647
 21
105.7033087570677
 31
0.0
  0
ELLIPSE
  5
20D
330
1F
100
AcDbEntity
  8
0
  6
Continuous
 62
     7
370
    25
100
AcDbEllipse
 10
242.5492816638422
 20
108.4030003530668
 30
0.0
 11
0.5847566575240251
 21
2.070814556280425
 31
0.0
210
0.0
220
0.0
230
1.0
 40
0.6782410643089252
 41
0.0
 42
6.283185307179586
  0
LINE
  5
20E
330
1F
100
AcDbEntity
  8
0
  6
Continuous
 62
     7
370
    25
100
AcDbLine
 10
246.4375773308273
 20
134.5127284946397
 30
0.0
 11
246.2031665950726
 21
134.1062541674765
 31
0.0
  0
LWPOLYLINE
  5
20F
330
1F
100
AcDbEntity
  8
0
  6
Continuous
 62
     7
370
    25
100
AcDbPolyline
 90
        8
 70
   128
 43
0.0
 10
208.7037995436389
 20
79.74115061264247
 10
208.1722701522342
 20
79.79807094642833
 10
207.6924863329371
 20
79.88020154608861
 10
207.2820875907526
 20
79.98452283683676
 10
206.9561624517536
 20
80.10719939143185
 10
206.7266937254666
 20
80.24372094168282
 10
206.602117950564
 20
80.38906820083577
 10
206.5797510883323
 20
80.48014331697712
  0
LWPOLYLINE
  5
210
330
1F
100
AcDbEntity
  8
0
  6
Continuous
 62
     7
370
    25
100
AcDbPolyline
 90
       16
 70
   128
 43
0.0
 10
241.0295982928053
 20
108.0710988883411
 10
241.1167148167954
 20
107.569618228105
 10
241.3696292628184
 20
107.1180186329088
 10
241.7481424801978
 20
106.8704975041382
 10
242.1946292628184
 20
106.8647376898636
 10
242.641116045439
 20
107.1016160695957
 10
243.0196292628184
 20
107.545070057328
 10
243.2725437088414
 20
108.1275878033487
 10
243.3613554517762
 20
108.7604862613628
 10
243.2725437088414
 20
109.3474123783762
 10
243.0196292628184
 20
109.7990119735723
 10
242.641116045439
 20
110.046533102343
 10
242.1946292628184
 20
110.0522929166175
 10
241.7481424801978
 20
109.8154145368855
 10
241.3696292628184
 20
109.3719605491532
 10
241.3656433379402
 20
109.3654576067162
  0
LWPOLYLINE
  5
211
330
1F
100
AcDbEntity
  8
0
  6
Continuous
 62
     7
370
    25
100
AcDbPolyline
 90
        3
 70
   128
 43
0.0
 10
206.5669650474949
 20
81.18768763312758
 10
206.5302440909153
 20
81.19469419178418
 10
206.3796306075303
 20
81.217288940243
  0
ARC
  5
212
330
1F
100
AcDbEntity
  8
0
  6
Continuous
 62
     7
370
    25
100
AcDbCircle
 10
215.7091558901664
 20
158.2306515878316
 30
0.0
 40
77.57640149097112
100
AcDbArc
 50
262.0412525316341
 51
263.092752549353
  0
LINE
  5
213
330
1F
100
AcDbEntity
  8
0
  6
Continuous
 62
     7
370
    25
100
AcDbLine
 10
194.3822980322872
 20
83.90464817817839
 30
0.0
 11
193.6517487343619
 21
84.09372824986772
 31
0.0
  0
LINE
  5
214
330
1F
100
AcDbEntity
  8
0
  6
Continuous
 62
     7
370
    25
100
AcDbLine
 10
193.6517487343619
 20
84.09372824986772
 30
0.0
 11
193.2624864100705
 21
99.32547404700445
 31
0.0
  0
LINE
  5
215
330
1F
100
AcDbEntity
  8
0
  6
Continuous
 62
     7
370
    25
100
AcDbLine
 10
204.2583504521601
 20
81.34853772148443
 30
0.0
 11
204.2583504521601
 21
96.9582061091658
 31
0.0
  0
LINE
  5
216
330
1F
100
AcDbEntity
  8
0
  6
Continuous
 62
     7
370
    25
100
AcDbLine
 10
202.6827890140633
 20
83.84265497666227
 30
0.0
 11
202.844136889787
 21
81.71456312526887
 31
0.0
  0
LINE
  5
217
330
1F
100
AcDbEntity
  8
0
  6
Continuous
 62
     7
370
    25
100
AcDbLine
 10
204.2583504521601
 20
81.34853772148443
 30
0.0
 11
202.844136889787
 21
81.71456312526887
 31
0.0
  0
LINE
  5
218
330
1F
100
AcDbEntity
  8
0
  6
Continuous
 62
     7
370
    25
100
AcDbLine
 10
204.3765675831866
 20
81.37913456645146
 30
0.0
 11
204.2583504521601
 21
81.34853772148443
 31
0.0
  0
ARC
  5
219
330
1F
100
AcDbEntity
  8
0
  6
Continuous
 62
     7
370
    25
100
AcDbCircle
 10
204.7342981916926
 20
79.74697728400155
 30
0.0
 40
1.670900530527278
100
AcDbArc
 50
81.96264981534145
 51
102.3624088619067
  0
LWPOLYLINE
  5
21A
330
1F
100
AcDbEntity
  8
0
  6
Continuous
 62
     7
370
    25
100
AcDbPolyline
 90
        5
 70
   128
 43
0.0
 10
242.2479081857407
 20
82.53764506893985
 10
242.2022283894939
 20
82.40624696718515
 10
242.0483459110119
 20
82.26279257395994
 10
241.7915050698568
 20
82.12957679324302
 10
241.4411487549317
 20
82.01149737342894
  0
ARC
  5
21B
330
1F
100
AcDbEntity
  8
0
  6
Continuous
 62
     7
370
    25
100
AcDbCircle
 10
240.8551517299341
 20
88.96206427032354
 30
0.0
 40
4.877145540657152
100
AcDbArc
 50
286.9830647891578
 51
344.1398356032991
  0
ARC
  5
21C
330
1F
100
AcDbEntity
  8
0
  6
Continuous
 62
     7
370
    25
100
AcDbCircle
 10
199.5634484434599
 20
96.28143592706407
 30
0.0
 40
13.29134841678677
100
AcDbArc
 50
241.1229848946287
 51
243.5555454295054
  0
LWPOLYLINE
  5
21D
330
1F
100
AcDbEntity
  8
0
  6
Continuous
 62
     7
370
    25
100
AcDbPolyline
 90
        3
 70
   128
 43
0.0
 10
271.5896940647459
 20
136.9834486209913
 10
271.5364568243522
 20
137.0068868211593
 10
271.5278657253867
 20
137.0092865027842
  0
LWPOLYLINE
  5
21E
330
1F
100
AcDbEntity
  8
0
  6
Continuous
 62
     7
370
    25
100
AcDbPolyline
 90
        3
 70
   128
 43
0.0
 10
164.565999645209
 20
137.0092865027843
 10
164.5574085462435
 20
137.0068868211594
 10
164.5044237510167
 20
136.9835981744205
  0
LWPOLYLINE
  5
21F
330
1F
100
AcDbEntity
  8
0
  6
Continuous
 62
     7
370
    25
100
AcDbPolyline
 90
        6
 70
   128
 43
0.0
 10
272.0799303367346
 20
134.0281261135752
 10
272.0799412742889
 20
134.0269155986412
 10
272.0607265546922
 20
133.9764225077883
 10
272.0038208068002
 20
133.9278698381
 10
271.9114108865915
 20
133.8831234414437
 10
271.7870480554755
 20
133.843902896749
  0
LWPOLYLINE
  5
220
330
1F
100
AcDbEntity
  8
0
  6
Continuous
 62
     7
370
    25
100
AcDbPolyline
 90
        6
 70
   128
 43
0.0
 10
164.3068173151202
 20
133.8439028967491
 10
164.1824544840042
 20
133.8831234414438
 10
164.0900445637955
 20
133.9278698381
 10
164.0331388159035
 20
133.9764225077884
 10
164.0139240963068
 20
134.0269155986413
 10
164.0139350338611
 20
134.0281261135753
  0
LWPOLYLINE
  5
221
330
1F
100
AcDbEntity
  8
0
  6
Continuous
 62
     7
370
    25
100
AcDbPolyline
 90
        3
 70
   128
 43
0.0
 10
186.8700949911064
 20
85.79601927670718
 10
186.7947894443083
 20
85.9436184973676
 10
186.7929563375997
 20
85.96736804378577
  0
ARC
  5
222
330
1F
100
AcDbEntity
  8
0
  6
Continuous
 62
     7
370
    25
100
AcDbCircle
 10
246.2254217343508
 20
86.7605293049095
 30
0.0
 40
1.781953036399178
100
AcDbArc
 50
91.32771545372441
 51
111.8986993793284
  0
ARC
  5
223
330
1F
100
AcDbEntity
  8
0
  6
Continuous
 62
     7
370
    25
100
AcDbCircle
 10
247.3717067279204
 20
91.41239784940342
 30
0.0
 40
2.823824275419282
100
AcDbArc
 50
264.0175915627077
 51
313.0932543223999
  0
ARC
  5
22B
330
1F
100
AcDbEntity
  8
0
  6
Continuous
 62
     8
370
    25
100
AcDbCircle
 10
217.5832667980378
 20
59.98933300528009
 30
0.0
 40
0.2636249306289244
100
AcDbArc
 50
217.1770650873104
 51
253.9760376219422
  0
LINE
  5
22C
330
1F
100
AcDbEntity
  8
0
  6
Continuous
 62
     8
370
    25
100
AcDbLine
 10
219.8813200435391
 20
67.28072940059579
 30
0.0
 11
221.7618610756584
 21
66.88291745287403
 31
0.0
  0
LINE
  5
22D
330
1F
100
AcDbEntity
  8
0
  6
Continuous
 62
     8
370
    25
100
AcDbLine
 10
217.5104959427874
 20
59.73595086961298
 30
0.0
 11
216.9933019989624
 21
59.86981051228657
 31
0.0
  0
LWPOLYLINE
  5
22E
330
1F
100
AcDbEntity
  8
0
  6
Continuous
 62
     8
370
    25
100
AcDbPolyline
 90
        4
 70
   128
 43
0.0
 10
188.577638629293
 20
100.0248852920678
 10
188.1039856508249
 20
100.1909894013385
 10
187.8405428356071
 20
100.3858481292384
 10
187.7946282582758
 20
100.4983689405485
  0
ARC
  5
22F
330
1F
100
AcDbEntity
  8
0
  6
Continuous
 62
     8
370
    25
100
AcDbCircle
 10
190.476163652645
 20
108.6454563010024
 30
0.0
 40
8.827153662669437
100
AcDbArc
 50
257.5799067509111
 51
274.9173430673746
  0
LWPOLYLINE
  5
230
330
1F
100
AcDbEntity
  8
0
  6
Continuous
 62
     8
370
    25
100
AcDbPolyline
 90
       13
 70
   128
 43
0.0
 10
241.2281693004548
 20
78.13975208747001
 10
241.2270334404676
 20
78.13009168677998
 10
241.0787434553782
 20
77.92724706933265
 10
240.7060326871976
 20
77.74472705296718
 10
240.142018123293
 20
77.59874934211346
 10
239.4368149328045
 20
77.50228469699356
 10
238.6530835139401
 20
77.46390442465444
 10
237.8604618426148
 20
77.48701878072254
 10
237.1293778326885
 20
77.56957395322547
 10
236.5247915067527
 20
77.70423455279895
 10
236.1004230130501
 20
77.87903539422261
 10
235.8939793545566
 20
78.07844465563507
 10
235.8778893789613
 20
78.13975208747006
  0
LWPOLYLINE
  5
231
330
1F
100
AcDbEntity
  8
0
  6
Continuous
 62
     8
370
    25
100
AcDbPolyline
 90
        4
 70
   128
 43
0.0
 10
199.1842403470912
 20
97.27969476368447
 10
198.7105873686232
 20
97.44579887295524
 10
198.4471445534052
 20
97.64065760085509
 10
198.401229976074
 20
97.75317841216524
  0
ARC
  5
232
330
1F
100
AcDbEntity
  8
0
  6
Continuous
 62
     8
370
    25
100
AcDbCircle
 10
201.0827653704432
 20
105.9002657726191
 30
0.0
 40
8.82715366266938
100
AcDbArc
 50
257.5799067509106
 51
274.9173430673741
  0
LWPOLYLINE
  5
235
330
1F
100
AcDbEntity
  8
0
  6
Continuous
 62
     8
370
    25
100
AcDbPolyline
 90
       12
 70
   128
 43
0.0
 10
213.216320338071
 20
76.19712044234478
 10
213.1704057607398
 20
76.08459963103462
 10
212.9069629455219
 20
75.88974090313474
 10
212.4333099670538
 20
75.72363679386396
 10
211.7915329710644
 20
75.60104638226689
 10
211.0386566600391
 20
75.53286236439308
 10
210.2415773981559
 20
75.52514318945123
 10
209.4711191757578
 20
75.57857474000998
 10
208.7957405870052
 20
75.68840938832169
 10
208.2754519833588
 20
75.84488784388243
 10
207.9564832905015
 20
76.03410630922129
 10
207.8660404165775
 20
76.19712044234475
  0
LINE
  5
236
330
1F
100
AcDbEntity
  8
0
  6
Continuous
 62
     8
370
    25
100
AcDbLine
 10
202.6085825920305
 20
84.8213978410539
 30
0.0
 11
201.9406550512048
 21
84.6485254727397
 31
0.0
  0
LINE
  5
237
330
1F
100
AcDbEntity
  8
0
  6
Continuous
 62
     8
370
    25
100
AcDbLine
 10
200.5318229983993
 20
86.77663772627605
 30
0.0
 11
201.1772168057018
 21
86.94367793519719
 31
0.0
  0
LINE
  5
238
330
1F
100
AcDbEntity
  8
0
  6
Continuous
 62
     8
370
    25
100
AcDbLine
 10
196.6094564330525
 20
88.12590131310341
 30
0.0
 11
195.9640626257499
 21
87.95886110418229
 31
0.0
  0
LINE
  5
239
330
1F
100
AcDbEntity
  8
0
  6
Continuous
 62
     8
370
    25
100
AcDbLine
 10
202.0671580447633
 20
97.37665005759798
 30
0.0
 11
202.2077407867191
 21
97.3402645665671
 31
0.0
  0
ARC
  5
23A
330
1F
100
AcDbEntity
  8
0
  6
Continuous
 62
     8
370
    25
100
AcDbCircle
 10
213.6604904047617
 20
131.4254289219047
 30
0.0
 40
54.80302382237671
100
AcDbArc
 50
255.984317384087
 51
262.7634498849035
  0
ARC
  5
23B
330
1F
100
AcDbEntity
  8
0
  6
Continuous
 62
     8
370
    25
100
AcDbCircle
 10
218.5062847063706
 20
152.8097873684306
 30
0.0
 40
76.5095856593654
100
AcDbArc
 50
266.0546797035145
 51
283.1127092298168
  0
ARC
  5
23C
330
1F
100
AcDbEntity
  8
0
  6
Continuous
 62
     8
370
    25
100
AcDbCircle
 10
204.5346546995562
 20
96.97368395216397
 30
0.0
 40
19.17355634198683
100
AcDbArc
 50
239.906806398355
 51
257.5096328009685
  0
LINE
  5
24C
330
1F
100
AcDbEntity
  8
0
  6
Continuous
 62
     8
370
    25
100
AcDbLine
 10
216.2792195802255
 20
75.9985725951351
 30
0.0
 11
216.2779097331582
 21
76.03218274143478
 31
0.0
  0
LINE
  5
24D
330
1F
100
AcDbEntity
  8
0
  6
Continuous
 62
     8
370
    25
100
AcDbLine
 10
216.9862186656243
 20
75.9985725951351
 30
0.0
 11
216.9869222243202
 21
76.02155770792857
 31
0.0
  0
LINE
  5
24E
330
1F
100
AcDbEntity
  8
0
  6
Continuous
 62
     8
370
    25
100
AcDbLine
 10
216.2792195802255
 20
75.9985725951351
 30
0.0
 11
216.1388865030554
 21
76.03489346816455
 31
0.0
  0
LINE
  5
24F
330
1F
100
AcDbEntity
  8
0
  6
Continuous
 62
     8
370
    25
100
AcDbLine
 10
217.0715059337268
 20
76.02064656442475
 30
0.0
 11
216.9862186656243
 21
75.9985725951351
 31
0.0
  0
ELLIPSE
  5
251
330
1F
100
AcDbEntity
  8
0
  6
Continuous
 62
     8
370
    25
100
AcDbEllipse
 10
198.1497406066218
 20
67.72033361169787
 30
0.0
 11
-0.9517029455087709
 21
3.368603161218729
 31
0.0
210
0.0
220
0.0
230
1.0
 40
0.6783163797203204
 41
1.53828230117276
 42
2.764393372097255
  0
LINE
  5
252
330
1F
100
AcDbEntity
  8
0
  6
Continuous
 62
     8
370
    25
100
AcDbLine
 10
195.3801956248838
 20
79.87664258511002
 30
0.0
 11
195.6071356554144
 21
70.99653104971219
 31
0.0
  0
LINE
  5
25A
330
1F
100
AcDbEntity
  8
0
  6
Continuous
 62
     8
370
    25
100
AcDbLine
 10
193.85624319284
 20
83.18835839643846
 30
0.0
 11
193.85624319284
 21
83.31145284254507
 31
0.0
  0
ARC
  5
26A
330
1F
100
AcDbEntity
  8
0
  6
Continuous
 62
     8
370
    25
100
AcDbCircle
 10
259.6461785137857
 20
203.1670337046227
 30
0.0
 40
4.926239015057645
100
AcDbArc
 50
75.76369377162187
 51
105.2307688068164
  0
ARC
  5
26D
330
1F
100
AcDbEntity
  8
0
  6
Continuous
 62
     8
370
    25
100
AcDbCircle
 10
176.44768685681
 20
203.1670337046227
 30
0.0
 40
4.926239015057624
100
AcDbArc
 50
74.76923119318349
 51
104.2363062283785
  0
LINE
  5
272
330
1F
100
AcDbEntity
  8
0
  6
Continuous
 62
     8
370
    25
100
AcDbLine
 10
173.4033858226411
 20
139.2630578813967
 30
0.0
 11
164.6912810487518
 21
137.0081992429856
 31
0.0
  0
LINE
  5
273
330
1F
100
AcDbEntity
  8
0
  6
Continuous
 62
     8
370
    25
100
AcDbLine
 10
271.4025843218438
 20
137.0081992429856
 30
0.0
 11
262.6904795479545
 21
139.2630578813967
 31
0.0
  0
LWPOLYLINE
  5
286
330
1F
100
AcDbEntity
  8
0
  6
Continuous
 62
     8
370
    25
100
AcDbPolyline
 90
        6
 70
   128
 43
0.0
 10
272.0361412486428
 20
136.4512935238777
 10
272.0361512955246
 20
136.4501590294183
 10
272.017777988091
 20
136.4018770299415
 10
271.9633641416908
 20
136.3554504806278
 10
271.8750008499255
 20
136.3126635277309
 10
271.7560838645432
 20
136.2751604498555
  0
LWPOLYLINE
  5
287
330
1F
100
AcDbEntity
  8
0
  6
Continuous
 62
     8
370
    25
100
AcDbPolyline
 90
        3
 70
   128
 43
0.0
 10
271.5278657253867
 20
137.0092865027842
 10
271.4708024902368
 20
137.0167798389773
 10
271.4025843218438
 20
137.0081992429856
  0
LWPOLYLINE
  5
288
330
1F
100
AcDbEntity
  8
0
  6
Continuous
 62
     8
370
    25
100
AcDbPolyline
 90
        6
 70
   128
 43
0.0
 10
164.3377815060525
 20
136.2751604498555
 10
164.2188645206701
 20
136.3126635277309
 10
164.1305012289049
 20
136.3554504806278
 10
164.0760873825047
 20
136.4018770299415
 10
164.0577140750711
 20
136.4501590294183
 10
164.0577321593386
 20
136.4516811052235
  0
LWPOLYLINE
  5
289
330
1F
100
AcDbEntity
  8
0
  6
Continuous
 62
     8
370
    25
100
AcDbPolyline
 90
        3
 70
   128
 43
0.0
 10
164.6912810487518
 20
137.0081992429856
 10
164.6230628803588
 20
137.0167798389774
 10
164.565999645209
 20
137.0092865027843
  0
MTEXT
  5
2BF
330
1F
100
AcDbEntity
  8
0
100
AcDbMText
 10
289.845438863537
 20
75.86594556332903
 30
0.0
 40
6.0
 41
231.4298032286652
 46
3.0
 71
     1
 72
     5
  1
{\fＭＳ Ｐゴシック|b0|i0|c0|p0;HBE-D22T}
 73
     1
 44
1.0
  0
LINE
  5
2E9
330
1F
100
AcDbEntity
  8
0
100
AcDbLine
 10
172.3815391435762
 20
203.1274817909884
 30
0.0
 11
212.3263186571211
 21
192.0262247338463
 31
0.0
  0
LINE
  5
2EC
330
1F
100
AcDbEntity
  8
0
100
AcDbLine
 10
223.7675467134748
 20
192.0262247338463
 30
0.0
 11
264.0726332411079
 21
202.4579487417029
 31
0.0
  0
LINE
  5
2EE
330
1F
100
AcDbEntity
  8
0
100
AcDbLine
 10
218.0469326852984
 20
185.2101040932895
 30
0.0
 11
218.0469326852984
 21
132.0841836473908
 31
0.0
  0
ENDSEC
  0
SECTION
  2
OBJECTS
  0
DICTIONARY
  5
C
330
0
100
AcDbDictionary
281
     1
  3
ACAD_DETAILVIEWSTYLE
350
2C5
  3
ACAD_GROUP
350
D
  3
ACAD_LAYOUT
350
1A
  3
ACAD_MATERIAL
350
2E1
  3
ACAD_MLEADERSTYLE
350
2E7
  3
ACAD_MLINESTYLE
350
17
  3
ACAD_PLOTSETTINGS
350
19
  3
ACAD_PLOTSTYLENAME
350
E
  3
ACAD_SCALELIST
350
47
  3
ACAD_SECTIONVIEWSTYLE
350
2C6
  3
ACAD_TABLESTYLE
350
2E5
  3
ACAD_VISUALSTYLE
350
2C8
  3
ACDB_RECOMPOSE_DATA
350
2F7
  3
AcDbVariableDictionary
350
2C0
  3
APPDATA
350
2AE
  0
SUN
  5
2F3
330
29
100
AcDbSun
 90
        1
290
     0
 63
     7
421
 16777215
 40
1.0
291
     1
 91
  2455826
 92
 54000000
292
     0
 70
     2
 71
   256
280
     1
  0
DICTIONARY
  5
2BA
330
2
100
AcDbDictionary
280
     1
281
     1
  3
ACAD_LAYERSTATES
360
2BB
  0
DICTIONARY
  5
2C5
102
{ACAD_REACTORS
330
C
102
}
330
C
100
AcDbDictionary
281
     1
  0
DICTIONARY
  5
D
102
{ACAD_REACTORS
330
C
102
}
330
C
100
AcDbDictionary
281
     1
  0
DICTIONARY
  5
1A
102
{ACAD_REACTORS
330
C
102
}
330
C
100
AcDbDictionary
281
     1
  3
Layout1
350
1E
  3
Layout2
350
26
  3
Model
350
22
  0
DICTIONARY
  5
2E1
102
{ACAD_REACTORS
330
C
102
}
330
C
100
AcDbDictionary
281
     1
  3
ByBlock
350
2E3
  3
ByLayer
350
2E2
  3
Global
350
2E4
  0
DICTIONARY
  5
2E7
102
{ACAD_REACTORS
330
C
102
}
330
C
100
AcDbDictionary
281
     1
  3
Standard
350
2E8
  0
DICTIONARY
  5
17
102
{ACAD_REACTORS
330
C
102
}
330
C
100
AcDbDictionary
281
     1
  3
Standard
350
18
  0
DICTIONARY
  5
19
102
{ACAD_REACTORS
330
C
102
}
330
C
100
AcDbDictionary
281
     1
  0
ACDBDICTIONARYWDFLT
  5
E
102
{ACAD_REACTORS
330
C
102
}
330
C
100
AcDbDictionary
281
     1
  3
Normal
350
F
100
AcDbDictionaryWithDefault
340
F
  0
DICTIONARY
  5
47
102
{ACAD_REACTORS
330
C
102
}
330
C
100
AcDbDictionary
281
     1
  3
A0
350
48
  3
A1
350
49
  3
A2
350
4A
  3
A3
350
4B
  3
A4
350
4C
  3
A5
350
4D
  3
A6
350
4E
  3
A7
350
4F
  3
A8
350
50
  3
A9
350
51
  3
B0
350
52
  3
B1
350
53
  3
B2
350
54
  3
B3
350
55
  3
B4
350
56
  3
B5
350
57
  3
B6
350
58
  3
B7
350
59
  3
B8
350
5A
  3
B9
350
5B
  3
C0
350
5C
  3
C1
350
5D
  3
C2
350
5E
  3
C3
350
5F
  3
C4
350
60
  3
C5
350
61
  3
C6
350
62
  3
C7
350
63
  3
C8
350
64
  3
C9
350
65
  3
D0
350
66
  3
D1
350
67
  3
D2
350
68
  0
DICTIONARY
  5
2C6
102
{ACAD_REACTORS
330
C
102
}
330
C
100
AcDbDictionary
281
     1
  0
DICTIONARY
  5
2E5
102
{ACAD_REACTORS
330
C
102
}
330
C
100
AcDbDictionary
281
     1
  3
Standard
350
2E6
  0
DICTIONARY
  5
2C8
102
{ACAD_REACTORS
330
C
102
}
330
C
100
AcDbDictionary
281
     1
  3
2dWireframe
350
2CD
  3
Basic
350
2D0
  3
Brighten
350
2D4
  3
ColorChange
350
2D8
  3
Conceptual
350
2D2
  3
Dim
350
2D3
  3
EdgeColorOff
350
2DB
  3
Facepattern
350
2D7
  3
Flat
350
2C9
  3
FlatWithEdges
350
2CA
  3
Gouraud
350
2CB
  3
GouraudWithEdges
350
2CC
  3
Hidden
350
2CF
  3
JitterOff
350
2D9
  3
Linepattern
350
2D6
  3
OverhangOff
350
2DA
  3
Realistic
350
2D1
  3
Shaded
350
2E0
  3
Shaded with edges
350
2DF
  3
Shades of Gray
350
2DC
  3
Sketchy
350
2DD
  3
Thicken
350
2D5
  3
Wireframe
350
2CE
  3
X-Ray
350
2DE
  0
XRECORD
  5
2F7
102
{ACAD_REACTORS
330
C
102
}
330
C
100
AcDbXrecord
280
     1
 90
        1
330
2E6
  0
DICTIONARY
  5
2C0
102
{ACAD_REACTORS
330
C
102
}
330
C
100
AcDbDictionary
281
     1
  3
CANNOSCALE
350
2EF
  3
CMLEADERSTYLE
350
2F1
  3
CTABLESTYLE
350
2F0
  3
MSLTSCALE
350
2F2
  0
DICTIONARY
  5
2AE
102
{ACAD_REACTORS
330
C
102
}
330
C
100
AcDbDictionary
281
     1
  0
DICTIONARY
  5
2BB
102
{ACAD_REACTORS
330
2BA
102
}
330
2BA
100
AcDbDictionary
281
     1
  0
LAYOUT
  5
1E
102
{ACAD_REACTORS
330
1A
102
}
330
1A
100
AcDbPlotSettings
  1

  2
none_device
  4

  6

 40
0.0
 41
0.0
 42
0.0
 43
0.0
 44
0.0
 45
0.0
 46
0.0
 47
0.0
 48
0.0
 49
0.0
140
0.0
141
0.0
142
1.0
143
1.0
 70
   688
 72
     1
 73
     0
 74
     5
  7

 75
    16
 76
     0
 77
     2
 78
   300
147
1.0
148
0.0
149
0.0
100
AcDbLayout
  1
Layout1
 70
     1
 71
     1
 10
0.0
 20
0.0
 11
420.0
 21
297.0
 12
0.0
 22
0.0
 32
0.0
 14
1.000000000000000E+20
 24
1.000000000000000E+20
 34
1.000000000000000E+20
 15
-1.000000000000000E+20
 25
-1.000000000000000E+20
 35
-1.000000000000000E+20
146
0.0
 13
0.0
 23
0.0
 33
0.0
 16
1.0
 26
0.0
 36
0.0
 17
0.0
 27
1.0
 37
0.0
 76
     0
330
1B
  0
LAYOUT
  5
26
102
{ACAD_REACTORS
330
1A
102
}
330
1A
100
AcDbPlotSettings
  1

  2
none_device
  4

  6

 40
0.0
 41
0.0
 42
0.0
 43
0.0
 44
0.0
 45
0.0
 46
0.0
 47
0.0
 48
0.0
 49
0.0
140
0.0
141
0.0
142
1.0
143
1.0
 70
   688
 72
     1
 73
     0
 74
     5
  7

 75
    16
 76
     0
 77
     2
 78
   300
147
1.0
148
0.0
149
0.0
100
AcDbLayout
  1
Layout2
 70
     1
 71
     2
 10
0.0
 20
0.0
 11
0.0
 21
0.0
 12
0.0
 22
0.0
 32
0.0
 14
0.0
 24
0.0
 34
0.0
 15
0.0
 25
0.0
 35
0.0
146
0.0
 13
0.0
 23
0.0
 33
0.0
 16
1.0
 26
0.0
 36
0.0
 17
0.0
 27
1.0
 37
0.0
 76
     0
330
23
  0
LAYOUT
  5
22
102
{ACAD_REACTORS
330
1A
102
}
330
1A
100
AcDbPlotSettings
  1

  2
none_device
  4
Letter_(8.50_x_11.00_Inches)
  6

 40
6.35
 41
6.35
 42
6.35000508
 43
6.35000508
 44
215.9
 45
279.4
 46
0.0
 47
0.0
 48
0.0
 49
0.0
140
0.0
141
0.0
142
1.0
143
1.0
 70
  1712
 72
     1
 73
     0
 74
     0
  7

 75
     0
 76
     0
 77
     2
 78
   300
147
1.0
148
0.0
149
0.0
100
AcDbLayout
  1
Model
 70
     1
 71
     0
 10
0.0
 20
0.0
 11
431.8
 21
279.4
 12
0.0
 22
0.0
 32
0.0
 14
164.0139240963068
 24
59.11095878051771
 34
0.0
 15
328.9861166176948
 25
218.6927070547209
 35
0.0
146
0.0
 13
0.0
 23
0.0
 33
0.0
 16
1.0
 26
0.0
 36
0.0
 17
0.0
 27
1.0
 37
0.0
 76
     0
330
1F
331
29
  0
MATERIAL
  5
2E3
102
{ACAD_REACTORS
330
2E1
102
}
330
2E1
100
AcDbMaterial
  1
ByBlock
 72
     1
 94
      127
  0
MATERIAL
  5
2E2
102
{ACAD_REACTORS
330
2E1
102
}
330
2E1
100
AcDbMaterial
  1
ByLayer
 72
     1
 94
      127
  0
MATERIAL
  5
2E4
102
{ACAD_REACTORS
330
2E1
102
}
330
2E1
100
AcDbMaterial
  1
Global
 72
     1
 94
      127
  0
MLEADERSTYLE
  5
2E8
102
{ACAD_REACTORS
330
2E7
102
}
330
2E7
100
AcDbMLeaderStyle
179
     2
170
     2
171
     1
172
     0
 90
        2
 40
0.0
 41
0.0
173
     1
 91
-1056964608
340
14
 92
       -2
290
     1
 42
2.0
291
     1
 43
8.0
  3
Standard
341
0
 44
4.0
300

342
11
174
     1
178
     1
175
     1
176
     0
 93
-1056964608
 45
4.0
292
     0
297
     0
 46
4.0
343
0
 94
-1056964608
 47
1.0
 49
1.0
140
1.0
293
     1
141
0.0
294
     1
177
     0
142
1.0
295
     0
296
     0
143
3.75
271
     0
272
     9
273
     9
298
     0
  0
MLINESTYLE
  5
18
102
{ACAD_REACTORS
330
17
102
}
330
17
100
AcDbMlineStyle
  2
Standard
 70
     0
  3

 62
   256
 51
90.0
 52
90.0
 71
     2
 49
0.5
 62
   256
  6
BYLAYER
 49
-0.5
 62
   256
  6
BYLAYER
  0
ACDBPLACEHOLDER
  5
F
102
{ACAD_REACTORS
330
E
102
}
330
E
  0
SCALE
  5
48
102
{ACAD_REACTORS
330
47
102
}
330
47
100
AcDbScale
 70
     0
300
1:1
140
1.0
141
1.0
290
     1
  0
SCALE
  5
49
102
{ACAD_REACTORS
330
47
102
}
330
47
100
AcDbScale
 70
     0
300
1:2
140
1.0
141
2.0
290
     0
  0
SCALE
  5
4A
102
{ACAD_REACTORS
330
47
102
}
330
47
100
AcDbScale
 70
     0
300
1:4
140
1.0
141
4.0
290
     0
  0
SCALE
  5
4B
102
{ACAD_REACTORS
330
47
102
}
330
47
100
AcDbScale
 70
     0
300
1:5
140
1.0
141
5.0
290
     0
  0
SCALE
  5
4C
102
{ACAD_REACTORS
330
47
102
}
330
47
100
AcDbScale
 70
     0
300
1:8
140
1.0
141
8.0
290
     0
  0
SCALE
  5
4D
102
{ACAD_REACTORS
330
47
102
}
330
47
100
AcDbScale
 70
     0
300
1:10
140
1.0
141
10.0
290
     0
  0
SCALE
  5
4E
102
{ACAD_REACTORS
330
47
102
}
330
47
100
AcDbScale
 70
     0
300
1:16
140
1.0
141
16.0
290
     0
  0
SCALE
  5
4F
102
{ACAD_REACTORS
330
47
102
}
330
47
100
AcDbScale
 70
     0
300
1:20
140
1.0
141
20.0
290
     0
  0
SCALE
  5
50
102
{ACAD_REACTORS
330
47
102
}
330
47
100
AcDbScale
 70
     0
300
1:30
140
1.0
141
30.0
290
     0
  0
SCALE
  5
51
102
{ACAD_REACTORS
330
47
102
}
330
47
100
AcDbScale
 70
     0
300
1:40
140
1.0
141
40.0
290
     0
  0
SCALE
  5
52
102
{ACAD_REACTORS
330
47
102
}
330
47
100
AcDbScale
 70
     0
300
1:50
140
1.0
141
50.0
290
     0
  0
SCALE
  5
53
102
{ACAD_REACTORS
330
47
102
}
330
47
100
AcDbScale
 70
     0
300
1:100
140
1.0
141
100.0
290
     0
  0
SCALE
  5
54
102
{ACAD_REACTORS
330
47
102
}
330
47
100
AcDbScale
 70
     0
300
2:1
140
2.0
141
1.0
290
     0
  0
SCALE
  5
55
102
{ACAD_REACTORS
330
47
102
}
330
47
100
AcDbScale
 70
     0
300
4:1
140
4.0
141
1.0
290
     0
  0
SCALE
  5
56
102
{ACAD_REACTORS
330
47
102
}
330
47
100
AcDbScale
 70
     0
300
8:1
140
8.0
141
1.0
290
     0
  0
SCALE
  5
57
102
{ACAD_REACTORS
330
47
102
}
330
47
100
AcDbScale
 70
     0
300
10:1
140
10.0
141
1.0
290
     0
  0
SCALE
  5
58
102
{ACAD_REACTORS
330
47
102
}
330
47
100
AcDbScale
 70
     0
300
100:1
140
100.0
141
1.0
290
     0
  0
SCALE
  5
59
102
{ACAD_REACTORS
330
47
102
}
330
47
100
AcDbScale
 70
     0
300
1/128" = 1'-0"
140
0.0078125
141
12.0
290
     0
  0
SCALE
  5
5A
102
{ACAD_REACTORS
330
47
102
}
330
47
100
AcDbScale
 70
     0
300
1/64" = 1'-0"
140
0.015625
141
12.0
290
     0
  0
SCALE
  5
5B
102
{ACAD_REACTORS
330
47
102
}
330
47
100
AcDbScale
 70
     0
300
1/32" = 1'-0"
140
0.03125
141
12.0
290
     0
  0
SCALE
  5
5C
102
{ACAD_REACTORS
330
47
102
}
330
47
100
AcDbScale
 70
     0
300
1/16" = 1'-0"
140
0.0625
141
12.0
290
     0
  0
SCALE
  5
5D
102
{ACAD_REACTORS
330
47
102
}
330
47
100
AcDbScale
 70
     0
300
3/32" = 1'-0"
140
0.09375
141
12.0
290
     0
  0
SCALE
  5
5E
102
{ACAD_REACTORS
330
47
102
}
330
47
100
AcDbScale
 70
     0
300
1/8" = 1'-0"
140
0.125
141
12.0
290
     0
  0
SCALE
  5
5F
102
{ACAD_REACTORS
330
47
102
}
330
47
100
AcDbScale
 70
     0
300
3/16" = 1'-0"
140
0.1875
141
12.0
290
     0
  0
SCALE
  5
60
102
{ACAD_REACTORS
330
47
102
}
330
47
100
AcDbScale
 70
     0
300
1/4" = 1'-0"
140
0.25
141
12.0
290
     0
  0
SCALE
  5
61
102
{ACAD_REACTORS
330
47
102
}
330
47
100
AcDbScale
 70
     0
300
3/8" = 1'-0"
140
0.375
141
12.0
290
     0
  0
SCALE
  5
62
102
{ACAD_REACTORS
330
47
102
}
330
47
100
AcDbScale
 70
     0
300
1/2" = 1'-0"
140
0.5
141
12.0
290
     0
  0
SCALE
  5
63
102
{ACAD_REACTORS
330
47
102
}
330
47
100
AcDbScale
 70
     0
300
3/4" = 1'-0"
140
0.75
141
12.0
290
     0
  0
SCALE
  5
64
102
{ACAD_REACTORS
330
47
102
}
330
47
100
AcDbScale
 70
     0
300
1" = 1'-0"
140
1.0
141
12.0
290
     0
  0
SCALE
  5
65
102
{ACAD_REACTORS
330
47
102
}
330
47
100
AcDbScale
 70
     0
300
1-1/2" = 1'-0"
140
1.5
141
12.0
290
     0
  0
SCALE
  5
66
102
{ACAD_REACTORS
330
47
102
}
330
47
100
AcDbScale
 70
     0
300
3" = 1'-0"
140
3.0
141
12.0
290
     0
  0
SCALE
  5
67
102
{ACAD_REACTORS
330
47
102
}
330
47
100
AcDbScale
 70
     0
300
6" = 1'-0"
140
6.0
141
12.0
290
     0
  0
SCALE
  5
68
102
{ACAD_REACTORS
330
47
102
}
330
47
100
AcDbScale
 70
     0
300
1'-0" = 1'-0"
140
12.0
141
12.0
290
     0
  0
TABLESTYLE
  5
2E6
102
{ACAD_REACTORS
330
2E5
102
}
102
{ACAD_XDICTIONARY
360
2F5
102
}
330
2E5
100
AcDbTableStyle
  3
Standard
 70
     0
 71
     0
 40
1.5
 41
1.5
280
     0
281
     0
  7
Standard
140
4.5
170
     2
 62
     0
 63
   257
283
     0
 90
        4
 91
        0
  1

274
    -2
284
     1
 64
     0
275
    -2
285
     1
 65
     0
276
    -2
286
     1
 66
     0
277
    -2
287
     1
 67
     0
278
    -2
288
     1
 68
     0
279
    -2
289
     1
 69
     0
  7
Standard
140
6.0
170
     5
 62
     0
 63
   257
283
     0
 90
        4
 91
        0
  1

274
    -2
284
     1
 64
     0
275
    -2
285
     1
 65
     0
276
    -2
286
     1
 66
     0
277
    -2
287
     1
 67
     0
278
    -2
288
     1
 68
     0
279
    -2
289
     1
 69
     0
  7
Standard
140
4.5
170
     5
 62
     0
 63
   257
283
     0
 90
        4
 91
        0
  1

274
    -2
284
     1
 64
     0
275
    -2
285
     1
 65
     0
276
    -2
286
     1
 66
     0
277
    -2
287
     1
 67
     0
278
    -2
288
     1
 68
     0
279
    -2
289
     1
 69
     0
  0
VISUALSTYLE
  5
2CD
102
{ACAD_REACTORS
330
2C8
102
}
330
2C8
100
AcDbVisualStyle
  2
2dWireframe
 70
     4
177
     3
291
     0
 70
    58
 90
        0
176
     1
 90
        2
176
     1
 90
        0
176
     1
 90
        0
176
     1
 40
0.6
176
     1
 40
30.0
176
     1
 62
     7
420
 16777215
176
     1
 90
        1
176
     1
 90
        4
176
     1
 62
     7
176
     1
 62
   257
176
     1
 90
        1
176
     1
 90
        1
176
     1
 40
1.0
176
     1
 90
        0
176
     1
 62
   257
176
     1
 40
1.0
176
     1
 90
        1
176
     1
 90
        6
176
     1
 90
        2
176
     1
 62
     7
176
     1
 90
        5
176
     1
 90
        0
176
     1
 90
        0
176
     1
290
     0
176
     1
 90
        1
176
     1
 40
0.0
176
     1
 90
        0
176
     1
290
     1
176
     1
290
     1
176
     1
290
     0
176
     1
290
     0
176
     1
290
     0
176
     1
290
     0
176
     1
290
     0
176
     1
290
     0
176
     1
290
     0
176
     1
 90
       50
176
     1
 40
0.0
176
     1
 40
1.0
176
     1
 90
        0
176
     1
 62
    18
420
        0
176
     1
 90
       50
176
     1
 90
        3
176
     1
 62
     5
420
      255
176
     1
290
     0
176
     1
 90
       50
176
     1
 90
       50
176
     1
 90
       50
176
     1
290
     0
176
     1
 90
       50
176
     1
 62
   256
176
     0
 40
1.0
176
     0
 90
        2
176
     1
  1
strokes_ogs.tif
176
     1
290
     0
176
     1
 40
1.0
176
     1
 40
1.0
176
     1
  0
VISUALSTYLE
  5
2D0
102
{ACAD_REACTORS
330
2C8
102
}
330
2C8
100
AcDbVisualStyle
  2
Basic
 70
     7
177
     3
291
     1
 70
    58
 90
        1
176
     1
 90
        0
176
     1
 90
        1
176
     1
 90
        0
176
     1
 40
0.6
176
     1
 40
30.0
176
     1
 62
     7
420
 16777215
176
     1
 90
        0
176
     1
 90
        4
176
     1
 62
     7
176
     1
 62
   257
176
     1
 90
        1
176
     1
 90
        1
176
     1
 40
1.0
176
     1
 90
        8
176
     1
 62
     7
176
     1
 40
1.0
176
     1
 90
        1
176
     1
 90
        6
176
     1
 90
        2
176
     1
 62
     7
176
     1
 90
        5
176
     1
 90
        0
176
     1
 90
        0
176
     1
290
     0
176
     1
 90
        1
176
     1
 40
0.0
176
     1
 90
        0
176
     1
290
     0
176
     1
290
     1
176
     1
290
     1
176
     1
290
     0
176
     1
290
     0
176
     1
290
     0
176
     1
290
     0
176
     1
290
     0
176
     1
290
     0
176
     1
 90
       50
176
     1
 40
0.0
176
     1
 40
1.0
176
     1
 90
        0
176
     1
 62
    18
420
        0
176
     1
 90
       50
176
     1
 90
        3
176
     1
 62
     5
420
      255
176
     1
290
     0
176
     1
 90
       50
176
     1
 90
       50
176
     1
 90
       50
176
     1
290
     0
176
     1
 90
       50
176
     1
 62
   256
176
     0
 40
1.0
176
     0
 90
        2
176
     1
  1
strokes_ogs.tif
176
     1
290
     0
176
     1
 40
1.0
176
     1
 40
1.0
176
     1
  0
VISUALSTYLE
  5
2D4
102
{ACAD_REACTORS
330
2C8
102
}
330
2C8
100
AcDbVisualStyle
  2
Brighten
 70
    12
177
     3
291
     1
 70
    58
 90
        2
176
     1
 90
        2
176
     1
 90
        0
176
     1
 90
        0
176
     1
 40
0.6
176
     1
 40
30.0
176
     1
 62
     7
420
 16777215
176
     1
 90
        1
176
     1
 90
        4
176
     1
 62
     7
176
     1
 62
   257
176
     1
 90
        1
176
     1
 90
        1
176
     1
 40
1.0
176
     1
 90
        8
176
     1
 62
     7
176
     1
 40
1.0
176
     1
 90
        1
176
     1
 90
        6
176
     1
 90
        2
176
     1
 62
     7
176
     1
 90
        5
176
     1
 90
        0
176
     1
 90
        0
176
     1
290
     0
176
     1
 90
        1
176
     1
 40
50.0
176
     1
 90
        0
176
     1
290
     0
176
     1
290
     1
176
     1
290
     1
176
     1
290
     0
176
     1
290
     0
176
     1
290
     0
176
     1
290
     0
176
     1
290
     0
176
     1
290
     0
176
     1
 90
       50
176
     1
 40
0.0
176
     1
 40
1.0
176
     1
 90
        0
176
     1
 62
    18
420
        0
176
     1
 90
       50
176
     1
 90
        3
176
     1
 62
     5
420
      255
176
     1
290
     0
176
     1
 90
       50
176
     1
 90
       50
176
     1
 90
       50
176
     1
290
     0
176
     1
 90
       50
176
     1
 62
   256
176
     0
 40
1.0
176
     0
 90
        2
176
     1
  1
strokes_ogs.tif
176
     1
290
     0
176
     1
 40
1.0
176
     1
 40
1.0
176
     1
  0
VISUALSTYLE
  5
2D8
102
{ACAD_REACTORS
330
2C8
102
}
330
2C8
100
AcDbVisualStyle
  2
ColorChange
 70
    16
177
     3
291
     1
 70
    58
 90
        2
176
     1
 90
        2
176
     1
 90
        3
176
     1
 90
        0
176
     1
 40
0.6
176
     1
 40
30.0
176
     1
 62
     8
420
  8421504
176
     1
 90
        1
176
     1
 90
        4
176
     1
 62
     7
176
     1
 62
   257
176
     1
 90
        1
176
     1
 90
        1
176
     1
 40
1.0
176
     1
 90
        8
176
     1
 62
     8
420
  8421504
176
     1
 40
1.0
176
     1
 90
        1
176
     1
 90
        6
176
     1
 90
        2
176
     1
 62
     7
176
     1
 90
        5
176
     1
 90
        0
176
     1
 90
        0
176
     1
290
     0
176
     1
 90
        1
176
     1
 40
0.0
176
     1
 90
        0
176
     1
290
     0
176
     1
290
     1
176
     1
290
     1
176
     1
290
     0
176
     1
290
     0
176
     1
290
     0
176
     1
290
     0
176
     1
290
     0
176
     1
290
     0
176
     1
 90
       50
176
     1
 40
0.0
176
     1
 40
1.0
176
     1
 90
        0
176
     1
 62
    18
420
        0
176
     1
 90
       50
176
     1
 90
        3
176
     1
 62
     5
420
      255
176
     1
290
     0
176
     1
 90
       50
176
     1
 90
       50
176
     1
 90
       50
176
     1
290
     0
176
     1
 90
       50
176
     1
 62
   256
176
     0
 40
1.0
176
     0
 90
        2
176
     1
  1
strokes_ogs.tif
176
     1
290
     0
176
     1
 40
1.0
176
     1
 40
1.0
176
     1
  0
VISUALSTYLE
  5
2D2
102
{ACAD_REACTORS
330
2C8
102
}
330
2C8
100
AcDbVisualStyle
  2
Conceptual
 70
     9
177
     3
291
     0
 70
    58
 90
        3
176
     1
 90
        2
176
     1
 90
        0
176
     1
 90
        0
176
     1
 40
0.6
176
     1
 40
30.0
176
     1
 62
     7
420
 16777215
176
     1
 90
        2
176
     1
 90
        2
176
     1
 62
     7
176
     1
 62
   257
176
     1
 90
        1
176
     1
 90
        1
176
     1
 40
179.0
176
     1
 90
        8
176
     1
 62
     7
176
     1
 40
1.0
176
     1
 90
        1
176
     1
 90
        6
176
     1
 90
        2
176
     1
 62
     7
176
     1
 90
        3
176
     1
 90
        0
176
     1
 90
        0
176
     1
290
     0
176
     1
 90
        1
176
     1
 40
0.0
176
     1
 90
        0
176
     1
290
     0
176
     1
290
     1
176
     1
290
     1
176
     1
290
     0
176
     1
290
     0
176
     1
290
     0
176
     1
290
     0
176
     1
290
     0
176
     1
290
     0
176
     1
 90
       50
176
     1
 40
0.0
176
     1
 40
1.0
176
     1
 90
        0
176
     1
 62
    18
420
        0
176
     1
 90
       50
176
     1
 90
        3
176
     1
 62
     5
420
      255
176
     1
290
     0
176
     1
 90
       50
176
     1
 90
       50
176
     1
 90
       50
176
     1
290
     0
176
     1
 90
       50
176
     1
 62
   256
176
     0
 40
1.0
176
     0
 90
        2
176
     1
  1
strokes_ogs.tif
176
     1
290
     0
176
     1
 40
1.0
176
     1
 40
1.0
176
     1
  0
VISUALSTYLE
  5
2D3
102
{ACAD_REACTORS
330
2C8
102
}
330
2C8
100
AcDbVisualStyle
  2
Dim
 70
    11
177
     3
291
     1
 70
    58
 90
        2
176
     1
 90
        2
176
     1
 90
        0
176
     1
 90
        0
176
     1
 40
0.6
176
     1
 40
30.0
176
     1
 62
     7
420
 16777215
176
     1
 90
        1
176
     1
 90
        4
176
     1
 62
     7
176
     1
 62
   257
176
     1
 90
        1
176
     1
 90
        1
176
     1
 40
1.0
176
     1
 90
        8
176
     1
 62
     7
176
     1
 40
1.0
176
     1
 90
        1
176
     1
 90
        6
176
     1
 90
        2
176
     1
 62
     7
176
     1
 90
        5
176
     1
 90
        0
176
     1
 90
        0
176
     1
290
     0
176
     1
 90
        1
176
     1
 40
-50.0
176
     1
 90
        0
176
     1
290
     0
176
     1
290
     1
176
     1
290
     1
176
     1
290
     0
176
     1
290
     0
176
     1
290
     0
176
     1
290
     0
176
     1
290
     0
176
     1
290
     0
176
     1
 90
       50
176
     1
 40
0.0
176
     1
 40
1.0
176
     1
 90
        0
176
     1
 62
    18
420
        0
176
     1
 90
       50
176
     1
 90
        3
176
     1
 62
     5
420
      255
176
     1
290
     0
176
     1
 90
       50
176
     1
 90
       50
176
     1
 90
       50
176
     1
290
     0
176
     1
 90
       50
176
     1
 62
   256
176
     0
 40
1.0
176
     0
 90
        2
176
     1
  1
strokes_ogs.tif
176
     1
290
     0
176
     1
 40
1.0
176
     1
 40
1.0
176
     1
  0
VISUALSTYLE
  5
2DB
102
{ACAD_REACTORS
330
2C8
102
}
330
2C8
100
AcDbVisualStyle
  2
EdgeColorOff
 70
    22
177
     3
291
     1
 70
    58
 90
        2
176
     0
 90
        2
176
     0
 90
        0
176
     0
 90
        0
176
     0
 40
0.6
176
     0
 40
30.0
176
     0
 62
     7
420
 16777215
176
     0
 90
        1
176
     0
 90
        4
176
     0
 62
     7
176
     0
 62
   257
176
     0
 90
        1
176
     0
 90
        1
176
     0
 40
1.0
176
     0
 90
        8
176
     2
 62
     7
176
     0
 40
1.0
176
     0
 90
        1
176
     0
 90
        6
176
     0
 90
        2
176
     0
 62
     7
176
     0
 90
        5
176
     0
 90
        0
176
     0
 90
        0
176
     0
290
     0
176
     0
 90
        1
176
     0
 40
0.0
176
     0
 90
        0
176
     0
290
     0
176
     0
290
     1
176
     0
290
     1
176
     0
290
     0
176
     0
290
     0
176
     0
290
     0
176
     0
290
     0
176
     0
290
     0
176
     0
290
     0
176
     0
 90
       50
176
     0
 40
0.0
176
     0
 40
1.0
176
     0
 90
        0
176
     0
 62
    18
420
        0
176
     0
 90
       50
176
     0
 90
        3
176
     0
 62
     5
420
      255
176
     0
290
     0
176
     0
 90
       50
176
     0
 90
       50
176
     0
 90
       50
176
     0
290
     0
176
     0
 90
       50
176
     0
 62
   256
176
     0
 40
1.0
176
     0
 90
        2
176
     0
  1
strokes_ogs.tif
176
     0
290
     0
176
     0
 40
1.0
176
     0
 40
1.0
176
     0
  0
VISUALSTYLE
  5
2D7
102
{ACAD_REACTORS
330
2C8
102
}
330
2C8
100
AcDbVisualStyle
  2
Facepattern
 70
    15
177
     3
291
     1
 70
    58
 90
        2
176
     1
 90
        2
176
     1
 90
        0
176
     1
 90
        0
176
     1
 40
0.6
176
     1
 40
30.0
176
     1
 62
     7
420
 16777215
176
     1
 90
        1
176
     1
 90
        4
176
     1
 62
     7
176
     1
 62
   257
176
     1
 90
        1
176
     1
 90
        1
176
     1
 40
1.0
176
     1
 90
        8
176
     1
 62
     7
176
     1
 40
1.0
176
     1
 90
        1
176
     1
 90
        6
176
     1
 90
        2
176
     1
 62
     7
176
     1
 90
        5
176
     1
 90
        0
176
     1
 90
        0
176
     1
290
     0
176
     1
 90
        1
176
     1
 40
0.0
176
     1
 90
        0
176
     1
290
     0
176
     1
290
     1
176
     1
290
     1
176
     1
290
     0
176
     1
290
     0
176
     1
290
     0
176
     1
290
     0
176
     1
290
     0
176
     1
290
     0
176
     1
 90
       50
176
     1
 40
0.0
176
     1
 40
1.0
176
     1
 90
        0
176
     1
 62
    18
420
        0
176
     1
 90
       50
176
     1
 90
        3
176
     1
 62
     5
420
      255
176
     1
290
     0
176
     1
 90
       50
176
     1
 90
       50
176
     1
 90
       50
176
     1
290
     0
176
     1
 90
       50
176
     1
 62
   256
176
     0
 40
1.0
176
     0
 90
        2
176
     1
  1
strokes_ogs.tif
176
     1
290
     0
176
     1
 40
1.0
176
     1
 40
1.0
176
     1
  0
VISUALSTYLE
  5
2C9
102
{ACAD_REACTORS
330
2C8
102
}
330
2C8
100
AcDbVisualStyle
  2
Flat
 70
     0
177
     3
291
     1
 70
    58
 90
        2
176
     1
 90
        1
176
     1
 90
        1
176
     1
 90
        2
176
     1
 40
0.6
176
     1
 40
30.0
176
     1
 62
     7
420
 16777215
176
     1
 90
        0
176
     1
 90
        0
176
     1
 62
     7
176
     1
 62
   257
176
     1
 90
        1
176
     1
 90
        1
176
     1
 40
1.0
176
     1
 90
        8
176
     1
 62
     7
176
     1
 40
1.0
176
     1
 90
        1
176
     1
 90
        6
176
     1
 90
        2
176
     1
 62
     7
176
     1
 90
        5
176
     1
 90
        0
176
     1
 90
        0
176
     1
290
     0
176
     1
 90
       13
176
     1
 40
0.0
176
     1
 90
        0
176
     1
290
     0
176
     1
290
     1
176
     1
290
     1
176
     1
290
     0
176
     1
290
     0
176
     1
290
     0
176
     1
290
     0
176
     1
290
     0
176
     1
290
     0
176
     1
 90
       50
176
     1
 40
0.0
176
     1
 40
1.0
176
     1
 90
        0
176
     1
 62
    18
420
        0
176
     1
 90
       50
176
     1
 90
        3
176
     1
 62
     5
420
      255
176
     1
290
     0
176
     1
 90
       50
176
     1
 90
       50
176
     1
 90
       50
176
     1
290
     0
176
     1
 90
       50
176
     1
 62
   256
176
     0
 40
1.0
176
     0
 90
        2
176
     1
  1
strokes_ogs.tif
176
     1
290
     0
176
     1
 40
1.0
176
     1
 40
1.0
176
     1
  0
VISUALSTYLE
  5
2CA
102
{ACAD_REACTORS
330
2C8
102
}
330
2C8
100
AcDbVisualStyle
  2
FlatWithEdges
 70
     1
177
     3
291
     1
 70
    58
 90
        2
176
     1
 90
        1
176
     1
 90
        1
176
     1
 90
        2
176
     1
 40
0.6
176
     1
 40
30.0
176
     1
 62
     7
420
 16777215
176
     1
 90
        1
176
     1
 90
        0
176
     1
 62
     7
176
     1
 62
   257
176
     1
 90
        1
176
     1
 90
        1
176
     1
 40
1.0
176
     1
 90
        0
176
     1
 62
   257
176
     1
 40
1.0
176
     1
 90
        1
176
     1
 90
        6
176
     1
 90
        2
176
     1
 62
     7
176
     1
 90
        5
176
     1
 90
        0
176
     1
 90
        0
176
     1
290
     0
176
     1
 90
       13
176
     1
 40
0.0
176
     1
 90
        0
176
     1
290
     0
176
     1
290
     1
176
     1
290
     1
176
     1
290
     0
176
     1
290
     0
176
     1
290
     0
176
     1
290
     0
176
     1
290
     0
176
     1
290
     0
176
     1
 90
       50
176
     1
 40
0.0
176
     1
 40
1.0
176
     1
 90
        0
176
     1
 62
    18
420
        0
176
     1
 90
       50
176
     1
 90
        3
176
     1
 62
     5
420
      255
176
     1
290
     0
176
     1
 90
       50
176
     1
 90
       50
176
     1
 90
       50
176
     1
290
     0
176
     1
 90
       50
176
     1
 62
   256
176
     0
 40
1.0
176
     0
 90
        2
176
     1
  1
strokes_ogs.tif
176
     1
290
     0
176
     1
 40
1.0
176
     1
 40
1.0
176
     1
  0
VISUALSTYLE
  5
2CB
102
{ACAD_REACTORS
330
2C8
102
}
330
2C8
100
AcDbVisualStyle
  2
Gouraud
 70
     2
177
     3
291
     1
 70
    58
 90
        2
176
     1
 90
        2
176
     1
 90
        1
176
     1
 90
        2
176
     1
 40
0.6
176
     1
 40
30.0
176
     1
 62
     7
420
 16777215
176
     1
 90
        0
176
     1
 90
        0
176
     1
 62
     7
176
     1
 62
   257
176
     1
 90
        1
176
     1
 90
        1
176
     1
 40
1.0
176
     1
 90
        0
176
     1
 62
     7
176
     1
 40
1.0
176
     1
 90
        1
176
     1
 90
        6
176
     1
 90
        2
176
     1
 62
     7
176
     1
 90
        5
176
     1
 90
        0
176
     1
 90
        0
176
     1
290
     0
176
     1
 90
       13
176
     1
 40
0.0
176
     1
 90
        0
176
     1
290
     0
176
     1
290
     1
176
     1
290
     1
176
     1
290
     0
176
     1
290
     0
176
     1
290
     0
176
     1
290
     0
176
     1
290
     0
176
     1
290
     0
176
     1
 90
       50
176
     1
 40
0.0
176
     1
 40
1.0
176
     1
 90
        0
176
     1
 62
    18
420
        0
176
     1
 90
       50
176
     1
 90
        3
176
     1
 62
     5
420
      255
176
     1
290
     0
176
     1
 90
       50
176
     1
 90
       50
176
     1
 90
       50
176
     1
290
     0
176
     1
 90
       50
176
     1
 62
   256
176
     0
 40
1.0
176
     0
 90
        2
176
     1
  1
strokes_ogs.tif
176
     1
290
     0
176
     1
 40
1.0
176
     1
 40
1.0
176
     1
  0
VISUALSTYLE
  5
2CC
102
{ACAD_REACTORS
330
2C8
102
}
330
2C8
100
AcDbVisualStyle
  2
GouraudWithEdges
 70
     3
177
     3
291
     1
 70
    58
 90
        2
176
     1
 90
        2
176
     1
 90
        1
176
     1
 90
        2
176
     1
 40
0.6
176
     1
 40
30.0
176
     1
 62
     7
420
 16777215
176
     1
 90
        1
176
     1
 90
        0
176
     1
 62
     7
176
     1
 62
   257
176
     1
 90
        1
176
     1
 90
        1
176
     1
 40
1.0
176
     1
 90
        0
176
     1
 62
   257
176
     1
 40
1.0
176
     1
 90
        1
176
     1
 90
        6
176
     1
 90
        2
176
     1
 62
     7
176
     1
 90
        5
176
     1
 90
        0
176
     1
 90
        0
176
     1
290
     0
176
     1
 90
       13
176
     1
 40
0.0
176
     1
 90
        0
176
     1
290
     0
176
     1
290
     1
176
     1
290
     1
176
     1
290
     0
176
     1
290
     0
176
     1
290
     0
176
     1
290
     0
176
     1
290
     0
176
     1
290
     0
176
     1
 90
       50
176
     1
 40
0.0
176
     1
 40
1.0
176
     1
 90
        0
176
     1
 62
    18
420
        0
176
     1
 90
       50
176
     1
 90
        3
176
     1
 62
     5
420
      255
176
     1
290
     0
176
     1
 90
       50
176
     1
 90
       50
176
     1
 90
       50
176
     1
290
     0
176
     1
 90
       50
176
     1
 62
   256
176
     0
 40
1.0
176
     0
 90
        2
176
     1
  1
strokes_ogs.tif
176
     1
290
     0
176
     1
 40
1.0
176
     1
 40
1.0
176
     1
  0
VISUALSTYLE
  5
2CF
102
{ACAD_REACTORS
330
2C8
102
}
330
2C8
100
AcDbVisualStyle
  2
Hidden
 70
     6
177
     3
291
     0
 70
    58
 90
        1
176
     1
 90
        2
176
     1
 90
        2
176
     1
 90
        0
176
     1
 40
0.6
176
     1
 40
30.0
176
     1
 62
     7
420
 16777215
176
     1
 90
        2
176
     1
 90
        2
176
     1
 62
     7
176
     1
 62
   257
176
     1
 90
        2
176
     1
 90
        1
176
     1
 40
40.0
176
     1
 90
        0
176
     1
 62
   257
176
     1
 40
1.0
176
     1
 90
        1
176
     1
 90
        6
176
     1
 90
        2
176
     1
 62
     7
176
     1
 90
        3
176
     1
 90
        0
176
     1
 90
        0
176
     1
290
     0
176
     1
 90
        1
176
     1
 40
0.0
176
     1
 90
        0
176
     1
290
     0
176
     1
290
     1
176
     1
290
     1
176
     1
290
     0
176
     1
290
     0
176
     1
290
     0
176
     1
290
     0
176
     1
290
     0
176
     1
290
     0
176
     1
 90
       50
176
     1
 40
0.0
176
     1
 40
1.0
176
     1
 90
        0
176
     1
 62
    18
420
        0
176
     1
 90
       50
176
     1
 90
        3
176
     1
 62
     5
420
      255
176
     1
290
     0
176
     1
 90
       50
176
     1
 90
       50
176
     1
 90
       50
176
     1
290
     0
176
     1
 90
       50
176
     1
 62
   256
176
     0
 40
1.0
176
     0
 90
        2
176
     1
  1
strokes_ogs.tif
176
     1
290
     0
176
     1
 40
1.0
176
     1
 40
1.0
176
     1
  0
VISUALSTYLE
  5
2D9
102
{ACAD_REACTORS
330
2C8
102
}
330
2C8
100
AcDbVisualStyle
  2
JitterOff
 70
    20
177
     3
291
     1
 70
    58
 90
        2
176
     0
 90
        2
176
     0
 90
        0
176
     0
 90
        0
176
     0
 40
0.6
176
     0
 40
30.0
176
     0
 62
     7
420
 16777215
176
     0
 90
        1
176
     0
 90
        4
176
     0
 62
     7
176
     0
 62
   257
176
     0
 90
        1
176
     0
 90
        1
176
     0
 40
1.0
176
     0
 90
       10
176
     2
 62
     7
176
     0
 40
1.0
176
     0
 90
        1
176
     0
 90
        6
176
     0
 90
        2
176
     0
 62
     7
176
     0
 90
        5
176
     0
 90
        0
176
     0
 90
        0
176
     0
290
     0
176
     0
 90
        1
176
     0
 40
0.0
176
     0
 90
        0
176
     0
290
     0
176
     0
290
     1
176
     0
290
     1
176
     0
290
     0
176
     0
290
     0
176
     0
290
     0
176
     0
290
     0
176
     0
290
     0
176
     0
290
     0
176
     0
 90
       50
176
     0
 40
0.0
176
     0
 40
1.0
176
     0
 90
        0
176
     0
 62
    18
420
        0
176
     0
 90
       50
176
     0
 90
        3
176
     0
 62
     5
420
      255
176
     0
290
     0
176
     0
 90
       50
176
     0
 90
       50
176
     0
 90
       50
176
     0
290
     0
176
     0
 90
       50
176
     0
 62
   256
176
     0
 40
1.0
176
     0
 90
        2
176
     0
  1
strokes_ogs.tif
176
     0
290
     0
176
     0
 40
1.0
176
     0
 40
1.0
176
     0
  0
VISUALSTYLE
  5
2D6
102
{ACAD_REACTORS
330
2C8
102
}
330
2C8
100
AcDbVisualStyle
  2
Linepattern
 70
    14
177
     3
291
     1
 70
    58
 90
        2
176
     1
 90
        2
176
     1
 90
        0
176
     1
 90
        0
176
     1
 40
0.6
176
     1
 40
30.0
176
     1
 62
     7
420
 16777215
176
     1
 90
        1
176
     1
 90
        4
176
     1
 62
     7
176
     1
 62
   257
176
     1
 90
        7
176
     1
 90
        7
176
     1
 40
1.0
176
     1
 90
        8
176
     1
 62
     7
176
     1
 40
1.0
176
     1
 90
        1
176
     1
 90
        6
176
     1
 90
        2
176
     1
 62
     7
176
     1
 90
        5
176
     1
 90
        0
176
     1
 90
        0
176
     1
290
     0
176
     1
 90
        1
176
     1
 40
0.0
176
     1
 90
        0
176
     1
290
     0
176
     1
290
     1
176
     1
290
     1
176
     1
290
     0
176
     1
290
     0
176
     1
290
     0
176
     1
290
     0
176
     1
290
     0
176
     1
290
     0
176
     1
 90
       50
176
     1
 40
0.0
176
     1
 40
1.0
176
     1
 90
        0
176
     1
 62
    18
420
        0
176
     1
 90
       50
176
     1
 90
        3
176
     1
 62
     5
420
      255
176
     1
290
     0
176
     1
 90
       50
176
     1
 90
       50
176
     1
 90
       50
176
     1
290
     0
176
     1
 90
       50
176
     1
 62
   256
176
     0
 40
1.0
176
     0
 90
        2
176
     1
  1
strokes_ogs.tif
176
     1
290
     0
176
     1
 40
1.0
176
     1
 40
1.0
176
     1
  0
VISUALSTYLE
  5
2DA
102
{ACAD_REACTORS
330
2C8
102
}
330
2C8
100
AcDbVisualStyle
  2
OverhangOff
 70
    21
177
     3
291
     1
 70
    58
 90
        2
176
     0
 90
        2
176
     0
 90
        0
176
     0
 90
        0
176
     0
 40
0.6
176
     0
 40
30.0
176
     0
 62
     7
420
 16777215
176
     0
 90
        1
176
     0
 90
        4
176
     0
 62
     7
176
     0
 62
   257
176
     0
 90
        1
176
     0
 90
        1
176
     0
 40
1.0
176
     0
 90
        9
176
     2
 62
     7
176
     0
 40
1.0
176
     0
 90
        1
176
     0
 90
        6
176
     0
 90
        2
176
     0
 62
     7
176
     0
 90
        5
176
     0
 90
        0
176
     0
 90
        0
176
     0
290
     0
176
     0
 90
        1
176
     0
 40
0.0
176
     0
 90
        0
176
     0
290
     0
176
     0
290
     1
176
     0
290
     1
176
     0
290
     0
176
     0
290
     0
176
     0
290
     0
176
     0
290
     0
176
     0
290
     0
176
     0
290
     0
176
     0
 90
       50
176
     0
 40
0.0
176
     0
 40
1.0
176
     0
 90
        0
176
     0
 62
    18
420
        0
176
     0
 90
       50
176
     0
 90
        3
176
     0
 62
     5
420
      255
176
     0
290
     0
176
     0
 90
       50
176
     0
 90
       50
176
     0
 90
       50
176
     0
290
     0
176
     0
 90
       50
176
     0
 62
   256
176
     0
 40
1.0
176
     0
 90
        2
176
     0
  1
strokes_ogs.tif
176
     0
290
     0
176
     0
 40
1.0
176
     0
 40
1.0
176
     0
  0
VISUALSTYLE
  5
2D1
102
{ACAD_REACTORS
330
2C8
102
}
330
2C8
100
AcDbVisualStyle
  2
Realistic
 70
     8
177
     3
291
     0
 70
    58
 90
        2
176
     1
 90
        3
176
     1
 90
        0
176
     1
 90
        2
176
     1
 40
0.6
176
     1
 40
30.0
176
     1
 62
     7
420
 16777215
176
     1
 90
        0
176
     1
 90
        0
176
     1
 62
     7
176
     1
 62
   257
176
     1
 90
        1
176
     1
 90
        1
176
     1
 40
1.0
176
     1
 90
        8
176
     1
 62
   257
176
     1
 40
1.0
176
     1
 90
        1
176
     1
 90
        6
176
     1
 90
        2
176
     1
 62
     7
176
     1
 90
        3
176
     1
 90
        0
176
     1
 90
        0
176
     1
290
     0
176
     1
 90
       13
176
     1
 40
0.0
176
     1
 90
        0
176
     1
290
     0
176
     1
290
     1
176
     1
290
     1
176
     1
290
     0
176
     1
290
     0
176
     1
290
     0
176
     1
290
     0
176
     1
290
     0
176
     1
290
     0
176
     1
 90
       50
176
     1
 40
0.0
176
     1
 40
1.0
176
     1
 90
        0
176
     1
 62
    18
420
        0
176
     1
 90
       50
176
     1
 90
        3
176
     1
 62
     5
420
      255
176
     1
290
     0
176
     1
 90
       50
176
     1
 90
       50
176
     1
 90
       50
176
     1
290
     0
176
     1
 90
       50
176
     1
 62
   256
176
     0
 40
1.0
176
     0
 90
        2
176
     1
  1
strokes_ogs.tif
176
     1
290
     0
176
     1
 40
1.0
176
     1
 40
1.0
176
     1
  0
VISUALSTYLE
  5
2E0
102
{ACAD_REACTORS
330
2C8
102
}
330
2C8
100
AcDbVisualStyle
  2
Shaded
 70
    27
177
     3
291
     0
 70
    58
 90
        2
176
     1
 90
        2
176
     1
 90
        1
176
     1
 90
        2
176
     1
 40
0.6
176
     1
 40
30.0
176
     1
 62
     7
420
 16777215
176
     1
 90
        0
176
     1
 90
        4
176
     1
 62
     7
176
     1
 62
   257
176
     1
 90
        1
176
     1
 90
        1
176
     1
 40
1.0
176
     1
 90
        8
176
     1
 62
   257
176
     1
 40
1.0
176
     1
 90
        1
176
     1
 90
        6
176
     1
 90
        2
176
     1
 62
     8
420
  7895160
176
     1
 90
        3
176
     1
 90
        0
176
     1
 90
        0
176
     1
290
     0
176
     1
 90
        5
176
     1
 40
0.0
176
     1
 90
        0
176
     1
290
     0
176
     1
290
     1
176
     1
290
     1
176
     1
290
     0
176
     1
290
     0
176
     1
290
     0
176
     1
290
     0
176
     1
290
     0
176
     1
290
     0
176
     1
 90
       50
176
     1
 40
0.0
176
     1
 40
1.0
176
     1
 90
        0
176
     1
 62
    18
420
        0
176
     1
 90
       50
176
     1
 90
        3
176
     1
 62
     5
420
      255
176
     1
290
     0
176
     1
 90
       50
176
     1
 90
       50
176
     1
 90
       50
176
     1
290
     0
176
     1
 90
       50
176
     1
 62
   256
176
     0
 40
1.0
176
     0
 90
        2
176
     1
  1
strokes_ogs.tif
176
     1
290
     0
176
     1
 40
1.0
176
     1
 40
1.0
176
     1
  0
VISUALSTYLE
  5
2DF
102
{ACAD_REACTORS
330
2C8
102
}
330
2C8
100
AcDbVisualStyle
  2
Shaded with edges
 70
    26
177
     3
291
     0
 70
    58
 90
        2
176
     1
 90
        2
176
     1
 90
        1
176
     1
 90
        2
176
     1
 40
0.6
176
     1
 40
30.0
176
     1
 62
     7
420
 16777215
176
     1
 90
        1
176
     1
 90
       10
176
     1
 62
     7
176
     1
 62
   257
176
     1
 90
        2
176
     1
 90
        1
176
     1
 40
1.0
176
     1
 90
        8
176
     1
 62
   257
176
     1
 40
1.0
176
     1
 90
        1
176
     1
 90
        6
176
     1
 90
        2
176
     1
 62
     7
176
     1
 90
        3
176
     1
 90
        0
176
     1
 90
        0
176
     1
290
     0
176
     1
 90
        5
176
     1
 40
0.0
176
     1
 90
        0
176
     1
290
     0
176
     1
290
     1
176
     1
290
     1
176
     1
290
     0
176
     1
290
     0
176
     1
290
     0
176
     1
290
     0
176
     1
290
     0
176
     1
290
     0
176
     1
 90
       50
176
     1
 40
0.0
176
     1
 40
1.0
176
     1
 90
        0
176
     1
 62
    18
420
        0
176
     1
 90
       50
176
     1
 90
        3
176
     1
 62
     5
420
      255
176
     1
290
     0
176
     1
 90
       50
176
     1
 90
       50
176
     1
 90
       50
176
     1
290
     0
176
     1
 90
       50
176
     1
 62
   256
176
     0
 40
1.0
176
     0
 90
        2
176
     1
  1
strokes_ogs.tif
176
     1
290
     0
176
     1
 40
1.0
176
     1
 40
1.0
176
     1
  0
VISUALSTYLE
  5
2DC
102
{ACAD_REACTORS
330
2C8
102
}
330
2C8
100
AcDbVisualStyle
  2
Shades of Gray
 70
    23
177
     3
291
     0
 70
    58
 90
        2
176
     1
 90
        2
176
     1
 90
        3
176
     1
 90
        0
176
     1
 40
0.6
176
     1
 40
30.0
176
     1
 62
     7
420
 16777215
176
     1
 90
        2
176
     1
 90
        2
176
     1
 62
     7
176
     1
 62
     7
176
     1
 90
        1
176
     1
 90
        1
176
     1
 40
40.0
176
     1
 90
        8
176
     1
 62
     7
176
     1
 40
1.0
176
     1
 90
        1
176
     1
 90
        6
176
     1
 90
        2
176
     1
 62
     7
176
     1
 90
        3
176
     1
 90
        0
176
     1
 90
        0
176
     1
290
     0
176
     1
 90
        1
176
     1
 40
0.0
176
     1
 90
        0
176
     1
290
     0
176
     1
290
     1
176
     1
290
     1
176
     1
290
     0
176
     1
290
     0
176
     1
290
     0
176
     1
290
     0
176
     1
290
     0
176
     1
290
     0
176
     1
 90
       50
176
     1
 40
0.0
176
     1
 40
1.0
176
     1
 90
        0
176
     1
 62
    18
420
        0
176
     1
 90
       50
176
     1
 90
        3
176
     1
 62
     5
420
      255
176
     1
290
     0
176
     1
 90
       50
176
     1
 90
       50
176
     1
 90
       50
176
     1
290
     0
176
     1
 90
       50
176
     1
 62
   256
176
     0
 40
1.0
176
     0
 90
        2
176
     1
  1
strokes_ogs.tif
176
     1
290
     0
176
     1
 40
1.0
176
     1
 40
1.0
176
     1
  0
VISUALSTYLE
  5
2DD
102
{ACAD_REACTORS
330
2C8
102
}
330
2C8
100
AcDbVisualStyle
  2
Sketchy
 70
    24
177
     3
291
     0
 70
    58
 90
        1
176
     1
 90
        2
176
     1
 90
        2
176
     1
 90
        0
176
     1
 40
0.6
176
     1
 40
30.0
176
     1
 62
     7
420
 16777215
176
     1
 90
        2
176
     1
 90
        2
176
     1
 62
     7
176
     1
 62
     7
176
     1
 90
        1
176
     1
 90
        1
176
     1
 40
40.0
176
     1
 90
       11
176
     1
 62
     7
176
     1
 40
1.0
176
     1
 90
        1
176
     1
 90
        6
176
     1
 90
        2
176
     1
 62
     7
176
     1
 90
        6
176
     1
 90
        0
176
     1
 90
        0
176
     1
290
     0
176
     1
 90
        1
176
     1
 40
0.0
176
     1
 90
        0
176
     1
290
     0
176
     1
290
     1
176
     1
290
     1
176
     1
290
     0
176
     1
290
     0
176
     1
290
     0
176
     1
290
     0
176
     1
290
     0
176
     1
290
     0
176
     1
 90
       50
176
     1
 40
0.0
176
     1
 40
1.0
176
     1
 90
        0
176
     1
 62
    18
420
        0
176
     1
 90
       50
176
     1
 90
        3
176
     1
 62
     5
420
      255
176
     1
290
     0
176
     1
 90
       50
176
     1
 90
       50
176
     1
 90
       50
176
     1
290
     0
176
     1
 90
       50
176
     1
 62
   256
176
     0
 40
1.0
176
     0
 90
        2
176
     1
  1
strokes_ogs.tif
176
     1
290
     0
176
     1
 40
1.0
176
     1
 40
1.0
176
     1
  0
VISUALSTYLE
  5
2D5
102
{ACAD_REACTORS
330
2C8
102
}
330
2C8
100
AcDbVisualStyle
  2
Thicken
 70
    13
177
     3
291
     1
 70
    58
 90
        2
176
     1
 90
        2
176
     1
 90
        0
176
     1
 90
        0
176
     1
 40
0.6
176
     1
 40
30.0
176
     1
 62
     7
420
 16777215
176
     1
 90
        1
176
     1
 90
        4
176
     1
 62
     7
176
     1
 62
   257
176
     1
 90
        1
176
     1
 90
        1
176
     1
 40
1.0
176
     1
 90
       12
176
     1
 62
     7
176
     1
 40
1.0
176
     1
 90
        1
176
     1
 90
        6
176
     1
 90
        2
176
     1
 62
     7
176
     1
 90
        5
176
     1
 90
        0
176
     1
 90
        0
176
     1
290
     0
176
     1
 90
        1
176
     1
 40
0.0
176
     1
 90
        0
176
     1
290
     0
176
     1
290
     1
176
     1
290
     1
176
     1
290
     0
176
     1
290
     0
176
     1
290
     0
176
     1
290
     0
176
     1
290
     0
176
     1
290
     0
176
     1
 90
       50
176
     1
 40
0.0
176
     1
 40
1.0
176
     1
 90
        0
176
     1
 62
    18
420
        0
176
     1
 90
       50
176
     1
 90
        3
176
     1
 62
     5
420
      255
176
     1
290
     0
176
     1
 90
       50
176
     1
 90
       50
176
     1
 90
       50
176
     1
290
     0
176
     1
 90
       50
176
     1
 62
   256
176
     0
 40
1.0
176
     0
 90
        2
176
     1
  1
strokes_ogs.tif
176
     1
290
     0
176
     1
 40
1.0
176
     1
 40
1.0
176
     1
  0
VISUALSTYLE
  5
2CE
102
{ACAD_REACTORS
330
2C8
102
}
330
2C8
100
AcDbVisualStyle
  2
Wireframe
 70
     5
177
     3
291
     0
 70
    58
 90
        0
176
     1
 90
        2
176
     1
 90
        0
176
     1
 90
        0
176
     1
 40
0.6
176
     1
 40
30.0
176
     1
 62
     7
420
 16777215
176
     1
 90
        1
176
     1
 90
        4
176
     1
 62
     7
176
     1
 62
   257
176
     1
 90
        1
176
     1
 90
        1
176
     1
 40
1.0
176
     1
 90
        0
176
     1
 62
   257
176
     1
 40
1.0
176
     1
 90
        1
176
     1
 90
        6
176
     1
 90
        2
176
     1
 62
     7
176
     1
 90
        3
176
     1
 90
        0
176
     1
 90
        0
176
     1
290
     0
176
     1
 90
        1
176
     1
 40
0.0
176
     1
 90
        0
176
     1
290
     0
176
     1
290
     1
176
     1
290
     1
176
     1
290
     0
176
     1
290
     0
176
     1
290
     0
176
     1
290
     0
176
     1
290
     0
176
     1
290
     0
176
     1
 90
       50
176
     1
 40
0.0
176
     1
 40
1.0
176
     1
 90
        0
176
     1
 62
    18
420
        0
176
     1
 90
       50
176
     1
 90
        3
176
     1
 62
     5
420
      255
176
     1
290
     0
176
     1
 90
       50
176
     1
 90
       50
176
     1
 90
       50
176
     1
290
     0
176
     1
 90
       50
176
     1
 62
   256
176
     0
 40
1.0
176
     0
 90
        2
176
     1
  1
strokes_ogs.tif
176
     1
290
     0
176
     1
 40
1.0
176
     1
 40
1.0
176
     1
  0
VISUALSTYLE
  5
2DE
102
{ACAD_REACTORS
330
2C8
102
}
330
2C8
100
AcDbVisualStyle
  2
X-Ray
 70
    25
177
     3
291
     0
 70
    58
 90
        2
176
     1
 90
        2
176
     1
 90
        1
176
     1
 90
        1
176
     1
 40
0.5
176
     1
 40
30.0
176
     1
 62
     7
420
 16777215
176
     1
 90
        1
176
     1
 90
        0
176
     1
 62
     7
176
     1
 62
   257
176
     1
 90
        1
176
     1
 90
        1
176
     1
 40
1.0
176
     1
 90
        8
176
     1
 62
     7
176
     1
 40
1.0
176
     1
 90
        1
176
     1
 90
        6
176
     1
 90
        2
176
     1
 62
     7
176
     1
 90
        3
176
     1
 90
        0
176
     1
 90
        0
176
     1
290
     0
176
     1
 90
       13
176
     1
 40
0.0
176
     1
 90
        0
176
     1
290
     0
176
     1
290
     1
176
     1
290
     1
176
     1
290
     0
176
     1
290
     0
176
     1
290
     0
176
     1
290
     0
176
     1
290
     0
176
     1
290
     0
176
     1
 90
       50
176
     1
 40
0.0
176
     1
 40
1.0
176
     1
 90
        0
176
     1
 62
    18
420
        0
176
     1
 90
       50
176
     1
 90
        3
176
     1
 62
     5
420
      255
176
     1
290
     0
176
     1
 90
       50
176
     1
 90
       50
176
     1
 90
       50
176
     1
290
     0
176
     1
 90
       50
176
     1
 62
   256
176
     0
 40
1.0
176
     0
 90
        2
176
     1
  1
strokes_ogs.tif
176
     1
290
     0
176
     1
 40
1.0
176
     1
 40
1.0
176
     1
  0
DICTIONARYVAR
  5
2EF
102
{ACAD_REACTORS
330
2C0
102
}
330
2C0
100
DictionaryVariables
280
     0
  1
1:1
  0
DICTIONARYVAR
  5
2F1
102
{ACAD_REACTORS
330
2C0
102
}
330
2C0
100
DictionaryVariables
280
     0
  1
Standard
  0
DICTIONARYVAR
  5
2F0
102
{ACAD_REACTORS
330
2C0
102
}
330
2C0
100
DictionaryVariables
280
     0
  1
Standard
  0
DICTIONARYVAR
  5
2F2
102
{ACAD_REACTORS
330
2C0
102
}
330
2C0
100
DictionaryVariables
280
     0
  1
0
  0
DICTIONARY
  5
2F5
330
2E6
100
AcDbDictionary
280
     1
281
     1
  3
ACAD_ROUNDTRIP_2008_TABLESTYLE_CELLSTYLEMAP
360
2F6
  0
CELLSTYLEMAP
  5
2F6
102
{ACAD_REACTORS
330
2F5
102
}
330
2F5
100
AcDbCellStyleMap
 90
        3
300
CELLSTYLE
  1
TABLEFORMAT_BEGIN
 90
        5
170
     1
 91
        0
 92
    32768
 62
   257
 93
        1
300
CONTENTFORMAT
  1
CONTENTFORMAT_BEGIN
 90
        0
 91
        0
 92
        4
 93
        0
300

 40
0.0
140
1.0
 94
        5
 62
     0
340
11
144
6.0
309
CONTENTFORMAT_END
171
     1
301
MARGIN
  1
CELLMARGIN_BEGIN
 40
1.5
 40
1.5
 40
1.5
 40
1.5
 40
1.5
 40
1.5
309
CELLMARGIN_END
 94
        6
 95
        1
302
GRIDFORMAT
  1
GRIDFORMAT_BEGIN
 90
        0
 91
        1
 62
     0
 92
       -2
340
14
 93
        0
 40
0.045
309
GRIDFORMAT_END
 95
        2
302
GRIDFORMAT
  1
GRIDFORMAT_BEGIN
 90
        0
 91
        1
 62
     0
 92
       -2
340
14
 93
        0
 40
0.045
309
GRIDFORMAT_END
 95
        4
302
GRIDFORMAT
  1
GRIDFORMAT_BEGIN
 90
        0
 91
        1
 62
     0
 92
       -2
340
14
 93
        0
 40
0.045
309
GRIDFORMAT_END
 95
        8
302
GRIDFORMAT
  1
GRIDFORMAT_BEGIN
 90
        0
 91
        1
 62
     0
 92
       -2
340
14
 93
        0
 40
0.045
309
GRIDFORMAT_END
 95
       16
302
GRIDFORMAT
  1
GRIDFORMAT_BEGIN
 90
        0
 91
        1
 62
     0
 92
       -2
340
14
 93
        0
 40
0.045
309
GRIDFORMAT_END
 95
       32
302
GRIDFORMAT
  1
GRIDFORMAT_BEGIN
 90
        0
 91
        1
 62
     0
 92
       -2
340
14
 93
        0
 40
0.045
309
GRIDFORMAT_END
309
TABLEFORMAT_END
  1
CELLSTYLE_BEGIN
 90
        1
 91
        1
300
_TITLE
309
CELLSTYLE_END
300
CELLSTYLE
  1
TABLEFORMAT_BEGIN
 90
        5
170
     1
 91
        0
 92
        0
 62
   257
 93
        1
300
CONTENTFORMAT
  1
CONTENTFORMAT_BEGIN
 90
        0
 91
        0
 92
        4
 93
        0
300

 40
0.0
140
1.0
 94
        5
 62
     0
340
11
144
4.5
309
CONTENTFORMAT_END
171
     1
301
MARGIN
  1
CELLMARGIN_BEGIN
 40
1.5
 40
1.5
 40
1.5
 40
1.5
 40
1.5
 40
1.5
309
CELLMARGIN_END
 94
        6
 95
        1
302
GRIDFORMAT
  1
GRIDFORMAT_BEGIN
 90
        0
 91
        1
 62
     0
 92
       -2
340
14
 93
        0
 40
0.045
309
GRIDFORMAT_END
 95
        2
302
GRIDFORMAT
  1
GRIDFORMAT_BEGIN
 90
        0
 91
        1
 62
     0
 92
       -2
340
14
 93
        0
 40
0.045
309
GRIDFORMAT_END
 95
        4
302
GRIDFORMAT
  1
GRIDFORMAT_BEGIN
 90
        0
 91
        1
 62
     0
 92
       -2
340
14
 93
        0
 40
0.045
309
GRIDFORMAT_END
 95
        8
302
GRIDFORMAT
  1
GRIDFORMAT_BEGIN
 90
        0
 91
        1
 62
     0
 92
       -2
340
14
 93
        0
 40
0.045
309
GRIDFORMAT_END
 95
       16
302
GRIDFORMAT
  1
GRIDFORMAT_BEGIN
 90
        0
 91
        1
 62
     0
 92
       -2
340
14
 93
        0
 40
0.045
309
GRIDFORMAT_END
 95
       32
302
GRIDFORMAT
  1
GRIDFORMAT_BEGIN
 90
        0
 91
        1
 62
     0
 92
       -2
340
14
 93
        0
 40
0.045
309
GRIDFORMAT_END
309
TABLEFORMAT_END
  1
CELLSTYLE_BEGIN
 90
        2
 91
        1
300
_HEADER
309
CELLSTYLE_END
300
CELLSTYLE
  1
TABLEFORMAT_BEGIN
 90
        5
170
     1
 91
        0
 92
        0
 62
   257
 93
        1
300
CONTENTFORMAT
  1
CONTENTFORMAT_BEGIN
 90
        0
 91
        0
 92
        4
 93
        0
300

 40
0.0
140
1.0
 94
        2
 62
     0
340
11
144
4.5
309
CONTENTFORMAT_END
171
     1
301
MARGIN
  1
CELLMARGIN_BEGIN
 40
1.5
 40
1.5
 40
1.5
 40
1.5
 40
1.5
 40
1.5
309
CELLMARGIN_END
 94
        6
 95
        1
302
GRIDFORMAT
  1
GRIDFORMAT_BEGIN
 90
        0
 91
        1
 62
     0
 92
       -2
340
14
 93
        0
 40
0.045
309
GRIDFORMAT_END
 95
        2
302
GRIDFORMAT
  1
GRIDFORMAT_BEGIN
 90
        0
 91
        1
 62
     0
 92
       -2
340
14
 93
        0
 40
0.045
309
GRIDFORMAT_END
 95
        4
302
GRIDFORMAT
  1
GRIDFORMAT_BEGIN
 90
        0
 91
        1
 62
     0
 92
       -2
340
14
 93
        0
 40
0.045
309
GRIDFORMAT_END
 95
        8
302
GRIDFORMAT
  1
GRIDFORMAT_BEGIN
 90
        0
 91
        1
 62
     0
 92
       -2
340
14
 93
        0
 40
0.045
309
GRIDFORMAT_END
 95
       16
302
GRIDFORMAT
  1
GRIDFORMAT_BEGIN
 90
        0
 91
        1
 62
     0
 92
       -2
340
14
 93
        0
 40
0.045
309
GRIDFORMAT_END
 95
       32
302
GRIDFORMAT
  1
GRIDFORMAT_BEGIN
 90
        0
 91
        1
 62
     0
 92
       -2
340
14
 93
        0
 40
0.045
309
GRIDFORMAT_END
309
TABLEFORMAT_END
  1
CELLSTYLE_BEGIN
 90
        3
 91
        2
300
_DATA
309
CELLSTYLE_END
  0
ENDSEC
  0
EOF
