  0
SECTION
  2
HEADER
  9
$ACADVER
  1
AC1032
  9
$ACADMAINTVER
 90
        4
  9
$DWGCODEPAGE
  3
ANSI_932
  9
$LASTSAVEDBY
  1
9128
  9
$REQUIREDVERSIONS
160
                 0
  9
$INSBASE
 10
0.0
 20
0.0
 30
0.0
  9
$EXTMIN
 10
85.29416453063996
 20
59.32799396454811
 30
0.0
  9
$EXTMAX
 10
214.7363868288532
 20
222.7748359739511
 30
0.0
  9
$LIMMIN
 10
0.0
 20
0.0
  9
$LIMMAX
 10
431.8
 20
279.4
  9
$ORTHOMODE
 70
     0
  9
$REGENMODE
 70
     1
  9
$FILLMODE
 70
     1
  9
$QTEXTMODE
 70
     0
  9
$MIRRTEXT
 70
     1
  9
$LTSCALE
 40
1.0
  9
$ATTMODE
 70
     1
  9
$TEXTSIZE
 40
3.5
  9
$TRACEWID
 40
1.0
  9
$TEXTSTYLE
  7
Standard
  9
$CLAYER
  8
0
  9
$CELTYPE
  6
ByLayer
  9
$CECOLOR
 62
   256
  9
$CELTSCALE
 40
1.0
  9
$DISPSILH
 70
     0
  9
$DIMSCALE
 40
1.0
  9
$DIMASZ
 40
3.302
  9
$DIMEXO
 40
1.0
  9
$DIMDLI
 40
3.75
  9
$DIMRND
 40
0.0
  9
$DIMDLE
 40
0.0
  9
$DIMEXE
 40
1.0
  9
$DIMTP
 40
0.0
  9
$DIMTM
 40
0.0
  9
$DIMTXT
 40
3.5
  9
$DIMCEN
 40
2.5
  9
$DIMTSZ
 40
0.0
  9
$DIMTOL
 70
     0
  9
$DIMLIM
 70
     0
  9
$DIMTIH
 70
     1
  9
$DIMTOH
 70
     1
  9
$DIMSE1
 70
     0
  9
$DIMSE2
 70
     0
  9
$DIMTAD
 70
     1
  9
$DIMZIN
 70
     1
  9
$DIMBLK
  1

  9
$DIMASO
 70
     1
  9
$DIMSHO
 70
     1
  9
$DIMPOST
  1

  9
$DIMAPOST
  1

  9
$DIMALT
 70
     0
  9
$DIMALTD
 70
     3
  9
$DIMALTF
 40
0.0393700787401575
  9
$DIMLFAC
 40
2.0
  9
$DIMTOFL
 70
     1
  9
$DIMTVP
 40
0.0
  9
$DIMTIX
 70
     0
  9
$DIMSOXD
 70
     0
  9
$DIMSAH
 70
     0
  9
$DIMBLK1
  1

  9
$DIMBLK2
  1

  9
$DIMSTYLE
  2
ISO-25
  9
$DIMCLRD
 70
     0
  9
$DIMCLRE
 70
     0
  9
$DIMCLRT
 70
     0
  9
$DIMTFAC
 40
1.0
  9
$DIMGAP
 40
1.524
  9
$DIMJUST
 70
     0
  9
$DIMSD1
 70
     0
  9
$DIMSD2
 70
     0
  9
$DIMTOLJ
 70
     0
  9
$DIMTZIN
 70
     1
  9
$DIMALTZ
 70
     0
  9
$DIMALTTZ
 70
     0
  9
$DIMUPT
 70
     0
  9
$DIMDEC
 70
     2
  9
$DIMTDEC
 70
     2
  9
$DIMALTU
 70
     2
  9
$DIMALTTD
 70
     3
  9
$DIMTXSTY
  7
Standard
  9
$DIMAUNIT
 70
     0
  9
$DIMADEC
 70
     2
  9
$DIMALTRND
 40
0.0
  9
$DIMAZIN
 70
     0
  9
$DIMDSEP
 70
    44
  9
$DIMATFIT
 70
     3
  9
$DIMFRAC
 70
     0
  9
$DIMLDRBLK
  1

  9
$DIMLUNIT
 70
     2
  9
$DIMLWD
 70
    -2
  9
$DIMLWE
 70
    -2
  9
$DIMTMOVE
 70
     0
  9
$DIMFXL
 40
1.0
  9
$DIMFXLON
 70
     0
  9
$DIMJOGANG
 40
0.7853981633974483
  9
$DIMTFILL
 70
     0
  9
$DIMTFILLCLR
 70
     0
  9
$DIMARCSYM
 70
     0
  9
$DIMLTYPE
  6

  9
$DIMLTEX1
  6

  9
$DIMLTEX2
  6

  9
$DIMTXTDIRECTION
 70
     0
  9
$LUNITS
 70
     2
  9
$LUPREC
 70
     2
  9
$SKETCHINC
 40
1.0
  9
$FILLETRAD
 40
10.0
  9
$AUNITS
 70
     0
  9
$AUPREC
 70
     2
  9
$MENU
  1
.
  9
$ELEVATION
 40
0.0
  9
$PELEVATION
 40
0.0
  9
$THICKNESS
 40
0.0
  9
$LIMCHECK
 70
     0
  9
$CHAMFERA
 40
0.0
  9
$CHAMFERB
 40
0.0
  9
$CHAMFERC
 40
0.0
  9
$CHAMFERD
 40
0.0
  9
$SKPOLY
 70
     0
  9
$TDCREATE
 40
2459606.467166782
  9
$TDUCREATE
 40
2459606.092166782
  9
$TDUPDATE
 40
2459608.569536759
  9
$TDUUPDATE
 40
2459608.194536759
  9
$TDINDWG
 40
0.0048082176
  9
$TDUSRTIMER
 40
0.0000591088
  9
$USRTIMER
 70
     1
  9
$ANGBASE
 50
0.0
  9
$ANGDIR
 70
     0
  9
$PDMODE
 70
     0
  9
$PDSIZE
 40
-1.0
  9
$PLINEWID
 40
0.0
  9
$SPLFRAME
 70
     0
  9
$SPLINETYPE
 70
     6
  9
$SPLINESEGS
 70
     8
  9
$HANDSEED
  5
5A6
  9
$SURFTAB1
 70
     6
  9
$SURFTAB2
 70
     6
  9
$SURFTYPE
 70
     6
  9
$SURFU
 70
     6
  9
$SURFV
 70
     6
  9
$UCSBASE
  2

  9
$UCSNAME
  2

  9
$UCSORG
 10
0.0
 20
0.0
 30
0.0
  9
$UCSXDIR
 10
1.0
 20
0.0
 30
0.0
  9
$UCSYDIR
 10
0.0
 20
1.0
 30
0.0
  9
$UCSORTHOREF
  2

  9
$UCSORTHOVIEW
 70
     0
  9
$UCSORGTOP
 10
0.0
 20
0.0
 30
0.0
  9
$UCSORGBOTTOM
 10
0.0
 20
0.0
 30
0.0
  9
$UCSORGLEFT
 10
0.0
 20
0.0
 30
0.0
  9
$UCSORGRIGHT
 10
0.0
 20
0.0
 30
0.0
  9
$UCSORGFRONT
 10
0.0
 20
0.0
 30
0.0
  9
$UCSORGBACK
 10
0.0
 20
0.0
 30
0.0
  9
$PUCSBASE
  2

  9
$PUCSNAME
  2

  9
$PUCSORG
 10
0.0
 20
0.0
 30
0.0
  9
$PUCSXDIR
 10
1.0
 20
0.0
 30
0.0
  9
$PUCSYDIR
 10
0.0
 20
1.0
 30
0.0
  9
$PUCSORTHOREF
  2

  9
$PUCSORTHOVIEW
 70
     0
  9
$PUCSORGTOP
 10
0.0
 20
0.0
 30
0.0
  9
$PUCSORGBOTTOM
 10
0.0
 20
0.0
 30
0.0
  9
$PUCSORGLEFT
 10
0.0
 20
0.0
 30
0.0
  9
$PUCSORGRIGHT
 10
0.0
 20
0.0
 30
0.0
  9
$PUCSORGFRONT
 10
0.0
 20
0.0
 30
0.0
  9
$PUCSORGBACK
 10
0.0
 20
0.0
 30
0.0
  9
$USERI1
 70
     0
  9
$USERI2
 70
     0
  9
$USERI3
 70
     0
  9
$USERI4
 70
     0
  9
$USERI5
 70
     0
  9
$USERR1
 40
0.0
  9
$USERR2
 40
0.0
  9
$USERR3
 40
0.0
  9
$USERR4
 40
0.0
  9
$USERR5
 40
0.0
  9
$WORLDVIEW
 70
     1
  9
$SHADEDGE
 70
     3
  9
$SHADEDIF
 70
    70
  9
$TILEMODE
 70
     1
  9
$MAXACTVP
 70
    64
  9
$PINSBASE
 10
0.0
 20
0.0
 30
0.0
  9
$PLIMCHECK
 70
     0
  9
$PEXTMIN
 10
1.000000000000000E+20
 20
1.000000000000000E+20
 30
1.000000000000000E+20
  9
$PEXTMAX
 10
-1.000000000000000E+20
 20
-1.000000000000000E+20
 30
-1.000000000000000E+20
  9
$PLIMMIN
 10
0.0
 20
0.0
  9
$PLIMMAX
 10
0.0
 20
0.0
  9
$UNITMODE
 70
     0
  9
$VISRETAIN
 70
     1
  9
$PLINEGEN
 70
     0
  9
$PSLTSCALE
 70
     1
  9
$TREEDEPTH
 70
  3020
  9
$CMLSTYLE
  2
Standard
  9
$CMLJUST
 70
     0
  9
$CMLSCALE
 40
20.0
  9
$PROXYGRAPHICS
 70
     1
  9
$MEASUREMENT
 70
     1
  9
$CELWEIGHT
370
    -1
  9
$ENDCAPS
280
     0
  9
$JOINSTYLE
280
     0
  9
$LWDISPLAY
290
     1
  9
$INSUNITS
 70
     4
  9
$HYPERLINKBASE
  1

  9
$STYLESHEET
  1

  9
$XEDIT
290
     1
  9
$CEPSNTYPE
380
     0
  9
$PSTYLEMODE
290
     1
  9
$FINGERPRINTGUID
  2
{421371b9-4888-44b9-a8db-4e5c21937eea}
  9
$VERSIONGUID
  2
{FAEB1C32-E019-11D5-929B-00C0DF256EC4}
  9
$EXTNAMES
290
     1
  9
$PSVPSCALE
 40
0.0
  9
$OLESTARTUP
290
     0
  9
$SORTENTS
280
   127
  9
$INDEXCTL
280
     0
  9
$HIDETEXT
280
     1
  9
$XCLIPFRAME
280
     2
  9
$HALOGAP
280
     0
  9
$OBSCOLOR
 70
   257
  9
$OBSLTYPE
280
     0
  9
$INTERSECTIONDISPLAY
280
     0
  9
$INTERSECTIONCOLOR
 70
   257
  9
$DIMASSOC
280
     2
  9
$PROJECTNAME
  1

  9
$CAMERADISPLAY
290
     0
  9
$LENSLENGTH
 40
50.0
  9
$CAMERAHEIGHT
 40
0.0
  9
$STEPSPERSEC
 40
2.0
  9
$STEPSIZE
 40
6.0
  9
$3DDWFPREC
 40
2.0
  9
$PSOLWIDTH
 40
0.25
  9
$PSOLHEIGHT
 40
4.0
  9
$LOFTANG1
 40
1.570796326794897
  9
$LOFTANG2
 40
1.570796326794897
  9
$LOFTMAG1
 40
0.0
  9
$LOFTMAG2
 40
0.0
  9
$LOFTPARAM
 70
     7
  9
$LOFTNORMALS
280
     1
  9
$LATITUDE
 40
37.795
  9
$LONGITUDE
 40
-122.394
  9
$NORTHDIRECTION
 40
0.0
  9
$TIMEZONE
 70
 -8000
  9
$LIGHTGLYPHDISPLAY
280
     1
  9
$TILEMODELIGHTSYNCH
280
     1
  9
$SOLIDHIST
280
     0
  9
$SHOWHIST
280
     1
  9
$DWFFRAME
280
     2
  9
$DGNFRAME
280
     2
  9
$REALWORLDSCALE
290
     1
  9
$INTERFERECOLOR
 62
   256
  9
$CSHADOW
280
     0
  9
$SHADOWPLANELOCATION
 40
0.0
  0
ENDSEC
  0
SECTION
  2
CLASSES
  0
CLASS
  1
ACDBDICTIONARYWDFLT
  2
AcDbDictionaryWithDefault
  3
ObjectDBX Classes
 90
        0
 91
        3
280
     0
281
     0
  0
CLASS
  1
VISUALSTYLE
  2
AcDbVisualStyle
  3
ObjectDBX Classes
 90
     4095
 91
        3
280
     0
281
     0
  0
CLASS
  1
MATERIAL
  2
AcDbMaterial
  3
ObjectDBX Classes
 90
     1153
 91
        3
280
     0
281
     0
  0
CLASS
  1
SCALE
  2
AcDbScale
  3
ObjectDBX Classes
 90
     1153
 91
        3
280
     0
281
     0
  0
CLASS
  1
TABLESTYLE
  2
AcDbTableStyle
  3
ObjectDBX Classes
 90
     4095
 91
        3
280
     0
281
     0
  0
CLASS
  1
MLEADERSTYLE
  2
AcDbMLeaderStyle
  3
ACDB_MLEADERSTYLE_CLASS
 90
     4095
 91
        3
280
     0
281
     0
  0
CLASS
  1
SUN
  2
AcDbSun
  3
SCENEOE
 90
     1153
 91
        3
280
     0
281
     0
  0
CLASS
  1
ACDBPLACEHOLDER
  2
AcDbPlaceHolder
  3
ObjectDBX Classes
 90
        0
 91
        1
280
     0
281
     0
  0
CLASS
  1
LAYOUT
  2
AcDbLayout
  3
ObjectDBX Classes
 90
        0
 91
        1
280
     0
281
     0
  0
CLASS
  1
SORTENTSTABLE
  2
AcDbSortentsTable
  3
ObjectDBX Classes
 90
        0
 91
        3
280
     0
281
     0
  0
CLASS
  1
DICTIONARYVAR
  2
AcDbDictionaryVar
  3
ObjectDBX Classes
 90
        0
 91
        3
280
     0
281
     0
  0
CLASS
  1
CELLSTYLEMAP
  2
AcDbCellStyleMap
  3
ObjectDBX Classes
 90
     1152
 91
        3
280
     0
281
     0
  0
ENDSEC
  0
SECTION
  2
TABLES
  0
TABLE
  2
VPORT
  5
8
330
0
100
AcDbSymbolTable
 70
     1
  0
VPORT
  5
29
330
8
100
AcDbSymbolTableRecord
100
AcDbViewportTableRecord
  2
*Active
 70
     0
 10
0.0
 20
0.0
 11
1.0
 21
1.0
 12
135.8921881809437
 22
138.4838381342519
 13
0.0
 23
0.0
 14
10.0
 24
10.0
 15
10.0
 25
10.0
 16
0.0
 26
0.0
 36
1.0
 17
0.0
 27
0.0
 37
0.0
 40
362.3093643546382
 41
0.9324116743471582
 42
50.0
 43
0.0
 44
0.0
 50
0.0
 51
0.0
 71
    16
 72
  2000
 73
     1
 74
     3
 75
     0
 76
     0
 77
     0
 78
     0
281
     0
 65
     1
110
0.0
120
0.0
130
0.0
111
1.0
121
0.0
131
0.0
112
0.0
122
1.0
132
0.0
 79
     0
146
0.0
348
55B
 60
     3
 61
     5
292
     1
282
     1
141
0.0
142
0.0
 63
   256
361
590
  0
ENDTAB
  0
TABLE
  2
LTYPE
  5
5
330
0
100
AcDbSymbolTable
 70
     6
  0
LTYPE
  5
14
330
5
100
AcDbSymbolTableRecord
100
AcDbLinetypeTableRecord
  2
ByBlock
 70
     0
  3

 72
    65
 73
     0
 40
0.0
  0
LTYPE
  5
15
330
5
100
AcDbSymbolTableRecord
100
AcDbLinetypeTableRecord
  2
ByLayer
 70
     0
  3

 72
    65
 73
     0
 40
0.0
  0
LTYPE
  5
16
330
5
100
AcDbSymbolTableRecord
100
AcDbLinetypeTableRecord
  2
Continuous
 70
     0
  3
Solid line
 72
    65
 73
     0
 40
0.0
  0
LTYPE
  5
6E
330
5
100
AcDbSymbolTableRecord
100
AcDbLinetypeTableRecord
  2
HIDDEN
 70
     0
  3
Hidden __ __ __ __ __ __ __ __ __ __ __ __ __ __
 72
    65
 73
     2
 40
1.905
 49
1.27
 74
     0
 49
-0.635
 74
     0
  0
LTYPE
  5
6F
330
5
100
AcDbSymbolTableRecord
100
AcDbLinetypeTableRecord
  2
PHANTOM
 70
     0
  3
Phantom ______  __  __  ______  __  __  ______
 72
    65
 73
     6
 40
12.7
 49
6.35
 74
     0
 49
-1.27
 74
     0
 49
1.27
 74
     0
 49
-1.27
 74
     0
 49
1.27
 74
     0
 49
-1.27
 74
     0
  0
LTYPE
  5
70
330
5
100
AcDbSymbolTableRecord
100
AcDbLinetypeTableRecord
  2
CENTER
 70
     0
  3
Center ____ _ ____ _ ____ _ ____ _ ____ _ ____
 72
    65
 73
     4
 40
10.16
 49
6.35
 74
     0
 49
-1.27
 74
     0
 49
1.27
 74
     0
 49
-1.27
 74
     0
  0
LTYPE
  5
71
330
5
100
AcDbSymbolTableRecord
100
AcDbLinetypeTableRecord
  2
CENTERX2
 70
     0
  3
Center (2x) ________  __  ________  __  _____
 72
    65
 73
     4
 40
20.32
 49
12.7
 74
     0
 49
-2.54
 74
     0
 49
2.54
 74
     0
 49
-2.54
 74
     0
  0
LTYPE
  5
72
330
5
100
AcDbSymbolTableRecord
100
AcDbLinetypeTableRecord
  2
DOT2
 70
     0
  3
Dot (.5x) ........................................
 72
    65
 73
     2
 40
0.635
 49
0.0
 74
     0
 49
-0.635
 74
     0
  0
ENDTAB
  0
TABLE
  2
LAYER
  5
2
102
{ACAD_XDICTIONARY
360
59C
102
}
330
0
100
AcDbSymbolTable
 70
     1
  0
LAYER
  5
10
330
2
100
AcDbSymbolTableRecord
100
AcDbLayerTableRecord
  2
0
 70
     0
 62
     7
  6
Continuous
370
    -3
390
F
347
572
348
0
  0
ENDTAB
  0
TABLE
  2
STYLE
  5
3
330
0
100
AcDbSymbolTable
 70
     1
  0
STYLE
  5
11
330
3
100
AcDbSymbolTableRecord
100
AcDbTextStyleTableRecord
  2
Standard
 70
     0
 40
0.0
 41
1.0
 50
0.0
 71
     0
 42
3.5
  3
txt
  4
bigfont
  0
ENDTAB
  0
TABLE
  2
VIEW
  5
6
330
0
100
AcDbSymbolTable
 70
     0
  0
ENDTAB
  0
TABLE
  2
UCS
  5
7
330
0
100
AcDbSymbolTable
 70
     0
  0
ENDTAB
  0
TABLE
  2
APPID
  5
9
330
0
100
AcDbSymbolTable
 70
     2
  0
APPID
  5
12
330
9
100
AcDbSymbolTableRecord
100
AcDbRegAppTableRecord
  2
ACAD
 70
     0
  0
APPID
  5
5A2
330
9
100
AcDbSymbolTableRecord
100
AcDbRegAppTableRecord
  2
PLOTTRANSPARENCY
 70
     0
  0
ENDTAB
  0
TABLE
  2
DIMSTYLE
  5
A
330
0
100
AcDbSymbolTable
 70
     2
100
AcDbDimStyleTable
  0
DIMSTYLE
105
27
330
A
100
AcDbSymbolTableRecord
100
AcDbDimStyleTableRecord
  2
ISO-25
 70
     0
 41
2.5
 42
0.625
 43
3.75
 44
1.25
 73
     0
 74
     0
 77
     1
 78
     8
140
2.5
141
2.5
143
0.03937007874016
147
0.625
171
     3
172
     1
178
     0
271
     2
272
     2
274
     3
278
    44
283
     0
284
     8
340
11
  0
DIMSTYLE
105
594
330
A
100
AcDbSymbolTableRecord
100
AcDbDimStyleTableRecord
  2
Standard
 70
     0
178
     0
340
11
  0
ENDTAB
  0
TABLE
  2
BLOCK_RECORD
  5
1
330
0
100
AcDbSymbolTable
 70
     1
  0
BLOCK_RECORD
  5
1F
102
{ACAD_XDICTIONARY
360
587
102
}
330
1
100
AcDbSymbolTableRecord
100
AcDbBlockTableRecord
  2
*Model_Space
340
22
 70
     0
280
     1
281
     0
  0
BLOCK_RECORD
  5
1B
330
1
100
AcDbSymbolTableRecord
100
AcDbBlockTableRecord
  2
*Paper_Space
340
1E
 70
     0
280
     1
281
     0
  0
BLOCK_RECORD
  5
23
330
1
100
AcDbSymbolTableRecord
100
AcDbBlockTableRecord
  2
*Paper_Space0
340
26
 70
     0
280
     1
281
     0
  0
ENDTAB
  0
ENDSEC
  0
SECTION
  2
BLOCKS
  0
BLOCK
  5
20
330
1F
100
AcDbEntity
  8
0
100
AcDbBlockBegin
  2
*Model_Space
 70
     0
 10
0.0
 20
0.0
 30
0.0
  3
*Model_Space
  1

  0
ENDBLK
  5
21
330
1F
100
AcDbEntity
  8
0
100
AcDbBlockEnd
  0
BLOCK
  5
1C
330
1B
100
AcDbEntity
 67
     1
  8
0
100
AcDbBlockBegin
  2
*Paper_Space
 70
     0
 10
0.0
 20
0.0
 30
0.0
  3
*Paper_Space
  1

  0
ENDBLK
  5
1D
330
1B
100
AcDbEntity
 67
     1
  8
0
100
AcDbBlockEnd
  0
BLOCK
  5
24
330
23
100
AcDbEntity
  8
0
100
AcDbBlockBegin
  2
*Paper_Space0
 70
     0
 10
0.0
 20
0.0
 30
0.0
  3
*Paper_Space0
  1

  0
ENDBLK
  5
25
330
23
100
AcDbEntity
  8
0
100
AcDbBlockEnd
  0
ENDSEC
  0
SECTION
  2
ENTITIES
  0
LINE
  5
73
330
1F
100
AcDbEntity
  8
0
  6
Continuous
 62
     7
370
    25
100
AcDbLine
 10
107.0935930577076
 20
70.79580741442457
 30
0.0
 11
104.7314748441572
 21
71.35887389754791
 31
0.0
  0
LINE
  5
74
330
1F
100
AcDbEntity
  8
0
  6
Continuous
 62
     7
370
    25
100
AcDbLine
 10
103.8039679893074
 20
67.46789316845062
 30
0.0
 11
107.1862391399719
 21
66.66164921721679
 31
0.0
  0
LINE
  5
75
330
1F
100
AcDbEntity
  8
0
  6
Continuous
 62
     7
370
    25
100
AcDbLine
 10
121.2357286814394
 20
67.13555337657999
 30
0.0
 11
118.873610467889
 21
67.69861985970336
 31
0.0
  0
LINE
  5
76
330
1F
100
AcDbEntity
  8
0
  6
Continuous
 62
     7
370
    25
100
AcDbLine
 10
117.9461036130391
 20
63.80763913060606
 30
0.0
 11
121.3283747637037
 21
63.00139517937222
 31
0.0
  0
SPLINE
  5
77
330
1F
100
AcDbEntity
  8
0
  6
Continuous
 62
     7
370
    25
100
AcDbSpline
210
0.0
220
0.0
230
1.0
 70
     8
 71
     3
 72
    19
 73
    15
 74
     0
 42
0.000000001
 43
0.00000001
 40
0.0
 40
0.0
 40
0.0
 40
0.0
 40
0.0152685229795767
 40
0.1053743308624957
 40
0.1974314640479605
 40
0.2927520754774796
 40
0.3911283116738321
 40
0.4914986598953038
 40
0.5931315035367669
 40
0.6961791519007756
 40
0.8008247892789705
 40
0.8938831941997343
 40
0.9840142794745094
 40
1.0
 40
1.0
 40
1.0
 40
1.0
 10
129.946123712414
 20
59.73486069582362
 30
0.0
 10
129.9839226752759
 20
59.73786252934553
 30
0.0
 10
130.2447887999301
 20
59.75857941199052
 30
0.0
 10
130.7072818396273
 20
59.9685126202812
 30
0.0
 10
131.2949949837587
 20
60.35479866524523
 30
0.0
 10
131.8034947925811
 20
60.90442597466565
 30
0.0
 10
132.2095159897163
 20
61.57644623413687
 30
0.0
 10
132.4848753875945
 20
62.34432390902545
 30
0.0
 10
132.6079490153898
 20
63.16462650352482
 30
0.0
 10
132.5625297330537
 20
63.99157658398833
 30
0.0
 10
132.3505128497124
 20
64.75268700989042
 30
0.0
 10
131.9841728432339
 20
65.38359748691988
 30
0.0
 10
131.6594886059469
 20
65.77914831572183
 30
0.0
 10
131.4338120694205
 20
65.91519959978689
 30
0.0
 10
131.3998155500675
 20
65.93569473048554
 30
0.0
  0
LINE
  5
78
330
1F
100
AcDbEntity
  8
0
  6
Continuous
 62
     7
370
    25
100
AcDbLine
 10
124.1555984119485
 20
60.30715643610738
 30
0.0
 11
125.1960565829181
 21
60.0870715067667
 31
0.0
  0
SPLINE
  5
79
330
1F
100
AcDbEntity
  8
0
  6
Continuous
 62
     7
370
    25
100
AcDbSpline
210
0.0
220
0.0
230
1.0
 70
     8
 71
     3
 72
    13
 73
     9
 74
     0
 42
0.000000001
 43
0.00000001
 40
0.0
 40
0.0
 40
0.0
 40
0.0
 40
0.1022381903382579
 40
0.2926408415435389
 40
0.4838897747306243
 40
0.675828863050079
 40
0.8678790654275793
 40
0.9999999999999999
 40
0.9999999999999999
 40
0.9999999999999999
 40
0.9999999999999999
 10
128.9679587037352
 20
63.18136211471227
 30
0.0
 10
129.0017354269225
 20
63.3344616497486
 30
0.0
 10
129.0984160182497
 20
63.77268514162293
 30
0.0
 10
129.1442788154535
 20
64.51261764966065
 30
0.0
 10
129.0540337071623
 20
65.3612268539459
 30
0.0
 10
128.8053443636416
 20
66.13855425734768
 30
0.0
 10
128.4673852279841
 20
66.76070116124822
 30
0.0
 10
128.1632799238987
 20
67.04366254485997
 30
0.0
 10
128.0393371282438
 20
67.15898781040472
 30
0.0
  0
SPLINE
  5
7A
330
1F
100
AcDbEntity
  8
0
  6
Continuous
 62
     7
370
    25
100
AcDbSpline
210
0.0
220
0.0
230
1.0
 70
     8
 71
     3
 72
    15
 73
    11
 74
     0
 42
0.000000001
 43
0.00000001
 40
0.0
 40
0.0
 40
0.0
 40
0.0
 40
0.0805977746943494
 40
0.2169780497189495
 40
0.3537927383591637
 40
0.4927392936519145
 40
0.6341216786541525
 40
0.7770899398148059
 40
0.9207427196041457
 40
1.0
 40
1.0
 40
1.0
 40
1.0
 10
125.0942371241139
 20
60.11100395056616
 30
0.0
 10
125.223292830568
 20
60.08448874215527
 30
0.0
 10
125.5707249476174
 20
60.01310689283369
 30
0.0
 10
126.1608210266528
 20
60.05327143954972
 30
0.0
 10
126.8291427470193
 20
60.27486418184433
 30
0.0
 10
127.4590002368762
 20
60.67261484616395
 30
0.0
 10
128.0244630564622
 20
61.2282830598814
 30
0.0
 10
128.495856603268
 20
61.91939363297212
 30
0.0
 10
128.8034093662542
 20
62.59157707537767
 30
0.0
 10
128.9247980730906
 20
63.02666386656298
 30
0.0
 10
128.9679587037352
 20
63.18136211471227
 30
0.0
  0
LINE
  5
7B
330
1F
100
AcDbEntity
  8
0
  6
Continuous
 62
     7
370
    25
100
AcDbLine
 10
120.364551239519
 20
73.51031314782581
 30
0.0
 11
121.1961878134465
 21
73.31207299276844
 31
0.0
  0
ARC
  5
7C
330
1F
100
AcDbEntity
  8
0
  6
Continuous
 62
     7
370
    25
100
AcDbCircle
 10
118.7879637829413
 20
78.08409944080509
 30
0.0
 40
3.314795918367337
100
AcDbArc
 50
200.4401545639277
 51
259.7723149153905
  0
ARC
  5
7D
330
1F
100
AcDbEntity
  8
0
  6
Continuous
 62
     7
370
    25
100
AcDbCircle
 10
118.7879637829413
 20
78.08409944080509
 30
0.0
 40
3.314795918367335
100
AcDbArc
 50
302.3309109575357
 51
336.8321488655218
  0
ARC
  5
7E
330
1F
100
AcDbEntity
  8
0
  6
Continuous
 62
     7
370
    25
100
AcDbCircle
 10
118.7879637829413
 20
78.08409944080509
 30
0.0
 40
3.314795918367351
100
AcDbArc
 50
272.2934234829361
 51
296.9438873904513
  0
ARC
  5
7F
330
1F
100
AcDbEntity
  8
0
  6
Continuous
 62
     7
370
    25
100
AcDbCircle
 10
98.71655162463897
 20
102.3853479390091
 30
0.0
 40
3.314795918367334
100
AcDbArc
 50
292.8225900509854
 51
307.234080715431
  0
ARC
  5
80
330
1F
100
AcDbEntity
  8
0
  6
Continuous
 62
     7
370
    25
100
AcDbCircle
 10
98.71655162463897
 20
102.3853479390091
 30
0.0
 40
3.314795918367338
100
AcDbArc
 50
263.8009526528455
 51
276.1990473471559
  0
ARC
  5
81
330
1F
100
AcDbEntity
  8
0
  6
Continuous
 62
     7
370
    25
100
AcDbCircle
 10
98.71655162463897
 20
102.3853479390091
 30
0.0
 40
3.314795918367348
100
AcDbArc
 50
203.7442818864312
 51
247.1774099490163
  0
ARC
  5
82
330
1F
100
AcDbEntity
  8
0
  6
Continuous
 62
     7
370
    25
100
AcDbCircle
 10
154.3055650532972
 20
87.27673108593076
 30
0.0
 40
3.314795918367355
100
AcDbArc
 50
257.3480646425154
 51
267.7065765170652
  0
ARC
  5
83
330
1F
100
AcDbEntity
  8
0
  6
Continuous
 62
     7
370
    25
100
AcDbCircle
 10
154.3055650532972
 20
87.27673108593076
 30
0.0
 40
3.314795918367334
100
AcDbArc
 50
280.2276850846109
 51
344.3302090649341
  0
ARC
  5
84
330
1F
100
AcDbEntity
  8
0
  6
Continuous
 62
     7
370
    25
100
AcDbCircle
 10
146.7998127453243
 20
80.0267310859308
 30
0.0
 40
3.31479591836734
100
AcDbArc
 50
292.8225900509856
 51
344.3302090649341
  0
ARC
  5
85
330
1F
100
AcDbEntity
  8
0
  6
Continuous
 62
     7
370
    25
100
AcDbCircle
 10
146.7998127453243
 20
80.0267310859308
 30
0.0
 40
3.314795918367352
100
AcDbArc
 50
263.8009526528455
 51
276.1990473471561
  0
ARC
  5
86
330
1F
100
AcDbEntity
  8
0
  6
Continuous
 62
     7
370
    25
100
AcDbCircle
 10
146.7998127453243
 20
80.0267310859308
 30
0.0
 40
3.314795918367352
100
AcDbArc
 50
204.384266184993
 51
247.1774099490165
  0
ARC
  5
87
330
1F
100
AcDbEntity
  8
0
  6
Continuous
 62
     7
370
    25
100
AcDbCircle
 10
98.28186712853126
 20
83.39146779567943
 30
0.0
 40
3.314795918367335
100
AcDbArc
 50
280.2276850846116
 51
328.8762760250829
  0
ARC
  5
88
330
1F
100
AcDbEntity
  8
0
  6
Continuous
 62
     7
370
    25
100
AcDbCircle
 10
98.28186712853126
 20
83.39146779567943
 30
0.0
 40
3.314795918367349
100
AcDbArc
 50
243.0561126095518
 51
267.7065765170657
  0
ARC
  5
89
330
1F
100
AcDbEntity
  8
0
  6
Continuous
 62
     7
370
    25
100
AcDbCircle
 10
98.28186712853126
 20
83.39146779567943
 30
0.0
 40
3.314795918367344
100
AcDbArc
 50
195.6697909350673
 51
237.6690890424661
  0
ARC
  5
8A
330
1F
100
AcDbEntity
  8
0
  6
Continuous
 62
     7
370
    25
100
AcDbCircle
 10
109.3231533424372
 20
99.64015741062585
 30
0.0
 40
3.31479591836734
100
AcDbArc
 50
292.8225900509856
 51
323.3912329878789
  0
ARC
  5
8B
330
1F
100
AcDbEntity
  8
0
  6
Continuous
 62
     7
370
    25
100
AcDbCircle
 10
109.3231533424372
 20
99.64015741062585
 30
0.0
 40
3.314795918367353
100
AcDbArc
 50
263.8009526528458
 51
276.1990473471564
  0
ARC
  5
8C
330
1F
100
AcDbEntity
  8
0
  6
Continuous
 62
     7
370
    25
100
AcDbCircle
 10
109.3231533424372
 20
99.64015741062585
 30
0.0
 40
3.314795918367342
100
AcDbArc
 50
203.7442818864313
 51
247.1774099490166
  0
LINE
  5
8D
330
1F
100
AcDbEntity
  8
0
  6
Continuous
 62
     7
370
    25
100
AcDbLine
 10
114.8265016812862
 20
80.69899426347936
 30
0.0
 11
114.8265016812862
 21
79.73488421952044
 31
0.0
  0
LINE
  5
8E
330
1F
100
AcDbEntity
  8
0
  6
Continuous
 62
     7
370
    25
100
AcDbLine
 10
150.4947244040202
 20
81.79238597148328
 30
0.0
 11
150.4947244040202
 21
82.75649601544649
 31
0.0
  0
LINE
  5
8F
330
1F
100
AcDbEntity
  8
0
  6
Continuous
 62
     7
370
    25
100
AcDbLine
 10
104.3567159692686
 20
88.34770009838064
 30
0.0
 11
103.7097204171949
 21
88.18024532740735
 31
0.0
  0
LINE
  5
90
330
1F
100
AcDbEntity
  8
0
  6
Continuous
 62
     7
370
    25
100
AcDbLine
 10
153.7937160909142
 20
86.91358529450741
 30
0.0
 11
153.7937160909142
 21
87.86286644942852
 31
0.0
  0
LINE
  5
91
330
1F
100
AcDbEntity
  8
0
  6
Continuous
 62
     7
370
    25
100
AcDbLine
 10
95.03970693055332
 20
86.18621899028703
 30
0.0
 11
95.03970693055332
 21
85.22210894632903
 31
0.0
  0
LINE
  5
92
330
1F
100
AcDbEntity
  8
0
  6
Continuous
 62
     7
370
    25
100
AcDbLine
 10
157.5477252512751
 20
88.60506164268581
 30
0.0
 11
157.5477252512751
 21
89.56917168664205
 31
0.0
  0
LINE
  5
93
330
1F
100
AcDbEntity
  8
0
  6
Continuous
 62
     7
370
    25
100
AcDbLine
 10
92.62651697842051
 20
101.8415348382579
 30
0.0
 11
110.3041865080843
 21
97.26621729095244
 31
0.0
  0
LINE
  5
94
330
1F
100
AcDbEntity
  8
0
  6
Continuous
 62
     7
370
    25
100
AcDbLine
 10
103.7308589037226
 20
115.9762273687326
 30
0.0
 11
103.5187268693667
 21
115.921323558165
 31
0.0
  0
LINE
  5
95
330
1F
100
AcDbEntity
  8
0
  6
Continuous
 62
     7
370
    25
100
AcDbLine
 10
93.12425718592435
 20
118.7214178971159
 30
0.0
 11
92.91212515156838
 21
118.6665140865482
 31
0.0
  0
LINE
  5
96
330
1F
100
AcDbEntity
  8
0
  6
Continuous
 62
     7
370
    25
100
AcDbLine
 10
150.4947244040202
 20
81.29743378424718
 30
0.0
 11
150.5319663432117
 21
81.34364139118918
 31
0.0
  0
SPLINE
  5
97
330
1F
100
AcDbEntity
  8
0
  6
Continuous
 62
     7
370
    25
100
AcDbSpline
210
0.0
220
0.0
230
1.0
 70
     8
 71
     3
 72
    10
 73
     6
 74
     0
 42
0.000000001
 43
0.00000001
 40
0.0
 40
0.0
 40
0.0
 40
0.0
 40
0.3368379931483418
 40
0.7053823504172068
 40
1.0
 40
1.0
 40
1.0
 40
1.0
 10
102.6815829166395
 20
80.72735458760421
 30
0.0
 10
102.9180410886454
 20
80.54962677793942
 30
0.0
 10
103.4132151026748
 20
80.17744174339475
 30
0.0
 10
104.3018490129336
 20
79.68577900714327
 30
0.0
 10
105.0121814250819
 20
79.38228076251195
 30
0.0
 10
105.3277550911354
 20
79.24744803904176
 30
0.0
  0
SPLINE
  5
98
330
1F
100
AcDbEntity
  8
0
  6
Continuous
 62
     7
370
    25
100
AcDbSpline
210
0.0
220
0.0
230
1.0
 70
     8
 71
     3
 72
    13
 73
     9
 74
     0
 42
0.000000001
 43
0.00000001
 40
0.0
 40
0.0
 40
0.0
 40
0.0
 40
0.0921278888538615
 40
0.2685451826254481
 40
0.445753758890274
 40
0.6249335614128312
 40
0.8099177724514169
 40
1.0
 40
1.0
 40
1.0
 40
1.0
 10
119.1650801036457
 20
76.53954850192757
 30
0.0
 10
119.2899525902969
 20
76.53353619643167
 30
0.0
 10
119.6539455695112
 20
76.51601082276376
 30
0.0
 10
120.2749446740534
 20
76.52683446660339
 30
0.0
 10
120.9784100369234
 20
76.58860230682382
 30
0.0
 10
121.6076019961561
 20
76.70587272806621
 30
0.0
 10
122.1346759702138
 20
76.8608753323345
 30
0.0
 10
122.3907591997535
 20
77.04742153139844
 30
0.0
 10
122.5205411948904
 20
77.14196242711913
 30
0.0
  0
SPLINE
  5
99
330
1F
100
AcDbEntity
  8
0
  6
Continuous
 62
     7
370
    25
100
AcDbSpline
210
0.0
220
0.0
230
1.0
 70
     8
 71
     3
 72
     9
 73
     5
 74
     0
 42
0.000000001
 43
0.00000001
 40
0.0
 40
0.0
 40
0.0
 40
0.0
 40
0.5961460407437632
 40
1.0
 40
1.0
 40
1.0
 40
1.0
 10
117.0571866783823
 20
76.68573243820853
 30
0.0
 10
117.4733967757928
 20
76.65405473991049
 30
0.0
 10
118.1715647899447
 20
76.60091725994248
 30
0.0
 10
118.8792703936155
 20
76.55720277125916
 30
0.0
 10
119.1650801036457
 20
76.53954850192757
 30
0.0
  0
LINE
  5
9A
330
1F
100
AcDbEntity
  8
0
  6
Continuous
 62
     7
370
    25
100
AcDbLine
 10
114.8265016812862
 20
79.73488421952045
 30
0.0
 11
114.8265016812862
 21
77.8030325669423
 31
0.0
  0
SPLINE
  5
9B
330
1F
100
AcDbEntity
  8
0
  6
Continuous
 62
     7
370
    25
100
AcDbSpline
210
0.0
220
0.0
230
1.0
 70
     8
 71
     3
 72
    14
 73
    10
 74
     0
 42
0.000000001
 43
0.00000001
 40
0.0
 40
0.0
 40
0.0
 40
0.0
 40
0.024254807681003
 40
0.1574520310682533
 40
0.2836420310990512
 40
0.4373316940281981
 40
0.6498866285648924
 40
0.8654303523852704
 40
0.9999999999999999
 40
0.9999999999999999
 40
0.9999999999999999
 40
0.9999999999999999
 10
114.8396710480705
 20
77.81270571187419
 30
0.0
 10
114.8351955023741
 20
77.79203630487925
 30
0.0
 10
114.8061421382198
 20
77.65785919017554
 30
0.0
 10
114.9294681179439
 20
77.41369372416781
 30
0.0
 10
115.1426483578532
 20
77.1880326146145
 30
0.0
 10
115.463225878503
 20
77.0046732764596
 30
0.0
 10
115.932808895116
 20
76.84803531547917
 30
0.0
 10
116.5023361271835
 20
76.73837185949667
 30
0.0
 10
116.9031353908005
 20
76.70034749195496
 30
0.0
 10
117.0571866783823
 20
76.68573243820853
 30
0.0
  0
LINE
  5
9C
330
1F
100
AcDbEntity
  8
0
  6
Continuous
 62
     7
370
    25
100
AcDbLine
 10
122.5205411948904
 20
77.1419624271191
 30
0.0
 11
122.7598913018068
 21
77.37315687691473
 31
0.0
  0
SPLINE
  5
9D
330
1F
100
AcDbEntity
  8
0
  6
Continuous
 62
     7
370
    25
100
AcDbSpline
210
0.0
220
0.0
230
1.0
 70
     8
 71
     3
 72
    14
 73
    10
 74
     0
 42
0.000000001
 43
0.00000001
 40
0.0
 40
0.0
 40
0.0
 40
0.0
 40
0.0208225323571676
 40
0.1313457042775532
 40
0.2753598016098445
 40
0.465381012430203
 40
0.6993190180314941
 40
0.9613975214582703
 40
1.0
 40
1.0
 40
1.0
 40
1.0
 10
122.7445832941158
 20
77.36012242342913
 30
0.0
 10
122.7432202095575
 20
77.35900474189896
 30
0.0
 10
122.73462205741
 20
77.35195455870218
 30
0.0
 10
122.7775457559241
 20
77.37832139068648
 30
0.0
 10
122.8902054892596
 20
77.41573771929484
 30
0.0
 10
123.1219541128224
 20
77.46924729206566
 30
0.0
 10
123.4744666634661
 20
77.51189568930003
 30
0.0
 10
123.7850694660147
 20
77.52275644391646
 30
0.0
 10
123.9563512068389
 20
77.51963847790594
 30
0.0
 10
123.9783409571765
 20
77.51923818249908
 30
0.0
  0
SPLINE
  5
9E
330
1F
100
AcDbEntity
  8
0
  6
Continuous
 62
     7
370
    25
100
AcDbSpline
210
0.0
220
0.0
230
1.0
 70
     8
 71
     3
 72
    10
 73
     6
 74
     0
 42
0.000000001
 43
0.00000001
 40
0.0
 40
0.0
 40
0.0
 40
0.0
 40
0.3191757905403895
 40
0.6630258246259673
 40
1.0
 40
1.0
 40
1.0
 40
1.0
 10
145.9337065451513
 20
78.35022634357266
 30
0.0
 10
146.1607698041
 20
78.35081448307501
 30
0.0
 10
146.6324497026658
 20
78.35203622886563
 30
0.0
 10
147.3181919496983
 20
78.41541811548989
 30
0.0
 10
147.7098288987945
 20
78.49571008711254
 30
0.0
 10
147.903669740724
 20
78.53545062593413
 30
0.0
  0
SPLINE
  5
9F
330
1F
100
AcDbEntity
  8
0
  6
Continuous
 62
     7
370
    25
100
AcDbSpline
210
0.0
220
0.0
230
1.0
 70
     8
 71
     3
 72
    11
 73
     7
 74
     0
 42
0.000000001
 43
0.00000001
 40
0.0
 40
0.0
 40
0.0
 40
0.0
 40
0.2002966281924903
 40
0.5914848295883789
 40
0.9735860937930757
 40
1.0
 40
1.0
 40
1.0
 40
1.0
 10
144.1874624851379
 20
78.55292698744695
 30
0.0
 10
144.2866696250321
 20
78.52929161702967
 30
0.0
 10
144.5796327106509
 20
78.45949531955976
 30
0.0
 10
145.1466662454704
 20
78.38619023859013
 30
0.0
 10
145.6549742220416
 20
78.3450144570071
 30
0.0
 10
145.916778706027
 20
78.34990981775199
 30
0.0
 10
145.9337065451513
 20
78.35022634357266
 30
0.0
  0
SPLINE
  5
A0
330
1F
100
AcDbEntity
  8
0
  6
Continuous
 62
     7
370
    25
100
AcDbSpline
210
0.0
220
0.0
230
1.0
 70
     8
 71
     3
 72
     9
 73
     5
 74
     0
 42
0.000000001
 43
0.00000001
 40
0.0
 40
0.0
 40
0.0
 40
0.0
 40
0.7724073185614202
 40
1.0
 40
1.0
 40
1.0
 40
1.0
 10
113.3832129825865
 20
78.33938368628851
 30
0.0
 10
113.7393147219422
 20
78.29086807968989
 30
0.0
 10
114.2003431596568
 20
78.22805716965212
 30
0.0
 10
114.6711941035425
 20
78.17047357850706
 30
0.0
 10
114.7783563324193
 20
78.15736797459147
 30
0.0
  0
SPLINE
  5
A1
330
1F
100
AcDbEntity
  8
0
  6
Continuous
 62
     7
370
    25
100
AcDbSpline
210
0.0
220
0.0
230
1.0
 70
     8
 71
     3
 72
     9
 73
     5
 74
     0
 42
0.000000001
 43
0.00000001
 40
0.0
 40
0.0
 40
0.0
 40
0.0
 40
0.6165199835401597
 40
1.0
 40
1.0
 40
1.0
 40
1.0
 10
113.0741396145288
 20
78.3618230182536
 30
0.0
 10
113.1421276146624
 20
78.35979858454795
 30
0.0
 10
113.2524046566867
 20
78.35651493801629
 30
0.0
 10
113.3469548665513
 20
78.34413221363721
 30
0.0
 10
113.3832129825865
 20
78.33938368628851
 30
0.0
  0
SPLINE
  5
A2
330
1F
100
AcDbEntity
  8
0
  6
Continuous
 62
     7
370
    25
100
AcDbSpline
210
0.0
220
0.0
230
1.0
 70
     8
 71
     3
 72
    11
 73
     7
 74
     0
 42
0.000000001
 43
0.00000001
 40
0.0
 40
0.0
 40
0.0
 40
0.0
 40
0.2457824703575154
 40
0.5469573879793498
 40
0.8943164478553852
 40
1.0
 40
1.0
 40
1.0
 40
1.0
 10
112.3950790017529
 20
78.30584844961761
 30
0.0
 10
112.4360047203168
 20
78.315189041134
 30
0.0
 10
112.5270796618876
 20
78.33597533045136
 30
0.0
 10
112.7367803668927
 20
78.3593166508468
 30
0.0
 10
112.934214082836
 20
78.36980861202275
 30
0.0
 10
113.0476725754434
 20
78.36333350043547
 30
0.0
 10
113.0741396145288
 20
78.3618230182536
 30
0.0
  0
LINE
  5
A3
330
1F
100
AcDbEntity
  8
0
  6
Continuous
 62
     7
370
    25
100
AcDbLine
 10
112.2768618707264
 20
78.27525160465059
 30
0.0
 11
112.3950790017529
 21
78.30584844961763
 31
0.0
  0
SPLINE
  5
A4
330
1F
100
AcDbEntity
  8
0
  6
Continuous
 62
     7
370
    25
100
AcDbSpline
210
0.0
220
0.0
230
1.0
 70
     8
 71
     3
 72
     9
 73
     5
 74
     0
 42
0.000000001
 43
0.00000001
 40
0.0
 40
0.0
 40
0.0
 40
0.0
 40
0.5960959552751256
 40
1.0
 40
1.0
 40
1.0
 40
1.0
 10
147.903669740724
 20
78.53545062593413
 30
0.0
 10
148.2194425284657
 20
78.61331410919384
 30
0.0
 10
148.7491773554633
 20
78.74393650743464
 30
0.0
 10
149.2526563676618
 20
78.88162327673535
 30
0.0
 10
149.4560135771228
 20
78.93723551976103
 30
0.0
  0
LINE
  5
A5
330
1F
100
AcDbEntity
  8
0
  6
Continuous
 62
     7
370
    25
100
AcDbLine
 10
143.5335458322452
 20
78.72217307112528
 30
0.0
 11
144.1874624851379
 21
78.55292698744695
 31
0.0
  0
SPLINE
  5
A6
330
1F
100
AcDbEntity
  8
0
  6
Continuous
 62
     7
370
    25
100
AcDbSpline
210
0.0
220
0.0
230
1.0
 70
     8
 71
     3
 72
    10
 73
     6
 74
     0
 42
0.000000001
 43
0.00000001
 40
0.0
 40
0.0
 40
0.0
 40
0.0
 40
0.1643614518661499
 40
0.6966764304254262
 40
1.0
 40
1.0
 40
1.0
 40
1.0
 10
142.7772300800179
 20
78.8124408327947
 30
0.0
 10
142.8256185672887
 20
78.81203466932448
 30
0.0
 10
143.0307221253478
 20
78.8103130702914
 30
0.0
 10
143.3050201668882
 20
78.77374012506571
 30
0.0
 10
143.4726858444741
 20
78.73590619062983
 30
0.0
 10
143.5335458322452
 20
78.72217307112528
 30
0.0
  0
SPLINE
  5
A7
330
1F
100
AcDbEntity
  8
0
  6
Continuous
 62
     7
370
    25
100
AcDbSpline
210
0.0
220
0.0
230
1.0
 70
     8
 71
     3
 72
    10
 73
     6
 74
     0
 42
0.000000001
 43
0.00000001
 40
0.0
 40
0.0
 40
0.0
 40
0.0
 40
0.2486579349248113
 40
0.6818960144784929
 40
1.0
 40
1.0
 40
1.0
 40
1.0
 10
141.8288655228124
 20
78.75808037046473
 30
0.0
 10
141.897200146218
 20
78.76891369699014
 30
0.0
 10
142.0845945576016
 20
78.79862198755191
 30
0.0
 10
142.4190688565374
 20
78.82428817617766
 30
0.0
 10
142.6706959424756
 20
78.81596479470551
 30
0.0
 10
142.7772300800179
 20
78.81244083279472
 30
0.0
  0
LINE
  5
A8
330
1F
100
AcDbEntity
  8
0
  6
Continuous
 62
     7
370
    25
100
AcDbLine
 10
150.4947244040202
 20
79.86053431890514
 30
0.0
 11
150.4947244040202
 21
81.79238597148328
 31
0.0
  0
SPLINE
  5
A9
330
1F
100
AcDbEntity
  8
0
  6
Continuous
 62
     7
370
    25
100
AcDbSpline
210
0.0
220
0.0
230
1.0
 70
     8
 71
     3
 72
    12
 73
     8
 74
     0
 42
0.000000001
 43
0.00000001
 40
0.0
 40
0.0
 40
0.0
 40
0.0
 40
0.1742892946844668
 40
0.5419261316330432
 40
0.7593287984657849
 40
0.9712096565672129
 40
1.0
 40
1.0
 40
1.0
 40
1.0
 10
149.4560135771228
 20
78.93723551976103
 30
0.0
 10
149.5472690294471
 20
78.9650022969482
 30
0.0
 10
149.8310140199701
 20
79.0513388799047
 30
0.0
 10
150.1478884039856
 20
79.21026042374046
 30
0.0
 10
150.3994187714553
 20
79.4817474569196
 30
0.0
 10
150.5195693256905
 20
79.73248535907017
 30
0.0
 10
150.4876097149645
 20
79.85721719121618
 30
0.0
 10
150.4837865397656
 20
79.87213826304195
 30
0.0
  0
LINE
  5
AA
330
1F
100
AcDbEntity
  8
0
  6
Continuous
 62
     7
370
    25
100
AcDbLine
 10
127.1098965710996
 20
63.61177676745612
 30
0.0
 11
130.4408202833887
 21
76.32425126045167
 31
0.0
  0
SPLINE
  5
AB
330
1F
100
AcDbEntity
  8
0
  6
Continuous
 62
     7
370
    25
100
AcDbSpline
210
0.0
220
0.0
230
1.0
 70
     8
 71
     3
 72
    10
 73
     6
 74
     0
 42
0.000000001
 43
0.00000001
 40
0.0
 40
0.0
 40
0.0
 40
0.0
 40
0.2898147895963295
 40
0.7930846281677163
 40
1.0
 40
1.0
 40
1.0
 40
1.0
 10
122.3221694798895
 20
60.13206784834571
 30
0.0
 10
122.4490430859813
 20
60.10638806125333
 30
0.0
 10
122.7962355355169
 20
60.03611475178573
 30
0.0
 10
123.2462257811141
 20
60.04325449313332
 30
0.0
 10
123.5311418752595
 20
60.16439298961411
 30
0.0
 10
123.6141533470523
 20
60.19968718706474
 30
0.0
  0
LINE
  5
AC
330
1F
100
AcDbEntity
  8
0
  6
Continuous
 62
     7
370
    25
100
AcDbLine
 10
123.4468990584258
 20
60.12373154616387
 30
0.0
 11
124.3273677976672
 21
60.35161362449694
 31
0.0
  0
SPLINE
  5
AD
330
1F
100
AcDbEntity
  8
0
  6
Continuous
 62
     7
370
    25
100
AcDbSpline
210
0.0
220
0.0
230
1.0
 70
     8
 71
     3
 72
    13
 73
     9
 74
     0
 42
0.000000001
 43
0.00000001
 40
0.0
 40
0.0
 40
0.0
 40
0.0
 40
0.099570596220805
 40
0.2824797750372017
 40
0.4718401739366206
 40
0.6665706561103449
 40
0.8649455223607185
 40
1.0
 40
1.0
 40
1.0
 40
1.0
 10
124.4749087651454
 20
60.41696271860765
 30
0.0
 10
124.5980738217375
 20
60.45359644081018
 30
0.0
 10
124.9474906053977
 20
60.55752557249479
 30
0.0
 10
125.4838602942748
 20
60.92321470720253
 30
0.0
 10
126.0611164335125
 20
61.4806582361159
 30
0.0
 10
126.5538967834617
 20
62.19098794192718
 30
0.0
 10
126.905057859822
 20
62.91901532618438
 30
0.0
 10
127.050845684216
 20
63.41206755599553
 30
0.0
 10
127.1098965710996
 20
63.61177676745611
 30
0.0
  0
LINE
  5
AE
330
1F
100
AcDbEntity
  8
0
  6
Continuous
 62
     7
370
    25
100
AcDbLine
 10
153.7937160909142
 20
84.9817336419293
 30
0.0
 11
153.7937160909142
 21
86.91358529450741
 31
0.0
  0
SPLINE
  5
AF
330
1F
100
AcDbEntity
  8
0
  6
Continuous
 62
     7
370
    25
100
AcDbSpline
210
0.0
220
0.0
230
1.0
 70
     8
 71
     3
 72
    13
 73
     9
 74
     0
 42
0.000000001
 43
0.00000001
 40
0.0
 40
0.0
 40
0.0
 40
0.0
 40
0.1755316452717388
 40
0.3628563555495764
 40
0.5511067790187678
 40
0.7379320808388282
 40
0.8988741981048293
 40
1.0
 40
1.0
 40
1.0
 40
1.0
 10
150.5319663432117
 20
81.34364139118918
 30
0.0
 10
150.8626411730256
 20
81.51888019296126
 30
0.0
 10
151.5462071672511
 20
81.88113118686866
 30
0.0
 10
152.3666443065556
 20
82.4703662268033
 30
0.0
 10
153.0402303512767
 20
83.10498635060814
 30
0.0
 10
153.4891318245896
 20
83.75416441225339
 30
0.0
 10
153.7400194284606
 20
84.33502771884498
 30
0.0
 10
153.757004144139
 20
84.68891412376736
 30
0.0
 10
153.7635581435695
 20
84.82547050423592
 30
0.0
  0
LINE
  5
B0
330
1F
100
AcDbEntity
  8
0
  6
Continuous
 62
     7
370
    25
100
AcDbLine
 10
106.6679412331134
 20
64.18368025499312
 30
0.0
 11
122.3221694798895
 21
60.13206784834571
 31
0.0
  0
LINE
  5
B1
330
1F
100
AcDbEntity
  8
0
  6
Continuous
 62
     7
370
    25
100
AcDbLine
 10
101.6024244276508
 20
81.5792566792199
 30
0.0
 11
101.9060664158706
 21
81.42076726812803
 31
0.0
  0
SPLINE
  5
B2
330
1F
100
AcDbEntity
  8
0
  6
Continuous
 62
     7
370
    25
100
AcDbSpline
210
0.0
220
0.0
230
1.0
 70
     8
 71
     3
 72
    13
 73
     9
 74
     0
 42
0.000000001
 43
0.00000001
 40
0.0
 40
0.0
 40
0.0
 40
0.0
 40
0.1008300442811636
 40
0.2797040504006444
 40
0.4547741582942714
 40
0.6377399030556846
 40
0.8162205281941944
 40
1.0
 40
1.0
 40
1.0
 40
1.0
 10
95.84293655715969
 20
82.21995789983664
 30
0.0
 10
95.91175895498131
 20
82.16975192057224
 30
0.0
 10
96.10267331553943
 20
82.03047978343596
 30
0.0
 10
96.49362961911322
 20
81.88502421898252
 30
0.0
 10
97.0700998207136
 20
81.75028190198978
 30
0.0
 10
97.74719162113685
 20
81.66737722386364
 30
0.0
 10
98.49661675285662
 20
81.6317724680925
 30
0.0
 10
98.9891273860293
 20
81.6547821947616
 30
0.0
 10
99.2389847255119
 20
81.66645534189901
 30
0.0
  0
SPLINE
  5
B3
330
1F
100
AcDbEntity
  8
0
  6
Continuous
 62
     7
370
    25
100
AcDbSpline
210
0.0
220
0.0
230
1.0
 70
     8
 71
     3
 72
    13
 73
     9
 74
     0
 42
0.000000001
 43
0.00000001
 40
0.0
 40
0.0
 40
0.0
 40
0.0
 40
0.1350173905448913
 40
0.3821062755372787
 40
0.6317608500275926
 40
0.8242205430730715
 40
0.9700623831219672
 40
1.0
 40
1.0
 40
1.0
 40
1.0
 10
100.132251485321
 20
81.7284037080163
 30
0.0
 10
100.2147331712219
 20
81.73286946441713
 30
0.0
 10
100.4481606554329
 20
81.7455077885537
 30
0.0
 10
100.8521085001472
 20
81.73454251268619
 30
0.0
 10
101.2444206430654
 20
81.68700197186274
 30
0.0
 10
101.4931747636201
 20
81.62688878603768
 30
0.0
 10
101.584100724013
 20
81.5891309758571
 30
0.0
 10
101.5997578136982
 20
81.58069366694383
 30
0.0
 10
101.6024244276508
 20
81.5792566792199
 30
0.0
  0
LINE
  5
B4
330
1F
100
AcDbEntity
  8
0
  6
Continuous
 62
     7
370
    25
100
AcDbLine
 10
99.23898472551188
 20
81.66645534189901
 30
0.0
 11
100.132251485321
 21
81.72840370801632
 31
0.0
  0
SPLINE
  5
B5
330
1F
100
AcDbEntity
  8
0
  6
Continuous
 62
     7
370
    25
100
AcDbSpline
210
0.0
220
0.0
230
1.0
 70
     8
 71
     3
 72
     9
 73
     5
 74
     0
 42
0.000000001
 43
0.00000001
 40
0.0
 40
0.0
 40
0.0
 40
0.0
 40
0.5963325297092004
 40
1.0
 40
1.0
 40
1.0
 40
1.0
 10
95.2312044270602
 20
82.81125698083814
 30
0.0
 10
95.34304258298651
 20
82.69178433142166
 30
0.0
 10
95.53058585851576
 20
82.49143864597876
 30
0.0
 10
95.75311056985585
 20
82.29803048351286
 30
0.0
 10
95.8429365571597
 20
82.21995789983666
 30
0.0
  0
LINE
  5
B6
330
1F
100
AcDbEntity
  8
0
  6
Continuous
 62
     7
370
    25
100
AcDbLine
 10
95.03970693055334
 20
85.22210894632903
 30
0.0
 11
95.03970693055334
 21
83.2902572937509
 31
0.0
  0
SPLINE
  5
B7
330
1F
100
AcDbEntity
  8
0
  6
Continuous
 62
     7
370
    25
100
AcDbSpline
210
0.0
220
0.0
230
1.0
 70
     8
 71
     3
 72
     9
 73
     5
 74
     0
 42
0.000000001
 43
0.00000001
 40
0.0
 40
0.0
 40
0.0
 40
0.0
 40
0.5957231981259244
 40
1.0
 40
1.0
 40
1.0
 40
1.0
 10
95.05146363740047
 20
83.28201892683893
 30
0.0
 10
95.06353014813595
 20
83.17294334195876
 30
0.0
 10
95.08378537870851
 20
82.98984557906603
 30
0.0
 10
95.18876400411554
 20
82.86267079558348
 30
0.0
 10
95.2312044270602
 20
82.81125698083815
 30
0.0
  0
LINE
  5
B8
330
1F
100
AcDbEntity
  8
0
  6
Continuous
 62
     7
370
    25
100
AcDbLine
 10
103.4810002135269
 20
80.166799427119
 30
0.0
 11
103.7121187358246
 21
71.1231844637225
 31
0.0
  0
SPLINE
  5
B9
330
1F
100
AcDbEntity
  8
0
  6
Continuous
 62
     7
370
    25
100
AcDbSpline
210
0.0
220
0.0
230
1.0
 70
     8
 71
     3
 72
    14
 73
    10
 74
     0
 42
0.000000001
 43
0.00000001
 40
0.0
 40
0.0
 40
0.0
 40
0.0
 40
0.0316002211338419
 40
0.2145170577793242
 40
0.3979320001983074
 40
0.5821618927355742
 40
0.7673670664899581
 40
0.9525244232225081
 40
0.9999999999999999
 40
0.9999999999999999
 40
0.9999999999999999
 40
0.9999999999999999
 10
103.9467902177925
 20
67.43384812809506
 30
0.0
 10
103.9559249528892
 20
67.38411587762263
 30
0.0
 10
104.0179358004794
 20
67.04651013736854
 30
0.0
 10
104.2636559551403
 20
66.44672888948928
 30
0.0
 10
104.6766936635085
 20
65.68636328669163
 30
0.0
 10
105.2063108535099
 20
65.03785232799446
 30
0.0
 10
105.8157416624012
 20
64.53477770663156
 30
0.0
 10
106.3203766772751
 20
64.28213733550682
 30
0.0
 10
106.609032534699
 20
64.2003677404266
 30
0.0
 10
106.6679412331134
 20
64.18368025499312
 30
0.0
  0
SPLINE
  5
BA
330
1F
100
AcDbEntity
  8
0
  6
Continuous
 62
     7
370
    25
100
AcDbSpline
210
0.0
220
0.0
230
1.0
 70
     8
 71
     3
 72
    10
 73
     6
 74
     0
 42
0.000000001
 43
0.00000001
 40
0.0
 40
0.0
 40
0.0
 40
0.0
 40
0.0114198493249318
 40
0.569138944820864
 40
1.0
 40
1.0
 40
1.0
 40
1.0
 10
153.7937160909142
 20
85.41124518329663
 30
0.0
 10
153.795083167529
 20
85.41163906295449
 30
0.0
 10
153.8632151121693
 20
85.43126911642476
 30
0.0
 10
154.052204841128
 20
85.4625406292944
 30
0.0
 10
154.2499244328903
 20
85.4798956779064
 30
0.0
 10
154.3360981962195
 20
85.48745967213848
 30
0.0
  0
LINE
  5
BB
330
1F
100
AcDbEntity
  8
0
  6
Continuous
 62
     7
370
    25
100
AcDbLine
 10
157.5477252512752
 20
86.67320999010767
 30
0.0
 11
157.5477252512752
 21
88.60506164268581
 31
0.0
  0
LINE
  5
BC
330
1F
100
AcDbEntity
  8
0
  6
Continuous
 62
     7
370
    25
100
AcDbLine
 10
154.3360981962195
 20
85.48745967213848
 30
0.0
 11
155.2293649560287
 21
85.54940803825578
 31
0.0
  0
SPLINE
  5
BD
330
1F
100
AcDbEntity
  8
0
  6
Continuous
 62
     7
370
    25
100
AcDbSpline
210
0.0
220
0.0
230
1.0
 70
     8
 71
     3
 72
    14
 73
    10
 74
     0
 42
0.000000001
 43
0.00000001
 40
0.0
 40
0.0
 40
0.0
 40
0.0
 40
0.1024833294540233
 40
0.3005826304669547
 40
0.503715297983129
 40
0.7217268811969171
 40
0.8532501596191027
 40
0.9811485617294854
 40
1.0
 40
1.0
 40
1.0
 40
1.0
 10
155.2293649560287
 20
85.54940803825578
 30
0.0
 10
155.351127309229
 20
85.55934731387254
 30
0.0
 10
155.7082551329619
 20
85.58849911471405
 30
0.0
 10
156.2562514813399
 20
85.67614206408145
 30
0.0
 10
156.8118305420096
 20
85.83150440434689
 30
0.0
 10
157.1979444114961
 20
86.02129713660797
 30
0.0
 10
157.4483659829138
 20
86.2885655971298
 30
0.0
 10
157.5714359019741
 20
86.53879095655098
 30
0.0
 10
157.5400060174888
 20
86.66520876514774
 30
0.0
 10
157.535968544428
 20
86.68144835701966
 30
0.0
  0
SPLINE
  5
BE
330
1F
100
AcDbEntity
  8
0
  6
Continuous
 62
     7
370
    25
100
AcDbSpline
210
0.0
220
0.0
230
1.0
 70
     8
 71
     3
 72
    54
 73
    50
 74
     0
 42
0.000000001
 43
0.00000001
 40
0.0
 40
0.0
 40
0.0
 40
0.0
 40
0.0024642918411009
 40
0.0190676046885891
 40
0.0356179205778362
 40
0.0526213886468163
 40
0.0706481206892003
 40
0.0902450306406974
 40
0.1117732551623415
 40
0.1350559253182308
 40
0.1592607408525036
 40
0.1834272618251548
 40
0.2072398805011167
 40
0.2307072602732426
 40
0.253896801198261
 40
0.2768738845826904
 40
0.2996901777450608
 40
0.3223844866321432
 40
0.3449857531552699
 40
0.3675157656173505
 40
0.3899912065156786
 40
0.4124251264076323
 40
0.434827996934157
 40
0.4572084719386766
 40
0.4795739512222885
 40
0.5019310139438232
 40
0.5242857696663532
 40
0.5466430373257447
 40
0.5690079829634016
 40
0.5913869370133992
 40
0.6137868673271009
 40
0.6362157564589445
 40
0.6586830764099207
 40
0.6812004131493842
 40
0.7037823147137641
 40
0.7264474668109203
 40
0.7492203368570427
 40
0.7721334528647661
 40
0.7952304179311213
 40
0.8185693031964217
 40
0.8422241165812633
 40
0.8662747368724368
 40
0.8907509370003122
 40
0.9127226915715306
 40
0.9328199707678925
 40
0.9510906985936183
 40
0.9680253421999183
 40
0.9841401450585102
 40
1.0
 40
1.0
 40
1.0
 40
1.0
 10
166.7811740822679
 20
210.0683899796456
 30
0.0
 10
166.7852208208539
 20
210.1191822551438
 30
0.0
 10
166.8165327013494
 20
210.51219050777
 30
0.0
 10
166.686574220965
 20
211.2495095082916
 30
0.0
 10
166.39488278064
 20
212.2289642619051
 30
0.0
 10
165.9216554317908
 20
213.1523292865548
 30
0.0
 10
165.2934417011849
 20
214.0303387682982
 30
0.0
 10
164.4884333223393
 20
214.8792976459708
 30
0.0
 10
163.4850693750819
 20
215.7084523597465
 30
0.0
 10
162.267835831216
 20
216.514238002846
 30
0.0
 10
160.8472050655838
 20
217.2823161053488
 30
0.0
 10
159.2531085726613
 20
217.9993836631797
 30
0.0
 10
157.5154718837658
 20
218.660194473777
 30
0.0
 10
155.6489752255845
 20
219.2671397144951
 30
0.0
 10
153.6607341023613
 20
219.823755393637
 30
0.0
 10
151.5567837479823
 20
220.3323352400233
 30
0.0
 10
149.343842679849
 20
220.7939565693845
 30
0.0
 10
147.0297151096605
 20
221.2088502765534
 30
0.0
 10
144.6232703526834
 20
221.5767292832911
 30
0.0
 10
142.134313324188
 20
221.8970237002399
 30
0.0
 10
139.5734388030979
 20
222.1690408208955
 30
0.0
 10
136.9518935343742
 20
222.3920731862112
 30
0.0
 10
134.2814502146202
 20
222.5654718925809
 30
0.0
 10
131.5742919385421
 20
222.6886964421163
 30
0.0
 10
128.8429046187872
 20
222.7613483003874
 30
0.0
 10
126.0999750655944
 20
222.783192624444
 30
0.0
 10
123.3583387572263
 20
222.7541713445752
 30
0.0
 10
120.6308734126743
 20
222.6744125459548
 30
0.0
 10
117.9303684407549
 20
222.5442305948165
 30
0.0
 10
115.2693848339604
 20
222.364113266112
 30
0.0
 10
112.6601718126891
 20
222.1347020215319
 30
0.0
 10
110.1146003655704
 20
221.8567668071291
 30
0.0
 10
107.6440570165395
 20
221.5311667525973
 30
0.0
 10
105.2593294742889
 20
221.1587924212404
 30
0.0
 10
102.9704806968062
 20
220.7404808222691
 30
0.0
 10
100.7867072058549
 20
220.2768886742694
 30
0.0
 10
98.71617780991564
 20
219.7682997759735
 30
0.0
 10
96.76585319666194
 20
219.2143260142676
 30
0.0
 10
94.94130416779933
 20
218.6134359135006
 30
0.0
 10
93.24660623474945
 20
217.9622095567815
 30
0.0
 10
91.68457689978354
 20
217.2542190121114
 30
0.0
 10
90.25818979183936
 20
216.4786452554654
 30
0.0
 10
89.02273550127457
 20
215.6518393706538
 30
0.0
 10
87.99843178241063
 20
214.7868098782863
 30
0.0
 10
87.1932976217005
 20
213.9083534075593
 30
0.0
 10
86.57469633322332
 20
213.0033779316783
 30
0.0
 10
86.13618213953612
 20
212.0688335619822
 30
0.0
 10
85.85130789876055
 20
211.1022616717003
 30
0.0
 10
85.8177523099172
 20
210.4394820890203
 30
0.0
 10
85.80110829218104
 20
210.1107346132784
 30
0.0
  0
LINE
  5
BF
330
1F
100
AcDbEntity
  8
0
  6
Continuous
 62
     7
370
    25
100
AcDbLine
 10
166.7937160909142
 20
143.4202461324179
 30
0.0
 11
166.7937160909142
 21
210.0691281463636
 31
0.0
  0
LINE
  5
C0
330
1F
100
AcDbEntity
  8
0
  6
Continuous
 62
     7
370
    25
100
AcDbLine
 10
85.79371609091422
 20
210.0691281463636
 30
0.0
 11
85.79371609091423
 21
143.4202461324179
 31
0.0
  0
SPLINE
  5
C1
330
1F
100
AcDbEntity
  8
0
  6
Continuous
 62
     7
370
    25
100
AcDbSpline
210
0.0
220
0.0
230
1.0
 70
     8
 71
     3
 72
    54
 73
    50
 74
     0
 42
0.000000001
 43
0.00000001
 40
0.0
 40
0.0
 40
0.0
 40
0.0
 40
0.0023920844132963
 40
0.0189899027982235
 40
0.0355347417629631
 40
0.052532582947744
 40
0.070553349481604
 40
0.090143774312388
 40
0.1116648745917356
 40
0.1349398399142161
 40
0.1591366454534985
 40
0.1832951691038129
 40
0.2070999075727921
 40
0.230559521386357
 40
0.2537413882968207
 40
0.2767108679743521
 40
0.2995196106394385
 40
0.3222064093969639
 40
0.3448001965806422
 40
0.3673227532830723
 40
0.389790756480883
 40
0.4122172524126854
 40
0.4346127092540903
 40
0.4569857779847443
 40
0.4793438559569598
 40
0.5016935201523538
 40
0.5240408781121891
 40
0.5463907471776216
 40
0.5687482916804794
 40
0.5911198399599352
 40
0.6135123575615077
 40
0.6359338243980087
 40
0.6583937093358969
 40
0.6809035945104331
 40
0.7034780231437268
 40
0.7261356747600567
 40
0.7489010086787184
 40
0.7718065421479923
 40
0.7948958638355235
 40
0.8182270256643925
 40
0.8418740110640757
 40
0.8659166723874219
 40
0.8903847727121743
 40
0.9123492562656135
 40
0.9324398847562311
 40
0.9507045663289632
 40
0.9676336058268458
 40
0.9837430758833743
 40
1.0
 40
1.0
 40
1.0
 40
1.0
 10
85.80595510715264
 20
143.4165675689534
 30
0.0
 10
85.80203919440066
 20
143.3672470323816
 30
0.0
 10
85.77095216331055
 20
142.9757089285217
 30
0.0
 10
85.90094483755229
 20
142.2398633012006
 30
0.0
 10
86.19252549521639
 20
141.2604104211827
 30
0.0
 10
86.66578364348912
 20
140.3370448756422
 30
0.0
 10
87.29398841075172
 20
139.4590355454901
 30
0.0
 10
88.09899949503352
 20
138.6100766220621
 30
0.0
 10
89.10236261390979
 20
137.7809219222963
 30
0.0
 10
90.31959640633877
 20
136.9751362749931
 30
0.0
 10
91.7402271010871
 20
136.207058173689
 30
0.0
 10
93.33432361316193
 20
135.4899906155342
 30
0.0
 10
95.07196029701583
 20
134.8291798050222
 30
0.0
 10
96.9384569565193
 20
134.2222345642817
 30
0.0
 10
98.9266980793947
 20
133.6656188851457
 30
0.0
 10
101.0306484338656
 20
133.1570390387578
 30
0.0
 10
103.2435895019745
 20
132.695417709397
 30
0.0
 10
105.5577170721695
 20
132.280524002228
 30
0.0
 10
107.9641618291449
 20
131.9126449954903
 30
0.0
 10
110.4531188576408
 20
131.5923505785415
 30
0.0
 10
113.0139933787308
 20
131.320333457886
 30
0.0
 10
115.6355386474544
 20
131.0973010925703
 30
0.0
 10
118.3059819672085
 20
130.9239023862006
 30
0.0
 10
121.0131402432865
 20
130.8006778366653
 30
0.0
 10
123.7445275630414
 20
130.728025978394
 30
0.0
 10
126.4874571162342
 20
130.7061816543375
 30
0.0
 10
129.2290934246022
 20
130.7352029342063
 30
0.0
 10
131.9565587691542
 20
130.8149617328267
 30
0.0
 10
134.6570637410737
 20
130.945143683965
 30
0.0
 10
137.3180473478681
 20
131.1252610126695
 30
0.0
 10
139.9272603691395
 20
131.3546722572496
 30
0.0
 10
142.4728318162574
 20
131.6326074716524
 30
0.0
 10
144.9433751652912
 20
131.9582075261838
 30
0.0
 10
147.3281027075313
 20
132.3305818575429
 30
0.0
 10
149.6169514850536
 20
132.7488934565061
 30
0.0
 10
151.800724975856
 20
133.2124856045359
 30
0.0
 10
153.8712543723554
 20
133.7210745027185
 30
0.0
 10
155.8215789834985
 20
134.2750482648514
 30
0.0
 10
157.646128020337
 20
134.8759383640053
 30
0.0
 10
159.3408259231339
 20
135.5271647268429
 30
0.0
 10
160.9028553733662
 20
136.2351552482009
 30
0.0
 10
162.3292420403859
 20
137.0107290940218
 30
0.0
 10
163.5646979526204
 20
137.8375346508584
 30
0.0
 10
164.5889963419434
 20
138.7025652210997
 30
0.0
 10
165.3941477944782
 20
139.5810181946393
 30
0.0
 10
166.0126926560532
 20
140.486005082587
 30
0.0
 10
166.4513956375587
 20
141.4205112708644
 30
0.0
 10
166.7379508413914
 20
142.3951707243081
 30
0.0
 10
166.7716285690416
 20
143.0663531347787
 30
0.0
 10
166.7885441469679
 20
143.4034732185625
 30
0.0
  0
SPLINE
  5
C2
330
1F
100
AcDbEntity
  8
0
  6
Continuous
 62
     7
370
    25
100
AcDbSpline
210
0.0
220
0.0
230
1.0
 70
     8
 71
     3
 72
    10
 73
     6
 74
     0
 42
0.000000001
 43
0.00000001
 40
0.0
 40
0.0
 40
0.0
 40
0.0
 40
0.1479493433276032
 40
0.6161184530064199
 40
1.0
 40
1.0
 40
1.0
 40
1.0
 10
166.8131944932845
 20
138.2821683429905
 30
0.0
 10
166.77599798562
 20
138.3646396903034
 30
0.0
 10
166.6210972997227
 20
138.7080823699461
 30
0.0
 10
166.2145998632608
 20
139.2378575883763
 30
0.0
 10
165.761113240256
 20
139.6702588656486
 30
0.0
 10
165.5568000987583
 20
139.865072249033
 30
0.0
  0
SPLINE
  5
C3
330
1F
100
AcDbEntity
  8
0
  6
Continuous
 62
     7
370
    25
100
AcDbSpline
210
0.0
220
0.0
230
1.0
 70
     8
 71
     3
 72
    10
 73
     6
 74
     0
 42
0.000000001
 43
0.00000001
 40
0.0
 40
0.0
 40
0.0
 40
0.0
 40
0.085328717022738
 40
0.567291979459863
 40
1.0
 40
1.0
 40
1.0
 40
1.0
 10
87.0323947052398
 20
139.8678455281479
 30
0.0
 10
86.98005663534892
 20
139.8243316256325
 30
0.0
 10
86.63209678894002
 20
139.5350376018468
 30
0.0
 10
86.17641413489974
 20
138.998974186647
 30
0.0
 10
85.88168908109142
 20
138.4856476815578
 30
0.0
 10
85.74226205740499
 20
138.2428057994065
 30
0.0
  0
LINE
  5
C4
330
1F
100
AcDbEntity
  8
0
  6
Continuous
 62
     7
370
    25
100
AcDbLine
 10
167.2932676511885
 20
134.2935818949648
 30
0.0
 11
167.2494781513795
 21
136.7167723173186
 31
0.0
  0
LINE
  5
C5
330
1F
100
AcDbEntity
  8
0
  6
Continuous
 62
     7
370
    25
100
AcDbLine
 10
85.33795403044898
 20
136.7167723173186
 30
0.0
 11
85.29416453063996
 21
134.2935818949648
 31
0.0
  0
LINE
  5
C6
330
1F
100
AcDbEntity
  8
0
  6
Continuous
 62
     7
370
    25
100
AcDbLine
 10
114.5067497716444
 20
98.39318507068876
 30
0.0
 11
114.826534493949
 21
80.69717850100757
 31
0.0
  0
LINE
  5
C7
330
1F
100
AcDbEntity
  8
0
  6
Continuous
 62
     7
370
    25
100
AcDbLine
 10
158.8806349904624
 20
111.022283568296
 30
0.0
 11
159.0797907890238
 21
122.043017436798
 31
0.0
  0
LINE
  5
C8
330
1F
100
AcDbEntity
  8
0
  6
Continuous
 62
     7
370
    25
100
AcDbLine
 10
150.4946915913572
 20
82.75468025297039
 30
0.0
 11
150.8091725087569
 21
100.1571888538744
 31
0.0
  0
LINE
  5
C9
330
1F
100
AcDbEntity
  8
0
  6
Continuous
 62
     7
370
    25
100
AcDbLine
 10
93.50764139280466
 20
122.043017436798
 30
0.0
 11
93.56750318506823
 21
118.7304305766912
 31
0.0
  0
LINE
  5
CA
330
1F
100
AcDbEntity
  8
0
  6
Continuous
 62
     7
370
    25
100
AcDbLine
 10
90.3835699090243
 20
124.7977641265565
 30
0.0
 11
93.36772425683853
 21
122.1234919600873
 31
0.0
  0
LINE
  5
CB
330
1F
100
AcDbEntity
  8
0
  6
Continuous
 62
     7
370
    25
100
AcDbLine
 10
159.21970792499
 20
122.1234919600873
 30
0.0
 11
162.2038622728042
 21
124.7977641265565
 31
0.0
  0
LINE
  5
CC
330
1F
100
AcDbEntity
  8
0
  6
Continuous
 62
     7
370
    25
100
AcDbLine
 10
153.7934153081714
 20
87.84622196011212
 30
0.0
 11
154.0465653733843
 21
101.8548499672261
 31
0.0
  0
LINE
  5
CD
330
1F
100
AcDbEntity
  8
0
  6
Continuous
 62
     7
370
    25
100
AcDbLine
 10
94.76680996269013
 20
101.2875862518296
 30
0.0
 11
95.03973974321619
 21
86.18440322781618
 31
0.0
  0
LINE
  5
CE
330
1F
100
AcDbEntity
  8
0
  6
Continuous
 62
     7
370
    25
100
AcDbLine
 10
157.5476924386123
 20
89.56735592417292
 30
0.0
 11
157.8117581141243
 21
104.1800237683721
 31
0.0
  0
LWPOLYLINE
  5
CF
330
1F
100
AcDbEntity
  8
0
  6
Continuous
 62
     7
370
    25
100
AcDbPolyline
 90
       20
 70
   128
 43
0.0
 10
102.8535078543592
 20
69.77940893678372
 10
103.0871875781164
 20
70.38966729145051
 10
103.4487964611575
 20
70.89413015228577
 10
103.8991485700651
 20
71.23813114077021
 10
104.389441265906
 20
71.38439241207627
 10
104.8665437274108
 20
71.31706428798047
 10
105.2787544998682
 20
71.04344281543206
 10
105.5814041499731
 20
70.5931791266563
 10
105.7416958920436
 20
70.01506627889295
 10
105.7422596286436
 20
69.37175176954229
 10
105.5830342701652
 20
68.73294870774558
 10
105.2812743548357
 20
68.16788131729926
 10
104.8696802517684
 20
67.7377834178821
 10
104.3928545685712
 20
67.48926279055253
 10
103.9024687667314
 20
67.44925050147654
 10
103.451663756998
 20
67.62208250303014
 10
103.0892912571361
 20
67.98902976608018
 10
102.8546199502943
 20
68.51032786090177
 10
102.7730801138695
 20
69.1294860501476
 10
102.8535078543592
 20
69.77940893678372
  0
LWPOLYLINE
  5
D0
330
1F
100
AcDbEntity
  8
0
  6
Continuous
 62
     7
370
    25
100
AcDbPolyline
 90
       20
 70
   128
 43
0.0
 10
116.9956434780909
 20
66.11915489893912
 10
117.2293232018481
 20
66.72941325360591
 10
117.5909320848892
 20
67.23387611444117
 10
118.0412841937968
 20
67.57787710292564
 10
118.5315768896377
 20
67.7241383742317
 10
119.0086793511426
 20
67.6568102501359
 10
119.4208901236
 20
67.3831887775875
 10
119.7235397737049
 20
66.93292508881174
 10
119.8838315157754
 20
66.35481224104839
 10
119.8843952523754
 20
65.71149773169773
 10
119.725169893897
 20
65.07269466990103
 10
119.4234099785675
 20
64.5076272794547
 10
119.0118158755002
 20
64.07752938003755
 10
118.534990192303
 20
63.82900875270798
 10
118.0446043904632
 20
63.78899646363198
 10
117.5937993807298
 20
63.96182846518558
 10
117.2314268808678
 20
64.3287757282356
 10
116.9967555740261
 20
64.85007382305717
 10
116.9152157376012
 20
65.46923201230301
 10
116.9956434780909
 20
66.11915489893912
  0
ARC
  5
D2
330
1F
100
AcDbEntity
  8
0
  6
Continuous
 62
     7
370
    25
100
AcDbCircle
 10
128.4899675539625
 20
63.80532354603955
 30
0.0
 40
3.627803806150856
100
AcDbArc
 50
338.6883517382302
 51
65.25240796925587
  0
ARC
  5
D4
330
1F
100
AcDbEntity
  8
0
  6
Continuous
 62
     7
370
    25
100
AcDbCircle
 10
128.3378879156291
 20
62.88181681336494
 30
0.0
 40
3.55382284881682
100
AcDbArc
 50
265.7397649274237
 51
353.618757918572
  0
LINE
  5
D5
330
1F
100
AcDbEntity
  8
0
  6
Continuous
 62
     7
370
    25
100
AcDbLine
 10
128.0738863800906
 20
59.33781342312871
 30
0.0
 11
125.7572793484034
 21
59.95298605364341
 31
0.0
  0
LINE
  5
D6
330
1F
100
AcDbEntity
  8
0
  6
Continuous
 62
     7
370
    25
100
AcDbLine
 10
128.1499196206884
 20
67.58102603042963
 30
0.0
 11
130.0086444812744
 21
67.09995263690445
 31
0.0
  0
LINE
  5
D7
330
1F
100
AcDbEntity
  8
0
  6
Continuous
 62
     7
370
    25
100
AcDbLine
 10
125.1025753725008
 20
60.10684530081573
 30
0.0
 11
128.0738863800906
 21
59.33781342312871
 31
0.0
  0
LWPOLYLINE
  5
D8
330
1F
100
AcDbEntity
  8
0
  6
Continuous
 62
     7
370
    25
100
AcDbPolyline
 90
        3
 70
   128
 43
0.0
 10
122.242518229317
 20
75.08977810859005
 10
122.3229459698067
 20
75.73970099522617
 10
122.2518731827991
 20
76.3196282147143
  0
LWPOLYLINE
  5
D9
330
1F
100
AcDbEntity
  8
0
  6
Continuous
 62
     7
370
    25
100
AcDbPolyline
 90
        9
 70
   128
 43
0.0
 10
119.3592422445141
 20
74.81890221861931
 10
119.514621933703
 20
74.27600791871745
 10
119.817271583808
 20
73.82574422994166
 10
120.2294823562654
 20
73.55212275739328
 10
120.7065848177702
 20
73.48479463329748
 10
121.1968775136112
 20
73.63105590460356
 10
121.6472296225187
 20
73.97505689308802
 10
122.0088385055598
 20
74.47951975392328
 10
122.242518229317
 20
75.08977810859005
  0
LWPOLYLINE
  5
DA
330
1F
100
AcDbEntity
  8
0
  6
Continuous
 62
     7
370
    25
100
AcDbPolyline
 90
        3
 70
   128
 43
0.0
 10
129.7568038812366
 20
73.27827941761656
 10
129.885899343764
 20
74.11911875440946
 10
129.890936174109
 20
74.22561787310289
  0
LWPOLYLINE
  5
DB
330
1F
100
AcDbEntity
  8
0
  6
Continuous
 62
     7
370
    25
100
AcDbPolyline
 90
        3
 70
   128
 43
0.0
 10
129.3819498016931
 20
72.28307074938826
 10
129.4764868348792
 20
72.4765791067495
 10
129.7568038812366
 20
73.27827941761656
  0
ARC
  5
DC
330
1F
100
AcDbEntity
  8
0
  6
Continuous
 62
     7
370
    25
100
AcDbCircle
 10
118.8222786216039
 20
85.62718018528088
 30
0.0
 40
9.2309144959177
100
AcDbArc
 50
252.394261258604
 51
280.1890283829116
  0
LWPOLYLINE
  5
DD
330
1F
100
AcDbEntity
  8
0
  6
Continuous
 62
     7
370
    25
100
AcDbPolyline
 90
        3
 70
   128
 43
0.0
 10
120.2899564029393
 20
75.12912225816957
 10
120.363852119162
 20
75.1680247296303
 10
120.5326361871047
 20
75.26752530883682
  0
ARC
  5
DE
330
1F
100
AcDbEntity
  8
0
  6
Continuous
 62
     7
370
    25
100
AcDbCircle
 10
118.9573332815762
 20
75.12098272978015
 30
0.0
 40
0.3509504372542957
100
AcDbArc
 50
202.9999731274496
 51
263.9939820077353
  0
ARC
  5
DF
330
1F
100
AcDbEntity
  8
0
  6
Continuous
 62
     7
370
    25
100
AcDbCircle
 10
118.4775140674435
 20
77.62165653787717
 30
0.0
 40
2.642455250004571
100
AcDbArc
 50
258.664584343003
 51
273.4011540553248
  0
LWPOLYLINE
  5
E0
330
1F
100
AcDbEntity
  8
0
  6
Continuous
 62
     7
370
    25
100
AcDbPolyline
 90
        9
 70
   128
 43
0.0
 10
118.3593030779543
 20
74.85409553052112
 10
118.305659504328
 20
74.83011033210455
 10
118.2525971863703
 20
74.81933337270922
 10
118.2003299680936
 20
74.8218080840646
 10
118.1490684892153
 20
74.83752449295002
 10
118.0990193362692
 20
74.86641926138732
 10
118.0503842100493
 20
74.90837594189631
 10
118.0033591127459
 20
74.96322544678443
 10
117.9581335580454
 20
75.0307467295793
  0
LINE
  5
E1
330
1F
100
AcDbEntity
  8
0
  6
Continuous
 62
     7
370
    25
100
AcDbLine
 10
118.3593030779543
 20
74.98181177141956
 30
0.0
 11
118.3593030779543
 21
74.85409553052112
 31
0.0
  0
ARC
  5
E2
330
1F
100
AcDbEntity
  8
0
  6
Continuous
 62
     7
370
    25
100
AcDbCircle
 10
98.90182140759555
 20
100.6494801462466
 30
0.0
 40
1.56907558854519
100
AcDbArc
 50
276.3179950389502
 51
305.4811143829044
  0
ARC
  5
E3
330
1F
100
AcDbEntity
  8
0
  6
Continuous
 62
     7
370
    25
100
AcDbCircle
 10
98.53128184168263
 20
100.6494801462471
 30
0.0
 40
1.569075588545727
100
AcDbArc
 50
234.5188856171017
 51
263.6820049610441
  0
ARC
  5
E4
330
1F
100
AcDbEntity
  8
0
  6
Continuous
 62
     7
370
    25
100
AcDbCircle
 10
97.75708397655679
 20
100.9196237511458
 30
0.0
 40
1.55386394722134
100
AcDbArc
 50
246.0198082984043
 51
264.958554303461
  0
ARC
  5
E5
330
1F
100
AcDbEntity
  8
0
  6
Continuous
 62
     7
370
    25
100
AcDbCircle
 10
98.03596496820656
 20
100.7770387198727
 30
0.0
 40
1.568428879451672
100
AcDbArc
 50
234.5173941664793
 51
264.8791301874766
  0
ARC
  5
E6
330
1F
100
AcDbEntity
  8
0
  6
Continuous
 62
     7
370
    25
100
AcDbCircle
 10
99.39713828107107
 20
100.7770387198735
 30
0.0
 40
1.568428879452455
100
AcDbArc
 50
275.1208698125459
 51
305.482605833516
  0
ARC
  5
E7
330
1F
100
AcDbEntity
  8
0
  6
Continuous
 62
     7
370
    25
100
AcDbCircle
 10
99.67601927272104
 20
100.9196237511461
 30
0.0
 40
1.553863947221711
100
AcDbArc
 50
275.0414456965447
 51
293.9801917015958
  0
LINE
  5
E8
330
1F
100
AcDbEntity
  8
0
  6
Continuous
 62
     7
370
    25
100
AcDbLine
 10
157.4971642147894
 20
86.38142847072919
 30
0.0
 11
157.401302483394
 21
86.23170946383698
 31
0.0
  0
ARC
  5
E9
330
1F
100
AcDbEntity
  8
0
  6
Continuous
 62
     7
370
    25
100
AcDbCircle
 10
154.1361955546624
 20
84.31361437490581
 30
0.0
 40
0.3509504372542827
100
AcDbArc
 50
276.006017992262
 51
337.0000268725511
  0
LWPOLYLINE
  5
EA
330
1F
100
AcDbEntity
  8
0
  6
Continuous
 62
     7
370
    25
100
AcDbPolyline
 90
        9
 70
   128
 43
0.0
 10
155.1353952781932
 20
84.22337837470498
 10
155.0901697234927
 20
84.15585709191012
 10
155.0431446261893
 20
84.101007587022
 10
154.9945094999694
 20
84.05905090651298
 10
154.9444603470232
 20
84.0301561380757
 10
154.893198868145
 20
84.01443972919027
 10
154.8409316498682
 20
84.01196501783491
 10
154.7878693319105
 20
84.02274197723023
 10
154.7342257582843
 20
84.0467271756468
  0
ARC
  5
EB
330
1F
100
AcDbEntity
  8
0
  6
Continuous
 62
     7
370
    25
100
AcDbCircle
 10
154.6160147687949
 20
86.81428818300378
 30
0.0
 40
2.642455250005519
100
AcDbArc
 50
266.5988459446815
 51
281.3354156569977
  0
LINE
  5
EC
330
1F
100
AcDbEntity
  8
0
  6
Continuous
 62
     7
370
    25
100
AcDbLine
 10
154.7342257582843
 20
84.17444341654523
 30
0.0
 11
154.7342257582843
 21
84.0467271756468
 31
0.0
  0
LWPOLYLINE
  5
ED
330
1F
100
AcDbEntity
  8
0
  6
Continuous
 62
     7
370
    25
100
AcDbPolyline
 90
        8
 70
   128
 43
0.0
 10
149.9914119068165
 20
79.13142847072923
 10
149.8907753894493
 20
78.97704301996549
 10
149.5710940374345
 20
78.77729190174637
 10
149.0625544451213
 20
78.60576172785531
 10
148.3998127453243
 20
78.47414199617597
 10
147.6280336896525
 20
78.39140237391042
 10
146.7998127453244
 20
78.36318142958237
 10
146.7188516141943
 20
78.36344654739413
  0
ARC
  5
EE
330
1F
100
AcDbEntity
  8
0
  6
Continuous
 62
     7
370
    25
100
AcDbCircle
 10
146.1192260888919
 20
78.41842186679435
 30
0.0
 40
1.568428879451618
100
AcDbArc
 50
234.5173941664785
 51
264.8791301880195
  0
ARC
  5
EF
330
1F
100
AcDbEntity
  8
0
  6
Continuous
 62
     7
370
    25
100
AcDbCircle
 10
147.480399401754
 20
78.41842186679872
 30
0.0
 40
1.56842887945677
100
AcDbArc
 50
275.1208698227659
 51
305.4826058335127
  0
ARC
  5
F0
330
1F
100
AcDbEntity
  8
0
  6
Continuous
 62
     7
370
    25
100
AcDbCircle
 10
147.7592803934067
 20
78.56100689806676
 30
0.0
 40
1.553863947220653
100
AcDbArc
 50
275.0414456965397
 51
293.9801917016025
  0
ARC
  5
F1
330
1F
100
AcDbEntity
  8
0
  6
Continuous
 62
     7
370
    25
100
AcDbCircle
 10
146.9850825282809
 20
78.29086329316836
 30
0.0
 40
1.569075588545328
100
AcDbArc
 50
276.3179950389518
 51
305.4811143829047
  0
ARC
  5
F2
330
1F
100
AcDbEntity
  8
0
  6
Continuous
 62
     7
370
    25
100
AcDbCircle
 10
146.6145429623682
 20
78.2908632931693
 30
0.0
 40
1.5690755885463
100
AcDbArc
 50
234.5188856171067
 51
263.6820049610392
  0
ARC
  5
F3
330
1F
100
AcDbEntity
  8
0
  6
Continuous
 62
     7
370
    25
100
AcDbCircle
 10
145.8403450972421
 20
78.56100689806709
 30
0.0
 40
1.553863947220987
100
AcDbArc
 50
246.0198082984014
 51
264.958554303461
  0
LWPOLYLINE
  5
F4
330
1F
100
AcDbEntity
  8
0
  6
Continuous
 62
     7
370
    25
100
AcDbPolyline
 90
        8
 70
   128
 43
0.0
 10
96.71120851936854
 20
81.83454752291763
 10
96.6818671285312
 20
81.83887870592464
 10
96.01912542873428
 20
81.97049843760398
 10
95.51058583642106
 20
82.14202861149502
 10
95.19090448440626
 20
82.34177972971415
 10
95.08186712853129
 20
82.55613908365903
 10
95.19090448440626
 20
82.77049843760392
 10
95.2140081655824
 20
82.79168451974017
  0
LWPOLYLINE
  5
F5
330
1F
100
AcDbEntity
  8
0
  6
Continuous
 62
     7
370
    25
100
AcDbPolyline
 90
        9
 70
   128
 43
0.0
 10
99.11169735342725
 20
80.33811508445366
 10
99.06647179872677
 20
80.27059380165879
 10
99.01944670142335
 20
80.21574429677067
 10
98.97081157520347
 20
80.17378761626168
 10
98.92076242225728
 20
80.14489284782438
 10
98.86950094337907
 20
80.12917643893897
 10
98.81723372510228
 20
80.12670172758358
 10
98.76417140714459
 20
80.13747868697891
 10
98.71052783351833
 20
80.16146388539546
  0
ARC
  5
F6
330
1F
100
AcDbEntity
  8
0
  6
Continuous
 62
     7
370
    25
100
AcDbCircle
 10
98.59231684402938
 20
82.92902489274888
 30
0.0
 40
2.642455250001932
100
AcDbArc
 50
266.5988459446685
 51
281.3354156570048
  0
ARC
  5
F7
330
1F
100
AcDbEntity
  8
0
  6
Continuous
 62
     7
370
    25
100
AcDbCircle
 10
98.11249762989652
 20
80.42835108465437
 30
0.0
 40
0.3509504372541375
100
AcDbArc
 50
276.006017992248
 51
337.0000268725713
  0
LWPOLYLINE
  5
F8
330
1F
100
AcDbEntity
  8
0
  6
Continuous
 62
     7
370
    25
100
AcDbPolyline
 90
        3
 70
   128
 43
0.0
 10
96.53719472436792
 20
80.57489366371115
 10
96.70597879231059
 20
80.47539308450466
 10
96.7798745085334
 20
80.43649061304387
  0
LINE
  5
F9
330
1F
100
AcDbEntity
  8
0
  6
Continuous
 62
     7
370
    25
100
AcDbLine
 10
98.71052783351833
 20
80.28918012629391
 30
0.0
 11
98.71052783351833
 21
80.16146388539546
 31
0.0
  0
ARC
  5
FA
330
1F
100
AcDbEntity
  8
0
  6
Continuous
 62
     7
370
    25
100
AcDbCircle
 10
109.5084231253937
 20
97.90428961786354
 30
0.0
 40
1.569075588545479
100
AcDbArc
 50
276.3179950389559
 51
305.4811143829029
  0
ARC
  5
FB
330
1F
100
AcDbEntity
  8
0
  6
Continuous
 62
     7
370
    25
100
AcDbCircle
 10
109.137883559481
 20
97.904289617864
 30
0.0
 40
1.569075588545948
100
AcDbArc
 50
234.5188856171028
 51
263.6820049610419
  0
ARC
  5
FC
330
1F
100
AcDbEntity
  8
0
  6
Continuous
 62
     7
370
    25
100
AcDbCircle
 10
108.363685694355
 20
98.1744332227625
 30
0.0
 40
1.553863947221353
100
AcDbArc
 50
246.0198082984062
 51
264.9585543034616
  0
ARC
  5
FD
330
1F
100
AcDbEntity
  8
0
  6
Continuous
 62
     7
370
    25
100
AcDbCircle
 10
108.6425666860039
 20
98.03184819148834
 30
0.0
 40
1.56842887945028
100
AcDbArc
 50
234.5173941664823
 51
264.8791301920342
  0
ARC
  5
FE
330
1F
100
AcDbEntity
  8
0
  6
Continuous
 62
     7
370
    25
100
AcDbCircle
 10
110.0037399988671
 20
98.03184819149362
 30
0.0
 40
1.568428879456564
100
AcDbArc
 50
275.1208698217835
 51
305.4826058335098
  0
ARC
  5
FF
330
1F
100
AcDbEntity
  8
0
  6
Continuous
 62
     7
370
    25
100
AcDbCircle
 10
110.2826209905195
 20
98.17443322276212
 30
0.0
 40
1.553863947220965
100
AcDbArc
 50
275.0414456965386
 51
293.9801917015994
  0
LWPOLYLINE
  5
100
330
1F
100
AcDbEntity
  8
0
  6
Continuous
 62
     7
370
    25
100
AcDbPolyline
 90
        8
 70
   128
 43
0.0
 10
155.3241823865827
 20
88.82098746897488
 10
155.8629792350937
 20
88.87313016115738
 10
156.3534200776344
 20
88.95092994509424
 10
156.7774735981232
 20
89.05152647072173
 10
157.1195492453657
 20
89.17122125375184
 10
157.3670704278869
 20
89.30561365239676
 10
157.5109368989459
 20
89.44976265928365
 10
157.5477252512751
 20
89.57098746897488
  0
LINE
  5
101
330
1F
100
AcDbEntity
  8
0
  6
Continuous
 62
     7
370
    25
100
AcDbLine
 10
155.3241823865827
 20
88.82098746897488
 30
0.0
 11
154.4309156267736
 21
88.75903910285759
 31
0.0
  0
ARC
  5
102
330
1F
100
AcDbEntity
  8
0
  6
Continuous
 62
     7
370
    25
100
AcDbCircle
 10
154.4886960036508
 20
86.89732117765027
 30
0.0
 40
1.862614346822848
100
AcDbArc
 50
91.77766424666372
 51
111.4487505863917
  0
LWPOLYLINE
  5
103
330
1F
100
AcDbEntity
  8
0
  6
Continuous
 62
     7
370
    25
100
AcDbPolyline
 90
        8
 70
   128
 43
0.0
 10
153.7937160909142
 20
87.8795111207965
 10
153.7936905185286
 20
87.86980461101778
 10
153.6868798936306
 20
87.25273192556726
 10
153.3737557197949
 20
86.64037987191742
 10
152.8566763138637
 20
86.03736042283258
 10
152.1395360959226
 20
85.4482152619064
 10
151.2277362582004
 20
84.87738157755071
 10
150.5264958554278
 20
84.51464070974774
  0
LWPOLYLINE
  5
104
330
1F
100
AcDbEntity
  8
0
  6
Continuous
 62
     7
370
    25
100
AcDbPolyline
 90
        5
 70
   128
 43
0.0
 10
149.6879321605484
 20
82.2285325574595
 10
150.0382884754735
 20
82.34661197727358
 10
150.2951293166285
 20
82.4798277579905
 10
150.4490117951105
 20
82.62328215121572
 10
150.4947244040202
 20
82.75831179777234
  0
ARC
  5
105
330
1F
100
AcDbEntity
  8
0
  6
Continuous
 62
     7
370
    25
100
AcDbCircle
 10
136.8432721960955
 20
128.6398659121814
 30
0.0
 40
48.15596695494281
100
AcDbArc
 50
283.5518390094702
 51
285.4697983886711
  0
ARC
  5
106
330
1F
100
AcDbEntity
  8
0
  6
Continuous
 62
     7
370
    25
100
AcDbCircle
 10
146.0861017644419
 20
91.42149773856909
 30
0.0
 40
9.811555129861432
100
AcDbArc
 50
257.4802482724016
 51
282.008249959922
  0
LINE
  5
107
330
1F
100
AcDbEntity
  8
0
  6
Continuous
 62
     7
370
    25
100
AcDbLine
 10
143.9591904980875
 20
81.84324828831124
 30
0.0
 11
143.3052738451948
 21
82.01249437198956
 31
0.0
  0
ARC
  5
108
330
1F
100
AcDbEntity
  8
0
  6
Continuous
 62
     7
370
    25
100
AcDbCircle
 10
142.5908388965337
 20
78.75633606642816
 30
0.0
 40
3.333614285838267
100
AcDbArc
 50
77.62480830050065
 51
99.75369549080374
  0
ARC
  5
109
330
1F
100
AcDbEntity
  8
0
  6
Continuous
 62
     7
370
    25
100
AcDbCircle
 10
126.5692002289755
 20
173.9481399257981
 30
0.0
 40
93.19708799271453
100
AcDbArc
 50
268.3875557129666
 51
279.5467058887106
  0
ARC
  5
10A
330
1F
100
AcDbEntity
  8
0
  6
Continuous
 62
     7
370
    25
100
AcDbCircle
 10
123.7435295241914
 20
78.9168908542714
 30
0.0
 40
1.882068461486274
100
AcDbArc
 50
83.80124852087849
 51
116.781795585589
  0
LINE
  5
10B
330
1F
100
AcDbEntity
  8
0
  6
Continuous
 62
     7
370
    25
100
AcDbLine
 10
122.8954809196479
 20
80.59706800506625
 30
0.0
 11
122.6561308127315
 21
80.36587355527062
 31
0.0
  0
ARC
  5
10C
330
1F
100
AcDbEntity
  8
0
  6
Continuous
 62
     7
370
    25
100
AcDbCircle
 10
119.9544708271807
 20
85.972897195425
 30
0.0
 40
6.223960216676899
100
AcDbArc
 50
261.9443898080608
 51
295.7263926212955
  0
ARC
  5
10D
330
1F
100
AcDbEntity
  8
0
  6
Continuous
 62
     7
370
    25
100
AcDbCircle
 10
125.7780440932495
 20
191.8031198746421
 30
0.0
 40
112.1927508761328
100
AcDbArc
 50
265.4872344527715
 51
266.5785039455548
  0
LWPOLYLINE
  5
10E
330
1F
100
AcDbEntity
  8
0
  6
Continuous
 62
     7
370
    25
100
AcDbPolyline
 90
        8
 70
   128
 43
0.0
 10
114.8265016812862
 20
80.7008100458095
 10
114.8489013561807
 20
80.60610338486622
 10
114.9734771310834
 20
80.46075612571327
 10
115.2029458573703
 20
80.32423457546231
 10
115.5288709963693
 20
80.2015580208672
 10
115.9392697385538
 20
80.09723673011908
 10
116.4190535578509
 20
80.01510613045879
 10
116.9505829492557
 20
79.95818579667294
  0
LWPOLYLINE
  5
10F
330
1F
100
AcDbEntity
  8
0
  6
Continuous
 62
     7
370
    25
100
AcDbPolyline
 90
        3
 70
   128
 43
0.0
 10
114.6264140131469
 20
81.43432412427346
 10
114.777027496532
 20
81.41172937581463
 10
114.8137484531117
 20
81.40472281715805
  0
ARC
  5
110
330
1F
100
AcDbEntity
  8
0
  6
Continuous
 62
     7
370
    25
100
AcDbCircle
 10
123.8985693735592
 20
158.0036077255004
 30
0.0
 40
77.12864614546751
100
AcDbArc
 50
261.9542169157884
 51
263.0953878607068
  0
ARC
  5
113
330
1F
100
AcDbEntity
  8
0
  6
Continuous
 62
     7
370
    25
100
AcDbCircle
 10
126.5692002289756
 20
172.9822140995078
 30
0.0
 40
93.19708799271325
100
AcDbArc
 50
268.3875557129664
 51
279.5467058887107
  0
ARC
  5
116
330
1F
100
AcDbEntity
  8
0
  6
Continuous
 62
     7
370
    25
100
AcDbCircle
 10
119.9544708271807
 20
85.006971369136
 30
0.0
 40
6.223960216676955
100
AcDbArc
 50
261.9443898080609
 51
295.7263926212952
  0
ARC
  5
118
330
1F
100
AcDbEntity
  8
0
  6
Continuous
 62
     7
370
    25
100
AcDbCircle
 10
125.7780440932302
 20
190.8371940480758
 30
0.0
 40
112.1927508758548
100
AcDbArc
 50
265.4872344527701
 51
266.5785039455562
  0
LWPOLYLINE
  5
119
330
1F
100
AcDbEntity
  8
0
  6
Continuous
 62
     7
370
    25
100
AcDbPolyline
 90
        8
 70
   128
 43
0.0
 10
116.9505829492557
 20
78.99225997038387
 10
116.4190535578509
 20
79.04918030416971
 10
115.9392697385538
 20
79.13131090383001
 10
115.5288709963693
 20
79.23563219457814
 10
115.2029458573703
 20
79.35830874917323
 10
114.9734771310834
 20
79.49483029942421
 10
114.8489013561807
 20
79.64017755857715
 10
114.8265016812862
 20
79.73488421952044
  0
LINE
  5
11B
330
1F
100
AcDbEntity
  8
0
  6
Continuous
 62
     7
370
    25
100
AcDbLine
 10
122.8954809196479
 20
79.63114217877718
 30
0.0
 11
122.6561308127315
 21
79.39994772898156
 31
0.0
  0
ARC
  5
11C
330
1F
100
AcDbEntity
  8
0
  6
Continuous
 62
     7
370
    25
100
AcDbCircle
 10
123.7435295241914
 20
77.95096502798232
 30
0.0
 40
1.882068461486298
100
AcDbArc
 50
83.80124852087854
 51
116.7817955855886
  0
LINE
  5
11D
330
1F
100
AcDbEntity
  8
0
  6
Continuous
 62
     7
370
    25
100
AcDbLine
 10
114.6264140131469
 20
80.46839829798438
 30
0.0
 11
114.6264140131469
 21
81.43432412427346
 31
0.0
  0
LWPOLYLINE
  5
11E
330
1F
100
AcDbEntity
  8
0
  6
Continuous
 62
     7
370
    25
100
AcDbPolyline
 90
        3
 70
   128
 43
0.0
 10
114.8265016812862
 20
80.43620233129768
 10
114.777027496532
 20
80.44580354952556
 10
114.6264140131469
 20
80.46839829798438
  0
ELLIPSE
  5
11F
330
1F
100
AcDbEntity
  8
0
  6
Continuous
 62
     7
370
    25
100
AcDbEllipse
 10
126.2937160909142
 20
148.6027160536924
 30
0.0
 11
-19.20405229480662
 21
308.6874752844355
 31
0.0
210
0.0
220
0.0
230
1.0
 40
0.063766308523731
 41
1.7844918637843
 42
1.787739955106641
  0
ARC
  5
120
330
1F
100
AcDbEntity
  8
0
  6
Continuous
 62
     7
370
    25
100
AcDbCircle
 10
123.331629774676
 20
152.7524030675113
 30
0.0
 40
72.8063055440651
100
AcDbArc
 50
260.4119938014358
 51
263.1328989160168
  0
ARC
  5
123
330
1F
100
AcDbEntity
  8
0
  6
Continuous
 62
     7
370
    25
100
AcDbCircle
 10
146.0861017644419
 20
90.45557191227954
 30
0.0
 40
9.81155512986095
100
AcDbArc
 50
257.480248272401
 51
282.0082499599226
  0
LINE
  5
124
330
1F
100
AcDbEntity
  8
0
  6
Continuous
 62
     7
370
    25
100
AcDbLine
 10
102.8020139785609
 20
86.77704916791029
 30
0.0
 11
102.5437750939089
 21
82.81181103862923
 31
0.0
  0
LWPOLYLINE
  5
125
330
1F
100
AcDbEntity
  8
0
  6
Continuous
 62
     7
370
    25
100
AcDbPolyline
 90
        9
 70
   128
 43
0.0
 10
104.2108460313664
 20
88.17589628821274
 10
103.9500930242558
 20
88.21026251983584
 10
103.6982812421057
 20
88.17720710743403
 10
103.4640453151234
 20
88.07786352164956
 10
103.2554171971499
 20
87.91563825569499
 10
103.079550749828
 20
87.69609401664408
 10
102.9424764365681
 20
87.42675898011355
 10
102.8488945378568
 20
87.11686864899572
 10
102.8020139785609
 20
86.77704916791029
  0
LINE
  5
126
330
1F
100
AcDbEntity
  8
0
  6
Continuous
 62
     7
370
    25
100
AcDbLine
 10
108.7786064040158
 20
86.9936729103065
 30
0.0
 11
104.2108460313664
 21
88.17589628821274
 31
0.0
  0
ARC
  5
127
330
1F
100
AcDbEntity
  8
0
  6
Continuous
 62
     7
370
    25
100
AcDbCircle
 10
107.8870386918166
 20
84.8730592438867
 30
0.0
 40
2.300411986502092
100
AcDbArc
 50
359.8132342565332
 51
67.19669805172957
  0
LINE
  5
128
330
1F
100
AcDbEntity
  8
0
  6
Continuous
 62
     7
370
    25
100
AcDbLine
 10
110.1874384568213
 20
84.86556065677017
 30
0.0
 11
110.4456773414733
 21
80.7666482444212
 31
0.0
  0
LINE
  5
129
330
1F
100
AcDbEntity
  8
0
  6
Continuous
 62
     7
370
    25
100
AcDbLine
 10
110.4456773414733
 20
80.7666482444212
 30
0.0
 11
102.5437750939089
 21
82.81181103862923
 31
0.0
  0
LINE
  5
12A
330
1F
100
AcDbEntity
  8
0
  6
Continuous
 62
     7
370
    25
100
AcDbLine
 10
111.204840923013
 20
80.96313423767192
 30
0.0
 11
110.4456773414733
 21
80.7666482444212
 31
0.0
  0
ARC
  5
12C
330
1F
100
AcDbEntity
  8
0
  6
Continuous
 62
     7
370
    25
100
AcDbCircle
 10
136.8432721960955
 20
127.6739400858924
 30
0.0
 40
48.15596695494281
100
AcDbArc
 50
283.5518390094702
 51
285.4697983886711
  0
LINE
  5
12E
330
1F
100
AcDbEntity
  8
0
  6
Continuous
 62
     7
370
    25
100
AcDbLine
 10
143.9591904980875
 20
80.87732246202218
 30
0.0
 11
143.3052738451948
 21
81.04656854570048
 31
0.0
  0
ARC
  5
12F
330
1F
100
AcDbEntity
  8
0
  6
Continuous
 62
     7
370
    25
100
AcDbCircle
 10
142.5908388965336
 20
77.79041024013931
 30
0.0
 40
3.333614285838043
100
AcDbArc
 50
77.62480830049878
 51
99.7536954908034
  0
LWPOLYLINE
  5
130
330
1F
100
AcDbEntity
  8
0
  6
Continuous
 62
     7
370
    25
100
AcDbPolyline
 90
        5
 70
   128
 43
0.0
 10
150.4947244040202
 20
81.79238597148327
 10
150.4490117951105
 20
81.65735632492664
 10
150.2951293166285
 20
81.51390193170144
 10
150.0382884754735
 20
81.38068615098452
 10
149.6879321605484
 20
81.26260673117044
  0
ARC
  5
131
330
1F
100
AcDbEntity
  8
0
  6
Continuous
 62
     7
370
    25
100
AcDbCircle
 10
100.5150652592126
 20
82.48657409900918
 30
0.0
 40
2.529855113391551
100
AcDbArc
 50
69.73226764251977
 51
96.53666869431731
  0
LINE
  5
132
330
1F
100
AcDbEntity
  8
0
  6
Continuous
 62
     7
370
    25
100
AcDbLine
 10
100.2270689158751
 20
84.99998313873542
 30
0.0
 11
99.33380215606597
 21
84.93803477261811
 31
0.0
  0
ARC
  5
133
330
1F
100
AcDbEntity
  8
0
  6
Continuous
 62
     7
370
    25
100
AcDbCircle
 10
98.41117473146149
 20
91.47155305611888
 30
0.0
 40
6.59834089188116
100
AcDbArc
 50
245.6256882363785
 51
278.0378462450391
  0
ARC
  5
134
330
1F
100
AcDbEntity
  8
0
  6
Continuous
 62
     7
370
    25
100
AcDbCircle
 10
99.39630690965517
 20
89.87191472257199
 30
0.0
 40
5.762318189553786
100
AcDbArc
 50
222.0417160288563
 51
229.9442295798746
  0
LWPOLYLINE
  5
135
330
1F
100
AcDbEntity
  8
0
  6
Continuous
 62
     7
370
    25
100
AcDbPolyline
 90
        3
 70
   128
 43
0.0
 10
95.03970693055332
 20
86.18803477261811
 10
95.04157284992475
 20
86.160653681398
 10
95.11687839672288
 20
86.01305446073759
  0
ARC
  5
136
330
1F
100
AcDbEntity
  8
0
  6
Continuous
 62
     7
370
    25
100
AcDbCircle
 10
107.8631101259828
 20
96.59935731303177
 30
0.0
 40
13.40522704465676
100
AcDbArc
 50
241.1333188391583
 51
243.5452114849798
  0
LWPOLYLINE
  5
137
330
1F
100
AcDbEntity
  8
0
  6
Continuous
 62
     7
370
    25
100
AcDbPolyline
 90
        8
 70
   128
 43
0.0
 10
153.7937160909142
 20
86.91358529450741
 10
153.7936905185286
 20
86.90387878472872
 10
153.6868798936306
 20
86.2868060992782
 10
153.3737557197949
 20
85.67445404562835
 10
152.8566763138637
 20
85.07143459654351
 10
152.1395360959226
 20
84.48228943561732
 10
151.2277362582004
 20
83.91145575126163
 10
150.5088873399571
 20
83.54023391755702
  0
ARC
  5
139
330
1F
100
AcDbEntity
  8
0
  6
Continuous
 62
     7
370
    25
100
AcDbCircle
 10
108.5948866549809
 20
97.04452942115552
 30
0.0
 40
14.99432609184364
100
AcDbArc
 50
241.2876570640564
 51
246.3348106202169
  0
ARC
  5
13C
330
1F
100
AcDbEntity
  8
0
  6
Continuous
 62
     7
370
    25
100
AcDbCircle
 10
98.41117473146151
 20
90.50562722982983
 30
0.0
 40
6.598340891881191
100
AcDbArc
 50
245.6256882363783
 51
278.0378462450389
  0
ARC
  5
13E
330
1F
100
AcDbEntity
  8
0
  6
Continuous
 62
     7
370
    25
100
AcDbCircle
 10
100.5150652592126
 20
81.52064827271998
 30
0.0
 40
2.529855113391678
100
AcDbArc
 50
69.7322676425209
 51
96.53666869431702
  0
LINE
  5
13F
330
1F
100
AcDbEntity
  8
0
  6
Continuous
 62
     7
370
    25
100
AcDbLine
 10
100.2270689158751
 20
84.03405731244634
 30
0.0
 11
99.33380215606597
 21
83.97210894632903
 31
0.0
  0
ARC
  5
141
330
1F
100
AcDbEntity
  8
0
  6
Continuous
 62
     7
370
    25
100
AcDbCircle
 10
99.39630690965369
 20
88.90598889628143
 30
0.0
 40
5.762318189551693
100
AcDbArc
 50
222.041716028855
 51
229.9442295798763
  0
LWPOLYLINE
  5
142
330
1F
100
AcDbEntity
  8
0
  6
Continuous
 62
     7
370
    25
100
AcDbPolyline
 90
        3
 70
   128
 43
0.0
 10
95.11687839672288
 20
85.04712863444853
 10
95.04157284992475
 20
85.19472785510892
 10
95.03970693055332
 20
85.22210894632903
  0
ARC
  5
144
330
1F
100
AcDbEntity
  8
0
  6
Continuous
 62
     7
370
    25
100
AcDbCircle
 10
154.4655714672521
 20
86.05919619850435
 30
0.0
 40
1.73426337702259
100
AcDbArc
 50
91.14501960659322
 51
112.7928787431059
  0
LINE
  5
146
330
1F
100
AcDbEntity
  8
0
  6
Continuous
 62
     7
370
    25
100
AcDbLine
 10
155.3241823865827
 20
87.85506164268581
 30
0.0
 11
154.4309156267736
 21
87.7931132765685
 31
0.0
  0
LWPOLYLINE
  5
147
330
1F
100
AcDbEntity
  8
0
  6
Continuous
 62
     7
370
    25
100
AcDbPolyline
 90
        8
 70
   128
 43
0.0
 10
157.5477252512751
 20
88.60506164268581
 10
157.5109368989459
 20
88.48383683299457
 10
157.3670704278869
 20
88.33968782610768
 10
157.1195492453658
 20
88.20529542746276
 10
156.7774735981232
 20
88.08560064443266
 10
156.3534200776344
 20
87.98500411880516
 10
155.8629792350937
 20
87.90720433486828
 10
155.3241823865827
 20
87.85506164268581
  0
ARC
  5
148
330
1F
100
AcDbEntity
  8
0
  6
Continuous
 62
     7
370
    25
100
AcDbCircle
 10
160.6584209050956
 20
113.0014048580503
 30
0.0
 40
0.4235804150512311
100
AcDbArc
 50
166.9815672792711
 51
179.8695523794689
  0
LINE
  5
149
330
1F
100
AcDbEntity
  8
0
  6
Continuous
 62
     7
370
    25
100
AcDbLine
 10
160.2348415878684
 20
110.7311717116966
 30
0.0
 11
160.2348415878684
 21
113.0023692398945
 31
0.0
  0
ARC
  5
14A
330
1F
100
AcDbEntity
  8
0
  6
Continuous
 62
     7
370
    25
100
AcDbCircle
 10
159.5329143431797
 20
110.6879314454645
 30
0.0
 40
0.7032578314246194
100
AcDbArc
 50
293.2550072405911
 51
3.525091832312971
  0
LINE
  5
14B
330
1F
100
AcDbEntity
  8
0
  6
Continuous
 62
     7
370
    25
100
AcDbLine
 10
158.7531646494001
 20
109.7681300055584
 30
0.0
 11
159.8105775191565
 21
110.0418085947878
 31
0.0
  0
LINE
  5
14C
330
1F
100
AcDbEntity
  8
0
  6
Continuous
 62
     7
370
    25
100
AcDbLine
 10
159.8105775191565
 20
110.3315863426746
 30
0.0
 11
158.7588352340925
 21
110.0593754087603
 31
0.0
  0
ARC
  5
14D
330
1F
100
AcDbEntity
  8
0
  6
Continuous
 62
     7
370
    25
100
AcDbCircle
 10
159.6717459311682
 20
110.6546477680129
 30
0.0
 40
0.3516289157122405
100
AcDbArc
 50
293.2550072405841
 51
3.525091832318306
  0
LINE
  5
14E
330
1F
100
AcDbEntity
  8
0
  6
Continuous
 62
     7
370
    25
100
AcDbLine
 10
160.0227095535124
 20
112.9474654293268
 30
0.0
 11
160.0227095535124
 21
110.6762679011289
 31
0.0
  0
ARC
  5
14F
330
1F
100
AcDbEntity
  8
0
  6
Continuous
 62
     7
370
    25
100
AcDbCircle
 10
160.8698681879677
 20
112.9455366656385
 30
0.0
 40
0.847160830103343
100
AcDbArc
 50
166.981567279285
 51
179.8695523794729
  0
LINE
  5
150
330
1F
100
AcDbEntity
  8
0
  6
Continuous
 62
     7
370
    25
100
AcDbLine
 10
161.408740360366
 20
119.0803053868005
 30
0.0
 11
160.0444813862744
 21
113.1363719340036
 31
0.0
  0
ARC
  5
151
330
1F
100
AcDbEntity
  8
0
  6
Continuous
 62
     7
370
    25
100
AcDbCircle
 10
161.0201417327937
 20
119.1727628546201
 30
0.0
 40
0.3994462125326048
100
AcDbArc
 50
346.6167137995087
 51
10.18573112854783
  0
LINE
  5
152
330
1F
100
AcDbEntity
  8
0
  6
Continuous
 62
     7
370
    25
100
AcDbLine
 10
160.6190721023785
 20
123.3775426002914
 30
0.0
 11
161.413292544562
 21
119.2434007758282
 31
0.0
  0
LINE
  5
153
330
1F
100
AcDbEntity
  8
0
  6
Continuous
 62
     7
370
    25
100
AcDbLine
 10
161.619090846733
 20
119.3669467230851
 30
0.0
 11
160.8148921477343
 21
123.5530281938282
 31
0.0
  0
ARC
  5
154
330
1F
100
AcDbEntity
  8
0
  6
Continuous
 62
     7
370
    25
100
AcDbCircle
 10
160.8327892231974
 20
119.225670880669
 30
0.0
 40
0.7988924250643735
100
AcDbArc
 50
346.6167137994965
 51
10.18573112855965
  0
LINE
  5
155
330
1F
100
AcDbEntity
  8
0
  6
Continuous
 62
     7
370
    25
100
AcDbLine
 10
160.2457275042494
 20
113.0968224922328
 30
0.0
 11
161.609986478341
 21
119.0407559450298
 31
0.0
  0
ARC
  5
156
330
1F
100
AcDbEntity
  8
0
  6
Continuous
 62
     7
370
    25
100
AcDbCircle
 10
109.2580880883927
 20
111.5913952953608
 30
0.0
 40
0.4186191135928792
100
AcDbArc
 50
350.020169399558
 51
359.9142382269035
  0
LINE
  5
157
330
1F
100
AcDbEntity
  8
0
  6
Continuous
 62
     7
370
    25
100
AcDbLine
 10
109.6767067330305
 20
111.5907686959091
 30
0.0
 11
109.6767067330305
 21
112.5210212512545
 31
0.0
  0
LINE
  5
158
330
1F
100
AcDbEntity
  8
0
  6
Continuous
 62
     7
370
    25
100
AcDbLine
 10
109.8888387673865
 20
112.5759250618221
 30
0.0
 11
109.6767067330305
 21
112.5210212512545
 31
0.0
  0
LINE
  5
159
330
1F
100
AcDbEntity
  8
0
  6
Continuous
 62
     7
370
    25
100
AcDbLine
 10
109.8888387673865
 20
112.5759250618221
 30
0.0
 11
109.8888387673865
 21
111.6456725064767
 31
0.0
  0
ARC
  5
15A
330
1F
100
AcDbEntity
  8
0
  6
Continuous
 62
     7
370
    25
100
AcDbCircle
 10
109.0516014781116
 20
111.6469257053801
 30
0.0
 40
0.8372382271849489
100
AcDbArc
 50
350.0201693995494
 51
359.9142382269083
  0
LINE
  5
15B
330
1F
100
AcDbEntity
  8
0
  6
Continuous
 62
     7
370
    25
100
AcDbLine
 10
109.8761713030166
 20
111.501831071034
 30
0.0
 11
108.8518091669302
 21
105.6394878388573
 31
0.0
  0
ARC
  5
15C
330
1F
100
AcDbEntity
  8
0
  6
Continuous
 62
     7
370
    25
100
AcDbCircle
 10
109.2279765508703
 20
105.5697070669593
 30
0.0
 40
0.3825849668596864
100
AcDbArc
 50
169.4908308867703
 51
193.7535744845283
  0
LINE
  5
15D
330
1F
100
AcDbEntity
  8
0
  6
Continuous
 62
     7
370
    25
100
AcDbLine
 10
108.8563613511262
 20
105.4787488337631
 30
0.0
 11
110.2206203252178
 21
100.2410077908601
 31
0.0
  0
ARC
  5
15E
330
1F
100
AcDbEntity
  8
0
  6
Continuous
 62
     7
370
    25
100
AcDbCircle
 10
109.5356930075288
 20
100.0669079144483
 30
0.0
 40
0.70670800015508
100
AcDbArc
 50
359.7132638462535
 51
14.26182603775568
  0
LINE
  5
15F
330
1F
100
AcDbEntity
  8
0
  6
Continuous
 62
     7
370
    25
100
AcDbLine
 10
110.2423921579798
 20
100.0633712161144
 30
0.0
 11
110.2423921579798
 21
97.7921736879166
 31
0.0
  0
LWPOLYLINE
  5
160
330
1F
100
AcDbEntity
  8
0
  6
Continuous
 62
     7
370
    25
100
AcDbPolyline
 90
        9
 70
   128
 43
0.0
 10
110.4545241923357
 20
97.55729975059754
 10
110.4131392854433
 20
97.55215654668501
 10
110.3733447773138
 20
97.55834698955655
 10
110.3366699485777
 20
97.57563318396426
 10
110.3045241923357
 20
97.60335083115122
 10
110.2781428519728
 20
97.64043475748032
 10
110.2585397476043
 20
97.68545984845962
 10
110.2464682155374
 20
97.73669581509311
 10
110.2423921579798
 20
97.7921736879166
  0
LINE
  5
161
330
1F
100
AcDbEntity
  8
0
  6
Continuous
 62
     7
370
    25
100
AcDbLine
 10
110.4545241923357
 20
97.55729975059754
 30
0.0
 11
113.5657940295565
 21
98.36255563892333
 31
0.0
  0
LINE
  5
162
330
1F
100
AcDbEntity
  8
0
  6
Continuous
 62
     7
370
    25
100
AcDbLine
 10
113.5657940295565
 20
98.0727778910366
 30
0.0
 11
113.5657940295565
 21
98.36255563892333
 31
0.0
  0
LINE
  5
163
330
1F
100
AcDbEntity
  8
0
  6
Continuous
 62
     7
370
    25
100
AcDbLine
 10
113.5657940295565
 20
98.0727778910366
 30
0.0
 11
110.4545241923357
 21
97.26752200271082
 31
0.0
  0
LWPOLYLINE
  5
164
330
1F
100
AcDbEntity
  8
0
  6
Continuous
 62
     7
370
    25
100
AcDbPolyline
 90
        9
 70
   128
 43
0.0
 10
110.0302601236238
 20
97.73726987734894
 10
110.0384122387391
 20
97.62631413170197
 10
110.0625553028728
 20
97.52384219843493
 10
110.1017615116099
 20
97.43379201647636
 10
110.1545241923357
 20
97.35962416381815
 10
110.2188157048196
 20
97.30418886944422
 10
110.2921653622919
 20
97.26961648062883
 10
110.3717543785509
 20
97.25723559488574
 10
110.4545241923357
 20
97.26752200271082
  0
LINE
  5
165
330
1F
100
AcDbEntity
  8
0
  6
Continuous
 62
     7
370
    25
100
AcDbLine
 10
110.0302601236238
 20
97.73726987734894
 30
0.0
 11
110.0302601236238
 21
100.0084674055468
 31
0.0
  0
ARC
  5
166
330
1F
100
AcDbEntity
  8
0
  6
Continuous
 62
     7
370
    25
100
AcDbCircle
 10
109.6769105483991
 20
100.0102357547138
 30
0.0
 40
0.3533540000768084
100
AcDbArc
 50
359.7132638462357
 51
14.26182603776705
  0
LINE
  5
167
330
1F
100
AcDbEntity
  8
0
  6
Continuous
 62
     7
370
    25
100
AcDbLine
 10
110.0193742072428
 20
100.0972856929196
 30
0.0
 11
108.6551152331512
 21
105.3350267358227
 31
0.0
  0
ARC
  5
168
330
1F
100
AcDbEntity
  8
0
  6
Continuous
 62
     7
370
    25
100
AcDbCircle
 10
109.3983456326392
 20
105.5169432022152
 30
0.0
 40
0.7651699337191564
100
AcDbArc
 50
169.490830886776
 51
193.7535744845378
  0
LINE
  5
169
330
1F
100
AcDbEntity
  8
0
  6
Continuous
 62
     7
370
    25
100
AcDbLine
 10
108.6460108647592
 20
105.656504746011
 30
0.0
 11
109.6703730008456
 21
111.5188479781877
 31
0.0
  0
LINE
  5
16A
330
1F
100
AcDbEntity
  8
0
  6
Continuous
 62
     7
370
    25
100
AcDbLine
 10
109.6703730008456
 20
111.5188479781877
 30
0.0
 11
102.5993051889801
 21
113.3489749971099
 31
0.0
  0
LINE
  5
16B
330
1F
100
AcDbEntity
  8
0
  6
Continuous
 62
     7
370
    25
100
AcDbLine
 10
101.5749430528937
 20
107.4866317649332
 30
0.0
 11
108.6460108647592
 21
105.656504746011
 31
0.0
  0
LINE
  5
16C
330
1F
100
AcDbEntity
  8
0
  6
Continuous
 62
     7
370
    25
100
AcDbLine
 10
101.5749430528937
 20
107.4866317649332
 30
0.0
 11
102.5993051889801
 21
113.3489749971099
 31
0.0
  0
LWPOLYLINE
  5
16D
330
1F
100
AcDbEntity
  8
0
  6
Continuous
 62
     7
370
    25
100
AcDbPolyline
 90
        9
 70
   128
 43
0.0
 10
104.0198524835381
 20
115.9169745189704
 10
103.7439531042552
 20
115.9512625450539
 10
103.4786563833919
 20
115.9099929259103
 10
103.234157525151
 20
115.794751629859
 10
103.0198524835381
 20
115.6099673152792
 10
102.8439768811188
 20
115.3627411397519
 10
102.7132895186617
 20
115.0625738665566
 10
102.632812638216
 20
114.7210007556665
 10
102.605638921165
 20
114.3511482701767
  0
LINE
  5
16E
330
1F
100
AcDbEntity
  8
0
  6
Continuous
 62
     7
370
    25
100
AcDbLine
 10
104.0198524835381
 20
115.9169745189704
 30
0.0
 11
108.2624931706574
 21
114.818898307617
 31
0.0
  0
ARC
  5
16F
330
1F
100
AcDbEntity
  8
0
  6
Continuous
 62
     7
370
    25
100
AcDbCircle
 10
107.3369492507348
 20
112.665155472028
 30
0.0
 40
2.344192771415503
100
AcDbArc
 50
356.4749081676896
 51
66.74499275940894
  0
LINE
  5
170
330
1F
100
AcDbEntity
  8
0
  6
Continuous
 62
     7
370
    25
100
AcDbLine
 10
102.605638921165
 20
113.4208957148313
 30
0.0
 11
109.6767067330305
 21
111.5907686959091
 31
0.0
  0
LINE
  5
171
330
1F
100
AcDbEntity
  8
0
  6
Continuous
 62
     7
370
    25
100
AcDbLine
 10
102.605638921165
 20
113.4208957148313
 30
0.0
 11
102.605638921165
 21
114.3511482701767
 31
0.0
  0
LINE
  5
172
330
1F
100
AcDbEntity
  8
0
  6
Continuous
 62
     7
370
    25
100
AcDbLine
 10
108.2624931706574
 20
114.818898307617
 30
0.0
 11
108.4746252050134
 21
114.8738021181847
 31
0.0
  0
ARC
  5
173
330
1F
100
AcDbEntity
  8
0
  6
Continuous
 62
     7
370
    25
100
AcDbCircle
 10
107.5490812850908
 20
112.7200592825957
 30
0.0
 40
2.344192771415494
100
AcDbArc
 50
356.4749081676896
 51
66.7449927594094
  0
ARC
  5
174
330
1F
100
AcDbEntity
  8
0
  6
Continuous
 62
     7
370
    25
100
AcDbCircle
 10
102.1870202765226
 20
113.4215223142835
 30
0.0
 40
0.4186191135974985
100
AcDbArc
 50
350.0201693995979
 51
359.9142382268345
  0
LINE
  5
175
330
1F
100
AcDbEntity
  8
0
  6
Continuous
 62
     7
370
    25
100
AcDbLine
 10
108.6551152331512
 20
105.3350267358227
 30
0.0
 11
101.5840474212857
 21
107.1651537547448
 31
0.0
  0
ARC
  5
176
330
1F
100
AcDbEntity
  8
0
  6
Continuous
 62
     7
370
    25
100
AcDbCircle
 10
102.3272778207727
 20
107.3470702211373
 30
0.0
 40
0.7651699337181302
100
AcDbArc
 50
169.4908308867585
 51
193.7535744845534
  0
LINE
  5
177
330
1F
100
AcDbEntity
  8
0
  6
Continuous
 62
     7
370
    25
100
AcDbLine
 10
104.2319845178941
 20
115.971878329538
 30
0.0
 11
104.0198524835381
 21
115.9169745189704
 31
0.0
  0
LINE
  5
178
330
1F
100
AcDbEntity
  8
0
  6
Continuous
 62
     7
370
    25
100
AcDbLine
 10
104.2319845178941
 20
115.971878329538
 30
0.0
 11
108.4746252050134
 21
114.8738021181847
 31
0.0
  0
LINE
  5
179
330
1F
100
AcDbEntity
  8
0
  6
Continuous
 62
     7
370
    25
100
AcDbLine
 10
102.9483063953773
 20
101.9274127118418
 30
0.0
 11
110.0193742072428
 21
100.0972856929196
 31
0.0
  0
LINE
  5
17A
330
1F
100
AcDbEntity
  8
0
  6
Continuous
 62
     7
370
    25
100
AcDbLine
 10
102.9483063953773
 20
101.9274127118418
 30
0.0
 11
101.5840474212857
 21
107.1651537547448
 31
0.0
  0
LINE
  5
17B
330
1F
100
AcDbEntity
  8
0
  6
Continuous
 62
     7
370
    25
100
AcDbLine
 10
110.0302601236238
 20
100.0084674055468
 30
0.0
 11
102.9591923117583
 21
101.838594424469
 31
0.0
  0
ARC
  5
17C
330
1F
100
AcDbEntity
  8
0
  6
Continuous
 62
     7
370
    25
100
AcDbCircle
 10
102.6058427365342
 20
101.8403627736361
 30
0.0
 40
0.3533540000761411
100
AcDbArc
 50
359.7132638462167
 51
14.2618260377753
  0
LINE
  5
17D
330
1F
100
AcDbEntity
  8
0
  6
Continuous
 62
     7
370
    25
100
AcDbLine
 10
99.42365840582553
 20
102.7536579339301
 30
0.0
 11
92.35259059396003
 21
104.5837849528522
 31
0.0
  0
LINE
  5
17E
330
1F
100
AcDbEntity
  8
0
  6
Continuous
 62
     7
370
    25
100
AcDbLine
 10
99.42365840582553
 20
101.8347565625369
 30
0.0
 11
99.42365840582553
 21
102.7536579339301
 31
0.0
  0
LINE
  5
17F
330
1F
100
AcDbEntity
  8
0
  6
Continuous
 62
     7
370
    25
100
AcDbLine
 10
102.9591923117583
 20
100.9196930530758
 30
0.0
 11
99.42365840582553
 21
101.8347565625369
 31
0.0
  0
LINE
  5
180
330
1F
100
AcDbEntity
  8
0
  6
Continuous
 62
     7
370
    25
100
AcDbLine
 10
102.9591923117583
 20
100.9196930530758
 30
0.0
 11
102.9591923117583
 21
101.838594424469
 31
0.0
  0
LINE
  5
181
330
1F
100
AcDbEntity
  8
0
  6
Continuous
 62
     7
370
    25
100
AcDbLine
 10
92.35259059396003
 20
102.3125874246544
 30
0.0
 11
110.0302601236238
 21
97.73726987734894
 31
0.0
  0
LINE
  5
182
330
1F
100
AcDbEntity
  8
0
  6
Continuous
 62
     7
370
    25
100
AcDbLine
 10
92.35259059396003
 20
102.3125874246544
 30
0.0
 11
92.35259059396003
 21
104.5837849528522
 31
0.0
  0
ARC
  5
183
330
1F
100
AcDbEntity
  8
0
  6
Continuous
 62
     7
370
    25
100
AcDbCircle
 10
92.80350568872815
 20
102.2596303647865
 30
0.0
 40
0.4540141769588296
100
AcDbArc
 50
173.3016656813261
 51
247.0560282378318
  0
LWPOLYLINE
  5
184
330
1F
100
AcDbEntity
  8
0
  6
Continuous
 62
     7
370
    25
100
AcDbPolyline
 90
        3
 70
   128
 43
0.0
 10
103.7308589037226
 20
115.9762273687326
 10
103.9560851386112
 20
116.0061663556216
 10
104.2319845178941
 20
115.971878329538
  0
ARC
  5
185
330
1F
100
AcDbEntity
  8
0
  6
Continuous
 62
     7
370
    25
100
AcDbCircle
 10
98.65148637059087
 20
114.3365858237444
 30
0.0
 40
0.4186191135964609
100
AcDbArc
 50
350.0201693995986
 51
359.9142382268595
  0
LINE
  5
186
330
1F
100
AcDbEntity
  8
0
  6
Continuous
 62
     7
370
    25
100
AcDbLine
 10
99.07010501523227
 20
114.3359592242924
 30
0.0
 11
99.07010501523227
 21
115.2662117796378
 31
0.0
  0
LINE
  5
187
330
1F
100
AcDbEntity
  8
0
  6
Continuous
 62
     7
370
    25
100
AcDbLine
 10
99.28223704958823
 20
115.3211155902054
 30
0.0
 11
99.07010501523227
 21
115.2662117796378
 31
0.0
  0
LINE
  5
188
330
1F
100
AcDbEntity
  8
0
  6
Continuous
 62
     7
370
    25
100
AcDbLine
 10
99.28223704958823
 20
115.3211155902054
 30
0.0
 11
99.28223704958823
 21
114.39086303486
 31
0.0
  0
ARC
  5
189
330
1F
100
AcDbEntity
  8
0
  6
Continuous
 62
     7
370
    25
100
AcDbCircle
 10
98.44499976031311
 20
114.3921162337634
 30
0.0
 40
0.8372382271852183
100
AcDbArc
 50
350.0201693995516
 51
359.9142382269073
  0
LINE
  5
18A
330
1F
100
AcDbEntity
  8
0
  6
Continuous
 62
     7
370
    25
100
AcDbLine
 10
99.26956958521832
 20
114.2470215994173
 30
0.0
 11
98.24520744913194
 21
108.3846783672406
 31
0.0
  0
ARC
  5
18B
330
1F
100
AcDbEntity
  8
0
  6
Continuous
 62
     7
370
    25
100
AcDbCircle
 10
98.6213748330714
 20
108.3148975953426
 30
0.0
 40
0.3825849668590385
100
AcDbArc
 50
169.4908308867566
 51
193.7535744845542
  0
LINE
  5
18C
330
1F
100
AcDbEntity
  8
0
  6
Continuous
 62
     7
370
    25
100
AcDbLine
 10
98.24975963332797
 20
108.2239393621464
 30
0.0
 11
99.61401860741952
 21
102.9861983192434
 31
0.0
  0
ARC
  5
18D
330
1F
100
AcDbEntity
  8
0
  6
Continuous
 62
     7
370
    25
100
AcDbCircle
 10
98.92909128973281
 20
102.8120984428318
 30
0.0
 40
0.7067080001528494
100
AcDbArc
 50
359.7132638462353
 51
14.26182603778406
  0
LINE
  5
18E
330
1F
100
AcDbEntity
  8
0
  6
Continuous
 62
     7
370
    25
100
AcDbLine
 10
99.63579044018151
 20
101.8896603731046
 30
0.0
 11
99.42365840582553
 21
101.8347565625369
 31
0.0
  0
ARC
  5
18F
330
1F
100
AcDbEntity
  8
0
  6
Continuous
 62
     7
370
    25
100
AcDbCircle
 10
99.07030883060132
 20
102.7554262830972
 30
0.0
 40
0.3533540000762829
100
AcDbArc
 50
359.7132638462261
 51
14.26182603778135
  0
LINE
  5
190
330
1F
100
AcDbEntity
  8
0
  6
Continuous
 62
     7
370
    25
100
AcDbLine
 10
99.41277248944455
 20
102.8424762213029
 30
0.0
 11
98.04851351535298
 21
108.0802172642059
 31
0.0
  0
ARC
  5
191
330
1F
100
AcDbEntity
  8
0
  6
Continuous
 62
     7
370
    25
100
AcDbCircle
 10
98.79174391484084
 20
108.2621337305984
 30
0.0
 40
0.7651699337190498
100
AcDbArc
 50
169.4908308867724
 51
193.7535744845385
  0
LINE
  5
192
330
1F
100
AcDbEntity
  8
0
  6
Continuous
 62
     7
370
    25
100
AcDbLine
 10
98.03940914696092
 20
108.4016952743943
 30
0.0
 11
99.06377128304732
 21
114.264038506571
 31
0.0
  0
LINE
  5
193
330
1F
100
AcDbEntity
  8
0
  6
Continuous
 62
     7
370
    25
100
AcDbLine
 10
99.63579044018151
 20
102.8085617444977
 30
0.0
 11
99.63579044018151
 21
101.8896603731046
 31
0.0
  0
LINE
  5
194
330
1F
100
AcDbEntity
  8
0
  6
Continuous
 62
     7
370
    25
100
AcDbLine
 10
99.06377128304732
 20
114.264038506571
 30
0.0
 11
91.9927034711818
 21
116.0941655254932
 31
0.0
  0
LINE
  5
195
330
1F
100
AcDbEntity
  8
0
  6
Continuous
 62
     7
370
    25
100
AcDbLine
 10
90.96834133509542
 20
110.2318222933165
 30
0.0
 11
98.03940914696092
 21
108.4016952743943
 31
0.0
  0
LINE
  5
196
330
1F
100
AcDbEntity
  8
0
  6
Continuous
 62
     7
370
    25
100
AcDbLine
 10
90.96834133509542
 20
110.2318222933165
 30
0.0
 11
91.9927034711818
 21
116.0941655254932
 31
0.0
  0
LWPOLYLINE
  5
197
330
1F
100
AcDbEntity
  8
0
  6
Continuous
 62
     7
370
    25
100
AcDbPolyline
 90
        9
 70
   128
 43
0.0
 10
93.41325076573986
 20
118.6621650473536
 10
93.13735138645691
 20
118.6964530734372
 10
92.87205466559367
 20
118.6551834542936
 10
92.62755580735275
 20
118.5399421582423
 10
92.41325076573986
 20
118.3551578436625
 10
92.2373751633205
 20
118.1079316681352
 10
92.10668780086348
 20
117.8077643949399
 10
92.02621092041771
 20
117.4661912840498
 10
91.99903720336675
 20
117.0963387985599
  0
LINE
  5
198
330
1F
100
AcDbEntity
  8
0
  6
Continuous
 62
     7
370
    25
100
AcDbLine
 10
93.41325076573986
 20
118.6621650473536
 30
0.0
 11
97.65589145285917
 21
117.5640888360003
 31
0.0
  0
ARC
  5
199
330
1F
100
AcDbEntity
  8
0
  6
Continuous
 62
     7
370
    25
100
AcDbCircle
 10
96.73034753293659
 20
115.4103460004113
 30
0.0
 40
2.344192771415502
100
AcDbArc
 50
356.47490816769
 51
66.74499275940926
  0
LINE
  5
19A
330
1F
100
AcDbEntity
  8
0
  6
Continuous
 62
     7
370
    25
100
AcDbLine
 10
91.99903720336675
 20
116.1660862432145
 30
0.0
 11
99.07010501523227
 21
114.3359592242924
 31
0.0
  0
LINE
  5
19B
330
1F
100
AcDbEntity
  8
0
  6
Continuous
 62
     7
370
    25
100
AcDbLine
 10
91.99903720336675
 20
116.1660862432145
 30
0.0
 11
91.99903720336675
 21
117.0963387985599
 31
0.0
  0
LINE
  5
19C
330
1F
100
AcDbEntity
  8
0
  6
Continuous
 62
     7
370
    25
100
AcDbLine
 10
97.65589145285917
 20
117.5640888360003
 30
0.0
 11
97.86802348721513
 21
117.618992646568
 31
0.0
  0
ARC
  5
19D
330
1F
100
AcDbEntity
  8
0
  6
Continuous
 62
     7
370
    25
100
AcDbCircle
 10
96.94247956729258
 20
115.465249810979
 30
0.0
 40
2.344192771415463
100
AcDbArc
 50
356.4749081676885
 51
66.74499275940963
  0
ARC
  5
19E
330
1F
100
AcDbEntity
  8
0
  6
Continuous
 62
     7
370
    25
100
AcDbCircle
 10
91.58041855872828
 20
116.1667128426663
 30
0.0
 40
0.4186191135935188
100
AcDbArc
 50
350.0201693995636
 51
359.9142382268939
  0
LINE
  5
19F
330
1F
100
AcDbEntity
  8
0
  6
Continuous
 62
     7
370
    25
100
AcDbLine
 10
102.9591923117583
 20
101.0295006742111
 30
0.0
 11
99.63579044018151
 21
101.8896603731046
 31
0.0
  0
LINE
  5
1A0
330
1F
100
AcDbEntity
  8
0
  6
Continuous
 62
     7
370
    25
100
AcDbLine
 10
98.04851351535298
 20
108.0802172642059
 30
0.0
 11
90.97744570348746
 21
109.9103442831281
 31
0.0
  0
ARC
  5
1A1
330
1F
100
AcDbEntity
  8
0
  6
Continuous
 62
     7
370
    25
100
AcDbCircle
 10
91.7206761029752
 20
110.0922607495206
 30
0.0
 40
0.7651699337189294
100
AcDbArc
 50
169.4908308867685
 51
193.7535744845385
  0
LINE
  5
1A2
330
1F
100
AcDbEntity
  8
0
  6
Continuous
 62
     7
370
    25
100
AcDbLine
 10
93.62538280009584
 20
118.7170688579213
 30
0.0
 11
93.41325076573986
 21
118.6621650473536
 31
0.0
  0
LINE
  5
1A3
330
1F
100
AcDbEntity
  8
0
  6
Continuous
 62
     7
370
    25
100
AcDbLine
 10
93.62538280009584
 20
118.7170688579213
 30
0.0
 11
97.86802348721513
 21
117.618992646568
 31
0.0
  0
LINE
  5
1A4
330
1F
100
AcDbEntity
  8
0
  6
Continuous
 62
     7
370
    25
100
AcDbLine
 10
92.34170467757905
 20
104.6726032402251
 30
0.0
 11
99.41277248944455
 21
102.8424762213029
 31
0.0
  0
LINE
  5
1A5
330
1F
100
AcDbEntity
  8
0
  6
Continuous
 62
     7
370
    25
100
AcDbLine
 10
92.34170467757905
 20
104.6726032402251
 30
0.0
 11
90.97744570348746
 21
109.9103442831281
 31
0.0
  0
ARC
  5
1A6
330
1F
100
AcDbEntity
  8
0
  6
Continuous
 62
     7
370
    25
100
AcDbCircle
 10
91.99924101873455
 20
104.5855533020192
 30
0.0
 40
0.3533540000775469
100
AcDbArc
 50
359.7132638462525
 51
14.2618260377554
  0
LWPOLYLINE
  5
1A7
330
1F
100
AcDbEntity
  8
0
  6
Continuous
 62
     7
370
    25
100
AcDbPolyline
 90
        3
 70
   128
 43
0.0
 10
93.12425718592435
 20
118.7214178971159
 10
93.34948342081287
 20
118.7513568840048
 10
93.62538280009584
 20
118.7170688579213
  0
LWPOLYLINE
  5
1A8
330
1F
100
AcDbEntity
  8
0
  6
Continuous
 62
     7
370
    25
100
AcDbPolyline
 90
        3
 70
   128
 43
0.0
 10
95.03970693055334
 20
85.22210894632903
 10
95.04157284992476
 20
85.19472785510892
 10
95.1168783967229
 20
85.04712863444853
  0
LWPOLYLINE
  5
1A9
330
1F
100
AcDbEntity
  8
0
  6
Continuous
 62
     7
370
    25
100
AcDbPolyline
 90
        8
 70
   128
 43
0.0
 10
155.3241823865828
 20
87.85506164268581
 10
155.8629792350937
 20
87.90720433486828
 10
156.3534200776344
 20
87.98500411880516
 10
156.7774735981232
 20
88.08560064443266
 10
157.1195492453658
 20
88.20529542746277
 10
157.3670704278869
 20
88.33968782610768
 10
157.5109368989459
 20
88.48383683299457
 10
157.5477252512752
 20
88.60506164268581
  0
ARC
  5
1AA
330
1F
100
AcDbEntity
  8
0
  6
Continuous
 62
     7
370
    25
100
AcDbCircle
 10
154.4824257388749
 20
85.97969124306815
 30
0.0
 40
1.81415345636285
100
AcDbArc
 50
91.62704467576947
 51
112.3108536739337
  0
LWPOLYLINE
  5
1AB
330
1F
100
AcDbEntity
  8
0
  6
Continuous
 62
     7
370
    25
100
AcDbPolyline
 90
        8
 70
   128
 43
0.0
 10
153.7937160909142
 20
86.91358529450743
 10
153.7936905185286
 20
86.90387878472872
 10
153.6868798936307
 20
86.2868060992782
 10
153.3737557197949
 20
85.67445404562835
 10
152.8566763138637
 20
85.07143459654351
 10
152.1395360959226
 20
84.48228943561732
 10
151.2277362582004
 20
83.91145575126161
 10
150.5088873399571
 20
83.54023391755702
  0
LWPOLYLINE
  5
1AC
330
1F
100
AcDbEntity
  8
0
  6
Continuous
 62
     7
370
    25
100
AcDbPolyline
 90
        5
 70
   128
 43
0.0
 10
149.6879321605484
 20
81.26260673117044
 10
150.0382884754735
 20
81.38068615098452
 10
150.2951293166285
 20
81.51390193170144
 10
150.4490117951105
 20
81.65735632492664
 10
150.4947244040202
 20
81.79238597148328
  0
LWPOLYLINE
  5
1AD
330
1F
100
AcDbEntity
  8
0
  6
Continuous
 62
     7
370
    25
100
AcDbPolyline
 90
        8
 70
   128
 43
0.0
 10
114.8265016812862
 20
79.73488421952045
 10
114.8489013561808
 20
79.64017755857715
 10
114.9734771310834
 20
79.49483029942421
 10
115.2029458573703
 20
79.35830874917323
 10
115.5288709963694
 20
79.23563219457814
 10
115.9392697385539
 20
79.13131090383001
 10
116.4190535578509
 20
79.04918030416971
 10
116.9505829492557
 20
78.99225997038387
  0
LWPOLYLINE
  5
1AE
330
1F
100
AcDbEntity
  8
0
  6
Continuous
 62
     7
370
    25
100
AcDbPolyline
 90
        3
 70
   128
 43
0.0
 10
114.6264140131469
 20
80.46839829798438
 10
114.777027496532
 20
80.44580354952558
 10
114.8265016812862
 20
80.4362023312977
  0
ARC
  5
1AF
330
1F
100
AcDbEntity
  8
0
  6
Continuous
 62
     7
370
    25
100
AcDbCircle
 10
123.9559392957705
 20
157.4817609454767
 30
0.0
 40
77.576401490874
100
AcDbArc
 50
262.0412525316335
 51
263.0927525493536
  0
ARC
  5
1B0
330
1F
100
AcDbEntity
  8
0
  6
Continuous
 62
     7
370
    25
100
AcDbCircle
 10
112.9810815973093
 20
78.99808664174071
 30
0.0
 40
1.670900530529478
100
AcDbArc
 50
81.9626498153541
 51
102.3624088618917
  0
LINE
  5
1B1
330
1F
100
AcDbEntity
  8
0
  6
Continuous
 62
     7
370
    25
100
AcDbLine
 10
112.5051338577768
 20
80.5996470792258
 30
0.0
 11
112.6233509888033
 21
80.63024392419285
 31
0.0
  0
LINE
  5
1B2
330
1F
100
AcDbEntity
  8
0
  6
Continuous
 62
     7
370
    25
100
AcDbLine
 10
112.5051338577768
 20
80.5996470792258
 30
0.0
 11
111.1527841226598
 21
80.94966094631343
 31
0.0
  0
LINE
  5
1B3
330
1F
100
AcDbEntity
  8
0
  6
Continuous
 62
     7
370
    25
100
AcDbLine
 10
102.5672176106476
 20
83.17176907261657
 30
0.0
 11
101.8985321399785
 21
83.34483760760908
 31
0.0
  0
LINE
  5
1B4
330
1F
100
AcDbEntity
  8
0
  6
Continuous
 62
     7
370
    25
100
AcDbLine
 10
102.016749271005
 20
83.37543445257612
 30
0.0
 11
101.8985321399785
 21
83.34483760760908
 31
0.0
  0
LWPOLYLINE
  5
1B5
330
1F
100
AcDbEntity
  8
0
  6
Continuous
 62
     7
370
    25
100
AcDbPolyline
 90
        9
 70
   128
 43
0.0
 10
102.1030265984564
 20
83.52848802657553
 10
102.1353161690534
 20
83.50954970825302
 10
102.1555255708947
 20
83.4895211534547
 10
102.1631377048625
 20
83.46891483395463
 10
102.1579577988508
 20
83.4482580048253
 10
102.1401183914101
 20
83.42807921353193
 10
102.1100759404764
 20
83.40889477595834
 10
102.0685991439552
 20
83.39119556540305
 10
102.016749271005
 20
83.37543445257612
  0
ARC
  5
1B6
330
1F
100
AcDbEntity
  8
0
  6
Continuous
 62
     7
370
    25
100
AcDbCircle
 10
108.0293282542713
 20
95.94606122456021
 30
0.0
 40
13.75925780858188
100
AcDbArc
 50
241.1556574623644
 51
244.4871343714607
  0
ARC
  5
1B7
330
1F
100
AcDbEntity
  8
0
  6
Continuous
 62
     7
370
    25
100
AcDbCircle
 10
126.5518876554534
 20
153.1341071852103
 30
0.0
 40
76.94320845851723
100
AcDbArc
 50
266.3195301756937
 51
283.1311844658753
  0
ARC
  5
1B8
330
1F
100
AcDbEntity
  8
0
  6
Continuous
 62
     7
370
    25
100
AcDbCircle
 10
119.7879456408689
 20
117.6643931486552
 30
0.0
 40
41.01203820071915
100
AcDbArc
 50
249.7745464784075
 51
264.2923452540159
  0
LWPOLYLINE
  5
1BC
330
1F
100
AcDbEntity
  8
0
  6
Continuous
 62
     7
370
    25
100
AcDbPolyline
 90
        3
 70
   128
 43
0.0
 10
141.8299861731149
 20
78.75828699887596
 10
141.7958422863127
 20
78.75573682167509
 10
141.7400380654244
 20
78.76716388075397
  0
LWPOLYLINE
  5
1BD
330
1F
100
AcDbEntity
  8
0
  6
Continuous
 62
     7
370
    25
100
AcDbPolyline
 90
        3
 70
   128
 43
0.0
 10
123.9782761688158
 20
77.5192402372204
 10
123.9810981147366
 20
77.52027800480094
 10
123.9894230272516
 20
77.53615244199084
  0
ARC
  5
1BE
330
1F
100
AcDbEntity
  8
0
  6
Continuous
 62
     7
370
    25
100
AcDbCircle
 10
126.5641914264653
 20
169.0025153736969
 30
0.0
 40
91.50259548375749
100
AcDbArc
 50
268.3875557129666
 51
279.5467058887105
  0
ARC
  5
1CF
330
1F
100
AcDbEntity
  8
0
  6
Continuous
 62
     7
370
    25
100
AcDbCircle
 10
102.4834715105524
 20
81.37695239983753
 30
0.0
 40
0.5860481928538583
100
AcDbArc
 50
176.474908167688
 51
246.7449927594122
  0
LINE
  5
1D0
330
1F
100
AcDbEntity
  8
0
  6
Continuous
 62
     7
370
    25
100
AcDbLine
 10
101.8985321399785
 20
81.41298595503093
 30
0.0
 11
101.8985321399785
 21
83.34483760760908
 31
0.0
  0
LINE
  5
1D1
330
1F
100
AcDbEntity
  8
0
  6
Continuous
 62
     7
370
    25
100
AcDbLine
 10
112.5051338577768
 20
78.66779542664767
 30
0.0
 11
112.5051338577768
 21
80.5996470792258
 31
0.0
  0
LWPOLYLINE
  5
1D2
330
1F
100
AcDbEntity
  8
0
  6
Continuous
 62
     7
370
    25
100
AcDbPolyline
 90
        9
 70
   128
 43
0.0
 10
112.1515804671835
 20
78.27633886444923
 10
112.2205553120043
 20
78.26776685792835
 10
112.2868794922201
 20
78.27808426271424
 10
112.3480042067803
 20
78.30689458672707
 10
112.4015804671835
 20
78.35309066537204
 10
112.4455493677884
 20
78.41489720925387
 10
112.4782212084026
 20
78.48993902755267
 10
112.4983404285141
 20
78.57533230527521
 10
112.5051338577768
 20
78.66779542664767
  0
LINE
  5
1D3
330
1F
100
AcDbEntity
  8
0
  6
Continuous
 62
     7
370
    25
100
AcDbLine
 10
112.1515804671835
 20
78.27633886444923
 30
0.0
 11
102.2520855305718
 21
80.8385166909403
 31
0.0
  0
ELLIPSE
  5
1DA
330
1F
100
AcDbEntity
  8
0
  6
Continuous
 62
     7
370
    25
100
AcDbEllipse
 10
124.8795025285414
 20
76.29878283157254
 30
0.0
 11
0.5000000000000142
 21
0.0
 31
0.0
210
0.0
220
0.0
230
1.0
 40
0.2352187548298663
 41
3.927143110234801
 42
5.497634850534641
  0
LINE
  5
1DB
330
1F
100
AcDbEntity
  8
0
  6
Continuous
 62
     7
370
    25
100
AcDbLine
 10
124.526002985842
 20
63.18650256600849
 30
0.0
 11
124.526002985842
 21
76.21560777916558
 31
0.0
  0
ELLIPSE
  5
1DE
330
1F
100
AcDbEntity
  8
0
  6
Continuous
 62
     7
370
    25
100
AcDbEllipse
 10
122.0507522590142
 20
63.8857563890809
 30
0.0
 11
-0.9517029455087709
 21
3.368603161218729
 31
0.0
210
0.0
220
0.0
230
1.0
 40
0.6783163797203243
 41
2.764393372097246
 42
4.317736406372215
  0
LINE
  5
1DF
330
1F
100
AcDbEntity
  8
0
  6
Continuous
 62
     7
370
    25
100
AcDbLine
 10
106.4397230939569
 20
64.56780914879634
 30
0.0
 11
122.0939513407329
 21
60.51619674214892
 31
0.0
  0
ELLIPSE
  5
1E1
330
1F
100
AcDbEntity
  8
0
  6
Continuous
 62
     7
370
    25
100
AcDbEllipse
 10
122.4042518017136
 20
63.98567766822086
 30
0.0
 11
-1.077108520988943
 21
3.852670209710197
 31
0.0
210
0.0
220
0.0
230
1.0
 40
0.6789226323799483
 41
3.128452870359638
 42
3.187287158372687
  0
ELLIPSE
  5
1E2
330
1F
100
AcDbEntity
  8
0
  6
Continuous
 62
     7
370
    25
100
AcDbEllipse
 10
124.16744812005
 20
64.44202645566101
 30
0.0
 11
0.7592933264659649
 21
4.128125845727283
 31
0.0
210
0.0
220
0.0
230
1.0
 40
0.6951454441744732
 41
3.454159652205587
 42
4.645284541268873
  0
LWPOLYLINE
  5
1E3
330
1F
100
AcDbEntity
  8
0
  6
Continuous
 62
     7
370
    25
100
AcDbPolyline
 90
        3
 70
   128
 43
0.0
 10
153.7894204653247
 20
84.85593561619216
 10
153.7936905185286
 20
84.97202713215057
 10
153.7937160909142
 20
84.9817336419293
  0
LWPOLYLINE
  5
1F0
330
1F
100
AcDbEntity
  8
0
  6
Continuous
 62
     7
370
    25
100
AcDbPolyline
 90
       84
 70
   128
 43
0.0
 10
135.999430282259
 20
203.5919056252308
 10
138.7110745135232
 20
203.8087364012121
 10
141.3515932402501
 20
204.0780243411511
 10
143.9058618102964
 20
204.3982269881144
 10
146.3592496046058
 20
204.7675102503375
 10
148.6977038400695
 20
205.1837589067365
 10
150.9078300625956
 20
205.6445887227027
 10
152.9769688693289
 20
206.1473601067826
 10
154.8932684205642
 20
206.6891932300189
 10
156.6457523260109
 20
207.2669845213497
 10
158.2243825165622
 20
207.8774244445827
 10
159.6201167414463
 20
208.5170164551186
 10
160.8249603614199
 20
209.1820970278419
 10
161.8320121413374
 20
209.8688566414615
 10
162.6355037798015
 20
210.573361599103
 10
163.2308329494706
 20
211.2915765601684
 10
163.6145896587735
 20
212.0193876544019
 10
163.784575784032
 20
212.7526260457657
 10
163.7398176601146
 20
213.4870918111557
 10
163.4805716575016
 20
214.2185779971803
 10
163.008322713819
 20
214.9428947172091
 10
162.3257758282496
 20
215.6558931506632
 10
161.436840567543
 20
216.3534893070845
 10
160.3466086723712
 20
217.0316874188628
 10
159.061324892299
 20
217.686602828631
 10
157.5883512164244
 20
218.3144842402305
 10
155.9361247045712
 20
218.9117352057964
 10
154.1141091605749
 20
219.4749347258844
 10
152.132740924471
 20
220.0008568446464
 10
150.0033690940846
 20
220.4864891278134
 10
147.7381905184257
 20
220.9290499176458
 10
145.3501799352427
 20
221.3260042660175
 10
142.8530156528995
 20
221.6750784543689
 10
140.2610012022638
 20
221.9742730173611
 10
137.588983407378
 20
222.2218741956322
 10
134.8522673441951
 20
222.4164637520554
 10
132.0665286744897
 20
222.5569270952736
 10
129.2477238570876
 20
222.6424596639771
 10
126.4119987507137
 20
222.6725715353581
 10
123.5755961319761
 20
222.6470902313442
 10
120.7547626582122
 20
222.5661617065373
 10
117.965655808107
 20
222.4302495121986
 10
115.2242513331185
 20
222.2401321410692
 10
112.5462517498195
 20
221.996898568234
 10
109.9469963973056
 20
221.7019420135712
 10
107.4413735748491
 20
221.3569519615148
 10
105.0437352630696
 20
220.9639044838408
 10
102.7678149170885
 20
220.5250509209075
 10
100.6266488025418
 20
220.0429049861808
 10
98.6325013250312
 20
219.5202283679122
 10
96.7967947807192
 20
218.960014910438
 10
95.13004393045134
 20
218.3654734657098
 10
93.64179577215815
 20
217.7400095132819
 10
92.34057485651562
 20
217.0872056540322
 10
91.23383445909086
 20
216.4108010893491
 10
90.32791388865472
 20
215.7146702033242
 10
89.62800217619512
 20
215.0028003706317
 10
89.13810835261748
 20
214.2792691172068
 10
88.86103848537884
 20
213.5482207645465
 10
88.79837960558746
 20
212.8138426914117
 10
88.95049061763245
 20
212.0803413489006
 10
89.3165002434119
 20
211.3519181662776
 10
89.8943120129349
 20
210.6327454855674
 10
90.68061627271187
 20
209.9269426627573
 10
91.67090914314997
 20
209.2385524724992
 10
92.85951831636757
 20
208.571517951463
 10
94.23963554666008
 20
207.9296598129788
 10
95.80335564751485
 20
207.3166545623378
 10
97.54172177180361
 20
206.7360134381022
 10
99.44477671579162
 20
206.1910623000492
 10
101.5016199530991
 20
205.6849225789472
 10
103.7004700719289
 20
205.220493397283
 10
106.028732257927
 20
204.8004349633508
 10
108.4730704361375
 20
204.4271533338199
 10
111.0194836588333
 20
204.1027866320602
 10
113.6533863016762
 20
203.829192801165
 10
116.3596916088524
 20
203.607938961821
 10
119.1228981086435
 20
203.4402924359836
 10
121.9271784044528
 20
203.3272134877707
 10
124.7564698326995
 20
203.2693498231574
 10
127.5945664683013
 20
203.2670328799744
 10
130.4252119507455
 20
203.3202759294626
 10
133.23219259905
 20
203.4287740002561
 10
135.999430282259
 20
203.5919056252308
  0
LWPOLYLINE
  5
1F1
330
1F
100
AcDbEntity
  8
0
  6
Continuous
 62
     7
370
    25
100
AcDbPolyline
 90
       34
 70
   128
 43
0.0
 10
89.31062148822815
 20
132.8970816823075
 10
89.98238254796243
 20
132.5248858177953
 10
91.38134929493913
 20
131.8511875557241
 10
92.96658862440724
 20
131.2057166173921
 10
94.72964259865394
 20
130.5919168695328
 10
96.66110456190097
 20
130.0130631993758
 10
98.75066932888313
 20
129.4722440417057
 10
100.9871881674706
 20
128.9723449007262
 10
103.3587282819783
 20
128.5160329546475
 10
105.8526364797943
 20
128.1057428251356
 10
108.4556066816368
 20
127.7436635875529
 10
111.1537509152443
 20
127.4317270912939
 10
113.9326734137165
 20
127.1715976525323
 10
116.7775474231597
 20
126.9646631743752
 10
119.6731943098337
 20
126.8120277417983
 10
122.60416454473
 20
126.7145057308756
 10
125.5548201334942
 20
126.6726174637306
 10
128.5094180518915
 20
126.6865864323924
 10
131.4521942416528
 20
126.7563381063692
 10
134.3674477185463
 20
126.8815003303007
 10
137.2396243439214
 20
127.0614053095679
 10
140.0533998127689
 20
127.2950931732664
 10
142.7937614155181
 20
127.5813170955329
 10
145.4460881373382
 20
127.9185499479009
 10
147.9962286675783
 20
128.3049924471914
 10
150.4305769031329
 20
128.7385827554675
 10
152.7361445428888
 20
129.2170074808319
 10
154.9006303859314
 20
129.7377140203731
 10
156.9124859637735
 20
130.2979241794073
 10
158.7609771564321
 20
130.8946489943483
 10
160.4362414636022
 20
131.5247046801215
 10
161.9293406253637
 20
132.1847296170355
 10
163.2323083116651
 20
132.8712022864769
 10
163.8815269754493
 20
133.2692247769901
  0
ARC
  5
1F2
330
1F
100
AcDbEntity
  8
0
  6
Continuous
 62
     7
370
    25
100
AcDbCircle
 10
164.271728925101
 20
136.6689071124582
 30
0.0
 40
2.969503088337383
100
AcDbArc
 50
334.1022827829257
 51
28.37980390552551
  0
ARC
  5
1F3
330
1F
100
AcDbEntity
  8
0
  6
Continuous
 62
     7
370
    25
100
AcDbCircle
 10
88.2658626525377
 20
136.669153054678
 30
0.0
 40
2.924684253886221
100
AcDbArc
 50
151.9879856124819
 51
206.1038539962346
  0
LWPOLYLINE
  5
1F4
330
1F
100
AcDbEntity
  8
0
  6
Continuous
 62
     7
370
    25
100
AcDbPolyline
 90
       12
 70
   128
 43
0.0
 10
155.2850941195628
 20
126.7404300050908
 10
157.3014730851811
 20
127.3014271664718
 10
159.1561919635359
 20
127.8986194313499
 10
160.839581109197
 20
128.5288933157776
 10
162.3428641106284
 20
129.188962863561
 10
163.6582035463347
 20
129.8753867777137
 10
164.7787418455475
 20
130.5845863617863
 10
165.6986370404242
 20
131.3128641775322
 10
166.4130932233631
 20
132.0564233216391
 10
166.9183855506453
 20
132.8113872210241
 10
167.2118796620449
 20
133.5738198434911
 10
167.2932676511885
 20
134.2935818949648
  0
LWPOLYLINE
  5
1F5
330
1F
100
AcDbEntity
  8
0
  6
Continuous
 62
     7
370
    25
100
AcDbPolyline
 90
       34
 70
   128
 43
0.0
 10
85.29416453063996
 20
134.2935818949648
 10
85.33547617737483
 20
133.7651297303895
 10
85.57573829676379
 20
133.0014499495253
 10
86.02828509848598
 20
132.2442479926825
 10
86.69075721306262
 20
131.4974715602526
 10
87.5597008176367
 20
130.7650139987699
 10
88.63058564260602
 20
130.0506940028058
 10
89.89782859035134
 20
129.3582357060636
 10
91.35482284292208
 20
128.6912492654692
 10
92.993972306926
 20
128.0532120394855
 10
94.80673121604279
 20
127.4474504587744
 10
96.7836486846928
 20
126.8771226837285
 10
98.91441798057824
 20
126.3452021392846
 10
101.187930259213
 20
125.8544620128632
 10
103.5923324802942
 20
125.407460796253
 10
106.1150892039656
 20
125.0065289468199
 10
108.7430479447968
 20
124.6537567375811
 10
111.4625077427525
 20
124.3509833594892
 10
114.2592905936536
 20
124.0997873327427
 10
117.1188153667264
 20
123.9014782771123
 10
120.0261738238667
 20
123.7570900841898
 10
122.9662083442903
 20
123.6673755271563
 10
125.9235909493492
 20
123.6328023361709
 10
128.8829032155151
 20
123.653550759843
 10
131.8287166588999
 20
123.7295126254986
 10
134.7456731722271
 20
123.8602919031435
 10
137.6185650948919
 20
124.0452067701794
 10
140.4324144986617
 20
124.2832931661117
 10
143.1725512756584
 20
124.5733098187148
 10
145.8246896215085
 20
124.91374471545
 10
148.3750025149119
 20
125.3028229863994
 10
150.810193805329
 20
125.7385161576153
 10
153.1175675329524
 20
126.2185527266448
 10
155.2850941195628
 20
126.7404300050908
  0
LWPOLYLINE
  5
1F6
330
1F
100
AcDbEntity
  8
0
  6
Continuous
 62
     7
370
    25
100
AcDbPolyline
 90
       16
 70
   128
 43
0.0
 10
130.2399739725798
 20
129.3793591292635
 10
127.6887179637031
 20
129.3207816968361
 10
125.1274611139311
 20
129.3182730366234
 10
122.5745652066752
 20
129.3718511333406
 10
120.0483320853154
 20
129.4811318828291
 10
117.5668724463347
 20
129.6453318457187
 10
115.1479760027949
 20
129.8632738639454
 10
112.8089839489596
 20
130.1333954998586
 10
110.5666646403715
 20
130.4537602374178
 10
108.4370933806407
 20
130.8220713651769
 10
106.4355371767578
 20
131.2356884415273
 10
104.5763452891277
 20
131.6916462241616
 10
102.8728463609766
 20
132.1866759280496
 10
101.3372528646158
 20
132.7172286595275
 10
99.98057354959361
 20
133.2795008585016
 10
99.48161300275574
 20
133.5166570485766
  0
LWPOLYLINE
  5
1F7
330
1F
100
AcDbEntity
  8
0
  6
Continuous
 62
     7
370
    25
100
AcDbPolyline
 90
       13
 70
   128
 43
0.0
 10
153.0787998153699
 20
133.5033014379137
 10
152.7824210642475
 20
133.3607459991686
 10
151.445066815135
 20
132.7917811500852
 10
149.9257257202025
 20
132.2542910779622
 10
148.2353912285346
 20
131.7521648829897
 10
146.3862940408157
 20
131.2890357840525
 10
144.39181361203
 20
130.868254829961
 10
142.2663813421555
 20
130.4928666523714
 10
140.0253761553317
 20
130.1655874358397
 10
137.6850132230574
 20
129.8887852644093
 10
135.2622266365783
 20
129.664462986939
 10
132.7745468774102
 20
129.4942437251517
 10
130.2399739725798
 20
129.3793591292635
  0
LINE
  5
1F8
330
1F
100
AcDbEntity
  8
0
  6
Continuous
 62
     7
370
    25
100
AcDbLine
 10
146.2315564586433
 20
125.0013787560613
 30
0.0
 11
146.2715381097692
 21
99.59735938700294
 31
0.0
  0
ARC
  5
1F9
330
1F
100
AcDbEntity
  8
0
  6
Continuous
 62
     7
370
    25
100
AcDbCircle
 10
127.5799868388668
 20
198.154543259104
 30
0.0
 40
100.3139700226838
100
AcDbArc
 50
270.8832214579309
 51
280.7387127992295
  0
LINE
  5
1FA
330
1F
100
AcDbEntity
  8
0
  6
Continuous
 62
     7
370
    25
100
AcDbLine
 10
129.0469308743211
 20
102.657679589899
 30
0.0
 11
129.1262777302136
 21
97.85249160415904
 31
0.0
  0
ARC
  5
1FB
330
1F
100
AcDbEntity
  8
0
  6
Continuous
 62
     7
370
    25
100
AcDbCircle
 10
126.2937160909144
 20
228.2900591907279
 30
0.0
 40
125.6625441243744
100
AcDbArc
 50
268.7445725247147
 51
271.2554274752872
  0
LINE
  5
1FC
330
1F
100
AcDbEntity
  8
0
  6
Continuous
 62
     7
370
    25
100
AcDbLine
 10
123.5405013075083
 20
102.657679589899
 30
0.0
 11
123.4611544516158
 21
97.85249160415903
 31
0.0
  0
ARC
  5
1FD
330
1F
100
AcDbEntity
  8
0
  6
Continuous
 62
     7
370
    25
100
AcDbCircle
 10
125.9268288400136
 20
212.9362374772415
 30
0.0
 40
115.1101564344772
100
AcDbArc
 50
264.0124151613193
 51
268.7726231473628
  0
LINE
  5
1FE
330
1F
100
AcDbEntity
  8
0
  6
Continuous
 62
     7
370
    25
100
AcDbLine
 10
114.0304930315441
 20
124.1196582379812
 30
0.0
 11
113.9193474201498
 21
98.45406198986943
 31
0.0
  0
LINE
  5
1FF
330
1F
100
AcDbEntity
  8
0
  6
Continuous
 62
     7
370
    25
100
AcDbLine
 10
118.7661291137799
 20
116.3136018489296
 30
0.0
 11
118.8637852290471
 21
123.8241308219029
 31
0.0
  0
LINE
  5
200
330
1F
100
AcDbEntity
  8
0
  6
Continuous
 62
     7
370
    25
100
AcDbLine
 10
133.8213030680485
 20
116.3136018489296
 30
0.0
 11
133.7235203894315
 21
123.833864546244
 31
0.0
  0
LINE
  5
201
330
1F
100
AcDbEntity
  8
0
  6
Continuous
 62
     7
370
    25
100
AcDbLine
 10
136.9804683163047
 20
118.2117758987573
 30
0.0
 11
137.108504356468
 21
124.0144246908145
 31
0.0
  0
ARC
  5
202
330
1F
100
AcDbEntity
  8
0
  6
Continuous
 62
     7
370
    25
100
AcDbCircle
 10
126.8968157937208
 20
248.8854371606286
 30
0.0
 40
131.062144785512
100
AcDbArc
 50
273.5216812148184
 51
274.4125803868582
  0
LINE
  5
203
330
1F
100
AcDbEntity
  8
0
  6
Continuous
 62
     7
370
    25
100
AcDbLine
 10
134.9474702830746
 20
118.0707867652254
 30
0.0
 11
134.8718253045712
 21
123.8951168604374
 31
0.0
  0
LINE
  5
204
330
1F
100
AcDbEntity
  8
0
  6
Continuous
 62
     7
370
    25
100
AcDbLine
 10
117.6399618987539
 20
118.0707867652255
 30
0.0
 11
117.7155875798817
 21
123.8936310475365
 31
0.0
  0
ARC
  5
205
330
1F
100
AcDbEntity
  8
0
  6
Continuous
 62
     7
370
    25
100
AcDbCircle
 10
125.690616388085
 20
248.8854371603151
 30
0.0
 40
131.0621447851977
100
AcDbArc
 50
265.5874196131428
 51
266.4783187851847
  0
LINE
  5
206
330
1F
100
AcDbEntity
  8
0
  6
Continuous
 62
     7
370
    25
100
AcDbLine
 10
115.6069638655237
 20
118.2117758987573
 30
0.0
 11
115.4786054423296
 21
124.0290352293959
 31
0.0
  0
LINE
  5
207
330
1F
100
AcDbEntity
  8
0
  6
Continuous
 62
     7
370
    25
100
AcDbLine
 10
134.1941792349375
 20
115.9534311293238
 30
0.0
 11
134.9474702830746
 21
118.0707867652254
 31
0.0
  0
LINE
  5
208
330
1F
100
AcDbEntity
  8
0
  6
Continuous
 62
     7
370
    25
100
AcDbLine
 10
134.1941792349375
 20
115.9534311293238
 30
0.0
 11
133.8213030680485
 21
116.3136018489296
 31
0.0
  0
LINE
  5
209
330
1F
100
AcDbEntity
  8
0
  6
Continuous
 62
     7
370
    25
100
AcDbLine
 10
118.7661291137799
 20
116.3136018489296
 30
0.0
 11
118.393252946891
 21
115.9534311293239
 31
0.0
  0
LINE
  5
20A
330
1F
100
AcDbEntity
  8
0
  6
Continuous
 62
     7
370
    25
100
AcDbLine
 10
117.6399618987539
 20
118.0707867652255
 30
0.0
 11
118.393252946891
 21
115.9534311293239
 31
0.0
  0
ELLIPSE
  5
20B
330
1F
100
AcDbEntity
  8
0
  6
Continuous
 62
     7
370
    25
100
AcDbEllipse
 10
126.2937160909142
 20
106.2321018202911
 30
0.0
 11
28.15373349891644
 21
1562.674085778805
 31
0.0
210
0.0
220
0.0
230
1.0
 40
0.0014911560996348
 41
1.573134445792501
 42
1.574248574089184
  0
ELLIPSE
  5
20C
330
1F
100
AcDbEntity
  8
0
  6
Continuous
 62
     7
370
    25
100
AcDbEllipse
 10
126.2937160909142
 20
106.2321018202932
 30
0.0
 11
-28.15373349891628
 21
1562.674085778802
 31
0.0
210
0.0
220
0.0
230
1.0
 40
0.0014911560996353
 41
4.708936733090401
 42
4.710050861386933
  0
ARC
  5
20D
330
1F
100
AcDbEntity
  8
0
  6
Continuous
 62
     7
370
    25
100
AcDbCircle
 10
125.7408383070893
 20
235.8974009152245
 30
0.0
 40
120.1688100075325
100
AcDbArc
 50
265.5712103024243
 51
266.494528095902
  0
LINE
  5
20E
330
1F
100
AcDbEntity
  8
0
  6
Continuous
 62
     7
370
    25
100
AcDbLine
 10
116.4614012943129
 20
116.0874057255394
 30
0.0
 11
115.6069638655237
 21
118.2117758987573
 31
0.0
  0
ARC
  5
20F
330
1F
100
AcDbEntity
  8
0
  6
Continuous
 62
     7
370
    25
100
AcDbCircle
 10
126.8465938747439
 20
235.8974009151443
 30
0.0
 40
120.1688100074522
100
AcDbArc
 50
273.5054719040997
 51
274.4287896975781
  0
LINE
  5
210
330
1F
100
AcDbEntity
  8
0
  6
Continuous
 62
     7
370
    25
100
AcDbLine
 10
136.9804683163047
 20
118.2117758987573
 30
0.0
 11
136.1260308875156
 21
116.0874057255394
 31
0.0
  0
LINE
  5
211
330
1F
100
AcDbEntity
  8
0
  6
Continuous
 62
     7
370
    25
100
AcDbLine
 10
112.5013682491862
 20
124.2508165979677
 30
0.0
 11
112.3042239595085
 21
98.03603727806356
 31
0.0
  0
LINE
  5
212
330
1F
100
AcDbEntity
  8
0
  6
Continuous
 62
     7
370
    25
100
AcDbLine
 10
112.3042239595085
 20
98.03603727806356
 30
0.0
 11
110.2423921579798
 21
98.03603727806356
 31
0.0
  0
LINE
  5
213
330
1F
100
AcDbEntity
  8
0
  6
Continuous
 62
     7
370
    25
100
AcDbLine
 10
109.1312381733531
 20
104.4234260241924
 30
0.0
 11
109.110940381409
 21
107.1224752199113
 31
0.0
  0
LINE
  5
214
330
1F
100
AcDbEntity
  8
0
  6
Continuous
 62
     7
370
    25
100
AcDbLine
 10
109.055057490103
 20
114.553365892635
 30
0.0
 11
108.9793150572424
 21
124.6250304883347
 31
0.0
  0
ARC
  5
215
330
1F
100
AcDbEntity
  8
0
  6
Continuous
 62
     7
370
    25
100
AcDbCircle
 10
126.2937160909141
 20
185.5415108969302
 30
0.0
 40
82.95575144079508
100
AcDbArc
 50
268.3448955640125
 51
271.6551044359899
  0
LINE
  5
216
330
1F
100
AcDbEntity
  8
0
  6
Continuous
 62
     7
370
    25
100
AcDbLine
 10
128.7210866572944
 20
100.8793565128247
 30
0.0
 11
128.6876673164844
 21
100.978221457468
 31
0.0
  0
ARC
  5
217
330
1F
100
AcDbEntity
  8
0
  6
Continuous
 62
     7
370
    25
100
AcDbCircle
 10
126.2935245350334
 20
208.4255831448267
 30
0.0
 40
107.4740315296306
100
AcDbArc
 50
268.8897389587119
 51
271.2764536955618
  0
LINE
  5
218
330
1F
100
AcDbEntity
  8
0
  6
Continuous
 62
     7
370
    25
100
AcDbLine
 10
123.8952342900773
 20
100.9648185876876
 30
0.0
 11
124.2110541735203
 21
100.9717290007083
 31
0.0
  0
LINE
  5
219
330
1F
100
AcDbEntity
  8
0
  6
Continuous
 62
     7
370
    25
100
AcDbLine
 10
123.8952342900773
 20
100.9648185876876
 30
0.0
 11
123.8663455245348
 21
100.8793565128247
 31
0.0
  0
LINE
  5
21A
330
1F
100
AcDbEntity
  8
0
  6
Continuous
 62
     7
370
    25
100
AcDbLine
 10
94.15849417832354
 20
127.6538287534583
 30
0.0
 11
94.3235739943552
 21
118.5363636797241
 31
0.0
  0
LINE
  5
21B
330
1F
100
AcDbEntity
  8
0
  6
Continuous
 62
     7
370
    25
100
AcDbLine
 10
113.9193474201498
 20
98.45406198986943
 30
0.0
 11
112.3042239595085
 21
98.03603727806356
 31
0.0
  0
LINE
  5
21C
330
1F
100
AcDbEntity
  8
0
  6
Continuous
 62
     7
370
    25
100
AcDbLine
 10
155.7713604315697
 20
126.8858991619505
 30
0.0
 11
155.1975638964583
 21
103.1318373522682
 31
0.0
  0
ARC
  5
21D
330
1F
100
AcDbEntity
  8
0
  6
Continuous
 62
     7
370
    25
100
AcDbCircle
 10
138.4407943764167
 20
156.0621444732745
 30
0.0
 40
55.51942666015063
100
AcDbArc
 50
281.454800412403
 51
287.5668369857399
  0
LINE
  5
21E
330
1F
100
AcDbEntity
  8
0
  6
Continuous
 62
     7
370
    25
100
AcDbLine
 10
149.4332524096812
 20
125.5094450305565
 30
0.0
 11
149.4666653573269
 21
101.6485716647907
 31
0.0
  0
SPLINE
  5
21F
330
1F
100
AcDbEntity
  8
0
  6
Continuous
 62
     7
370
    25
100
AcDbSpline
210
0.0
220
0.0
230
1.0
 70
    11
 71
     3
 72
    26
 73
    22
 74
     0
 42
0.000000001
 43
0.00000001
 40
0.0
 40
0.0
 40
0.0
 40
0.0
 40
0.0468494319885719
 40
0.100543303580209
 40
0.1554581486819434
 40
0.2111750091235849
 40
0.2669016090210773
 40
0.3217382804046309
 40
0.3750398404805489
 40
0.426894227887916
 40
0.4781822159178861
 40
0.5300563115261284
 40
0.5833107017470293
 40
0.6380432799709815
 40
0.6937146053631823
 40
0.7494763850447344
 40
0.8044897246439379
 40
0.8581688408801277
 40
0.9104633159643273
 40
0.9619810239272966
 40
0.9999999999999999
 40
0.9999999999999999
 40
0.9999999999999999
 40
0.9999999999999999
 10
153.4165752829302
 20
106.7407106919707
 30
0.0
 10
153.5226929619244
 20
106.9060881901807
 30
0.0
 10
153.7504315184334
 20
107.261003912786
 30
0.0
 10
153.958092223903
 20
107.9347294593438
 30
0.0
 10
154.0292122373367
 20
108.6574809617884
 30
0.0
 10
153.9336698781821
 20
109.3338781034064
 30
0.0
 10
153.6788586350339
 20
109.8741928783963
 30
0.0
 10
153.2917768940817
 20
110.2106660861742
 30
0.0
 10
152.820273004904
 20
110.307723547761
 30
0.0
 10
152.3206021241675
 20
110.1674842747108
 30
0.0
 10
151.8452103834355
 20
109.8164607611811
 30
0.0
 10
151.4403545079691
 20
109.2910830642733
 30
0.0
 10
151.1505114540719
 20
108.6369651014467
 30
0.0
 10
151.0168207490295
 20
107.9169195652137
 30
0.0
 10
151.0658198542658
 20
107.2129619433612
 30
0.0
 10
151.296613225044
 20
106.6150709685137
 30
0.0
 10
151.676412660958
 20
106.2020177232727
 30
0.0
 10
152.1496048936393
 20
106.0219253826259
 30
0.0
 10
152.6504471362707
 20
106.0893231250989
 30
0.0
 10
153.0891902521686
 20
106.349397797379
 30
0.0
 10
153.3189955781918
 20
106.6240767804392
 30
0.0
 10
153.4165752829302
 20
106.7407106919706
 30
0.0
  0
LINE
  5
220
330
1F
100
AcDbEntity
  8
0
  6
Continuous
 62
     7
370
    25
100
AcDbLine
 10
147.2972684043061
 20
99.33188085163816
 30
0.0
 11
149.4666653573269
 21
101.6485716647907
 31
0.0
  0
LINE
  5
221
330
1F
100
AcDbEntity
  8
0
  6
Continuous
 62
     7
370
    25
100
AcDbLine
 10
147.2972684043061
 20
99.33188085163816
 30
0.0
 11
146.2715381097692
 21
99.59735938700294
 31
0.0
  0
LWPOLYLINE
  5
222
330
1F
100
AcDbEntity
  8
0
  6
Continuous
 62
     7
370
    25
100
AcDbPolyline
 90
        4
 70
   128
 43
0.0
 10
124.2110541735203
 20
100.9717290007083
 10
124.1858300128173
 20
99.0499113283058
 10
124.0850318430552
 20
91.36271541798327
 10
123.9466282947251
 20
80.78795817724321
  0
LINE
  5
223
330
1F
100
AcDbEntity
  8
0
  6
Continuous
 62
     7
370
    25
100
AcDbLine
 10
128.6876673164844
 20
100.978221457468
 30
0.0
 11
128.7194038902972
 21
99.0561526784092
 31
0.0
  0
ARC
  5
224
330
1F
100
AcDbEntity
  8
0
  6
Continuous
 62
     7
370
    25
100
AcDbCircle
 10
126.5691959124893
 20
173.9480563099929
 30
0.0
 40
93.19700502169209
100
AcDbArc
 50
268.3874815059281
 51
279.5467800957489
  0
LINE
  5
225
330
1F
100
AcDbEntity
  8
0
  6
Continuous
 62
     7
370
    25
100
AcDbLine
 10
123.8633013893939
 20
99.04216901185909
 30
0.0
 11
123.8952342900773
 21
100.9648185876876
 31
0.0
  0
LINE
  5
226
330
1F
100
AcDbEntity
  8
0
  6
Continuous
 62
     7
370
    25
100
AcDbLine
 10
123.4611544516158
 20
97.85249160415903
 30
0.0
 11
123.8633013893939
 21
99.04216901185909
 31
0.0
  0
LINE
  5
227
330
1F
100
AcDbEntity
  8
0
  6
Continuous
 62
     7
370
    25
100
AcDbLine
 10
128.7194038902972
 20
99.0561526784092
 30
0.0
 11
129.1262777302136
 21
97.85249160415904
 31
0.0
  0
LWPOLYLINE
  5
228
330
1F
100
AcDbEntity
  8
0
  6
Continuous
 62
     7
370
    25
100
AcDbPolyline
 90
        8
 70
   128
 43
0.0
 10
116.9505829492557
 20
79.95818579667294
 10
116.419053557851
 20
80.01510613045879
 10
115.9392697385539
 20
80.09723673011906
 10
115.5288709963694
 20
80.20155802086718
 10
115.2029458573704
 20
80.32423457546228
 10
114.9734771310834
 20
80.46075612571325
 10
114.8489013561808
 20
80.60610338486616
 10
114.826534493949
 20
80.69717850100757
  0
LWPOLYLINE
  5
229
330
1F
100
AcDbEntity
  8
0
  6
Continuous
 62
     7
370
    25
100
AcDbPolyline
 90
       17
 70
   128
 43
0.0
 10
151.0424534324435
 20
107.9160477744184
 10
151.1212398508794
 20
107.360700319417
 10
151.3469585638067
 20
106.9211384666732
 10
151.6891250082938
 20
106.6567274800964
 10
152.1015277100033
 20
106.6031775285757
 10
152.5284693988669
 20
106.7677208297945
 10
152.912289234038
 20
107.1281348991572
 10
153.2011502199578
 20
107.6357438194732
 10
153.3560400798436
 20
108.2219921932956
 10
153.3560400798436
 20
108.8077039292253
 10
153.2011502199577
 20
109.3137754117843
 10
152.912289234038
 20
109.671858883014
 10
152.5284693988669
 20
109.833593185916
 10
152.1015277100033
 20
109.7771352066824
 10
151.6891250082938
 20
109.5101099082535
 10
151.3469585638067
 20
109.0685805368201
 10
151.335449741466
 20
109.0480985819873
  0
LINE
  5
22A
330
1F
100
AcDbEntity
  8
0
  6
Continuous
 62
     7
370
    25
100
AcDbLine
 10
155.1975638964583
 20
103.1318373522682
 30
0.0
 11
152.9541226537985
 21
100.7959824667759
 31
0.0
  0
ARC
  5
22B
330
1F
100
AcDbEntity
  8
0
  6
Continuous
 62
     7
370
    25
100
AcDbCircle
 10
137.4114858544226
 20
149.187865601523
 30
0.0
 40
50.82664568909043
100
AcDbArc
 50
281.2155164288749
 51
287.8061209692666
  0
LINE
  5
22C
330
1F
100
AcDbEntity
  8
0
  6
Continuous
 62
     7
370
    25
100
AcDbLine
 10
122.8955139354962
 20
80.59709989592679
 30
0.0
 11
122.6561308127316
 21
80.36587355527068
 31
0.0
  0
SPLINE
  5
22D
330
1F
100
AcDbEntity
  8
0
  6
Continuous
 62
     7
370
    25
100
AcDbSpline
210
0.0
220
0.0
230
1.0
 70
     8
 71
     3
 72
    12
 73
     8
 74
     0
 42
0.000000001
 43
0.00000001
 40
0.0
 40
0.0
 40
0.0
 40
0.0
 40
0.2419093067872784
 40
0.4838199703133506
 40
0.7257015959757008
 40
0.9675792826333428
 40
1.0
 40
1.0
 40
1.0
 40
1.0
 10
123.9466282947251
 20
80.78795817724321
 30
0.0
 10
123.833667501755
 20
80.78759226258263
 30
0.0
 10
123.6077452822786
 20
80.7868604312093
 30
0.0
 10
123.2947302355223
 20
80.74901389168276
 30
0.0
 10
123.046893790097
 20
80.68862996937095
 30
0.0
 10
122.9341986299272
 20
80.6324265854196
 30
0.0
 10
122.8996029715461
 20
80.60083398531236
 30
0.0
 10
122.8955139354962
 20
80.59709989592679
 30
0.0
  0
ARC
  5
22E
330
1F
100
AcDbEntity
  8
0
  6
Continuous
 62
     7
370
    25
100
AcDbCircle
 10
156.5960602355199
 20
111.0699236292058
 30
0.0
 40
2.285071418210859
100
AcDbArc
 50
341.6133042616711
 51
358.8053886718048
  0
LINE
  5
22F
330
1F
100
AcDbEntity
  8
0
  6
Continuous
 62
     7
370
    25
100
AcDbLine
 10
158.7644771143395
 20
110.3491465305308
 30
0.0
 11
158.6700437788959
 21
105.4989809216114
 31
0.0
  0
LINE
  5
230
330
1F
100
AcDbEntity
  8
0
  6
Continuous
 62
     7
370
    25
100
AcDbLine
 10
157.7331183629252
 20
122.1364096464329
 30
0.0
 11
157.7988937392634
 21
127.492446548624
 31
0.0
  0
LWPOLYLINE
  5
231
330
1F
100
AcDbEntity
  8
0
  6
Continuous
 62
     7
370
    25
100
AcDbPolyline
 90
        8
 70
   128
 43
0.0
 10
158.6700437788959
 20
105.4989809216114
 10
158.3832024820809
 20
104.8993756510434
 10
157.9308064044178
 20
104.3066461274472
 10
157.3151895294606
 20
103.7238503370175
 10
156.5395279229017
 20
103.1539950162346
 10
155.6078233467429
 20
102.6000201396308
 10
154.5248826135655
 20
102.0647837519929
 10
154.0465653733843
 20
101.8548499672261
  0
SPLINE
  5
232
330
1F
100
AcDbEntity
  8
0
  6
Continuous
 62
     7
370
    25
100
AcDbSpline
210
0.0
220
0.0
230
1.0
 70
     8
 71
     3
 72
     9
 73
     5
 74
     0
 42
0.000000001
 43
0.00000001
 40
0.0
 40
0.0
 40
0.0
 40
0.0
 40
0.8042864138708344
 40
1.0
 40
1.0
 40
1.0
 40
1.0
 10
114.8138319453387
 20
81.40010258706162
 30
0.0
 10
114.7673292729492
 20
81.4108195087151
 30
0.0
 10
114.7095107252435
 20
81.42414426649874
 30
0.0
 10
114.6401084434361
 20
81.43264658839713
 30
0.0
 10
114.626525473978
 20
81.43431060830628
 30
0.0
  0
ARC
  5
233
330
1F
100
AcDbEntity
  8
0
  6
Continuous
 62
     7
370
    25
100
AcDbCircle
 10
123.955956826865
 20
158.4478129014709
 30
0.0
 40
77.57652882687846
100
AcDbArc
 50
262.0412160353257
 51
263.092833823289
  0
SPLINE
  5
234
330
1F
100
AcDbEntity
  8
0
  6
Continuous
 62
     7
370
    25
100
AcDbSpline
210
0.0
220
0.0
230
1.0
 70
     8
 71
     3
 72
    11
 73
     7
 74
     0
 42
0.000000001
 43
0.00000001
 40
0.0
 40
0.0
 40
0.0
 40
0.0
 40
0.2632637077222338
 40
0.526528617417129
 40
0.7897686438226664
 40
1.0
 40
1.0
 40
1.0
 40
1.0
 10
113.214655549882
 20
81.61850682817237
 30
0.0
 10
113.1625381438259
 20
81.62417747485348
 30
0.0
 10
113.0583030937632
 20
81.6355187941059
 30
0.0
 10
112.8862462267062
 20
81.63418421054875
 30
0.0
 10
112.7346320399682
 20
81.62076525843696
 30
0.0
 10
112.6575965288202
 20
81.60373980262456
 30
0.0
 10
112.623391124696
 20
81.59618013841538
 30
0.0
  0
LINE
  5
235
330
1F
100
AcDbEntity
  8
0
  6
Continuous
 62
     7
370
    25
100
AcDbLine
 10
102.6290814379037
 20
84.12168336220884
 30
0.0
 11
101.8985321399784
 21
84.31076343389817
 31
0.0
  0
LINE
  5
236
330
1F
100
AcDbEntity
  8
0
  6
Continuous
 62
     7
370
    25
100
AcDbLine
 10
101.8985321399784
 20
84.31076343389817
 30
0.0
 11
101.509269815687
 21
99.54250923103491
 31
0.0
  0
LINE
  5
237
330
1F
100
AcDbEntity
  8
0
  6
Continuous
 62
     7
370
    25
100
AcDbLine
 10
112.5051338577767
 20
81.56557290551488
 30
0.0
 11
112.5051338577767
 21
97.79825883819825
 31
0.0
  0
LINE
  5
238
330
1F
100
AcDbEntity
  8
0
  6
Continuous
 62
     7
370
    25
100
AcDbLine
 10
110.9295724196799
 20
84.05969016069272
 30
0.0
 11
111.0909202954036
 21
81.93159830929933
 31
0.0
  0
LINE
  5
239
330
1F
100
AcDbEntity
  8
0
  6
Continuous
 62
     7
370
    25
100
AcDbLine
 10
112.5051338577767
 20
81.56557290551488
 30
0.0
 11
111.0909202954036
 21
81.93159830929933
 31
0.0
  0
LINE
  5
23A
330
1F
100
AcDbEntity
  8
0
  6
Continuous
 62
     7
370
    25
100
AcDbLine
 10
112.623391124696
 20
81.59618013841538
 30
0.0
 11
112.5051338577767
 21
81.56557290551488
 31
0.0
  0
SPLINE
  5
23B
330
1F
100
AcDbEntity
  8
0
  6
Continuous
 62
     7
370
    25
100
AcDbSpline
210
0.0
220
0.0
230
1.0
 70
     8
 71
     3
 72
    12
 73
     8
 74
     0
 42
0.000000001
 43
0.00000001
 40
0.0
 40
0.0
 40
0.0
 40
0.0
 40
0.2419093068297573
 40
0.4838199703892263
 40
0.7257015962042352
 40
0.9675792827438168
 40
1.0
 40
1.0
 40
1.0
 40
1.0
 10
143.3051836442196
 20
82.01251771771975
 30
0.0
 10
143.2178717755377
 20
82.03107122939582
 30
0.0
 10
143.0432475484921
 20
82.06817835680388
 30
0.0
 10
142.7096330113298
 20
82.09141784210271
 30
0.0
 10
142.3697786968785
 20
82.08655209160843
 30
0.0
 10
142.1436958418153
 20
82.06235250512313
 30
0.0
 10
142.0386034254962
 20
82.04395600588371
 30
0.0
 10
142.0261820206754
 20
82.0417816304878
 30
0.0
  0
LINE
  5
23C
330
1F
100
AcDbEntity
  8
0
  6
Continuous
 62
     7
370
    25
100
AcDbLine
 10
143.9591904980874
 20
81.84324828831122
 30
0.0
 11
143.3051836442196
 21
82.01251771771975
 31
0.0
  0
LWPOLYLINE
  5
23D
330
1F
100
AcDbEntity
  8
0
  6
Continuous
 62
     7
370
    25
100
AcDbPolyline
 90
        5
 70
   128
 43
0.0
 10
150.4946915913572
 20
82.75468025297039
 10
150.4490117951104
 20
82.62328215121569
 10
150.2951293166284
 20
82.47982775799048
 10
150.0382884754733
 20
82.34661197727355
 10
149.6879321605483
 20
82.22853255745947
  0
LINE
  5
23E
330
1F
100
AcDbEntity
  8
0
  6
Continuous
 62
     7
370
    25
100
AcDbLine
 10
94.25913929034763
 20
122.0951340821138
 30
0.0
 11
93.46272101914217
 21
122.0399021929772
 31
0.0
  0
LINE
  5
23F
330
1F
100
AcDbEntity
  8
0
  6
Continuous
 62
     7
370
    25
100
AcDbLine
 10
90.47620988431662
 20
124.7160936468796
 30
0.0
 11
93.46272101914217
 21
122.0399021929772
 31
0.0
  0
LINE
  5
240
330
1F
100
AcDbEntity
  8
0
  6
Continuous
 62
     7
370
    25
100
AcDbLine
 10
90.47620988431662
 20
124.7160936468796
 30
0.0
 11
90.42144866312005
 21
129.1550110903329
 31
0.0
  0
LINE
  5
241
330
1F
100
AcDbEntity
  8
0
  6
Continuous
 62
     7
370
    25
100
AcDbLine
 10
162.1112222975118
 20
124.7160936468796
 30
0.0
 11
162.1655128707108
 21
129.1168605969633
 31
0.0
  0
LINE
  5
242
330
1F
100
AcDbEntity
  8
0
  6
Continuous
 62
     7
370
    25
100
AcDbLine
 10
159.1247111626863
 20
122.0399021929772
 30
0.0
 11
162.1112222975118
 21
124.7160936468796
 31
0.0
  0
LINE
  5
243
330
1F
100
AcDbEntity
  8
0
  6
Continuous
 62
     7
370
    25
100
AcDbLine
 10
159.1247111626863
 20
122.0399021929772
 30
0.0
 11
157.7331183629252
 21
122.1364096464329
 31
0.0
  0
ARC
  5
244
330
1F
100
AcDbEntity
  8
0
  6
Continuous
 62
     7
370
    25
100
AcDbCircle
 10
94.87220182888449
 20
129.8122269682569
 30
0.0
 40
6.730179790017266
100
AcDbArc
 50
222.767434831393
 51
229.2185107773346
  0
LINE
  5
245
330
1F
100
AcDbEntity
  8
0
  6
Continuous
 62
     7
370
    25
100
AcDbLine
 10
89.93146970309856
 20
125.2422722565356
 30
0.0
 11
89.84086088839341
 21
129.4471505484807
 31
0.0
  0
LINE
  5
246
330
1F
100
AcDbEntity
  8
0
  6
Continuous
 62
     7
370
    25
100
AcDbLine
 10
162.6559624787299
 20
125.2422722565355
 30
0.0
 11
162.7459899608357
 21
129.4201726784439
 31
0.0
  0
ARC
  5
247
330
1F
100
AcDbEntity
  8
0
  6
Continuous
 62
     7
370
    25
100
AcDbCircle
 10
157.7152303529393
 20
129.8122269682616
 30
0.0
 40
6.730179790023928
100
AcDbArc
 50
310.7814892226701
 51
317.2325651686054
  0
LWPOLYLINE
  5
248
330
1F
100
AcDbEntity
  8
0
  6
Continuous
 62
     7
370
    25
100
AcDbPolyline
 90
        3
 70
   128
 43
0.0
 10
93.46272101914217
 20
122.0399021929772
 10
93.39186191616753
 20
122.1019629068859
 10
93.36772425683853
 20
122.1234919600873
  0
LWPOLYLINE
  5
249
330
1F
100
AcDbEntity
  8
0
  6
Continuous
 62
     7
370
    25
100
AcDbPolyline
 90
        3
 70
   128
 43
0.0
 10
159.21970792499
 20
122.1234919600873
 10
159.1955702656609
 20
122.1019629068859
 10
159.1247111626863
 20
122.0399021929772
  0
ARC
  5
24A
330
1F
100
AcDbEntity
  8
0
  6
Continuous
 62
     7
370
    25
100
AcDbCircle
 10
149.1019323389714
 20
89.17910219665502
 30
0.0
 40
4.877148980219903
100
AcDbArc
 50
286.9830868001618
 51
344.139813592296
  0
ARC
  5
24B
330
1F
100
AcDbEntity
  8
0
  6
Continuous
 62
     7
370
    25
100
AcDbCircle
 10
107.8101729851926
 20
96.49835669801871
 30
0.0
 40
13.29121976129685
100
AcDbArc
 50
241.1227117234664
 51
243.5555529870868
  0
SPLINE
  5
24C
330
1F
100
AcDbEntity
  8
0
  6
Continuous
 62
     7
370
    25
100
AcDbSpline
210
0.0
220
0.0
230
1.0
 70
     8
 71
     3
 72
    12
 73
     8
 74
     0
 42
0.000000001
 43
0.00000001
 40
0.0
 40
0.0
 40
0.0
 40
0.0
 40
0.2419093067872811
 40
0.4838199703133538
 40
0.725701595975709
 40
0.9675792826333538
 40
0.9999999999999999
 40
0.9999999999999999
 40
0.9999999999999999
 40
0.9999999999999999
 10
101.3913735684111
 20
84.85981998629187
 30
0.0
 10
101.3336687976087
 20
84.88495649803501
 30
0.0
 10
101.2182589323689
 20
84.93522966249839
 30
0.0
 10
100.9351144195748
 20
84.98646679607047
 30
0.0
 10
100.6091476548722
 20
85.01182585443395
 30
0.0
 10
100.364739886785
 20
85.00898409156837
 30
0.0
 10
100.2417311573259
 20
85.00094219620176
 30
0.0
 10
100.2271921326983
 20
84.99999168386576
 30
0.0
  0
LINE
  5
24D
330
1F
100
AcDbEntity
  8
0
  6
Continuous
 62
     7
370
    25
100
AcDbLine
 10
100.2271921326983
 20
84.99999168386576
 30
0.0
 11
99.33380215606616
 21
84.93803477261814
 31
0.0
  0
LWPOLYLINE
  5
24E
330
1F
100
AcDbEntity
  8
0
  6
Continuous
 62
     7
370
    25
100
AcDbPolyline
 90
        3
 70
   128
 43
0.0
 10
95.1168783967229
 20
86.01305446073759
 10
95.04157284992475
 20
86.160653681398
 10
95.03973974321619
 20
86.18440322781618
  0
SPLINE
  5
24F
330
1F
100
AcDbEntity
  8
0
  6
Continuous
 62
     7
370
    25
100
AcDbSpline
210
0.0
220
0.0
230
1.0
 70
     8
 71
     3
 72
    10
 73
     6
 74
     0
 42
0.000000001
 43
0.00000001
 40
0.0
 40
0.0
 40
0.0
 40
0.0
 40
0.3985727840264339
 40
0.797147803417618
 40
1.0
 40
1.0
 40
1.0
 40
1.0
 10
154.4307924099503
 20
88.75903055772721
 30
0.0
 10
154.32604799183
 20
88.7486123528196
 30
0.0
 10
154.1165585681385
 20
88.72777588457467
 30
0.0
 10
153.8995604205678
 20
88.67651625210459
 30
0.0
 10
153.8306821571477
 20
88.63641905899745
 30
0.0
 10
153.8074505729086
 20
88.62289488935141
 30
0.0
  0
LINE
  5
250
330
1F
100
AcDbEntity
  8
0
  6
Continuous
 62
     7
370
    25
100
AcDbLine
 10
155.3241823865828
 20
88.82098746897485
 30
0.0
 11
154.4307924099503
 21
88.75903055772721
 31
0.0
  0
ARC
  5
251
330
1F
100
AcDbEntity
  8
0
  6
Continuous
 62
     7
370
    25
100
AcDbCircle
 10
155.6184901335367
 20
91.6294330334339
 30
0.0
 40
2.823824275419221
100
AcDbArc
 50
264.0175915627075
 51
313.0932543224003
  0
ARC
  5
255
330
1F
100
AcDbEntity
  8
0
  6
Continuous
 62
     8
370
    25
100
AcDbCircle
 10
125.8301487926506
 20
60.2065596483807
 30
0.0
 40
0.2638361685836487
100
AcDbArc
 50
216.9734759551206
 51
253.9669366564637
  0
LINE
  5
256
330
1F
100
AcDbEntity
  8
0
  6
Continuous
 62
     8
370
    25
100
AcDbLine
 10
128.1281034491555
 20
67.49776458462611
 30
0.0
 11
130.0086444812744
 21
67.09995263690445
 31
0.0
  0
LINE
  5
257
330
1F
100
AcDbEntity
  8
0
  6
Continuous
 62
     8
370
    25
100
AcDbLine
 10
125.7572793484034
 20
59.95298605364341
 30
0.0
 11
125.2478669079444
 21
60.08483169504635
 31
0.0
  0
LINE
  5
25C
330
1F
100
AcDbEntity
  8
0
  6
Continuous
 62
     8
370
    25
100
AcDbLine
 10
110.855365997647
 20
85.03843302508436
 30
0.0
 11
110.1874384568213
 21
84.86556065677017
 31
0.0
  0
LINE
  5
25D
330
1F
100
AcDbEntity
  8
0
  6
Continuous
 62
     8
370
    25
100
AcDbLine
 10
108.7786064040158
 20
86.9936729103065
 30
0.0
 11
109.4240002113183
 21
87.16071311922764
 31
0.0
  0
LINE
  5
25E
330
1F
100
AcDbEntity
  8
0
  6
Continuous
 62
     8
370
    25
100
AcDbLine
 10
104.856239838669
 20
88.34293649713388
 30
0.0
 11
104.2108460313664
 21
88.17589628821274
 31
0.0
  0
LINE
  5
25F
330
1F
100
AcDbEntity
  8
0
  6
Continuous
 62
     8
370
    25
100
AcDbLine
 10
159.8105775191565
 20
110.3315863426746
 30
0.0
 11
158.8290306964924
 21
110.5856293540399
 31
0.0
  0
LINE
  5
260
330
1F
100
AcDbEntity
  8
0
  6
Continuous
 62
     8
370
    25
100
AcDbLine
 10
159.0402976724947
 20
119.8575770426498
 30
0.0
 11
161.413292544562
 21
119.2434007758282
 31
0.0
  0
LINE
  5
261
330
1F
100
AcDbEntity
  8
0
  6
Continuous
 62
     8
370
    25
100
AcDbLine
 10
161.408740360366
 20
119.0803053868005
 30
0.0
 11
159.0373429026892
 21
119.6940682123549
 31
0.0
  0
LINE
  5
262
330
1F
100
AcDbEntity
  8
0
  6
Continuous
 62
     8
370
    25
100
AcDbLine
 10
158.924078962228
 20
113.4263534195258
 30
0.0
 11
160.0444813862744
 21
113.1363719340036
 31
0.0
  0
LINE
  5
263
330
1F
100
AcDbEntity
  8
0
  6
Continuous
 62
     8
370
    25
100
AcDbLine
 10
160.0227095535124
 20
112.9474654293268
 30
0.0
 11
158.9205797674278
 21
113.2327176081402
 31
0.0
  0
LINE
  5
264
330
1F
100
AcDbEntity
  8
0
  6
Continuous
 62
     8
370
    25
100
AcDbLine
 10
158.8791570344662
 20
110.9722410721331
 30
0.0
 11
160.0227095535124
 21
110.6762679011289
 31
0.0
  0
LINE
  5
265
330
1F
100
AcDbEntity
  8
0
  6
Continuous
 62
     8
370
    25
100
AcDbLine
 10
110.31394145038
 20
97.59368524162845
 30
0.0
 11
110.4545241923357
 21
97.55729975059754
 31
0.0
  0
ARC
  5
266
330
1F
100
AcDbEntity
  8
0
  6
Continuous
 62
     8
370
    25
100
AcDbCircle
 10
121.8568216132864
 20
131.3700789151647
 30
0.0
 40
54.52653144815179
100
AcDbArc
 50
255.9664350126932
 51
262.7979683343954
  0
ARC
  5
267
330
1F
100
AcDbEntity
  8
0
  6
Continuous
 62
     8
370
    25
100
AcDbCircle
 10
126.6564843161347
 20
154.743849719988
 30
0.0
 40
78.21159477256025
100
AcDbArc
 50
266.4343957129676
 51
282.7236475602741
  0
ARC
  5
268
330
1F
100
AcDbEntity
  8
0
  6
Continuous
 62
     8
370
    25
100
AcDbCircle
 10
112.8688220874781
 20
97.41494250073335
 30
0.0
 40
19.41140680956338
100
AcDbArc
 50
240.0154917132494
 51
257.4009474860739
  0
LINE
  5
278
330
1F
100
AcDbEntity
  8
0
  6
Continuous
 62
     8
370
    25
100
AcDbLine
 10
124.526002985842
 20
76.21560777916558
 30
0.0
 11
124.5246931387747
 21
76.24921792546499
 31
0.0
  0
LINE
  5
279
330
1F
100
AcDbEntity
  8
0
  6
Continuous
 62
     8
370
    25
100
AcDbLine
 10
125.2330020712408
 20
76.21560777916558
 30
0.0
 11
125.2337056299366
 21
76.23859289195921
 31
0.0
  0
LINE
  5
27A
330
1F
100
AcDbEntity
  8
0
  6
Continuous
 62
     8
370
    25
100
AcDbLine
 10
124.526002985842
 20
76.21560777916558
 30
0.0
 11
124.3856699086719
 21
76.25192865219505
 31
0.0
  0
LINE
  5
27B
330
1F
100
AcDbEntity
  8
0
  6
Continuous
 62
     8
370
    25
100
AcDbLine
 10
125.3182893393432
 20
76.23768174845526
 30
0.0
 11
125.2330020712408
 21
76.21560777916558
 31
0.0
  0
ELLIPSE
  5
27D
330
1F
100
AcDbEntity
  8
0
  6
Continuous
 62
     8
370
    25
100
AcDbEllipse
 10
106.3965240122381
 20
67.93736879572832
 30
0.0
 11
-0.951702945508785
 21
3.368603161218729
 31
0.0
210
0.0
220
0.0
230
1.0
 40
0.6783163797203235
 41
1.538282301172804
 42
2.764393372097246
  0
LINE
  5
27E
330
1F
100
AcDbEntity
  8
0
  6
Continuous
 62
     8
370
    25
100
AcDbLine
 10
103.6271740025778
 20
80.08604855629581
 30
0.0
 11
103.8539190610307
 21
71.21356623374272
 31
0.0
  0
LINE
  5
27F
330
1F
100
AcDbEntity
  8
0
  6
Continuous
 62
     8
370
    25
100
AcDbLine
 10
126.9797236764685
 20
63.6385873839335
 30
0.0
 11
130.3020320378373
 21
76.31818137942072
 31
0.0
  0
ARC
  5
280
330
1F
100
AcDbEntity
  8
0
  6
Continuous
 62
     8
370
    25
100
AcDbCircle
 10
127.216910587722
 20
64.4607770191023
 30
0.0
 40
0.8557180768506326
100
AcDbArc
 50
253.9081012963849
 51
262.8159200630942
  0
LINE
  5
285
330
1F
100
AcDbEntity
  8
0
  6
Continuous
 62
     8
370
    25
100
AcDbLine
 10
102.1030265984564
 20
83.40539358046891
 30
0.0
 11
102.1030265984564
 21
83.52848802657553
 31
0.0
  0
LWPOLYLINE
  5
294
330
1F
100
AcDbEntity
  8
0
  6
Continuous
 62
     8
370
    25
100
AcDbPolyline
 90
       11
 70
   128
 43
0.0
 10
87.06730715053635
 20
139.7039052070475
 10
86.65123952133223
 20
139.2313637718165
 10
86.1676498230475
 20
138.4768406506952
 10
85.89815004976317
 20
137.7151941273107
 10
85.84417809937496
 20
136.9504879154092
 10
86.00602193559037
 20
136.1868020534988
 10
86.38281805151776
 20
135.4282111360791
 10
86.97255607684922
 20
134.678762573916
 10
87.77208950405591
 20
133.9424549993549
 10
88.77715247636722
 20
133.2232169318865
 10
89.31062148822815
 20
132.8970816823075
  0
LWPOLYLINE
  5
295
330
1F
100
AcDbEntity
  8
0
  6
Continuous
 62
     8
370
    25
100
AcDbPolyline
 90
       11
 70
   128
 43
0.0
 10
163.8815269754493
 20
133.2692247769901
 10
164.338192626141
 20
133.5804600597361
 10
165.2410931974876
 20
134.3087187397161
 10
165.9361926604963
 20
135.0520927512615
 10
166.4197823587809
 20
135.8066158723828
 10
166.6892821320652
 20
136.5682623957673
 10
166.7432540824534
 20
137.3329686076688
 10
166.581410246238
 20
138.0966544695791
 10
166.2046141303106
 20
138.8552453869989
 10
165.6148761049791
 20
139.604693949162
 10
165.5244800975019
 20
139.699434668832
  0
LWPOLYLINE
  5
296
330
1F
100
AcDbEntity
  8
0
  6
Continuous
 62
     8
370
    25
100
AcDbPolyline
 90
       42
 70
   128
 43
0.0
 10
166.9430202042586
 20
135.3719292816755
 10
166.6489278662743
 20
134.8579024324186
 10
166.0393075720218
 20
134.1089529144955
 10
165.2224721674226
 20
133.3733408821476
 10
164.202680254052
 20
132.6549014758968
 10
162.9852485547462
 20
131.9573803061441
 10
161.5765241946707
 20
131.2844139252911
 10
159.983851610349
 20
130.63951086844
 10
158.2155342591712
 20
130.026033361516
 10
156.2807913290119
 20
129.4471797921781
 10
154.1897096736535
 20
128.9059680349068
 10
151.9531912246012
 20
128.4052197172041
 10
149.5828961534599
 20
127.9475455089341
 10
147.091182081199
 20
127.535331511499
 10
144.4910396512382
 20
127.1707268178116
 10
141.7960248022479
 20
126.8556323079197
 10
139.0201880937622
 20
126.5916907386979
 10
136.178001453067
 20
126.3802781792736
 10
133.2842827252725
 20
126.22249683684
 10
130.3541184199298
 20
126.1191693102583
 10
127.4027850569557
 20
126.0708343014076
 10
124.4456695219313
 20
126.0777438066432
 10
121.4981888460058
 20
126.1398618030042
 10
118.5757098286339
 20
126.2568644360205
 10
115.6934689221996
 20
126.4281417081398
 10
112.8664927962079
 20
126.652800658973
 10
110.1095199951885
 20
126.9296700207754
 10
107.4369240987483
 20
127.2573063248952
 10
104.8626387843837
 20
127.63400142735
 10
102.4000851837372
 20
128.0577914142989
 10
100.0621019110318
 20
128.5264668409801
 10
97.86087812848119
 20
129.0375842507322
 10
95.80788999764206
 20
129.5884789140467
 10
93.91384084802132
 20
130.176278721233
 10
92.18860537487238
 20
130.7979191562687
 10
90.64117815710624
 20
131.4501592737676
 10
89.279626763722
 20
132.1295985957674
 10
88.1110496932376
 20
132.8326948402482
 10
87.14153936540542
 20
133.5557823889501
 10
86.37615035815664
 20
134.2950913982094
 10
85.8188730553725
 20
135.0467674531786
 10
85.63950209674144
 20
135.3822932270793
  0
SPLINE
  5
57F
330
1F
100
AcDbEntity
  8
0
  6
Continuous
 62
     7
370
    18
100
AcDbSpline
210
0.0
220
0.0
230
1.0
 70
     8
 71
     3
 72
    18
 73
    14
 74
     0
 42
0.000000001
 43
0.00000001
 40
0.0
 40
0.0
 40
0.0
 40
0.0
 40
0.0826417201867393
 40
0.179315965285179
 40
0.2758942625455653
 40
0.3723323244167009
 40
0.4685969257390527
 40
0.5646629545698673
 40
0.6605111647266023
 40
0.7561264644672259
 40
0.8514966056724933
 40
0.9466111662575905
 40
1.0
 40
1.0
 40
1.0
 40
1.0
 10
116.8555938026601
 20
187.9399237430863
 30
0.0
 10
116.2931207718711
 20
186.63903407809
 30
0.0
 10
115.0726670563035
 20
183.8163642996631
 30
0.0
 10
113.414946838923
 20
179.369623907927
 30
0.0
 10
111.842253562666
 20
174.6349872720822
 30
0.0
 10
110.4653099392093
 20
169.8389867423868
 30
0.0
 10
109.2805108351216
 20
164.9954660259928
 30
0.0
 10
108.2908691569543
 20
160.11389763836
 30
0.0
 10
107.4977043930942
 20
155.2044210169043
 30
0.0
 10
106.8983081747373
 20
150.2765884453809
 30
0.0
 10
106.5040591580735
 20
145.3397477933337
 30
0.0
 10
106.3048310486155
 20
141.1204040443643
 30
0.0
 10
106.3141425612961
 20
138.5491205008339
 30
0.0
 10
106.3174901669495
 20
137.6247118014112
 30
0.0
  0
SPLINE
  5
580
330
1F
100
AcDbEntity
  8
0
  6
Continuous
 62
     7
370
    18
100
AcDbSpline
210
0.0
220
0.0
230
1.0
 70
     8
 71
     3
 72
    19
 73
    15
 74
     0
 42
0.000000001
 43
0.00000001
 40
0.0
 40
0.0
 40
0.0
 40
0.0
 40
0.0414867501931553
 40
0.1361153063233734
 40
0.2304566467512917
 40
0.3245004392795287
 40
0.4182351918950614
 40
0.5116474654549084
 40
0.6047212839926183
 40
0.6974374518079889
 40
0.7897727405030255
 40
0.8816989041823158
 40
0.973181475888602
 40
1.0
 40
1.0
 40
1.0
 40
1.0
 10
146.2699416604911
 20
137.6245268951185
 30
0.0
 10
146.2754410257092
 20
138.3424229593643
 30
0.0
 10
146.2934840822938
 20
140.6977928603136
 30
0.0
 10
146.1201765788829
 20
144.6836895898206
 30
0.0
 10
145.7583681472838
 20
149.5667509128632
 30
0.0
 10
145.1974628034121
 20
154.4145774902705
 30
0.0
 10
144.4546139130666
 20
159.2187075984163
 30
0.0
 10
143.5293217802028
 20
163.9707270233578
 30
0.0
 10
142.4267242971447
 20
168.6624607381928
 30
0.0
 10
141.1497785305421
 20
173.2850416029715
 30
0.0
 10
139.7074987683618
 20
177.8322949206764
 30
0.0
 10
138.0901933214447
 20
182.2880662899073
 30
0.0
 10
136.7646925112043
 20
185.6474976953135
 30
0.0
 10
135.9280858052969
 20
187.4920277978145
 30
0.0
 10
135.7384294292586
 20
187.9101775595408
 30
0.0
  0
SPLINE
  5
581
330
1F
100
AcDbEntity
  8
0
  6
Continuous
 62
     7
370
    18
100
AcDbSpline
210
0.0
220
0.0
230
1.0
 70
     8
 71
     3
 72
    28
 73
    24
 74
     0
 42
0.000000001
 43
0.00000001
 40
0.0
 40
0.0
 40
0.0
 40
0.0
 40
0.0306897515563966
 40
0.0647944396702673
 40
0.1029478053186326
 40
0.1488640365724689
 40
0.2052718510825896
 40
0.2635856115129386
 40
0.3185502034453943
 40
0.3715443329298114
 40
0.423514567798415
 40
0.4749604969754128
 40
0.5261862285781165
 40
0.5774200851395553
 40
0.6288105961079083
 40
0.6806086192805237
 40
0.7331733488120932
 40
0.7871130021652211
 40
0.8436036726679854
 40
0.9050006635646778
 40
0.9451068870265651
 40
0.9808801418739321
 40
1.0
 40
1.0
 40
1.0
 40
1.0
 10
135.750567884667
 20
187.9180185502988
 30
0.0
 10
135.6612222231223
 20
188.0924288237377
 30
0.0
 10
135.4725891523682
 20
188.460656501288
 30
0.0
 10
135.0532357024475
 20
188.9081028690148
 30
0.0
 10
134.5296323042393
 20
189.3149309635601
 30
0.0
 10
133.845229178425
 20
189.6892092560713
 30
0.0
 10
132.9679776513667
 20
190.030722790932
 30
0.0
 10
131.9076485245057
 20
190.3220649425716
 30
0.0
 10
130.7427142093551
 20
190.5490842802774
 30
0.0
 10
129.5227730391659
 20
190.7138481262374
 30
0.0
 10
128.2578228758519
 20
190.8223169545863
 30
0.0
 10
126.9635091315126
 20
190.8765831042111
 30
0.0
 10
125.6604926554005
 20
190.8772971042244
 30
0.0
 10
124.3720122747227
 20
190.8248350019243
 30
0.0
 10
123.1211798067142
 20
190.7196402416097
 30
0.0
 10
121.9288705968745
 20
190.5619169560353
 30
0.0
 10
120.8110036082706
 20
190.3502088633215
 30
0.0
 10
119.7746005713301
 20
190.0786824760867
 30
0.0
 10
118.8138667202706
 20
189.726487652777
 30
0.0
 10
118.0395148223756
 20
189.3163394231815
 30
0.0
 10
117.4432235715664
 20
188.8217468293213
 30
0.0
 10
117.0614760391736
 20
188.3905580735427
 30
0.0
 10
116.9187916574816
 20
188.0660163771931
 30
0.0
 10
116.8690931618602
 20
187.9529750345896
 30
0.0
  0
LWPOLYLINE
  5
582
330
1F
100
AcDbEntity
  8
0
  6
Continuous
 62
     7
370
    18
100
AcDbPolyline
 90
       42
 70
   128
 43
0.0
 10
117.0951653279985
 20
187.0000380761978
 10
117.5792098900848
 20
186.6440929315764
 10
118.2675150914457
 20
186.3114432081073
 10
119.1439476415415
 20
186.0098859333679
 10
120.1879647042279
 20
185.7464893542899
 10
121.3750954044234
 20
185.5274272634425
 10
122.6775144046806
 20
185.3578342905665
 10
124.0646941075128
 20
185.2416855512059
 10
125.5041201964043
 20
185.1817034733683
 10
126.9620537438328
 20
185.1792939861195
 10
128.4043220231336
 20
185.2345135657987
 10
129.7971194882498
 20
185.34606791226
 10
131.1078001470795
 20
185.5113422861715
 10
132.3056427558611
 20
185.7264627962887
 10
133.3625708990891
 20
185.9863872001822
 10
134.253811076897
 20
186.2850230901265
 10
134.9584733748972
 20
186.6153706939732
 10
135.4600411060684
 20
186.969686943878
 10
135.7467579479013
 20
187.3396669672474
 10
135.8119035006332
 20
187.7166387459143
 10
135.6539508077228
 20
188.0917663808932
 10
135.2766021464174
 20
188.4562571983636
 10
134.6887022495122
 20
188.8015678424922
 10
133.9040309923099
 20
189.1196045244521
 10
132.9409804040225
 20
189.4029127339738
 10
131.822123574196
 20
189.6448519667469
 10
130.5736855586221
 20
189.8397513722135
 10
129.2249286862591
 20
189.9830426734983
 10
127.8074666750419
 20
190.0713672439475
 10
126.3545236331282
 20
190.1026548304901
 10
124.900155313963
 20
190.0761720786157
 10
123.4784508782823
 20
189.9925397215825
 10
122.1227338730775
 20
189.8537180309557
 10
120.8647811558981
 20
189.662960869504
 10
119.7340780722438
 20
189.4247394234136
 10
118.7571273440556
 20
189.1446374014734
 10
117.9568278683774
 20
188.8292201576746
 10
117.3519379866167
 20
188.4858808048763
 10
116.9566358049211
 20
188.1226669265072
 10
116.7801868713868
 20
187.7480919480306
 10
116.8267269994648
 20
187.3709355894669
 10
117.0951653279985
 20
187.0000380761978
  0
LWPOLYLINE
  5
583
330
1F
100
AcDbEntity
  8
0
  6
Continuous
 62
     7
370
    18
100
AcDbPolyline
 90
       38
 70
   128
 43
0.0
 10
118.8750447984722
 20
188.3042724867658
 10
118.6458112408747
 20
188.6361702838684
 10
118.6365939813074
 20
188.9733208537432
 10
118.8476581835465
 20
189.3060249883438
 10
119.272931914777
 20
189.6247113954703
 10
119.9001808240454
 20
189.9202120474207
 10
120.7113601022613
 20
190.184025928455
 10
121.6831335985007
 20
190.4085635935406
 10
122.7875451585805
 20
190.5873655028678
 10
123.9928228727142
 20
190.7152878510488
 10
125.2642930955097
 20
190.7886505450344
 10
126.5653779436173
 20
190.8053430736894
 10
127.8586475748361
 20
190.7648852233567
 10
129.1068969765262
 20
190.6684408927288
 10
130.2742162860826
 20
190.5187846096022
 10
131.3270238523025
 20
190.3202217127639
 10
132.2350323183476
 20
190.0784644952333
 10
132.9721199338568
 20
189.8004678719926
 10
133.5170820301437
 20
189.4942292997453
 10
133.8542410399083
 20
189.1685587046476
 10
133.9738975123034
 20
188.8328250367737
 10
133.8726091484763
 20
188.4966867424795
 10
133.553289830239
 20
188.1698139084864
 10
133.0251257929938
 20
187.8616100710925
 10
132.3033113544668
 20
187.5809416935543
 10
131.4086118018498
 20
187.3358830940819
 10
130.3667660122964
 20
187.1334841624052
 10
129.2077459922881
 20
186.9795675472816
 10
127.9648946375783
 20
186.8785611494931
 10
126.6739665187879
 20
186.8333707392019
 10
125.372099287508
 20
186.8452963622343
 10
124.0967452936785
 20
186.9139949401286
 10
122.8845941496708
 20
187.0374901398779
 10
121.77051723694
 20
187.2122292294326
 10
120.7865645198706
 20
187.4331852833328
 10
119.9610425266545
 20
187.6940017982016
 10
119.3177000220124
 20
187.9871755577735
 10
118.8750447984722
 20
188.3042724867658
  0
LWPOLYLINE
  5
584
330
1F
100
AcDbEntity
  8
0
  6
Continuous
 62
     7
370
    18
100
AcDbPolyline
 90
        5
 70
   128
 43
0.0
 10
107.6221075609702
 20
135.7696421647503
 10
106.9751995651329
 20
136.2849452125278
 10
106.5399492790115
 20
136.8149267974267
 10
106.3211253958227
 20
137.3537803302969
 10
106.3211253958227
 20
137.6247117845868
  0
LWPOLYLINE
  5
586
330
1F
100
AcDbEntity
  8
0
  6
Continuous
 62
     7
370
    18
100
AcDbPolyline
 90
       30
 70
   128
 43
0.0
 10
146.2663067860057
 20
137.6245269119413
 10
146.2663067860057
 20
137.3537803302969
 10
146.047482902817
 20
136.8149267974268
 10
145.6122326166956
 20
136.2849452125278
 10
144.9653246208583
 20
135.7696421647502
 10
144.1138465746816
 20
135.2746634221193
 10
143.0671274498227
 20
134.8054320753205
 10
141.8366353200536
 20
134.3670891211822
 10
140.4358517146451
 20
133.9644371368391
 10
138.880123911911
 20
133.601887661692
 10
137.1864967912147
 20
133.283412863659
 10
135.3735260857051
 20
133.0125020192725
 10
133.4610750818202
 20
132.7921232844353
 10
131.4700969929646
 20
132.6246911746834
 10
131.0649083903963
 20
132.5977634943539
 10
129.4224053917188
 20
132.5120401112489
 10
127.340435215773
 20
132.4554043227564
 10
125.2469969660553
 20
132.4554043227564
 10
123.1650267901096
 20
132.5120401112489
 10
121.8186634929356
 20
132.5795524058428
 10
121.1173351888638
 20
132.6246911746835
 10
119.1263571000081
 20
132.7921232844353
 10
117.2139060961232
 20
133.0125020192725
 10
115.4009353906137
 20
133.283412863659
 10
113.7073082699174
 20
133.601887661692
 10
112.1515804671832
 20
133.9644371368391
 10
110.7507968617747
 20
134.3670891211822
 10
109.5203047320057
 20
134.8054320753205
 10
108.4735856071468
 20
135.2746634221194
 10
107.6221075609702
 20
135.7696421647503
  0
MTEXT
  5
5A1
330
1F
100
AcDbEntity
  8
0
100
AcDbMText
 10
175.5957090746954
 20
77.69562707882787
 30
0.0
 40
6.0
 41
231.4298032286652
 46
3.0
 71
     1
 72
     5
  1
{\fＭＳ Ｐゴシック|b0|i0|c0|p0;HBE-D25T}
 73
     1
 44
1.0
  0
ENDSEC
  0
SECTION
  2
OBJECTS
  0
DICTIONARY
  5
C
330
0
100
AcDbDictionary
281
     1
  3
ACAD_DETAILVIEWSTYLE
350
58E
  3
ACAD_GROUP
350
D
  3
ACAD_LAYOUT
350
1A
  3
ACAD_MATERIAL
350
56F
  3
ACAD_MLEADERSTYLE
350
575
  3
ACAD_MLINESTYLE
350
17
  3
ACAD_PLOTSETTINGS
350
19
  3
ACAD_PLOTSTYLENAME
350
E
  3
ACAD_SCALELIST
350
47
  3
ACAD_SECTIONVIEWSTYLE
350
58F
  3
ACAD_TABLESTYLE
350
573
  3
ACAD_VISUALSTYLE
350
556
  3
ACDB_RECOMPOSE_DATA
350
5A5
  3
AcDbVariableDictionary
350
589
  3
APPDATA
350
577
  0
SUN
  5
590
330
29
100
AcDbSun
 90
        1
290
     0
 63
     7
421
 16777215
 40
1.0
291
     1
 91
  2455826
 92
 54000000
292
     0
 70
     2
 71
   256
280
     1
  0
DICTIONARY
  5
59C
330
2
100
AcDbDictionary
280
     1
281
     1
  3
ACAD_LAYERSTATES
360
59D
  0
DICTIONARY
  5
587
330
1F
100
AcDbDictionary
280
     1
281
     1
  3
ACAD_SORTENTS
360
588
  0
DICTIONARY
  5
58E
102
{ACAD_REACTORS
330
C
102
}
330
C
100
AcDbDictionary
281
     1
  0
DICTIONARY
  5
D
102
{ACAD_REACTORS
330
C
102
}
330
C
100
AcDbDictionary
281
     1
  0
DICTIONARY
  5
1A
102
{ACAD_REACTORS
330
C
102
}
330
C
100
AcDbDictionary
281
     1
  3
Layout1
350
1E
  3
Layout2
350
26
  3
Model
350
22
  0
DICTIONARY
  5
56F
102
{ACAD_REACTORS
330
C
102
}
330
C
100
AcDbDictionary
281
     1
  3
ByBlock
350
571
  3
ByLayer
350
570
  3
Global
350
572
  0
DICTIONARY
  5
575
102
{ACAD_REACTORS
330
C
102
}
330
C
100
AcDbDictionary
281
     1
  3
Standard
350
576
  0
DICTIONARY
  5
17
102
{ACAD_REACTORS
330
C
102
}
330
C
100
AcDbDictionary
281
     1
  3
Standard
350
18
  0
DICTIONARY
  5
19
102
{ACAD_REACTORS
330
C
102
}
330
C
100
AcDbDictionary
281
     1
  0
ACDBDICTIONARYWDFLT
  5
E
102
{ACAD_REACTORS
330
C
102
}
330
C
100
AcDbDictionary
281
     1
  3
Normal
350
F
100
AcDbDictionaryWithDefault
340
F
  0
DICTIONARY
  5
47
102
{ACAD_REACTORS
330
C
102
}
330
C
100
AcDbDictionary
281
     1
  3
A0
350
48
  3
A1
350
49
  3
A2
350
4A
  3
A3
350
4B
  3
A4
350
4C
  3
A5
350
4D
  3
A6
350
4E
  3
A7
350
4F
  3
A8
350
50
  3
A9
350
51
  3
B0
350
52
  3
B1
350
53
  3
B2
350
54
  3
B3
350
55
  3
B4
350
56
  3
B5
350
57
  3
B6
350
58
  3
B7
350
59
  3
B8
350
5A
  3
B9
350
5B
  3
C0
350
5C
  3
C1
350
5D
  3
C2
350
5E
  3
C3
350
5F
  3
C4
350
60
  3
C5
350
61
  3
C6
350
62
  3
C7
350
63
  3
C8
350
64
  3
C9
350
65
  3
D0
350
66
  3
D1
350
67
  3
D2
350
68
  0
DICTIONARY
  5
58F
102
{ACAD_REACTORS
330
C
102
}
330
C
100
AcDbDictionary
281
     1
  0
DICTIONARY
  5
573
102
{ACAD_REACTORS
330
C
102
}
330
C
100
AcDbDictionary
281
     1
  3
Standard
350
574
  0
DICTIONARY
  5
556
102
{ACAD_REACTORS
330
C
102
}
330
C
100
AcDbDictionary
281
     1
  3
2dWireframe
350
55B
  3
Basic
350
55E
  3
Brighten
350
562
  3
ColorChange
350
566
  3
Conceptual
350
560
  3
Dim
350
561
  3
EdgeColorOff
350
569
  3
Facepattern
350
565
  3
Flat
350
557
  3
FlatWithEdges
350
558
  3
Gouraud
350
559
  3
GouraudWithEdges
350
55A
  3
Hidden
350
55D
  3
JitterOff
350
567
  3
Linepattern
350
564
  3
OverhangOff
350
568
  3
Realistic
350
55F
  3
Shaded
350
56E
  3
Shaded with edges
350
56D
  3
Shades of Gray
350
56A
  3
Sketchy
350
56B
  3
Thicken
350
563
  3
Wireframe
350
55C
  3
X-Ray
350
56C
  0
XRECORD
  5
5A5
102
{ACAD_REACTORS
330
C
102
}
330
C
100
AcDbXrecord
280
     1
 90
        1
330
574
  0
DICTIONARY
  5
589
102
{ACAD_REACTORS
330
C
102
}
330
C
100
AcDbDictionary
281
     1
  3
CANNOSCALE
350
58A
  3
CMLEADERSTYLE
350
58C
  3
CTABLESTYLE
350
58B
  3
MSLTSCALE
350
58D
  0
DICTIONARY
  5
577
102
{ACAD_REACTORS
330
C
102
}
330
C
100
AcDbDictionary
281
     1
  0
DICTIONARY
  5
59D
102
{ACAD_REACTORS
330
59C
102
}
330
59C
100
AcDbDictionary
281
     1
  0
SORTENTSTABLE
  5
588
102
{ACAD_REACTORS
330
587
102
}
330
587
100
AcDbSortentsTable
330
1F
331
586
  5
585
  0
LAYOUT
  5
1E
102
{ACAD_REACTORS
330
1A
102
}
330
1A
100
AcDbPlotSettings
  1

  2
none_device
  4

  6

 40
0.0
 41
0.0
 42
0.0
 43
0.0
 44
0.0
 45
0.0
 46
0.0
 47
0.0
 48
0.0
 49
0.0
140
0.0
141
0.0
142
1.0
143
1.0
 70
   688
 72
     1
 73
     0
 74
     5
  7

 75
    16
 76
     0
 77
     2
 78
   300
147
1.0
148
0.0
149
0.0
100
AcDbLayout
  1
Layout1
 70
     1
 71
     1
 10
0.0
 20
0.0
 11
420.0
 21
297.0
 12
0.0
 22
0.0
 32
0.0
 14
1.000000000000000E+20
 24
1.000000000000000E+20
 34
1.000000000000000E+20
 15
-1.000000000000000E+20
 25
-1.000000000000000E+20
 35
-1.000000000000000E+20
146
0.0
 13
0.0
 23
0.0
 33
0.0
 16
1.0
 26
0.0
 36
0.0
 17
0.0
 27
1.0
 37
0.0
 76
     0
330
1B
  0
LAYOUT
  5
26
102
{ACAD_REACTORS
330
1A
102
}
330
1A
100
AcDbPlotSettings
  1

  2
none_device
  4

  6

 40
0.0
 41
0.0
 42
0.0
 43
0.0
 44
0.0
 45
0.0
 46
0.0
 47
0.0
 48
0.0
 49
0.0
140
0.0
141
0.0
142
1.0
143
1.0
 70
   688
 72
     1
 73
     0
 74
     5
  7

 75
    16
 76
     0
 77
     2
 78
   300
147
1.0
148
0.0
149
0.0
100
AcDbLayout
  1
Layout2
 70
     1
 71
     2
 10
0.0
 20
0.0
 11
0.0
 21
0.0
 12
0.0
 22
0.0
 32
0.0
 14
0.0
 24
0.0
 34
0.0
 15
0.0
 25
0.0
 35
0.0
146
0.0
 13
0.0
 23
0.0
 33
0.0
 16
1.0
 26
0.0
 36
0.0
 17
0.0
 27
1.0
 37
0.0
 76
     0
330
23
  0
LAYOUT
  5
22
102
{ACAD_REACTORS
330
1A
102
}
330
1A
100
AcDbPlotSettings
  1

  2
none_device
  4
Letter_(8.50_x_11.00_Inches)
  6

 40
6.35
 41
6.35
 42
6.35000508
 43
6.35000508
 44
215.9
 45
279.4
 46
0.0
 47
0.0
 48
0.0
 49
0.0
140
0.0
141
0.0
142
1.0
143
1.0
 70
  1712
 72
     1
 73
     0
 74
     0
  7

 75
     0
 76
     0
 77
     2
 78
   300
147
1.0
148
0.0
149
0.0
100
AcDbLayout
  1
Model
 70
     1
 71
     0
 10
0.0
 20
0.0
 11
431.8
 21
279.4
 12
0.0
 22
0.0
 32
0.0
 14
85.29416453063996
 24
59.32799396454811
 34
0.0
 15
214.7363868288532
 25
222.7748359739511
 35
0.0
146
0.0
 13
0.0
 23
0.0
 33
0.0
 16
1.0
 26
0.0
 36
0.0
 17
0.0
 27
1.0
 37
0.0
 76
     0
330
1F
331
29
  0
MATERIAL
  5
571
102
{ACAD_REACTORS
330
56F
102
}
330
56F
100
AcDbMaterial
  1
ByBlock
 72
     1
 94
      127
  0
MATERIAL
  5
570
102
{ACAD_REACTORS
330
56F
102
}
330
56F
100
AcDbMaterial
  1
ByLayer
 72
     1
 94
      127
  0
MATERIAL
  5
572
102
{ACAD_REACTORS
330
56F
102
}
330
56F
100
AcDbMaterial
  1
Global
 72
     1
 94
      127
  0
MLEADERSTYLE
  5
576
102
{ACAD_REACTORS
330
575
102
}
330
575
100
AcDbMLeaderStyle
179
     2
170
     2
171
     1
172
     0
 90
        2
 40
0.0
 41
0.0
173
     1
 91
-1056964608
340
14
 92
       -2
290
     1
 42
2.0
291
     1
 43
8.0
  3
Standard
341
0
 44
4.0
300

342
11
174
     1
178
     1
175
     1
176
     0
 93
-1056964608
 45
4.0
292
     0
297
     0
 46
4.0
343
0
 94
-1056964608
 47
1.0
 49
1.0
140
1.0
293
     1
141
0.0
294
     1
177
     0
142
1.0
295
     0
296
     0
143
3.75
271
     0
272
     9
273
     9
298
     0
  0
MLINESTYLE
  5
18
102
{ACAD_REACTORS
330
17
102
}
330
17
100
AcDbMlineStyle
  2
Standard
 70
     0
  3

 62
   256
 51
90.0
 52
90.0
 71
     2
 49
0.5
 62
   256
  6
BYLAYER
 49
-0.5
 62
   256
  6
BYLAYER
  0
ACDBPLACEHOLDER
  5
F
102
{ACAD_REACTORS
330
E
102
}
330
E
  0
SCALE
  5
48
102
{ACAD_REACTORS
330
47
102
}
330
47
100
AcDbScale
 70
     0
300
1:1
140
1.0
141
1.0
290
     1
  0
SCALE
  5
49
102
{ACAD_REACTORS
330
47
102
}
330
47
100
AcDbScale
 70
     0
300
1:2
140
1.0
141
2.0
290
     0
  0
SCALE
  5
4A
102
{ACAD_REACTORS
330
47
102
}
330
47
100
AcDbScale
 70
     0
300
1:4
140
1.0
141
4.0
290
     0
  0
SCALE
  5
4B
102
{ACAD_REACTORS
330
47
102
}
330
47
100
AcDbScale
 70
     0
300
1:5
140
1.0
141
5.0
290
     0
  0
SCALE
  5
4C
102
{ACAD_REACTORS
330
47
102
}
330
47
100
AcDbScale
 70
     0
300
1:8
140
1.0
141
8.0
290
     0
  0
SCALE
  5
4D
102
{ACAD_REACTORS
330
47
102
}
330
47
100
AcDbScale
 70
     0
300
1:10
140
1.0
141
10.0
290
     0
  0
SCALE
  5
4E
102
{ACAD_REACTORS
330
47
102
}
330
47
100
AcDbScale
 70
     0
300
1:16
140
1.0
141
16.0
290
     0
  0
SCALE
  5
4F
102
{ACAD_REACTORS
330
47
102
}
330
47
100
AcDbScale
 70
     0
300
1:20
140
1.0
141
20.0
290
     0
  0
SCALE
  5
50
102
{ACAD_REACTORS
330
47
102
}
330
47
100
AcDbScale
 70
     0
300
1:30
140
1.0
141
30.0
290
     0
  0
SCALE
  5
51
102
{ACAD_REACTORS
330
47
102
}
330
47
100
AcDbScale
 70
     0
300
1:40
140
1.0
141
40.0
290
     0
  0
SCALE
  5
52
102
{ACAD_REACTORS
330
47
102
}
330
47
100
AcDbScale
 70
     0
300
1:50
140
1.0
141
50.0
290
     0
  0
SCALE
  5
53
102
{ACAD_REACTORS
330
47
102
}
330
47
100
AcDbScale
 70
     0
300
1:100
140
1.0
141
100.0
290
     0
  0
SCALE
  5
54
102
{ACAD_REACTORS
330
47
102
}
330
47
100
AcDbScale
 70
     0
300
2:1
140
2.0
141
1.0
290
     0
  0
SCALE
  5
55
102
{ACAD_REACTORS
330
47
102
}
330
47
100
AcDbScale
 70
     0
300
4:1
140
4.0
141
1.0
290
     0
  0
SCALE
  5
56
102
{ACAD_REACTORS
330
47
102
}
330
47
100
AcDbScale
 70
     0
300
8:1
140
8.0
141
1.0
290
     0
  0
SCALE
  5
57
102
{ACAD_REACTORS
330
47
102
}
330
47
100
AcDbScale
 70
     0
300
10:1
140
10.0
141
1.0
290
     0
  0
SCALE
  5
58
102
{ACAD_REACTORS
330
47
102
}
330
47
100
AcDbScale
 70
     0
300
100:1
140
100.0
141
1.0
290
     0
  0
SCALE
  5
59
102
{ACAD_REACTORS
330
47
102
}
330
47
100
AcDbScale
 70
     0
300
1/128" = 1'-0"
140
0.0078125
141
12.0
290
     0
  0
SCALE
  5
5A
102
{ACAD_REACTORS
330
47
102
}
330
47
100
AcDbScale
 70
     0
300
1/64" = 1'-0"
140
0.015625
141
12.0
290
     0
  0
SCALE
  5
5B
102
{ACAD_REACTORS
330
47
102
}
330
47
100
AcDbScale
 70
     0
300
1/32" = 1'-0"
140
0.03125
141
12.0
290
     0
  0
SCALE
  5
5C
102
{ACAD_REACTORS
330
47
102
}
330
47
100
AcDbScale
 70
     0
300
1/16" = 1'-0"
140
0.0625
141
12.0
290
     0
  0
SCALE
  5
5D
102
{ACAD_REACTORS
330
47
102
}
330
47
100
AcDbScale
 70
     0
300
3/32" = 1'-0"
140
0.09375
141
12.0
290
     0
  0
SCALE
  5
5E
102
{ACAD_REACTORS
330
47
102
}
330
47
100
AcDbScale
 70
     0
300
1/8" = 1'-0"
140
0.125
141
12.0
290
     0
  0
SCALE
  5
5F
102
{ACAD_REACTORS
330
47
102
}
330
47
100
AcDbScale
 70
     0
300
3/16" = 1'-0"
140
0.1875
141
12.0
290
     0
  0
SCALE
  5
60
102
{ACAD_REACTORS
330
47
102
}
330
47
100
AcDbScale
 70
     0
300
1/4" = 1'-0"
140
0.25
141
12.0
290
     0
  0
SCALE
  5
61
102
{ACAD_REACTORS
330
47
102
}
330
47
100
AcDbScale
 70
     0
300
3/8" = 1'-0"
140
0.375
141
12.0
290
     0
  0
SCALE
  5
62
102
{ACAD_REACTORS
330
47
102
}
330
47
100
AcDbScale
 70
     0
300
1/2" = 1'-0"
140
0.5
141
12.0
290
     0
  0
SCALE
  5
63
102
{ACAD_REACTORS
330
47
102
}
330
47
100
AcDbScale
 70
     0
300
3/4" = 1'-0"
140
0.75
141
12.0
290
     0
  0
SCALE
  5
64
102
{ACAD_REACTORS
330
47
102
}
330
47
100
AcDbScale
 70
     0
300
1" = 1'-0"
140
1.0
141
12.0
290
     0
  0
SCALE
  5
65
102
{ACAD_REACTORS
330
47
102
}
330
47
100
AcDbScale
 70
     0
300
1-1/2" = 1'-0"
140
1.5
141
12.0
290
     0
  0
SCALE
  5
66
102
{ACAD_REACTORS
330
47
102
}
330
47
100
AcDbScale
 70
     0
300
3" = 1'-0"
140
3.0
141
12.0
290
     0
  0
SCALE
  5
67
102
{ACAD_REACTORS
330
47
102
}
330
47
100
AcDbScale
 70
     0
300
6" = 1'-0"
140
6.0
141
12.0
290
     0
  0
SCALE
  5
68
102
{ACAD_REACTORS
330
47
102
}
330
47
100
AcDbScale
 70
     0
300
1'-0" = 1'-0"
140
12.0
141
12.0
290
     0
  0
TABLESTYLE
  5
574
102
{ACAD_REACTORS
330
573
102
}
102
{ACAD_XDICTIONARY
360
5A3
102
}
330
573
100
AcDbTableStyle
  3
Standard
 70
     0
 71
     0
 40
1.5
 41
1.5
280
     0
281
     0
  7
Standard
140
4.5
170
     2
 62
     0
 63
   257
283
     0
 90
        4
 91
        0
  1

274
    -2
284
     1
 64
     0
275
    -2
285
     1
 65
     0
276
    -2
286
     1
 66
     0
277
    -2
287
     1
 67
     0
278
    -2
288
     1
 68
     0
279
    -2
289
     1
 69
     0
  7
Standard
140
6.0
170
     5
 62
     0
 63
   257
283
     0
 90
        4
 91
        0
  1

274
    -2
284
     1
 64
     0
275
    -2
285
     1
 65
     0
276
    -2
286
     1
 66
     0
277
    -2
287
     1
 67
     0
278
    -2
288
     1
 68
     0
279
    -2
289
     1
 69
     0
  7
Standard
140
4.5
170
     5
 62
     0
 63
   257
283
     0
 90
        4
 91
        0
  1

274
    -2
284
     1
 64
     0
275
    -2
285
     1
 65
     0
276
    -2
286
     1
 66
     0
277
    -2
287
     1
 67
     0
278
    -2
288
     1
 68
     0
279
    -2
289
     1
 69
     0
  0
VISUALSTYLE
  5
55B
102
{ACAD_REACTORS
330
556
102
}
330
556
100
AcDbVisualStyle
  2
2dWireframe
 70
     4
177
     3
291
     0
 70
    58
 90
        0
176
     1
 90
        2
176
     1
 90
        0
176
     1
 90
        0
176
     1
 40
0.6
176
     1
 40
30.0
176
     1
 62
     7
420
 16777215
176
     1
 90
        1
176
     1
 90
        4
176
     1
 62
     7
176
     1
 62
   257
176
     1
 90
        1
176
     1
 90
        1
176
     1
 40
1.0
176
     1
 90
        0
176
     1
 62
   257
176
     1
 40
1.0
176
     1
 90
        1
176
     1
 90
        6
176
     1
 90
        2
176
     1
 62
     7
176
     1
 90
        5
176
     1
 90
        0
176
     1
 90
        0
176
     1
290
     0
176
     1
 90
        1
176
     1
 40
0.0
176
     1
 90
        0
176
     1
290
     1
176
     1
290
     1
176
     1
290
     0
176
     1
290
     0
176
     1
290
     0
176
     1
290
     0
176
     1
290
     0
176
     1
290
     0
176
     1
290
     0
176
     1
 90
       50
176
     1
 40
0.0
176
     1
 40
1.0
176
     1
 90
        0
176
     1
 62
    18
420
        0
176
     1
 90
       50
176
     1
 90
        3
176
     1
 62
     5
420
      255
176
     1
290
     0
176
     1
 90
       50
176
     1
 90
       50
176
     1
 90
       50
176
     1
290
     0
176
     1
 90
       50
176
     1
 62
   256
176
     0
 40
1.0
176
     0
 90
        2
176
     1
  1
strokes_ogs.tif
176
     1
290
     0
176
     1
 40
1.0
176
     1
 40
1.0
176
     1
  0
VISUALSTYLE
  5
55E
102
{ACAD_REACTORS
330
556
102
}
330
556
100
AcDbVisualStyle
  2
Basic
 70
     7
177
     3
291
     1
 70
    58
 90
        1
176
     1
 90
        0
176
     1
 90
        1
176
     1
 90
        0
176
     1
 40
0.6
176
     1
 40
30.0
176
     1
 62
     7
420
 16777215
176
     1
 90
        0
176
     1
 90
        4
176
     1
 62
     7
176
     1
 62
   257
176
     1
 90
        1
176
     1
 90
        1
176
     1
 40
1.0
176
     1
 90
        8
176
     1
 62
     7
176
     1
 40
1.0
176
     1
 90
        1
176
     1
 90
        6
176
     1
 90
        2
176
     1
 62
     7
176
     1
 90
        5
176
     1
 90
        0
176
     1
 90
        0
176
     1
290
     0
176
     1
 90
        1
176
     1
 40
0.0
176
     1
 90
        0
176
     1
290
     0
176
     1
290
     1
176
     1
290
     1
176
     1
290
     0
176
     1
290
     0
176
     1
290
     0
176
     1
290
     0
176
     1
290
     0
176
     1
290
     0
176
     1
 90
       50
176
     1
 40
0.0
176
     1
 40
1.0
176
     1
 90
        0
176
     1
 62
    18
420
        0
176
     1
 90
       50
176
     1
 90
        3
176
     1
 62
     5
420
      255
176
     1
290
     0
176
     1
 90
       50
176
     1
 90
       50
176
     1
 90
       50
176
     1
290
     0
176
     1
 90
       50
176
     1
 62
   256
176
     0
 40
1.0
176
     0
 90
        2
176
     1
  1
strokes_ogs.tif
176
     1
290
     0
176
     1
 40
1.0
176
     1
 40
1.0
176
     1
  0
VISUALSTYLE
  5
562
102
{ACAD_REACTORS
330
556
102
}
330
556
100
AcDbVisualStyle
  2
Brighten
 70
    12
177
     3
291
     1
 70
    58
 90
        2
176
     1
 90
        2
176
     1
 90
        0
176
     1
 90
        0
176
     1
 40
0.6
176
     1
 40
30.0
176
     1
 62
     7
420
 16777215
176
     1
 90
        1
176
     1
 90
        4
176
     1
 62
     7
176
     1
 62
   257
176
     1
 90
        1
176
     1
 90
        1
176
     1
 40
1.0
176
     1
 90
        8
176
     1
 62
     7
176
     1
 40
1.0
176
     1
 90
        1
176
     1
 90
        6
176
     1
 90
        2
176
     1
 62
     7
176
     1
 90
        5
176
     1
 90
        0
176
     1
 90
        0
176
     1
290
     0
176
     1
 90
        1
176
     1
 40
50.0
176
     1
 90
        0
176
     1
290
     0
176
     1
290
     1
176
     1
290
     1
176
     1
290
     0
176
     1
290
     0
176
     1
290
     0
176
     1
290
     0
176
     1
290
     0
176
     1
290
     0
176
     1
 90
       50
176
     1
 40
0.0
176
     1
 40
1.0
176
     1
 90
        0
176
     1
 62
    18
420
        0
176
     1
 90
       50
176
     1
 90
        3
176
     1
 62
     5
420
      255
176
     1
290
     0
176
     1
 90
       50
176
     1
 90
       50
176
     1
 90
       50
176
     1
290
     0
176
     1
 90
       50
176
     1
 62
   256
176
     0
 40
1.0
176
     0
 90
        2
176
     1
  1
strokes_ogs.tif
176
     1
290
     0
176
     1
 40
1.0
176
     1
 40
1.0
176
     1
  0
VISUALSTYLE
  5
566
102
{ACAD_REACTORS
330
556
102
}
330
556
100
AcDbVisualStyle
  2
ColorChange
 70
    16
177
     3
291
     1
 70
    58
 90
        2
176
     1
 90
        2
176
     1
 90
        3
176
     1
 90
        0
176
     1
 40
0.6
176
     1
 40
30.0
176
     1
 62
     8
420
  8421504
176
     1
 90
        1
176
     1
 90
        4
176
     1
 62
     7
176
     1
 62
   257
176
     1
 90
        1
176
     1
 90
        1
176
     1
 40
1.0
176
     1
 90
        8
176
     1
 62
     8
420
  8421504
176
     1
 40
1.0
176
     1
 90
        1
176
     1
 90
        6
176
     1
 90
        2
176
     1
 62
     7
176
     1
 90
        5
176
     1
 90
        0
176
     1
 90
        0
176
     1
290
     0
176
     1
 90
        1
176
     1
 40
0.0
176
     1
 90
        0
176
     1
290
     0
176
     1
290
     1
176
     1
290
     1
176
     1
290
     0
176
     1
290
     0
176
     1
290
     0
176
     1
290
     0
176
     1
290
     0
176
     1
290
     0
176
     1
 90
       50
176
     1
 40
0.0
176
     1
 40
1.0
176
     1
 90
        0
176
     1
 62
    18
420
        0
176
     1
 90
       50
176
     1
 90
        3
176
     1
 62
     5
420
      255
176
     1
290
     0
176
     1
 90
       50
176
     1
 90
       50
176
     1
 90
       50
176
     1
290
     0
176
     1
 90
       50
176
     1
 62
   256
176
     0
 40
1.0
176
     0
 90
        2
176
     1
  1
strokes_ogs.tif
176
     1
290
     0
176
     1
 40
1.0
176
     1
 40
1.0
176
     1
  0
VISUALSTYLE
  5
560
102
{ACAD_REACTORS
330
556
102
}
330
556
100
AcDbVisualStyle
  2
Conceptual
 70
     9
177
     3
291
     0
 70
    58
 90
        3
176
     1
 90
        2
176
     1
 90
        0
176
     1
 90
        0
176
     1
 40
0.6
176
     1
 40
30.0
176
     1
 62
     7
420
 16777215
176
     1
 90
        2
176
     1
 90
        2
176
     1
 62
     7
176
     1
 62
   257
176
     1
 90
        1
176
     1
 90
        1
176
     1
 40
179.0
176
     1
 90
        8
176
     1
 62
     7
176
     1
 40
1.0
176
     1
 90
        1
176
     1
 90
        6
176
     1
 90
        2
176
     1
 62
     7
176
     1
 90
        3
176
     1
 90
        0
176
     1
 90
        0
176
     1
290
     0
176
     1
 90
        1
176
     1
 40
0.0
176
     1
 90
        0
176
     1
290
     0
176
     1
290
     1
176
     1
290
     1
176
     1
290
     0
176
     1
290
     0
176
     1
290
     0
176
     1
290
     0
176
     1
290
     0
176
     1
290
     0
176
     1
 90
       50
176
     1
 40
0.0
176
     1
 40
1.0
176
     1
 90
        0
176
     1
 62
    18
420
        0
176
     1
 90
       50
176
     1
 90
        3
176
     1
 62
     5
420
      255
176
     1
290
     0
176
     1
 90
       50
176
     1
 90
       50
176
     1
 90
       50
176
     1
290
     0
176
     1
 90
       50
176
     1
 62
   256
176
     0
 40
1.0
176
     0
 90
        2
176
     1
  1
strokes_ogs.tif
176
     1
290
     0
176
     1
 40
1.0
176
     1
 40
1.0
176
     1
  0
VISUALSTYLE
  5
561
102
{ACAD_REACTORS
330
556
102
}
330
556
100
AcDbVisualStyle
  2
Dim
 70
    11
177
     3
291
     1
 70
    58
 90
        2
176
     1
 90
        2
176
     1
 90
        0
176
     1
 90
        0
176
     1
 40
0.6
176
     1
 40
30.0
176
     1
 62
     7
420
 16777215
176
     1
 90
        1
176
     1
 90
        4
176
     1
 62
     7
176
     1
 62
   257
176
     1
 90
        1
176
     1
 90
        1
176
     1
 40
1.0
176
     1
 90
        8
176
     1
 62
     7
176
     1
 40
1.0
176
     1
 90
        1
176
     1
 90
        6
176
     1
 90
        2
176
     1
 62
     7
176
     1
 90
        5
176
     1
 90
        0
176
     1
 90
        0
176
     1
290
     0
176
     1
 90
        1
176
     1
 40
-50.0
176
     1
 90
        0
176
     1
290
     0
176
     1
290
     1
176
     1
290
     1
176
     1
290
     0
176
     1
290
     0
176
     1
290
     0
176
     1
290
     0
176
     1
290
     0
176
     1
290
     0
176
     1
 90
       50
176
     1
 40
0.0
176
     1
 40
1.0
176
     1
 90
        0
176
     1
 62
    18
420
        0
176
     1
 90
       50
176
     1
 90
        3
176
     1
 62
     5
420
      255
176
     1
290
     0
176
     1
 90
       50
176
     1
 90
       50
176
     1
 90
       50
176
     1
290
     0
176
     1
 90
       50
176
     1
 62
   256
176
     0
 40
1.0
176
     0
 90
        2
176
     1
  1
strokes_ogs.tif
176
     1
290
     0
176
     1
 40
1.0
176
     1
 40
1.0
176
     1
  0
VISUALSTYLE
  5
569
102
{ACAD_REACTORS
330
556
102
}
330
556
100
AcDbVisualStyle
  2
EdgeColorOff
 70
    22
177
     3
291
     1
 70
    58
 90
        2
176
     0
 90
        2
176
     0
 90
        0
176
     0
 90
        0
176
     0
 40
0.6
176
     0
 40
30.0
176
     0
 62
     7
420
 16777215
176
     0
 90
        1
176
     0
 90
        4
176
     0
 62
     7
176
     0
 62
   257
176
     0
 90
        1
176
     0
 90
        1
176
     0
 40
1.0
176
     0
 90
        8
176
     2
 62
     7
176
     0
 40
1.0
176
     0
 90
        1
176
     0
 90
        6
176
     0
 90
        2
176
     0
 62
     7
176
     0
 90
        5
176
     0
 90
        0
176
     0
 90
        0
176
     0
290
     0
176
     0
 90
        1
176
     0
 40
0.0
176
     0
 90
        0
176
     0
290
     0
176
     0
290
     1
176
     0
290
     1
176
     0
290
     0
176
     0
290
     0
176
     0
290
     0
176
     0
290
     0
176
     0
290
     0
176
     0
290
     0
176
     0
 90
       50
176
     0
 40
0.0
176
     0
 40
1.0
176
     0
 90
        0
176
     0
 62
    18
420
        0
176
     0
 90
       50
176
     0
 90
        3
176
     0
 62
     5
420
      255
176
     0
290
     0
176
     0
 90
       50
176
     0
 90
       50
176
     0
 90
       50
176
     0
290
     0
176
     0
 90
       50
176
     0
 62
   256
176
     0
 40
1.0
176
     0
 90
        2
176
     0
  1
strokes_ogs.tif
176
     0
290
     0
176
     0
 40
1.0
176
     0
 40
1.0
176
     0
  0
VISUALSTYLE
  5
565
102
{ACAD_REACTORS
330
556
102
}
330
556
100
AcDbVisualStyle
  2
Facepattern
 70
    15
177
     3
291
     1
 70
    58
 90
        2
176
     1
 90
        2
176
     1
 90
        0
176
     1
 90
        0
176
     1
 40
0.6
176
     1
 40
30.0
176
     1
 62
     7
420
 16777215
176
     1
 90
        1
176
     1
 90
        4
176
     1
 62
     7
176
     1
 62
   257
176
     1
 90
        1
176
     1
 90
        1
176
     1
 40
1.0
176
     1
 90
        8
176
     1
 62
     7
176
     1
 40
1.0
176
     1
 90
        1
176
     1
 90
        6
176
     1
 90
        2
176
     1
 62
     7
176
     1
 90
        5
176
     1
 90
        0
176
     1
 90
        0
176
     1
290
     0
176
     1
 90
        1
176
     1
 40
0.0
176
     1
 90
        0
176
     1
290
     0
176
     1
290
     1
176
     1
290
     1
176
     1
290
     0
176
     1
290
     0
176
     1
290
     0
176
     1
290
     0
176
     1
290
     0
176
     1
290
     0
176
     1
 90
       50
176
     1
 40
0.0
176
     1
 40
1.0
176
     1
 90
        0
176
     1
 62
    18
420
        0
176
     1
 90
       50
176
     1
 90
        3
176
     1
 62
     5
420
      255
176
     1
290
     0
176
     1
 90
       50
176
     1
 90
       50
176
     1
 90
       50
176
     1
290
     0
176
     1
 90
       50
176
     1
 62
   256
176
     0
 40
1.0
176
     0
 90
        2
176
     1
  1
strokes_ogs.tif
176
     1
290
     0
176
     1
 40
1.0
176
     1
 40
1.0
176
     1
  0
VISUALSTYLE
  5
557
102
{ACAD_REACTORS
330
556
102
}
330
556
100
AcDbVisualStyle
  2
Flat
 70
     0
177
     3
291
     1
 70
    58
 90
        2
176
     1
 90
        1
176
     1
 90
        1
176
     1
 90
        2
176
     1
 40
0.6
176
     1
 40
30.0
176
     1
 62
     7
420
 16777215
176
     1
 90
        0
176
     1
 90
        0
176
     1
 62
     7
176
     1
 62
   257
176
     1
 90
        1
176
     1
 90
        1
176
     1
 40
1.0
176
     1
 90
        8
176
     1
 62
     7
176
     1
 40
1.0
176
     1
 90
        1
176
     1
 90
        6
176
     1
 90
        2
176
     1
 62
     7
176
     1
 90
        5
176
     1
 90
        0
176
     1
 90
        0
176
     1
290
     0
176
     1
 90
       13
176
     1
 40
0.0
176
     1
 90
        0
176
     1
290
     0
176
     1
290
     1
176
     1
290
     1
176
     1
290
     0
176
     1
290
     0
176
     1
290
     0
176
     1
290
     0
176
     1
290
     0
176
     1
290
     0
176
     1
 90
       50
176
     1
 40
0.0
176
     1
 40
1.0
176
     1
 90
        0
176
     1
 62
    18
420
        0
176
     1
 90
       50
176
     1
 90
        3
176
     1
 62
     5
420
      255
176
     1
290
     0
176
     1
 90
       50
176
     1
 90
       50
176
     1
 90
       50
176
     1
290
     0
176
     1
 90
       50
176
     1
 62
   256
176
     0
 40
1.0
176
     0
 90
        2
176
     1
  1
strokes_ogs.tif
176
     1
290
     0
176
     1
 40
1.0
176
     1
 40
1.0
176
     1
  0
VISUALSTYLE
  5
558
102
{ACAD_REACTORS
330
556
102
}
330
556
100
AcDbVisualStyle
  2
FlatWithEdges
 70
     1
177
     3
291
     1
 70
    58
 90
        2
176
     1
 90
        1
176
     1
 90
        1
176
     1
 90
        2
176
     1
 40
0.6
176
     1
 40
30.0
176
     1
 62
     7
420
 16777215
176
     1
 90
        1
176
     1
 90
        0
176
     1
 62
     7
176
     1
 62
   257
176
     1
 90
        1
176
     1
 90
        1
176
     1
 40
1.0
176
     1
 90
        0
176
     1
 62
   257
176
     1
 40
1.0
176
     1
 90
        1
176
     1
 90
        6
176
     1
 90
        2
176
     1
 62
     7
176
     1
 90
        5
176
     1
 90
        0
176
     1
 90
        0
176
     1
290
     0
176
     1
 90
       13
176
     1
 40
0.0
176
     1
 90
        0
176
     1
290
     0
176
     1
290
     1
176
     1
290
     1
176
     1
290
     0
176
     1
290
     0
176
     1
290
     0
176
     1
290
     0
176
     1
290
     0
176
     1
290
     0
176
     1
 90
       50
176
     1
 40
0.0
176
     1
 40
1.0
176
     1
 90
        0
176
     1
 62
    18
420
        0
176
     1
 90
       50
176
     1
 90
        3
176
     1
 62
     5
420
      255
176
     1
290
     0
176
     1
 90
       50
176
     1
 90
       50
176
     1
 90
       50
176
     1
290
     0
176
     1
 90
       50
176
     1
 62
   256
176
     0
 40
1.0
176
     0
 90
        2
176
     1
  1
strokes_ogs.tif
176
     1
290
     0
176
     1
 40
1.0
176
     1
 40
1.0
176
     1
  0
VISUALSTYLE
  5
559
102
{ACAD_REACTORS
330
556
102
}
330
556
100
AcDbVisualStyle
  2
Gouraud
 70
     2
177
     3
291
     1
 70
    58
 90
        2
176
     1
 90
        2
176
     1
 90
        1
176
     1
 90
        2
176
     1
 40
0.6
176
     1
 40
30.0
176
     1
 62
     7
420
 16777215
176
     1
 90
        0
176
     1
 90
        0
176
     1
 62
     7
176
     1
 62
   257
176
     1
 90
        1
176
     1
 90
        1
176
     1
 40
1.0
176
     1
 90
        0
176
     1
 62
     7
176
     1
 40
1.0
176
     1
 90
        1
176
     1
 90
        6
176
     1
 90
        2
176
     1
 62
     7
176
     1
 90
        5
176
     1
 90
        0
176
     1
 90
        0
176
     1
290
     0
176
     1
 90
       13
176
     1
 40
0.0
176
     1
 90
        0
176
     1
290
     0
176
     1
290
     1
176
     1
290
     1
176
     1
290
     0
176
     1
290
     0
176
     1
290
     0
176
     1
290
     0
176
     1
290
     0
176
     1
290
     0
176
     1
 90
       50
176
     1
 40
0.0
176
     1
 40
1.0
176
     1
 90
        0
176
     1
 62
    18
420
        0
176
     1
 90
       50
176
     1
 90
        3
176
     1
 62
     5
420
      255
176
     1
290
     0
176
     1
 90
       50
176
     1
 90
       50
176
     1
 90
       50
176
     1
290
     0
176
     1
 90
       50
176
     1
 62
   256
176
     0
 40
1.0
176
     0
 90
        2
176
     1
  1
strokes_ogs.tif
176
     1
290
     0
176
     1
 40
1.0
176
     1
 40
1.0
176
     1
  0
VISUALSTYLE
  5
55A
102
{ACAD_REACTORS
330
556
102
}
330
556
100
AcDbVisualStyle
  2
GouraudWithEdges
 70
     3
177
     3
291
     1
 70
    58
 90
        2
176
     1
 90
        2
176
     1
 90
        1
176
     1
 90
        2
176
     1
 40
0.6
176
     1
 40
30.0
176
     1
 62
     7
420
 16777215
176
     1
 90
        1
176
     1
 90
        0
176
     1
 62
     7
176
     1
 62
   257
176
     1
 90
        1
176
     1
 90
        1
176
     1
 40
1.0
176
     1
 90
        0
176
     1
 62
   257
176
     1
 40
1.0
176
     1
 90
        1
176
     1
 90
        6
176
     1
 90
        2
176
     1
 62
     7
176
     1
 90
        5
176
     1
 90
        0
176
     1
 90
        0
176
     1
290
     0
176
     1
 90
       13
176
     1
 40
0.0
176
     1
 90
        0
176
     1
290
     0
176
     1
290
     1
176
     1
290
     1
176
     1
290
     0
176
     1
290
     0
176
     1
290
     0
176
     1
290
     0
176
     1
290
     0
176
     1
290
     0
176
     1
 90
       50
176
     1
 40
0.0
176
     1
 40
1.0
176
     1
 90
        0
176
     1
 62
    18
420
        0
176
     1
 90
       50
176
     1
 90
        3
176
     1
 62
     5
420
      255
176
     1
290
     0
176
     1
 90
       50
176
     1
 90
       50
176
     1
 90
       50
176
     1
290
     0
176
     1
 90
       50
176
     1
 62
   256
176
     0
 40
1.0
176
     0
 90
        2
176
     1
  1
strokes_ogs.tif
176
     1
290
     0
176
     1
 40
1.0
176
     1
 40
1.0
176
     1
  0
VISUALSTYLE
  5
55D
102
{ACAD_REACTORS
330
556
102
}
330
556
100
AcDbVisualStyle
  2
Hidden
 70
     6
177
     3
291
     0
 70
    58
 90
        1
176
     1
 90
        2
176
     1
 90
        2
176
     1
 90
        0
176
     1
 40
0.6
176
     1
 40
30.0
176
     1
 62
     7
420
 16777215
176
     1
 90
        2
176
     1
 90
        2
176
     1
 62
     7
176
     1
 62
   257
176
     1
 90
        2
176
     1
 90
        1
176
     1
 40
40.0
176
     1
 90
        0
176
     1
 62
   257
176
     1
 40
1.0
176
     1
 90
        1
176
     1
 90
        6
176
     1
 90
        2
176
     1
 62
     7
176
     1
 90
        3
176
     1
 90
        0
176
     1
 90
        0
176
     1
290
     0
176
     1
 90
        1
176
     1
 40
0.0
176
     1
 90
        0
176
     1
290
     0
176
     1
290
     1
176
     1
290
     1
176
     1
290
     0
176
     1
290
     0
176
     1
290
     0
176
     1
290
     0
176
     1
290
     0
176
     1
290
     0
176
     1
 90
       50
176
     1
 40
0.0
176
     1
 40
1.0
176
     1
 90
        0
176
     1
 62
    18
420
        0
176
     1
 90
       50
176
     1
 90
        3
176
     1
 62
     5
420
      255
176
     1
290
     0
176
     1
 90
       50
176
     1
 90
       50
176
     1
 90
       50
176
     1
290
     0
176
     1
 90
       50
176
     1
 62
   256
176
     0
 40
1.0
176
     0
 90
        2
176
     1
  1
strokes_ogs.tif
176
     1
290
     0
176
     1
 40
1.0
176
     1
 40
1.0
176
     1
  0
VISUALSTYLE
  5
567
102
{ACAD_REACTORS
330
556
102
}
330
556
100
AcDbVisualStyle
  2
JitterOff
 70
    20
177
     3
291
     1
 70
    58
 90
        2
176
     0
 90
        2
176
     0
 90
        0
176
     0
 90
        0
176
     0
 40
0.6
176
     0
 40
30.0
176
     0
 62
     7
420
 16777215
176
     0
 90
        1
176
     0
 90
        4
176
     0
 62
     7
176
     0
 62
   257
176
     0
 90
        1
176
     0
 90
        1
176
     0
 40
1.0
176
     0
 90
       10
176
     2
 62
     7
176
     0
 40
1.0
176
     0
 90
        1
176
     0
 90
        6
176
     0
 90
        2
176
     0
 62
     7
176
     0
 90
        5
176
     0
 90
        0
176
     0
 90
        0
176
     0
290
     0
176
     0
 90
        1
176
     0
 40
0.0
176
     0
 90
        0
176
     0
290
     0
176
     0
290
     1
176
     0
290
     1
176
     0
290
     0
176
     0
290
     0
176
     0
290
     0
176
     0
290
     0
176
     0
290
     0
176
     0
290
     0
176
     0
 90
       50
176
     0
 40
0.0
176
     0
 40
1.0
176
     0
 90
        0
176
     0
 62
    18
420
        0
176
     0
 90
       50
176
     0
 90
        3
176
     0
 62
     5
420
      255
176
     0
290
     0
176
     0
 90
       50
176
     0
 90
       50
176
     0
 90
       50
176
     0
290
     0
176
     0
 90
       50
176
     0
 62
   256
176
     0
 40
1.0
176
     0
 90
        2
176
     0
  1
strokes_ogs.tif
176
     0
290
     0
176
     0
 40
1.0
176
     0
 40
1.0
176
     0
  0
VISUALSTYLE
  5
564
102
{ACAD_REACTORS
330
556
102
}
330
556
100
AcDbVisualStyle
  2
Linepattern
 70
    14
177
     3
291
     1
 70
    58
 90
        2
176
     1
 90
        2
176
     1
 90
        0
176
     1
 90
        0
176
     1
 40
0.6
176
     1
 40
30.0
176
     1
 62
     7
420
 16777215
176
     1
 90
        1
176
     1
 90
        4
176
     1
 62
     7
176
     1
 62
   257
176
     1
 90
        7
176
     1
 90
        7
176
     1
 40
1.0
176
     1
 90
        8
176
     1
 62
     7
176
     1
 40
1.0
176
     1
 90
        1
176
     1
 90
        6
176
     1
 90
        2
176
     1
 62
     7
176
     1
 90
        5
176
     1
 90
        0
176
     1
 90
        0
176
     1
290
     0
176
     1
 90
        1
176
     1
 40
0.0
176
     1
 90
        0
176
     1
290
     0
176
     1
290
     1
176
     1
290
     1
176
     1
290
     0
176
     1
290
     0
176
     1
290
     0
176
     1
290
     0
176
     1
290
     0
176
     1
290
     0
176
     1
 90
       50
176
     1
 40
0.0
176
     1
 40
1.0
176
     1
 90
        0
176
     1
 62
    18
420
        0
176
     1
 90
       50
176
     1
 90
        3
176
     1
 62
     5
420
      255
176
     1
290
     0
176
     1
 90
       50
176
     1
 90
       50
176
     1
 90
       50
176
     1
290
     0
176
     1
 90
       50
176
     1
 62
   256
176
     0
 40
1.0
176
     0
 90
        2
176
     1
  1
strokes_ogs.tif
176
     1
290
     0
176
     1
 40
1.0
176
     1
 40
1.0
176
     1
  0
VISUALSTYLE
  5
568
102
{ACAD_REACTORS
330
556
102
}
330
556
100
AcDbVisualStyle
  2
OverhangOff
 70
    21
177
     3
291
     1
 70
    58
 90
        2
176
     0
 90
        2
176
     0
 90
        0
176
     0
 90
        0
176
     0
 40
0.6
176
     0
 40
30.0
176
     0
 62
     7
420
 16777215
176
     0
 90
        1
176
     0
 90
        4
176
     0
 62
     7
176
     0
 62
   257
176
     0
 90
        1
176
     0
 90
        1
176
     0
 40
1.0
176
     0
 90
        9
176
     2
 62
     7
176
     0
 40
1.0
176
     0
 90
        1
176
     0
 90
        6
176
     0
 90
        2
176
     0
 62
     7
176
     0
 90
        5
176
     0
 90
        0
176
     0
 90
        0
176
     0
290
     0
176
     0
 90
        1
176
     0
 40
0.0
176
     0
 90
        0
176
     0
290
     0
176
     0
290
     1
176
     0
290
     1
176
     0
290
     0
176
     0
290
     0
176
     0
290
     0
176
     0
290
     0
176
     0
290
     0
176
     0
290
     0
176
     0
 90
       50
176
     0
 40
0.0
176
     0
 40
1.0
176
     0
 90
        0
176
     0
 62
    18
420
        0
176
     0
 90
       50
176
     0
 90
        3
176
     0
 62
     5
420
      255
176
     0
290
     0
176
     0
 90
       50
176
     0
 90
       50
176
     0
 90
       50
176
     0
290
     0
176
     0
 90
       50
176
     0
 62
   256
176
     0
 40
1.0
176
     0
 90
        2
176
     0
  1
strokes_ogs.tif
176
     0
290
     0
176
     0
 40
1.0
176
     0
 40
1.0
176
     0
  0
VISUALSTYLE
  5
55F
102
{ACAD_REACTORS
330
556
102
}
330
556
100
AcDbVisualStyle
  2
Realistic
 70
     8
177
     3
291
     0
 70
    58
 90
        2
176
     1
 90
        3
176
     1
 90
        0
176
     1
 90
        2
176
     1
 40
0.6
176
     1
 40
30.0
176
     1
 62
     7
420
 16777215
176
     1
 90
        0
176
     1
 90
        0
176
     1
 62
     7
176
     1
 62
   257
176
     1
 90
        1
176
     1
 90
        1
176
     1
 40
1.0
176
     1
 90
        8
176
     1
 62
   257
176
     1
 40
1.0
176
     1
 90
        1
176
     1
 90
        6
176
     1
 90
        2
176
     1
 62
     7
176
     1
 90
        3
176
     1
 90
        0
176
     1
 90
        0
176
     1
290
     0
176
     1
 90
       13
176
     1
 40
0.0
176
     1
 90
        0
176
     1
290
     0
176
     1
290
     1
176
     1
290
     1
176
     1
290
     0
176
     1
290
     0
176
     1
290
     0
176
     1
290
     0
176
     1
290
     0
176
     1
290
     0
176
     1
 90
       50
176
     1
 40
0.0
176
     1
 40
1.0
176
     1
 90
        0
176
     1
 62
    18
420
        0
176
     1
 90
       50
176
     1
 90
        3
176
     1
 62
     5
420
      255
176
     1
290
     0
176
     1
 90
       50
176
     1
 90
       50
176
     1
 90
       50
176
     1
290
     0
176
     1
 90
       50
176
     1
 62
   256
176
     0
 40
1.0
176
     0
 90
        2
176
     1
  1
strokes_ogs.tif
176
     1
290
     0
176
     1
 40
1.0
176
     1
 40
1.0
176
     1
  0
VISUALSTYLE
  5
56E
102
{ACAD_REACTORS
330
556
102
}
330
556
100
AcDbVisualStyle
  2
Shaded
 70
    27
177
     3
291
     0
 70
    58
 90
        2
176
     1
 90
        2
176
     1
 90
        1
176
     1
 90
        2
176
     1
 40
0.6
176
     1
 40
30.0
176
     1
 62
     7
420
 16777215
176
     1
 90
        0
176
     1
 90
        4
176
     1
 62
     7
176
     1
 62
   257
176
     1
 90
        1
176
     1
 90
        1
176
     1
 40
1.0
176
     1
 90
        8
176
     1
 62
   257
176
     1
 40
1.0
176
     1
 90
        1
176
     1
 90
        6
176
     1
 90
        2
176
     1
 62
     8
420
  7895160
176
     1
 90
        3
176
     1
 90
        0
176
     1
 90
        0
176
     1
290
     0
176
     1
 90
        5
176
     1
 40
0.0
176
     1
 90
        0
176
     1
290
     0
176
     1
290
     1
176
     1
290
     1
176
     1
290
     0
176
     1
290
     0
176
     1
290
     0
176
     1
290
     0
176
     1
290
     0
176
     1
290
     0
176
     1
 90
       50
176
     1
 40
0.0
176
     1
 40
1.0
176
     1
 90
        0
176
     1
 62
    18
420
        0
176
     1
 90
       50
176
     1
 90
        3
176
     1
 62
     5
420
      255
176
     1
290
     0
176
     1
 90
       50
176
     1
 90
       50
176
     1
 90
       50
176
     1
290
     0
176
     1
 90
       50
176
     1
 62
   256
176
     0
 40
1.0
176
     0
 90
        2
176
     1
  1
strokes_ogs.tif
176
     1
290
     0
176
     1
 40
1.0
176
     1
 40
1.0
176
     1
  0
VISUALSTYLE
  5
56D
102
{ACAD_REACTORS
330
556
102
}
330
556
100
AcDbVisualStyle
  2
Shaded with edges
 70
    26
177
     3
291
     0
 70
    58
 90
        2
176
     1
 90
        2
176
     1
 90
        1
176
     1
 90
        2
176
     1
 40
0.6
176
     1
 40
30.0
176
     1
 62
     7
420
 16777215
176
     1
 90
        1
176
     1
 90
       10
176
     1
 62
     7
176
     1
 62
   257
176
     1
 90
        2
176
     1
 90
        1
176
     1
 40
1.0
176
     1
 90
        8
176
     1
 62
   257
176
     1
 40
1.0
176
     1
 90
        1
176
     1
 90
        6
176
     1
 90
        2
176
     1
 62
     7
176
     1
 90
        3
176
     1
 90
        0
176
     1
 90
        0
176
     1
290
     0
176
     1
 90
        5
176
     1
 40
0.0
176
     1
 90
        0
176
     1
290
     0
176
     1
290
     1
176
     1
290
     1
176
     1
290
     0
176
     1
290
     0
176
     1
290
     0
176
     1
290
     0
176
     1
290
     0
176
     1
290
     0
176
     1
 90
       50
176
     1
 40
0.0
176
     1
 40
1.0
176
     1
 90
        0
176
     1
 62
    18
420
        0
176
     1
 90
       50
176
     1
 90
        3
176
     1
 62
     5
420
      255
176
     1
290
     0
176
     1
 90
       50
176
     1
 90
       50
176
     1
 90
       50
176
     1
290
     0
176
     1
 90
       50
176
     1
 62
   256
176
     0
 40
1.0
176
     0
 90
        2
176
     1
  1
strokes_ogs.tif
176
     1
290
     0
176
     1
 40
1.0
176
     1
 40
1.0
176
     1
  0
VISUALSTYLE
  5
56A
102
{ACAD_REACTORS
330
556
102
}
330
556
100
AcDbVisualStyle
  2
Shades of Gray
 70
    23
177
     3
291
     0
 70
    58
 90
        2
176
     1
 90
        2
176
     1
 90
        3
176
     1
 90
        0
176
     1
 40
0.6
176
     1
 40
30.0
176
     1
 62
     7
420
 16777215
176
     1
 90
        2
176
     1
 90
        2
176
     1
 62
     7
176
     1
 62
     7
176
     1
 90
        1
176
     1
 90
        1
176
     1
 40
40.0
176
     1
 90
        8
176
     1
 62
     7
176
     1
 40
1.0
176
     1
 90
        1
176
     1
 90
        6
176
     1
 90
        2
176
     1
 62
     7
176
     1
 90
        3
176
     1
 90
        0
176
     1
 90
        0
176
     1
290
     0
176
     1
 90
        1
176
     1
 40
0.0
176
     1
 90
        0
176
     1
290
     0
176
     1
290
     1
176
     1
290
     1
176
     1
290
     0
176
     1
290
     0
176
     1
290
     0
176
     1
290
     0
176
     1
290
     0
176
     1
290
     0
176
     1
 90
       50
176
     1
 40
0.0
176
     1
 40
1.0
176
     1
 90
        0
176
     1
 62
    18
420
        0
176
     1
 90
       50
176
     1
 90
        3
176
     1
 62
     5
420
      255
176
     1
290
     0
176
     1
 90
       50
176
     1
 90
       50
176
     1
 90
       50
176
     1
290
     0
176
     1
 90
       50
176
     1
 62
   256
176
     0
 40
1.0
176
     0
 90
        2
176
     1
  1
strokes_ogs.tif
176
     1
290
     0
176
     1
 40
1.0
176
     1
 40
1.0
176
     1
  0
VISUALSTYLE
  5
56B
102
{ACAD_REACTORS
330
556
102
}
330
556
100
AcDbVisualStyle
  2
Sketchy
 70
    24
177
     3
291
     0
 70
    58
 90
        1
176
     1
 90
        2
176
     1
 90
        2
176
     1
 90
        0
176
     1
 40
0.6
176
     1
 40
30.0
176
     1
 62
     7
420
 16777215
176
     1
 90
        2
176
     1
 90
        2
176
     1
 62
     7
176
     1
 62
     7
176
     1
 90
        1
176
     1
 90
        1
176
     1
 40
40.0
176
     1
 90
       11
176
     1
 62
     7
176
     1
 40
1.0
176
     1
 90
        1
176
     1
 90
        6
176
     1
 90
        2
176
     1
 62
     7
176
     1
 90
        6
176
     1
 90
        0
176
     1
 90
        0
176
     1
290
     0
176
     1
 90
        1
176
     1
 40
0.0
176
     1
 90
        0
176
     1
290
     0
176
     1
290
     1
176
     1
290
     1
176
     1
290
     0
176
     1
290
     0
176
     1
290
     0
176
     1
290
     0
176
     1
290
     0
176
     1
290
     0
176
     1
 90
       50
176
     1
 40
0.0
176
     1
 40
1.0
176
     1
 90
        0
176
     1
 62
    18
420
        0
176
     1
 90
       50
176
     1
 90
        3
176
     1
 62
     5
420
      255
176
     1
290
     0
176
     1
 90
       50
176
     1
 90
       50
176
     1
 90
       50
176
     1
290
     0
176
     1
 90
       50
176
     1
 62
   256
176
     0
 40
1.0
176
     0
 90
        2
176
     1
  1
strokes_ogs.tif
176
     1
290
     0
176
     1
 40
1.0
176
     1
 40
1.0
176
     1
  0
VISUALSTYLE
  5
563
102
{ACAD_REACTORS
330
556
102
}
330
556
100
AcDbVisualStyle
  2
Thicken
 70
    13
177
     3
291
     1
 70
    58
 90
        2
176
     1
 90
        2
176
     1
 90
        0
176
     1
 90
        0
176
     1
 40
0.6
176
     1
 40
30.0
176
     1
 62
     7
420
 16777215
176
     1
 90
        1
176
     1
 90
        4
176
     1
 62
     7
176
     1
 62
   257
176
     1
 90
        1
176
     1
 90
        1
176
     1
 40
1.0
176
     1
 90
       12
176
     1
 62
     7
176
     1
 40
1.0
176
     1
 90
        1
176
     1
 90
        6
176
     1
 90
        2
176
     1
 62
     7
176
     1
 90
        5
176
     1
 90
        0
176
     1
 90
        0
176
     1
290
     0
176
     1
 90
        1
176
     1
 40
0.0
176
     1
 90
        0
176
     1
290
     0
176
     1
290
     1
176
     1
290
     1
176
     1
290
     0
176
     1
290
     0
176
     1
290
     0
176
     1
290
     0
176
     1
290
     0
176
     1
290
     0
176
     1
 90
       50
176
     1
 40
0.0
176
     1
 40
1.0
176
     1
 90
        0
176
     1
 62
    18
420
        0
176
     1
 90
       50
176
     1
 90
        3
176
     1
 62
     5
420
      255
176
     1
290
     0
176
     1
 90
       50
176
     1
 90
       50
176
     1
 90
       50
176
     1
290
     0
176
     1
 90
       50
176
     1
 62
   256
176
     0
 40
1.0
176
     0
 90
        2
176
     1
  1
strokes_ogs.tif
176
     1
290
     0
176
     1
 40
1.0
176
     1
 40
1.0
176
     1
  0
VISUALSTYLE
  5
55C
102
{ACAD_REACTORS
330
556
102
}
330
556
100
AcDbVisualStyle
  2
Wireframe
 70
     5
177
     3
291
     0
 70
    58
 90
        0
176
     1
 90
        2
176
     1
 90
        0
176
     1
 90
        0
176
     1
 40
0.6
176
     1
 40
30.0
176
     1
 62
     7
420
 16777215
176
     1
 90
        1
176
     1
 90
        4
176
     1
 62
     7
176
     1
 62
   257
176
     1
 90
        1
176
     1
 90
        1
176
     1
 40
1.0
176
     1
 90
        0
176
     1
 62
   257
176
     1
 40
1.0
176
     1
 90
        1
176
     1
 90
        6
176
     1
 90
        2
176
     1
 62
     7
176
     1
 90
        3
176
     1
 90
        0
176
     1
 90
        0
176
     1
290
     0
176
     1
 90
        1
176
     1
 40
0.0
176
     1
 90
        0
176
     1
290
     0
176
     1
290
     1
176
     1
290
     1
176
     1
290
     0
176
     1
290
     0
176
     1
290
     0
176
     1
290
     0
176
     1
290
     0
176
     1
290
     0
176
     1
 90
       50
176
     1
 40
0.0
176
     1
 40
1.0
176
     1
 90
        0
176
     1
 62
    18
420
        0
176
     1
 90
       50
176
     1
 90
        3
176
     1
 62
     5
420
      255
176
     1
290
     0
176
     1
 90
       50
176
     1
 90
       50
176
     1
 90
       50
176
     1
290
     0
176
     1
 90
       50
176
     1
 62
   256
176
     0
 40
1.0
176
     0
 90
        2
176
     1
  1
strokes_ogs.tif
176
     1
290
     0
176
     1
 40
1.0
176
     1
 40
1.0
176
     1
  0
VISUALSTYLE
  5
56C
102
{ACAD_REACTORS
330
556
102
}
330
556
100
AcDbVisualStyle
  2
X-Ray
 70
    25
177
     3
291
     0
 70
    58
 90
        2
176
     1
 90
        2
176
     1
 90
        1
176
     1
 90
        1
176
     1
 40
0.5
176
     1
 40
30.0
176
     1
 62
     7
420
 16777215
176
     1
 90
        1
176
     1
 90
        0
176
     1
 62
     7
176
     1
 62
   257
176
     1
 90
        1
176
     1
 90
        1
176
     1
 40
1.0
176
     1
 90
        8
176
     1
 62
     7
176
     1
 40
1.0
176
     1
 90
        1
176
     1
 90
        6
176
     1
 90
        2
176
     1
 62
     7
176
     1
 90
        3
176
     1
 90
        0
176
     1
 90
        0
176
     1
290
     0
176
     1
 90
       13
176
     1
 40
0.0
176
     1
 90
        0
176
     1
290
     0
176
     1
290
     1
176
     1
290
     1
176
     1
290
     0
176
     1
290
     0
176
     1
290
     0
176
     1
290
     0
176
     1
290
     0
176
     1
290
     0
176
     1
 90
       50
176
     1
 40
0.0
176
     1
 40
1.0
176
     1
 90
        0
176
     1
 62
    18
420
        0
176
     1
 90
       50
176
     1
 90
        3
176
     1
 62
     5
420
      255
176
     1
290
     0
176
     1
 90
       50
176
     1
 90
       50
176
     1
 90
       50
176
     1
290
     0
176
     1
 90
       50
176
     1
 62
   256
176
     0
 40
1.0
176
     0
 90
        2
176
     1
  1
strokes_ogs.tif
176
     1
290
     0
176
     1
 40
1.0
176
     1
 40
1.0
176
     1
  0
DICTIONARYVAR
  5
58A
102
{ACAD_REACTORS
330
589
102
}
330
589
100
DictionaryVariables
280
     0
  1
1:1
  0
DICTIONARYVAR
  5
58C
102
{ACAD_REACTORS
330
589
102
}
330
589
100
DictionaryVariables
280
     0
  1
Standard
  0
DICTIONARYVAR
  5
58B
102
{ACAD_REACTORS
330
589
102
}
330
589
100
DictionaryVariables
280
     0
  1
Standard
  0
DICTIONARYVAR
  5
58D
102
{ACAD_REACTORS
330
589
102
}
330
589
100
DictionaryVariables
280
     0
  1
0
  0
DICTIONARY
  5
5A3
330
574
100
AcDbDictionary
280
     1
281
     1
  3
ACAD_ROUNDTRIP_2008_TABLESTYLE_CELLSTYLEMAP
360
5A4
  0
CELLSTYLEMAP
  5
5A4
102
{ACAD_REACTORS
330
5A3
102
}
330
5A3
100
AcDbCellStyleMap
 90
        3
300
CELLSTYLE
  1
TABLEFORMAT_BEGIN
 90
        5
170
     1
 91
        0
 92
    32768
 62
   257
 93
        1
300
CONTENTFORMAT
  1
CONTENTFORMAT_BEGIN
 90
        0
 91
        0
 92
        4
 93
        0
300

 40
0.0
140
1.0
 94
        5
 62
     0
340
11
144
6.0
309
CONTENTFORMAT_END
171
     1
301
MARGIN
  1
CELLMARGIN_BEGIN
 40
1.5
 40
1.5
 40
1.5
 40
1.5
 40
1.5
 40
1.5
309
CELLMARGIN_END
 94
        6
 95
        1
302
GRIDFORMAT
  1
GRIDFORMAT_BEGIN
 90
        0
 91
        1
 62
     0
 92
       -2
340
14
 93
        0
 40
0.045
309
GRIDFORMAT_END
 95
        2
302
GRIDFORMAT
  1
GRIDFORMAT_BEGIN
 90
        0
 91
        1
 62
     0
 92
       -2
340
14
 93
        0
 40
0.045
309
GRIDFORMAT_END
 95
        4
302
GRIDFORMAT
  1
GRIDFORMAT_BEGIN
 90
        0
 91
        1
 62
     0
 92
       -2
340
14
 93
        0
 40
0.045
309
GRIDFORMAT_END
 95
        8
302
GRIDFORMAT
  1
GRIDFORMAT_BEGIN
 90
        0
 91
        1
 62
     0
 92
       -2
340
14
 93
        0
 40
0.045
309
GRIDFORMAT_END
 95
       16
302
GRIDFORMAT
  1
GRIDFORMAT_BEGIN
 90
        0
 91
        1
 62
     0
 92
       -2
340
14
 93
        0
 40
0.045
309
GRIDFORMAT_END
 95
       32
302
GRIDFORMAT
  1
GRIDFORMAT_BEGIN
 90
        0
 91
        1
 62
     0
 92
       -2
340
14
 93
        0
 40
0.045
309
GRIDFORMAT_END
309
TABLEFORMAT_END
  1
CELLSTYLE_BEGIN
 90
        1
 91
        1
300
_TITLE
309
CELLSTYLE_END
300
CELLSTYLE
  1
TABLEFORMAT_BEGIN
 90
        5
170
     1
 91
        0
 92
        0
 62
   257
 93
        1
300
CONTENTFORMAT
  1
CONTENTFORMAT_BEGIN
 90
        0
 91
        0
 92
        4
 93
        0
300

 40
0.0
140
1.0
 94
        5
 62
     0
340
11
144
4.5
309
CONTENTFORMAT_END
171
     1
301
MARGIN
  1
CELLMARGIN_BEGIN
 40
1.5
 40
1.5
 40
1.5
 40
1.5
 40
1.5
 40
1.5
309
CELLMARGIN_END
 94
        6
 95
        1
302
GRIDFORMAT
  1
GRIDFORMAT_BEGIN
 90
        0
 91
        1
 62
     0
 92
       -2
340
14
 93
        0
 40
0.045
309
GRIDFORMAT_END
 95
        2
302
GRIDFORMAT
  1
GRIDFORMAT_BEGIN
 90
        0
 91
        1
 62
     0
 92
       -2
340
14
 93
        0
 40
0.045
309
GRIDFORMAT_END
 95
        4
302
GRIDFORMAT
  1
GRIDFORMAT_BEGIN
 90
        0
 91
        1
 62
     0
 92
       -2
340
14
 93
        0
 40
0.045
309
GRIDFORMAT_END
 95
        8
302
GRIDFORMAT
  1
GRIDFORMAT_BEGIN
 90
        0
 91
        1
 62
     0
 92
       -2
340
14
 93
        0
 40
0.045
309
GRIDFORMAT_END
 95
       16
302
GRIDFORMAT
  1
GRIDFORMAT_BEGIN
 90
        0
 91
        1
 62
     0
 92
       -2
340
14
 93
        0
 40
0.045
309
GRIDFORMAT_END
 95
       32
302
GRIDFORMAT
  1
GRIDFORMAT_BEGIN
 90
        0
 91
        1
 62
     0
 92
       -2
340
14
 93
        0
 40
0.045
309
GRIDFORMAT_END
309
TABLEFORMAT_END
  1
CELLSTYLE_BEGIN
 90
        2
 91
        1
300
_HEADER
309
CELLSTYLE_END
300
CELLSTYLE
  1
TABLEFORMAT_BEGIN
 90
        5
170
     1
 91
        0
 92
        0
 62
   257
 93
        1
300
CONTENTFORMAT
  1
CONTENTFORMAT_BEGIN
 90
        0
 91
        0
 92
        4
 93
        0
300

 40
0.0
140
1.0
 94
        2
 62
     0
340
11
144
4.5
309
CONTENTFORMAT_END
171
     1
301
MARGIN
  1
CELLMARGIN_BEGIN
 40
1.5
 40
1.5
 40
1.5
 40
1.5
 40
1.5
 40
1.5
309
CELLMARGIN_END
 94
        6
 95
        1
302
GRIDFORMAT
  1
GRIDFORMAT_BEGIN
 90
        0
 91
        1
 62
     0
 92
       -2
340
14
 93
        0
 40
0.045
309
GRIDFORMAT_END
 95
        2
302
GRIDFORMAT
  1
GRIDFORMAT_BEGIN
 90
        0
 91
        1
 62
     0
 92
       -2
340
14
 93
        0
 40
0.045
309
GRIDFORMAT_END
 95
        4
302
GRIDFORMAT
  1
GRIDFORMAT_BEGIN
 90
        0
 91
        1
 62
     0
 92
       -2
340
14
 93
        0
 40
0.045
309
GRIDFORMAT_END
 95
        8
302
GRIDFORMAT
  1
GRIDFORMAT_BEGIN
 90
        0
 91
        1
 62
     0
 92
       -2
340
14
 93
        0
 40
0.045
309
GRIDFORMAT_END
 95
       16
302
GRIDFORMAT
  1
GRIDFORMAT_BEGIN
 90
        0
 91
        1
 62
     0
 92
       -2
340
14
 93
        0
 40
0.045
309
GRIDFORMAT_END
 95
       32
302
GRIDFORMAT
  1
GRIDFORMAT_BEGIN
 90
        0
 91
        1
 62
     0
 92
       -2
340
14
 93
        0
 40
0.045
309
GRIDFORMAT_END
309
TABLEFORMAT_END
  1
CELLSTYLE_BEGIN
 90
        3
 91
        2
300
_DATA
309
CELLSTYLE_END
  0
ENDSEC
  0
EOF
