  0
SECTION
  2
HEADER
  9
$ACADVER
  1
AC1032
  9
$ACADMAINTVER
 90
        4
  9
$DWGCODEPAGE
  3
ANSI_932
  9
$LASTSAVEDBY
  1
9128
  9
$REQUIREDVERSIONS
160
                 0
  9
$INSBASE
 10
0.0
 20
0.0
 30
0.0
  9
$EXTMIN
 10
80.29344306870757
 20
56.20854323877133
 30
0.0
  9
$EXTMAX
 10
233.6006320556223
 20
218.2969628253813
 30
0.0
  9
$LIMMIN
 10
0.0
 20
0.0
  9
$LIMMAX
 10
431.8
 20
279.4
  9
$ORTHOMODE
 70
     0
  9
$REGENMODE
 70
     1
  9
$FILLMODE
 70
     1
  9
$QTEXTMODE
 70
     0
  9
$MIRRTEXT
 70
     1
  9
$LTSCALE
 40
1.0
  9
$ATTMODE
 70
     1
  9
$TEXTSIZE
 40
3.5
  9
$TRACEWID
 40
1.0
  9
$TEXTSTYLE
  7
Standard
  9
$CLAYER
  8
0
  9
$CELTYPE
  6
ByLayer
  9
$CECOLOR
 62
   256
  9
$CELTSCALE
 40
1.0
  9
$DISPSILH
 70
     0
  9
$DIMSCALE
 40
1.0
  9
$DIMASZ
 40
3.302
  9
$DIMEXO
 40
1.0
  9
$DIMDLI
 40
3.75
  9
$DIMRND
 40
0.0
  9
$DIMDLE
 40
0.0
  9
$DIMEXE
 40
1.0
  9
$DIMTP
 40
0.0
  9
$DIMTM
 40
0.0
  9
$DIMTXT
 40
3.5
  9
$DIMCEN
 40
2.5
  9
$DIMTSZ
 40
0.0
  9
$DIMTOL
 70
     0
  9
$DIMLIM
 70
     0
  9
$DIMTIH
 70
     1
  9
$DIMTOH
 70
     1
  9
$DIMSE1
 70
     0
  9
$DIMSE2
 70
     0
  9
$DIMTAD
 70
     1
  9
$DIMZIN
 70
     1
  9
$DIMBLK
  1

  9
$DIMASO
 70
     1
  9
$DIMSHO
 70
     1
  9
$DIMPOST
  1

  9
$DIMAPOST
  1

  9
$DIMALT
 70
     0
  9
$DIMALTD
 70
     3
  9
$DIMALTF
 40
0.0393700787401575
  9
$DIMLFAC
 40
2.0
  9
$DIMTOFL
 70
     1
  9
$DIMTVP
 40
0.0
  9
$DIMTIX
 70
     0
  9
$DIMSOXD
 70
     0
  9
$DIMSAH
 70
     0
  9
$DIMBLK1
  1

  9
$DIMBLK2
  1

  9
$DIMSTYLE
  2
ISO-25
  9
$DIMCLRD
 70
     0
  9
$DIMCLRE
 70
     0
  9
$DIMCLRT
 70
     0
  9
$DIMTFAC
 40
1.0
  9
$DIMGAP
 40
1.524
  9
$DIMJUST
 70
     0
  9
$DIMSD1
 70
     0
  9
$DIMSD2
 70
     0
  9
$DIMTOLJ
 70
     0
  9
$DIMTZIN
 70
     1
  9
$DIMALTZ
 70
     0
  9
$DIMALTTZ
 70
     0
  9
$DIMUPT
 70
     0
  9
$DIMDEC
 70
     2
  9
$DIMTDEC
 70
     2
  9
$DIMALTU
 70
     2
  9
$DIMALTTD
 70
     3
  9
$DIMTXSTY
  7
Standard
  9
$DIMAUNIT
 70
     0
  9
$DIMADEC
 70
     2
  9
$DIMALTRND
 40
0.0
  9
$DIMAZIN
 70
     0
  9
$DIMDSEP
 70
    44
  9
$DIMATFIT
 70
     3
  9
$DIMFRAC
 70
     0
  9
$DIMLDRBLK
  1

  9
$DIMLUNIT
 70
     2
  9
$DIMLWD
 70
    -2
  9
$DIMLWE
 70
    -2
  9
$DIMTMOVE
 70
     0
  9
$DIMFXL
 40
1.0
  9
$DIMFXLON
 70
     0
  9
$DIMJOGANG
 40
0.7853981633974483
  9
$DIMTFILL
 70
     0
  9
$DIMTFILLCLR
 70
     0
  9
$DIMARCSYM
 70
     0
  9
$DIMLTYPE
  6

  9
$DIMLTEX1
  6

  9
$DIMLTEX2
  6

  9
$DIMTXTDIRECTION
 70
     0
  9
$LUNITS
 70
     2
  9
$LUPREC
 70
     2
  9
$SKETCHINC
 40
1.0
  9
$FILLETRAD
 40
10.0
  9
$AUNITS
 70
     0
  9
$AUPREC
 70
     2
  9
$MENU
  1
.
  9
$ELEVATION
 40
0.0
  9
$PELEVATION
 40
0.0
  9
$THICKNESS
 40
0.0
  9
$LIMCHECK
 70
     0
  9
$CHAMFERA
 40
0.0
  9
$CHAMFERB
 40
0.0
  9
$CHAMFERC
 40
0.0
  9
$CHAMFERD
 40
0.0
  9
$SKPOLY
 70
     0
  9
$TDCREATE
 40
2459606.468379688
  9
$TDUCREATE
 40
2459606.093379688
  9
$TDUPDATE
 40
2459608.569466076
  9
$TDUUPDATE
 40
2459608.194466076
  9
$TDINDWG
 40
0.0055177315
  9
$TDUSRTIMER
 40
0.0015823148
  9
$USRTIMER
 70
     1
  9
$ANGBASE
 50
0.0
  9
$ANGDIR
 70
     0
  9
$PDMODE
 70
     0
  9
$PDSIZE
 40
-1.0
  9
$PLINEWID
 40
0.0
  9
$SPLFRAME
 70
     0
  9
$SPLINETYPE
 70
     6
  9
$SPLINESEGS
 70
     8
  9
$HANDSEED
  5
5C4
  9
$SURFTAB1
 70
     6
  9
$SURFTAB2
 70
     6
  9
$SURFTYPE
 70
     6
  9
$SURFU
 70
     6
  9
$SURFV
 70
     6
  9
$UCSBASE
  2

  9
$UCSNAME
  2

  9
$UCSORG
 10
0.0
 20
0.0
 30
0.0
  9
$UCSXDIR
 10
1.0
 20
0.0
 30
0.0
  9
$UCSYDIR
 10
0.0
 20
1.0
 30
0.0
  9
$UCSORTHOREF
  2

  9
$UCSORTHOVIEW
 70
     0
  9
$UCSORGTOP
 10
0.0
 20
0.0
 30
0.0
  9
$UCSORGBOTTOM
 10
0.0
 20
0.0
 30
0.0
  9
$UCSORGLEFT
 10
0.0
 20
0.0
 30
0.0
  9
$UCSORGRIGHT
 10
0.0
 20
0.0
 30
0.0
  9
$UCSORGFRONT
 10
0.0
 20
0.0
 30
0.0
  9
$UCSORGBACK
 10
0.0
 20
0.0
 30
0.0
  9
$PUCSBASE
  2

  9
$PUCSNAME
  2

  9
$PUCSORG
 10
0.0
 20
0.0
 30
0.0
  9
$PUCSXDIR
 10
1.0
 20
0.0
 30
0.0
  9
$PUCSYDIR
 10
0.0
 20
1.0
 30
0.0
  9
$PUCSORTHOREF
  2

  9
$PUCSORTHOVIEW
 70
     0
  9
$PUCSORGTOP
 10
0.0
 20
0.0
 30
0.0
  9
$PUCSORGBOTTOM
 10
0.0
 20
0.0
 30
0.0
  9
$PUCSORGLEFT
 10
0.0
 20
0.0
 30
0.0
  9
$PUCSORGRIGHT
 10
0.0
 20
0.0
 30
0.0
  9
$PUCSORGFRONT
 10
0.0
 20
0.0
 30
0.0
  9
$PUCSORGBACK
 10
0.0
 20
0.0
 30
0.0
  9
$USERI1
 70
     0
  9
$USERI2
 70
     0
  9
$USERI3
 70
     0
  9
$USERI4
 70
     0
  9
$USERI5
 70
     0
  9
$USERR1
 40
0.0
  9
$USERR2
 40
0.0
  9
$USERR3
 40
0.0
  9
$USERR4
 40
0.0
  9
$USERR5
 40
0.0
  9
$WORLDVIEW
 70
     1
  9
$SHADEDGE
 70
     3
  9
$SHADEDIF
 70
    70
  9
$TILEMODE
 70
     1
  9
$MAXACTVP
 70
    64
  9
$PINSBASE
 10
0.0
 20
0.0
 30
0.0
  9
$PLIMCHECK
 70
     0
  9
$PEXTMIN
 10
1.000000000000000E+20
 20
1.000000000000000E+20
 30
1.000000000000000E+20
  9
$PEXTMAX
 10
-1.000000000000000E+20
 20
-1.000000000000000E+20
 30
-1.000000000000000E+20
  9
$PLIMMIN
 10
0.0
 20
0.0
  9
$PLIMMAX
 10
0.0
 20
0.0
  9
$UNITMODE
 70
     0
  9
$VISRETAIN
 70
     1
  9
$PLINEGEN
 70
     0
  9
$PSLTSCALE
 70
     1
  9
$TREEDEPTH
 70
  3020
  9
$CMLSTYLE
  2
Standard
  9
$CMLJUST
 70
     0
  9
$CMLSCALE
 40
20.0
  9
$PROXYGRAPHICS
 70
     1
  9
$MEASUREMENT
 70
     1
  9
$CELWEIGHT
370
    -1
  9
$ENDCAPS
280
     0
  9
$JOINSTYLE
280
     0
  9
$LWDISPLAY
290
     1
  9
$INSUNITS
 70
     4
  9
$HYPERLINKBASE
  1

  9
$STYLESHEET
  1

  9
$XEDIT
290
     1
  9
$CEPSNTYPE
380
     0
  9
$PSTYLEMODE
290
     1
  9
$FINGERPRINTGUID
  2
{07ed481e-ac0d-4e6a-abb9-57b485aac611}
  9
$VERSIONGUID
  2
{FAEB1C32-E019-11D5-929B-00C0DF256EC4}
  9
$EXTNAMES
290
     1
  9
$PSVPSCALE
 40
0.0
  9
$OLESTARTUP
290
     0
  9
$SORTENTS
280
   127
  9
$INDEXCTL
280
     0
  9
$HIDETEXT
280
     1
  9
$XCLIPFRAME
280
     2
  9
$HALOGAP
280
     0
  9
$OBSCOLOR
 70
   257
  9
$OBSLTYPE
280
     0
  9
$INTERSECTIONDISPLAY
280
     0
  9
$INTERSECTIONCOLOR
 70
   257
  9
$DIMASSOC
280
     2
  9
$PROJECTNAME
  1

  9
$CAMERADISPLAY
290
     0
  9
$LENSLENGTH
 40
50.0
  9
$CAMERAHEIGHT
 40
0.0
  9
$STEPSPERSEC
 40
2.0
  9
$STEPSIZE
 40
6.0
  9
$3DDWFPREC
 40
2.0
  9
$PSOLWIDTH
 40
0.25
  9
$PSOLHEIGHT
 40
4.0
  9
$LOFTANG1
 40
1.570796326794897
  9
$LOFTANG2
 40
1.570796326794897
  9
$LOFTMAG1
 40
0.0
  9
$LOFTMAG2
 40
0.0
  9
$LOFTPARAM
 70
     7
  9
$LOFTNORMALS
280
     1
  9
$LATITUDE
 40
37.795
  9
$LONGITUDE
 40
-122.394
  9
$NORTHDIRECTION
 40
0.0
  9
$TIMEZONE
 70
 -8000
  9
$LIGHTGLYPHDISPLAY
280
     1
  9
$TILEMODELIGHTSYNCH
280
     1
  9
$SOLIDHIST
280
     0
  9
$SHOWHIST
280
     1
  9
$DWFFRAME
280
     2
  9
$DGNFRAME
280
     2
  9
$REALWORLDSCALE
290
     1
  9
$INTERFERECOLOR
 62
   256
  9
$CSHADOW
280
     0
  9
$SHADOWPLANELOCATION
 40
0.0
  0
ENDSEC
  0
SECTION
  2
CLASSES
  0
CLASS
  1
ACDBDICTIONARYWDFLT
  2
AcDbDictionaryWithDefault
  3
ObjectDBX Classes
 90
        0
 91
        3
280
     0
281
     0
  0
CLASS
  1
VISUALSTYLE
  2
AcDbVisualStyle
  3
ObjectDBX Classes
 90
     4095
 91
        3
280
     0
281
     0
  0
CLASS
  1
MATERIAL
  2
AcDbMaterial
  3
ObjectDBX Classes
 90
     1153
 91
        3
280
     0
281
     0
  0
CLASS
  1
SCALE
  2
AcDbScale
  3
ObjectDBX Classes
 90
     1153
 91
        3
280
     0
281
     0
  0
CLASS
  1
TABLESTYLE
  2
AcDbTableStyle
  3
ObjectDBX Classes
 90
     4095
 91
        3
280
     0
281
     0
  0
CLASS
  1
MLEADERSTYLE
  2
AcDbMLeaderStyle
  3
ACDB_MLEADERSTYLE_CLASS
 90
     4095
 91
        3
280
     0
281
     0
  0
CLASS
  1
SUN
  2
AcDbSun
  3
SCENEOE
 90
     1153
 91
        3
280
     0
281
     0
  0
CLASS
  1
ACDBPLACEHOLDER
  2
AcDbPlaceHolder
  3
ObjectDBX Classes
 90
        0
 91
        1
280
     0
281
     0
  0
CLASS
  1
LAYOUT
  2
AcDbLayout
  3
ObjectDBX Classes
 90
        0
 91
        1
280
     0
281
     0
  0
CLASS
  1
DICTIONARYVAR
  2
AcDbDictionaryVar
  3
ObjectDBX Classes
 90
        0
 91
        3
280
     0
281
     0
  0
CLASS
  1
CELLSTYLEMAP
  2
AcDbCellStyleMap
  3
ObjectDBX Classes
 90
     1152
 91
        3
280
     0
281
     0
  0
ENDSEC
  0
SECTION
  2
TABLES
  0
TABLE
  2
VPORT
  5
8
330
0
100
AcDbSymbolTable
 70
     1
  0
VPORT
  5
29
330
8
100
AcDbSymbolTableRecord
100
AcDbViewportTableRecord
  2
*Active
 70
     0
 10
0.0
 20
0.0
 11
1.0
 21
1.0
 12
228.4963979931919
 22
143.9654511416751
 13
0.0
 23
0.0
 14
10.0
 24
10.0
 15
10.0
 25
10.0
 16
0.0
 26
0.0
 36
1.0
 17
0.0
 27
0.0
 37
0.0
 40
523.4140411360862
 41
0.9324116743471581
 42
50.0
 43
0.0
 44
0.0
 50
0.0
 51
0.0
 71
    16
 72
  2000
 73
     1
 74
     3
 75
     0
 76
     0
 77
     0
 78
     0
281
     0
 65
     1
110
0.0
120
0.0
130
0.0
111
1.0
121
0.0
131
0.0
112
0.0
122
1.0
132
0.0
 79
     0
146
0.0
348
55C
 60
     3
 61
     5
292
     1
282
     1
141
0.0
142
0.0
 63
   256
361
5A9
  0
ENDTAB
  0
TABLE
  2
LTYPE
  5
5
330
0
100
AcDbSymbolTable
 70
     6
  0
LTYPE
  5
14
330
5
100
AcDbSymbolTableRecord
100
AcDbLinetypeTableRecord
  2
ByBlock
 70
     0
  3

 72
    65
 73
     0
 40
0.0
  0
LTYPE
  5
15
330
5
100
AcDbSymbolTableRecord
100
AcDbLinetypeTableRecord
  2
ByLayer
 70
     0
  3

 72
    65
 73
     0
 40
0.0
  0
LTYPE
  5
16
330
5
100
AcDbSymbolTableRecord
100
AcDbLinetypeTableRecord
  2
Continuous
 70
     0
  3
Solid line
 72
    65
 73
     0
 40
0.0
  0
LTYPE
  5
6E
330
5
100
AcDbSymbolTableRecord
100
AcDbLinetypeTableRecord
  2
HIDDEN
 70
     0
  3
Hidden __ __ __ __ __ __ __ __ __ __ __ __ __ __
 72
    65
 73
     2
 40
1.905
 49
1.27
 74
     0
 49
-0.635
 74
     0
  0
LTYPE
  5
6F
330
5
100
AcDbSymbolTableRecord
100
AcDbLinetypeTableRecord
  2
PHANTOM
 70
     0
  3
Phantom ______  __  __  ______  __  __  ______
 72
    65
 73
     6
 40
12.7
 49
6.35
 74
     0
 49
-1.27
 74
     0
 49
1.27
 74
     0
 49
-1.27
 74
     0
 49
1.27
 74
     0
 49
-1.27
 74
     0
  0
LTYPE
  5
70
330
5
100
AcDbSymbolTableRecord
100
AcDbLinetypeTableRecord
  2
CENTER
 70
     0
  3
Center ____ _ ____ _ ____ _ ____ _ ____ _ ____
 72
    65
 73
     4
 40
10.16
 49
6.35
 74
     0
 49
-1.27
 74
     0
 49
1.27
 74
     0
 49
-1.27
 74
     0
  0
LTYPE
  5
71
330
5
100
AcDbSymbolTableRecord
100
AcDbLinetypeTableRecord
  2
CENTERX2
 70
     0
  3
Center (2x) ________  __  ________  __  _____
 72
    65
 73
     4
 40
20.32
 49
12.7
 74
     0
 49
-2.54
 74
     0
 49
2.54
 74
     0
 49
-2.54
 74
     0
  0
LTYPE
  5
72
330
5
100
AcDbSymbolTableRecord
100
AcDbLinetypeTableRecord
  2
DOT2
 70
     0
  3
Dot (.5x) ........................................
 72
    65
 73
     2
 40
0.635
 49
0.0
 74
     0
 49
-0.635
 74
     0
  0
ENDTAB
  0
TABLE
  2
LAYER
  5
2
102
{ACAD_XDICTIONARY
360
5B5
102
}
330
0
100
AcDbSymbolTable
 70
     1
  0
LAYER
  5
10
330
2
100
AcDbSymbolTableRecord
100
AcDbLayerTableRecord
  2
0
 70
     0
 62
     7
  6
Continuous
370
    -3
390
F
347
573
348
0
  0
ENDTAB
  0
TABLE
  2
STYLE
  5
3
330
0
100
AcDbSymbolTable
 70
     1
  0
STYLE
  5
11
330
3
100
AcDbSymbolTableRecord
100
AcDbTextStyleTableRecord
  2
Standard
 70
     0
 40
0.0
 41
1.0
 50
0.0
 71
     0
 42
3.5
  3
txt
  4
bigfont
  0
ENDTAB
  0
TABLE
  2
VIEW
  5
6
330
0
100
AcDbSymbolTable
 70
     0
  0
ENDTAB
  0
TABLE
  2
UCS
  5
7
330
0
100
AcDbSymbolTable
 70
     0
  0
ENDTAB
  0
TABLE
  2
APPID
  5
9
330
0
100
AcDbSymbolTable
 70
     2
  0
APPID
  5
12
330
9
100
AcDbSymbolTableRecord
100
AcDbRegAppTableRecord
  2
ACAD
 70
     0
  0
APPID
  5
5C0
330
9
100
AcDbSymbolTableRecord
100
AcDbRegAppTableRecord
  2
PLOTTRANSPARENCY
 70
     0
  0
ENDTAB
  0
TABLE
  2
DIMSTYLE
  5
A
330
0
100
AcDbSymbolTable
 70
     2
100
AcDbDimStyleTable
  0
DIMSTYLE
105
27
330
A
100
AcDbSymbolTableRecord
100
AcDbDimStyleTableRecord
  2
ISO-25
 70
     0
 41
2.5
 42
0.625
 43
3.75
 44
1.25
 73
     0
 74
     0
 77
     1
 78
     8
140
2.5
141
2.5
143
0.03937007874016
147
0.625
171
     3
172
     1
178
     0
271
     2
272
     2
274
     3
278
    44
283
     0
284
     8
340
11
  0
DIMSTYLE
105
5AD
330
A
100
AcDbSymbolTableRecord
100
AcDbDimStyleTableRecord
  2
Standard
 70
     0
178
     0
340
11
  0
ENDTAB
  0
TABLE
  2
BLOCK_RECORD
  5
1
330
0
100
AcDbSymbolTable
 70
     1
  0
BLOCK_RECORD
  5
1F
330
1
100
AcDbSymbolTableRecord
100
AcDbBlockTableRecord
  2
*Model_Space
340
22
 70
     0
280
     1
281
     0
  0
BLOCK_RECORD
  5
1B
330
1
100
AcDbSymbolTableRecord
100
AcDbBlockTableRecord
  2
*Paper_Space
340
1E
 70
     0
280
     1
281
     0
  0
BLOCK_RECORD
  5
23
330
1
100
AcDbSymbolTableRecord
100
AcDbBlockTableRecord
  2
*Paper_Space0
340
26
 70
     0
280
     1
281
     0
  0
ENDTAB
  0
ENDSEC
  0
SECTION
  2
BLOCKS
  0
BLOCK
  5
20
330
1F
100
AcDbEntity
  8
0
100
AcDbBlockBegin
  2
*Model_Space
 70
     0
 10
0.0
 20
0.0
 30
0.0
  3
*Model_Space
  1

  0
ENDBLK
  5
21
330
1F
100
AcDbEntity
  8
0
100
AcDbBlockEnd
  0
BLOCK
  5
1C
330
1B
100
AcDbEntity
 67
     1
  8
0
100
AcDbBlockBegin
  2
*Paper_Space
 70
     0
 10
0.0
 20
0.0
 30
0.0
  3
*Paper_Space
  1

  0
ENDBLK
  5
1D
330
1B
100
AcDbEntity
 67
     1
  8
0
100
AcDbBlockEnd
  0
BLOCK
  5
24
330
23
100
AcDbEntity
  8
0
100
AcDbBlockBegin
  2
*Paper_Space0
 70
     0
 10
0.0
 20
0.0
 30
0.0
  3
*Paper_Space0
  1

  0
ENDBLK
  5
25
330
23
100
AcDbEntity
  8
0
100
AcDbBlockEnd
  0
ENDSEC
  0
SECTION
  2
ENTITIES
  0
LINE
  5
73
330
1F
100
AcDbEntity
  8
0
  6
Continuous
 62
     7
370
    25
100
AcDbLine
 10
129.2684642482239
 20
64.01610265080333
 30
0.0
 11
126.9063460346739
 21
64.5791691339266
 31
0.0
  0
LINE
  5
74
330
1F
100
AcDbEntity
  8
0
  6
Continuous
 62
     7
370
    25
100
AcDbLine
 10
125.9788391798241
 20
60.68818840482925
 30
0.0
 11
129.3611103304883
 21
59.88194445359554
 31
0.0
  0
SPLINE
  5
75
330
1F
100
AcDbEntity
  8
0
  6
Continuous
 62
     7
370
    25
100
AcDbSpline
210
0.0
220
0.0
230
1.0
 70
     8
 71
     3
 72
    18
 73
    14
 74
     0
 42
0.000000001
 43
0.00000001
 40
0.0
 40
0.0
 40
0.0
 40
0.0
 40
0.0237356721363595
 40
0.1208439508593091
 40
0.2204580345974509
 40
0.3239571761312909
 40
0.4307849899135809
 40
0.5396448755947357
 40
0.6501044569226584
 40
0.7624560433459605
 40
0.8640214978766468
 40
0.962225983374586
 40
1.0
 40
1.0
 40
1.0
 40
1.0
 10
137.9991196922041
 20
56.62569970696252
 30
0.0
 10
138.05743836429
 20
56.63129505781736
 30
0.0
 10
138.3543525912497
 20
56.65978231951605
 30
0.0
 10
138.8600556230263
 20
56.91101160181622
 30
0.0
 10
139.4715497072578
 20
57.36153703982763
 30
0.0
 10
139.9854490497425
 20
57.99134975130148
 30
0.0
 10
140.3723575755918
 20
58.75167212549458
 30
0.0
 10
140.5994300236178
 20
59.60511582988632
 30
0.0
 10
140.6418935259872
 20
60.49487516277155
 30
0.0
 10
140.4920619225821
 20
61.33725658299846
 30
0.0
 10
140.1604564933533
 20
62.05826108988176
 30
0.0
 10
139.8057328137606
 20
62.55057575543007
 30
0.0
 10
139.5267516347374
 20
62.73800541257474
 30
0.0
 10
139.4492523276407
 20
62.79007225310115
 30
0.0
  0
LINE
  5
76
330
1F
100
AcDbEntity
  8
0
  6
Continuous
 62
     7
370
    25
100
AcDbLine
 10
115.1263286244918
 20
67.67635668864801
 30
0.0
 11
112.7642104109418
 21
68.23942317177128
 31
0.0
  0
LINE
  5
77
330
1F
100
AcDbEntity
  8
0
  6
Continuous
 62
     7
370
    25
100
AcDbLine
 10
111.836703556092
 20
64.34844244267394
 30
0.0
 11
115.2189747067562
 21
63.54219849144023
 31
0.0
  0
LINE
  5
78
330
1F
100
AcDbEntity
  8
0
  6
Continuous
 62
     7
370
    25
100
AcDbLine
 10
132.1883339787331
 20
57.18770571033059
 30
0.0
 11
133.2287921497026
 21
56.96762078098991
 31
0.0
  0
SPLINE
  5
79
330
1F
100
AcDbEntity
  8
0
  6
Continuous
 62
     7
370
    25
100
AcDbSpline
210
0.0
220
0.0
230
1.0
 70
     8
 71
     3
 72
    13
 73
     9
 74
     0
 42
0.000000001
 43
0.00000001
 40
0.0
 40
0.0
 40
0.0
 40
0.0
 40
0.1095085192792791
 40
0.3137020654807495
 40
0.5189394114893202
 40
0.7249963992394652
 40
0.9309113561337853
 40
1.0
 40
1.0
 40
1.0
 40
1.0
 10
137.0006942705196
 20
60.06191138893549
 30
0.0
 10
137.0365527374792
 20
60.22592204258471
 30
0.0
 10
137.1392741990077
 20
60.69575289363834
 30
0.0
 10
137.1777697344399
 20
61.48915169400969
 30
0.0
 10
137.0579053841527
 20
62.39378878671862
 30
0.0
 10
136.7527014416604
 20
63.20148275491889
 30
0.0
 10
136.4137809701267
 20
63.76600989798857
 30
0.0
 10
136.1396518758047
 20
63.98068282407236
 30
0.0
 10
136.0707829325669
 20
64.03461470458922
 30
0.0
  0
SPLINE
  5
7A
330
1F
100
AcDbEntity
  8
0
  6
Continuous
 62
     7
370
    25
100
AcDbSpline
210
0.0
220
0.0
230
1.0
 70
     8
 71
     3
 72
    15
 73
    11
 74
     0
 42
0.000000001
 43
0.00000001
 40
0.0
 40
0.0
 40
0.0
 40
0.0
 40
0.0863092295331013
 40
0.2324631867018897
 40
0.37918395651697
 40
0.5284595884536707
 40
0.6804282118038798
 40
0.8339649827802241
 40
0.980424269744548
 40
1.0
 40
1.0
 40
1.0
 40
1.0
 10
133.1269726908983
 20
56.99155322478939
 30
0.0
 10
133.2652675147282
 20
56.96365488402842
 30
0.0
 10
133.6377474409861
 20
56.88851416927434
 30
0.0
 10
134.271108135845
 20
56.94579339351981
 30
0.0
 10
134.9829960183412
 20
57.21189495387305
 30
0.0
 10
135.6449897396027
 20
57.67697232950807
 30
0.0
 10
136.224840960079
 20
58.31732646365082
 30
0.0
 10
136.6810051357984
 20
59.08843697132506
 30
0.0
 10
136.9071440167939
 20
59.69798406956925
 30
0.0
 10
136.990827845449
 20
60.02352922015807
 30
0.0
 10
137.0006942705196
 20
60.06191138893549
 30
0.0
  0
LINE
  5
7B
330
1F
100
AcDbEntity
  8
0
  6
Continuous
 62
     7
370
    25
100
AcDbLine
 10
128.3972868063034
 20
70.39086242204901
 30
0.0
 11
129.2289233802309
 21
70.1926222669916
 31
0.0
  0
LINE
  5
7C
330
1F
100
AcDbEntity
  8
0
  6
Continuous
 62
     7
370
    25
100
AcDbLine
 10
124.1080260656723
 20
73.7089807812057
 30
0.0
 11
124.1455593889783
 21
73.29470490059842
 31
0.0
  0
LINE
  5
7D
330
1F
100
AcDbEntity
  8
0
  6
Continuous
 62
     7
370
    25
100
AcDbLine
 10
129.4958393104718
 20
73.29470490059845
 30
0.0
 11
129.5215865289641
 21
73.57889107636394
 31
0.0
  0
SPLINE
  5
7E
330
1F
100
AcDbEntity
  8
0
  6
Continuous
 62
     7
370
    25
100
AcDbSpline
210
0.0
220
0.0
230
1.0
 70
     8
 71
     3
 72
    14
 73
    10
 74
     0
 42
0.000000001
 43
0.00000001
 40
0.0
 40
0.0
 40
0.0
 40
0.0
 40
0.1373500374640503
 40
0.3144548024731925
 40
0.4988276425789452
 40
0.6772258134535312
 40
0.8078132547010649
 40
0.924682396422857
 40
1.0
 40
1.0
 40
1.0
 40
1.0
 10
126.5157045300814
 20
71.97262873852381
 30
0.0
 10
126.6983969014131
 20
71.96662630912373
 30
0.0
 10
127.1166603005441
 20
71.95288410135866
 30
0.0
 10
127.7685766139557
 20
72.01160915844773
 30
0.0
 10
128.3773902996792
 20
72.13476551693051
 30
0.0
 10
128.8494323595559
 20
72.31944318925159
 30
0.0
 10
129.220395651163
 20
72.61715100148555
 30
0.0
 10
129.4459440375361
 20
72.95641614075122
 30
0.0
 10
129.467591330292
 20
73.19640381015445
 30
0.0
 10
129.4760748613064
 20
73.29045450090005
 30
0.0
  0
SPLINE
  5
7F
330
1F
100
AcDbEntity
  8
0
  6
Continuous
 62
     7
370
    25
100
AcDbSpline
210
0.0
220
0.0
230
1.0
 70
     8
 71
     3
 72
    15
 73
    11
 74
     0
 42
0.000000001
 43
0.00000001
 40
0.0
 40
0.0
 40
0.0
 40
0.0
 40
0.0099656548582754
 40
0.1439408493337321
 40
0.2618551905705822
 40
0.3860351108992258
 40
0.5379897113965557
 40
0.7513288853135554
 40
0.9523261175862584
 40
1.0
 40
1.0
 40
1.0
 40
1.0
 10
124.1512687671474
 20
73.29460473459855
 30
0.0
 10
124.1503375446153
 20
73.28414395378155
 30
0.0
 10
124.1368872531799
 20
73.1330516575995
 30
0.0
 10
124.2589407819493
 20
72.8648161064779
 30
0.0
 10
124.4805891296148
 20
72.56028343847257
 30
0.0
 10
124.7814709315795
 20
72.33949985903165
 30
0.0
 10
125.1716455533232
 20
72.16550067211716
 30
0.0
 10
125.6902454758193
 20
72.04345530553175
 30
0.0
 10
126.1806821222763
 20
71.97506123002401
 30
0.0
 10
126.4618085000084
 20
71.97302006051301
 30
0.0
 10
126.5157045300814
 20
71.97262873852381
 30
0.0
  0
ARC
  5
80
330
1F
100
AcDbEntity
  8
0
  6
Continuous
 62
     7
370
    25
100
AcDbCircle
 10
126.8206993497251
 20
78.95894913445363
 30
0.0
 40
7.000000000000012
100
AcDbArc
 50
263.6584954661236
 51
266.0328691991633
  0
ARC
  5
81
330
1F
100
AcDbEntity
  8
0
  6
Continuous
 62
     7
370
    25
100
AcDbCircle
 10
126.8206993497251
 20
78.95894913445363
 30
0.0
 40
7.000000000000015
100
AcDbArc
 50
268.9929271073105
 51
276.3415045338783
  0
ARC
  5
82
330
1F
100
AcDbEntity
  8
0
  6
Continuous
 62
     7
370
    25
100
AcDbCircle
 10
126.8206993497251
 20
78.95894913445363
 30
0.0
 40
7.000000000000015
100
AcDbArc
 50
266.0328691991633
 51
268.9929271073105
  0
LINE
  5
83
330
1F
100
AcDbEntity
  8
0
  6
Continuous
 62
     7
370
    25
100
AcDbLine
 10
103.5688162513522
 20
79.38183724834285
 30
0.0
 11
103.6394627345698
 21
78.60207325547272
 31
0.0
  0
SPLINE
  5
84
330
1F
100
AcDbEntity
  8
0
  6
Continuous
 62
     7
370
    25
100
AcDbSpline
210
0.0
220
0.0
230
1.0
 70
     8
 71
     3
 72
    14
 73
    10
 74
     0
 42
0.000000001
 43
0.00000001
 40
0.0
 40
0.0
 40
0.0
 40
0.0
 40
0.0387837658379721
 40
0.2322962567270606
 40
0.4327847999958537
 40
0.6660177763530644
 40
0.8116053807973932
 40
0.9394965175040839
 40
0.9999999999999999
 40
0.9999999999999999
 40
0.9999999999999999
 40
0.9999999999999999
 10
106.3535536275212
 20
77.27326644414644
 30
0.0
 10
106.400493928436
 20
77.27182085857348
 30
0.0
 10
106.6816439394404
 20
77.26316249056492
 30
0.0
 10
107.2024984624858
 20
77.31334766099957
 30
0.0
 10
107.8584665400481
 20
77.43535883161995
 30
0.0
 10
108.3663033862701
 20
77.62871846490137
 30
0.0
 10
108.7595960324917
 20
77.9774061618568
 30
0.0
 10
108.9588127480593
 20
78.31339208376764
 30
0.0
 10
108.9658705952062
 20
78.52871085613334
 30
0.0
 10
108.9681372434423
 20
78.5978611090971
 30
0.0
  0
SPLINE
  5
85
330
1F
100
AcDbEntity
  8
0
  6
Continuous
 62
     7
370
    25
100
AcDbSpline
210
0.0
220
0.0
230
1.0
 70
     8
 71
     3
 72
    14
 73
    10
 74
     0
 42
0.000000001
 43
0.00000001
 40
0.0
 40
0.0
 40
0.0
 40
0.0
 40
0.1168882926906207
 40
0.2249359932448013
 40
0.3369932437785496
 40
0.4730355122184901
 40
0.6618628419141276
 40
0.8462558089341433
 40
1.0
 40
1.0
 40
1.0
 40
1.0
 10
103.6459200664471
 20
78.5840984930147
 30
0.0
 10
103.6730556750271
 20
78.45055174231267
 30
0.0
 10
103.7252745493707
 20
78.19355875933456
 30
0.0
 10
103.9580326576626
 20
77.88867870709547
 30
0.0
 10
104.247636975182
 20
77.66199226436062
 30
0.0
 10
104.6296815481505
 20
77.48611782685278
 30
0.0
 10
105.1310390768888
 20
77.35810756254708
 30
0.0
 10
105.7413419507806
 20
77.27664586254446
 30
0.0
 10
106.1621985595483
 20
77.27432272722929
 30
0.0
 10
106.3535536275212
 20
77.27326644414644
 30
0.0
  0
ARC
  5
86
330
1F
100
AcDbEntity
  8
0
  6
Continuous
 62
     7
370
    25
100
AcDbCircle
 10
106.3146026953167
 20
84.26631748932792
 30
0.0
 40
6.999999999999999
100
AcDbArc
 50
271.603112875034
 51
276.3415045338774
  0
ARC
  5
87
330
1F
100
AcDbEntity
  8
0
  6
Continuous
 62
     7
370
    25
100
AcDbCircle
 10
106.3146026953167
 20
84.26631748932792
 30
0.0
 40
6.999999999999999
100
AcDbArc
 50
263.6584954661237
 51
271.603112875034
  0
LINE
  5
88
330
1F
100
AcDbEntity
  8
0
  6
Continuous
 62
     7
370
    25
100
AcDbLine
 10
152.1377037205942
 20
75.45482736573078
 30
0.0
 11
152.1574083513621
 21
75.23733654572372
 31
0.0
  0
LINE
  5
89
330
1F
100
AcDbEntity
  8
0
  6
Continuous
 62
     7
370
    25
100
AcDbLine
 10
157.5076882728556
 20
75.23733654572368
 30
0.0
 11
157.562446554746
 21
75.84173374406784
 31
0.0
  0
SPLINE
  5
8A
330
1F
100
AcDbEntity
  8
0
  6
Continuous
 62
     7
370
    25
100
AcDbSpline
210
0.0
220
0.0
230
1.0
 70
     8
 71
     3
 72
    14
 73
    10
 74
     0
 42
0.000000001
 43
0.00000001
 40
0.0
 40
0.0
 40
0.0
 40
0.0
 40
0.0229328871773719
 40
0.2178553959184135
 40
0.4194506095671411
 40
0.6522429708392555
 40
0.8001689736121391
 40
0.9290604862011924
 40
0.9999999999999999
 40
0.9999999999999999
 40
0.9999999999999999
 40
0.9999999999999999
 10
154.9057692903712
 20
73.90688043486409
 30
0.0
 10
154.9332759213937
 20
73.90601210879541
 30
0.0
 10
155.1945804813237
 20
73.89776327741093
 30
0.0
 10
155.6971268871528
 20
73.94629242388602
 30
0.0
 10
156.3545001003264
 20
74.06457462282245
 30
0.0
 10
156.8624217438301
 20
74.2536097459357
 30
0.0
 10
157.2598543496264
 20
74.59037445384136
 30
0.0
 10
157.4706073433467
 20
74.93197715297038
 30
0.0
 10
157.4825837748972
 20
75.15861062148404
 30
0.0
 10
157.4868353780971
 20
75.23906493509845
 30
0.0
  0
SPLINE
  5
8B
330
1F
100
AcDbEntity
  8
0
  6
Continuous
 62
     7
370
    25
100
AcDbSpline
210
0.0
220
0.0
230
1.0
 70
     8
 71
     3
 72
    14
 73
    10
 74
     0
 42
0.000000001
 43
0.00000001
 40
0.0
 40
0.0
 40
0.0
 40
0.0
 40
0.1136815652419889
 40
0.2207709346459575
 40
0.3311613820154111
 40
0.4647541566197448
 40
0.6492566371107552
 40
0.8320571461618451
 40
1.0
 40
1.0
 40
1.0
 40
1.0
 10
152.1649363079278
 20
75.22535424159935
 30
0.0
 10
152.1899926168926
 20
75.09367019173817
 30
0.0
 10
152.2386522631349
 20
74.83793822056123
 30
0.0
 10
152.4678136104314
 20
74.53237231606474
 30
0.0
 10
152.755299205597
 20
74.30340147330118
 30
0.0
 10
153.1334050665423
 20
74.12653609747247
 30
0.0
 10
153.6289116509976
 20
73.99702953725034
 30
0.0
 10
154.2529684386916
 20
73.91202060682438
 30
0.0
 10
154.694402119848
 20
73.90854474581047
 30
0.0
 10
154.9057692903712
 20
73.90688043486409
 30
0.0
  0
ARC
  5
8C
330
1F
100
AcDbEntity
  8
0
  6
Continuous
 62
     7
370
    25
100
AcDbCircle
 10
154.8325483121087
 20
80.9015807795789
 30
0.0
 40
7.000000000000017
100
AcDbArc
 50
263.6584954661238
 51
276.3415045338784
  0
LINE
  5
8D
330
1F
100
AcDbEntity
  8
0
  6
Continuous
 62
     7
370
    25
100
AcDbLine
 10
114.6582703316279
 20
95.09887169662589
 30
0.0
 11
114.6807489484748
 21
94.8507628704189
 31
0.0
  0
SPLINE
  5
8E
330
1F
100
AcDbEntity
  8
0
  6
Continuous
 62
     7
370
    25
100
AcDbSpline
210
0.0
220
0.0
230
1.0
 70
     8
 71
     3
 72
    12
 73
     8
 74
     0
 42
0.000000001
 43
0.00000001
 40
0.0
 40
0.0
 40
0.0
 40
0.0
 40
0.1938539334289315
 40
0.3819774005118936
 40
0.5740677659725741
 40
0.8053697119559938
 40
1.0
 40
1.0
 40
1.0
 40
1.0
 10
114.6898690903122
 20
94.84851059604887
 30
0.0
 10
114.7117640131055
 20
94.71970393264495
 30
0.0
 10
114.754906628502
 20
94.46589822653745
 30
0.0
 10
114.9784366122878
 20
94.15905726336266
 30
0.0
 10
115.2630966415309
 20
93.92687660880158
 30
0.0
 10
115.5719927373569
 20
93.77598840425838
 30
0.0
 10
115.8092139824705
 20
93.70714103642263
 30
0.0
 10
115.9176125388091
 20
93.67568114218957
 30
0.0
  0
SPLINE
  5
8F
330
1F
100
AcDbEntity
  8
0
  6
Continuous
 62
     7
370
    25
100
AcDbSpline
210
0.0
220
0.0
230
1.0
 70
     8
 71
     3
 72
    13
 73
     9
 74
     0
 42
0.000000001
 43
0.00000001
 40
0.0
 40
0.0
 40
0.0
 40
0.0
 40
0.0524086845818528
 40
0.3030565300084434
 40
0.5652263297523777
 40
0.8017856473172873
 40
0.9825301071867854
 40
1.0
 40
1.0
 40
1.0
 40
1.0
 10
117.5057984430252
 20
93.52352468497105
 30
0.0
 10
117.5551612626754
 20
93.52278538946763
 30
0.0
 10
117.8406048862656
 20
93.51851036650702
 30
0.0
 10
118.3563038470134
 20
93.57868277262764
 30
0.0
 10
118.9512727928797
 20
93.69764054036742
 30
0.0
 10
119.3928775828002
 20
93.89891637526671
 30
0.0
 10
119.6926566444228
 20
94.0904280156155
 30
0.0
 10
119.7754099803831
 20
94.23821634900878
 30
0.0
 10
119.7827035587219
 20
94.25124187570994
 30
0.0
  0
ARC
  5
90
330
1F
100
AcDbEntity
  8
0
  6
Continuous
 62
     7
370
    25
100
AcDbCircle
 10
117.3558889092215
 20
100.515007104274
 30
0.0
 40
6.999999999999943
100
AcDbArc
 50
263.6584954661249
 51
276.3415045338772
  0
LINE
  5
91
330
1F
100
AcDbEntity
  8
0
  6
Continuous
 62
     7
370
    25
100
AcDbLine
 10
104.0516686138297
 20
97.84406222500921
 30
0.0
 11
104.0741472306766
 21
97.5959533988022
 31
0.0
  0
SPLINE
  5
92
330
1F
100
AcDbEntity
  8
0
  6
Continuous
 62
     7
370
    25
100
AcDbSpline
210
0.0
220
0.0
230
1.0
 70
     8
 71
     3
 72
    12
 73
     8
 74
     0
 42
0.000000001
 43
0.00000001
 40
0.0
 40
0.0
 40
0.0
 40
0.0
 40
0.1938539334289315
 40
0.3819774005118936
 40
0.5740677659725741
 40
0.8053697119559934
 40
1.0
 40
1.0
 40
1.0
 40
1.0
 10
104.083267372514
 20
97.59370112443219
 30
0.0
 10
104.1051622953073
 20
97.46489446102824
 30
0.0
 10
104.1483049107038
 20
97.21108875492074
 30
0.0
 10
104.3718348944896
 20
96.90424779174596
 30
0.0
 10
104.6564949237327
 20
96.67206713718487
 30
0.0
 10
104.9653910195588
 20
96.52117893264167
 30
0.0
 10
105.2026122646723
 20
96.45233156480593
 30
0.0
 10
105.3110108210109
 20
96.4208716705729
 30
0.0
  0
SPLINE
  5
93
330
1F
100
AcDbEntity
  8
0
  6
Continuous
 62
     7
370
    25
100
AcDbSpline
210
0.0
220
0.0
230
1.0
 70
     8
 71
     3
 72
    11
 73
     7
 74
     0
 42
0.000000001
 43
0.00000001
 40
0.0
 40
0.0
 40
0.0
 40
0.0
 40
0.0697397663507531
 40
0.4032746053919685
 40
0.7521416056657488
 40
1.0
 40
1.0
 40
1.0
 40
1.0
 10
106.899196725227
 20
96.26871521335434
 30
0.0
 10
106.9485604104436
 20
96.26796158065456
 30
0.0
 10
107.2340090392258
 20
96.26360365195016
 30
0.0
 10
107.7495553924772
 20
96.3263038407848
 30
0.0
 10
108.3052222774891
 20
96.42682825299302
 30
0.0
 10
108.6019700603786
 20
96.57352382671084
 30
0.0
 10
108.7252284798356
 20
96.63445592326009
 30
0.0
  0
ARC
  5
94
330
1F
100
AcDbEntity
  8
0
  6
Continuous
 62
     7
370
    25
100
AcDbCircle
 10
106.7492871914233
 20
103.2601976326573
 30
0.0
 40
6.999999999999929
100
AcDbArc
 50
263.6584954661249
 51
276.3415045338773
  0
LINE
  5
95
330
1F
100
AcDbEntity
  8
0
  6
Continuous
 62
     7
370
    25
100
AcDbLine
 10
165.0134405808276
 20
82.48733654572338
 30
0.0
 11
165.045294890868
 21
82.8389300413365
 31
0.0
  0
SPLINE
  5
96
330
1F
100
AcDbEntity
  8
0
  6
Continuous
 62
     7
370
    25
100
AcDbSpline
210
0.0
220
0.0
230
1.0
 70
     8
 71
     3
 72
    14
 73
    10
 74
     0
 42
0.000000001
 43
0.00000001
 40
0.0
 40
0.0
 40
0.0
 40
0.0
 40
0.1486231951041674
 40
0.3377391419615192
 40
0.5397364253212782
 40
0.6850827586971002
 40
0.8100622089638909
 40
0.9338110334265382
 40
1.0
 40
1.0
 40
1.0
 40
1.0
 10
162.2556222278119
 20
81.15892787261015
 30
0.0
 10
162.4433116915261
 20
81.1587431726681
 30
0.0
 10
162.8698270708089
 20
81.1583234508346
 30
0.0
 10
163.5102279273202
 20
81.23969604852473
 30
0.0
 10
164.044513331325
 20
81.37608106598873
 30
0.0
 10
164.461904454503
 20
81.57674793016574
 30
0.0
 10
164.7760959266389
 20
81.85835044026858
 30
0.0
 10
164.9755096452131
 20
82.17975481012587
 30
0.0
 10
164.9875990734176
 20
82.40395851473487
 30
0.0
 10
164.9918119620426
 20
82.48208836677254
 30
0.0
  0
SPLINE
  5
97
330
1F
100
AcDbEntity
  8
0
  6
Continuous
 62
     7
370
    25
100
AcDbSpline
210
0.0
220
0.0
230
1.0
 70
     8
 71
     3
 72
     9
 73
     5
 74
     0
 42
0.000000001
 43
0.00000001
 40
0.0
 40
0.0
 40
0.0
 40
0.0
 40
0.7623013483627994
 40
1.0
 40
1.0
 40
1.0
 40
1.0
 10
161.6619855852434
 20
81.1937120997788
 30
0.0
 10
161.8095773517872
 20
81.17558345386021
 30
0.0
 10
162.0031907657747
 20
81.1518019848158
 30
0.0
 10
162.2071430458416
 20
81.15755935377221
 30
0.0
 10
162.2556222278119
 20
81.15892787261015
 30
0.0
  0
ARC
  5
98
330
1F
100
AcDbEntity
  8
0
  6
Continuous
 62
     7
370
    25
100
AcDbCircle
 10
162.3383006200806
 20
88.15158077957855
 30
0.0
 40
7.000000000000013
100
AcDbArc
 50
271.603112875034
 51
273.9671308008383
  0
ARC
  5
99
330
1F
100
AcDbEntity
  8
0
  6
Continuous
 62
     7
370
    25
100
AcDbCircle
 10
162.3383006200806
 20
88.15158077957855
 30
0.0
 40
6.999999999999999
100
AcDbArc
 50
263.6584954661247
 51
271.603112875034
  0
ARC
  5
9A
330
1F
100
AcDbEntity
  8
0
  6
Continuous
 62
     7
370
    25
100
AcDbCircle
 10
162.3383006200806
 20
88.15158077957855
 30
0.0
 40
7.000000000000013
100
AcDbArc
 50
273.9671308008383
 51
276.3415045338778
  0
LINE
  5
9B
330
1F
100
AcDbEntity
  8
0
  6
Continuous
 62
     7
370
    25
100
AcDbLine
 10
122.8592372480704
 20
77.57954353769456
 30
0.0
 11
122.8592372480704
 21
76.61543349374364
 31
0.0
  0
LINE
  5
9C
330
1F
100
AcDbEntity
  8
0
  6
Continuous
 62
     7
370
    25
100
AcDbLine
 10
158.5274599708045
 20
78.6729352457064
 30
0.0
 11
158.5274599708045
 21
79.63704528966967
 31
0.0
  0
LINE
  5
9D
330
1F
100
AcDbEntity
  8
0
  6
Continuous
 62
     7
370
    25
100
AcDbLine
 10
112.389451536053
 20
85.22824937260387
 30
0.0
 11
111.7424559839793
 21
85.06079460163058
 31
0.0
  0
LINE
  5
9E
330
1F
100
AcDbEntity
  8
0
  6
Continuous
 62
     7
370
    25
100
AcDbLine
 10
161.8264516576987
 20
83.7941345687306
 30
0.0
 11
161.8264516576987
 21
84.74341572365198
 31
0.0
  0
LINE
  5
9F
330
1F
100
AcDbEntity
  8
0
  6
Continuous
 62
     7
370
    25
100
AcDbLine
 10
103.0724424973377
 20
83.06676826450888
 30
0.0
 11
103.0724424973377
 21
82.10265822055227
 31
0.0
  0
LINE
  5
A0
330
1F
100
AcDbEntity
  8
0
  6
Continuous
 62
     7
370
    25
100
AcDbLine
 10
165.5804608180596
 20
85.48561091690893
 30
0.0
 11
165.5804608180596
 21
86.44972096086519
 31
0.0
  0
LINE
  5
A1
330
1F
100
AcDbEntity
  8
0
  6
Continuous
 62
     7
370
    25
100
AcDbLine
 10
100.6592525452048
 20
98.72208411248116
 30
0.0
 11
118.3369220748685
 21
94.14676656517565
 31
0.0
  0
LINE
  5
A2
330
1F
100
AcDbEntity
  8
0
  6
Continuous
 62
     7
370
    25
100
AcDbLine
 10
111.7635944705069
 20
112.8567766429559
 30
0.0
 11
111.5514624361509
 21
112.8018728323882
 31
0.0
  0
LINE
  5
A3
330
1F
100
AcDbEntity
  8
0
  6
Continuous
 62
     7
370
    25
100
AcDbLine
 10
101.1569927527087
 20
115.6019671713392
 30
0.0
 11
100.9448607183527
 21
115.5470633607715
 31
0.0
  0
LINE
  5
A4
330
1F
100
AcDbEntity
  8
0
  6
Continuous
 62
     7
370
    25
100
AcDbLine
 10
158.5274599708046
 20
78.18276272793703
 30
0.0
 11
158.5581624808199
 21
78.22104964751158
 31
0.0
  0
SPLINE
  5
A5
330
1F
100
AcDbEntity
  8
0
  6
Continuous
 62
     7
370
    25
100
AcDbSpline
210
0.0
220
0.0
230
1.0
 70
     8
 71
     3
 72
    10
 73
     6
 74
     0
 42
0.000000001
 43
0.00000001
 40
0.0
 40
0.0
 40
0.0
 40
0.0
 40
0.4547969439293152
 40
0.932967800463171
 40
1.0
 40
1.0
 40
1.0
 40
1.0
 10
110.7097770564062
 20
77.60907926963156
 30
0.0
 10
110.9786742713991
 20
77.41191049014846
 30
0.0
 10
111.5302884512463
 20
77.0074396049111
 30
0.0
 10
112.2570876251573
 20
76.59981697045988
 30
0.0
 10
112.745270591889
 20
76.39493095161629
 30
0.0
 10
112.8052922254292
 20
76.36974040958889
 30
0.0
  0
SPLINE
  5
A6
330
1F
100
AcDbEntity
  8
0
  6
Continuous
 62
     7
370
    25
100
AcDbSpline
210
0.0
220
0.0
230
1.0
 70
     8
 71
     3
 72
    13
 73
     9
 74
     0
 42
0.000000001
 43
0.00000001
 40
0.0
 40
0.0
 40
0.0
 40
0.0
 40
0.098596244615149
 40
0.2876789447942271
 40
0.4778242837483517
 40
0.6706766822319844
 40
0.8719904909915869
 40
1.0
 40
1.0
 40
1.0
 40
1.0
 10
127.1978156704301
 20
73.42009777615074
 30
0.0
 10
127.3315302256948
 20
73.41376824635488
 30
0.0
 10
127.721675533078
 20
73.39530027670932
 30
0.0
 10
128.3878130735772
 20
73.41051490136216
 30
0.0
 10
129.1341594620596
 20
73.48475020535994
 30
0.0
 10
129.7884780250397
 20
73.62290434384029
 30
0.0
 10
130.2484084153587
 20
73.78253998559467
 30
0.0
 10
130.4679427444357
 20
73.95534254201192
 30
0.0
 10
130.5532767616748
 20
74.02251170134228
 30
0.0
  0
LINE
  5
A7
330
1F
100
AcDbEntity
  8
0
  6
Continuous
 62
     7
370
    25
100
AcDbLine
 10
122.8592372480705
 20
76.61543349374362
 30
0.0
 11
122.8592372480705
 21
74.68358184116549
 31
0.0
  0
SPLINE
  5
A8
330
1F
100
AcDbEntity
  8
0
  6
Continuous
 62
     7
370
    25
100
AcDbSpline
210
0.0
220
0.0
230
1.0
 70
     8
 71
     3
 72
    14
 73
    10
 74
     0
 42
0.000000001
 43
0.00000001
 40
0.0
 40
0.0
 40
0.0
 40
0.0
 40
0.0335638529145329
 40
0.1648677124987386
 40
0.29612681056332
 40
0.4648433512589452
 40
0.6988400989214564
 40
0.9268578665592692
 40
1.0
 40
1.0
 40
1.0
 40
1.0
 10
122.8761911719394
 20
74.68956231536525
 30
0.0
 10
122.870772853703
 20
74.66067231410662
 30
0.0
 10
122.8441577408462
 20
74.5187628487742
 30
0.0
 10
122.9770059712452
 20
74.27226494033177
 30
0.0
 10
123.2045209264211
 20
74.04542812268099
 30
0.0
 10
123.5595847267061
 20
73.85656629787768
 30
0.0
 10
124.0924236636594
 20
73.6961695122121
 30
0.0
 10
124.6596237738265
 20
73.60409629845145
 30
0.0
 10
125.0058378819851
 20
73.57367103774013
 30
0.0
 10
125.0899222451667
 20
73.5662817124317
 30
0.0
  0
LINE
  5
A9
330
1F
100
AcDbEntity
  8
0
  6
Continuous
 62
     7
370
    25
100
AcDbLine
 10
130.5532767616747
 20
74.02251170134228
 30
0.0
 11
130.7926268685912
 21
74.25370615113789
 31
0.0
  0
SPLINE
  5
AA
330
1F
100
AcDbEntity
  8
0
  6
Continuous
 62
     7
370
    25
100
AcDbSpline
210
0.0
220
0.0
230
1.0
 70
     8
 71
     3
 72
    14
 73
    10
 74
     0
 42
0.000000001
 43
0.00000001
 40
0.0
 40
0.0
 40
0.0
 40
0.0
 40
0.0227606251564383
 40
0.1335899502090328
 40
0.278348107422509
 40
0.4692079378290465
 40
0.7038009385481916
 40
0.9657122926541278
 40
1.0
 40
1.0
 40
1.0
 40
1.0
 10
130.7777172823226
 20
74.2409748525767
 30
0.0
 10
130.776235562
 20
74.2397629944
 30
0.0
 10
130.7675388349658
 20
74.23265018126877
 30
0.0
 10
130.8116111490833
 20
74.25944112425478
 30
0.0
 10
130.9259499958753
 20
74.29716945151247
 30
0.0
 10
131.1598893324971
 20
74.35069345875286
 30
0.0
 10
131.5142108050297
 20
74.39299110498672
 30
0.0
 10
131.822838312725
 20
74.40329504877008
 30
0.0
 10
131.9915469775235
 20
74.40015136626714
 30
0.0
 10
132.0110765239608
 20
74.39978745672224
 30
0.0
  0
SPLINE
  5
AB
330
1F
100
AcDbEntity
  8
0
  6
Continuous
 62
     7
370
    25
100
AcDbSpline
210
0.0
220
0.0
230
1.0
 70
     8
 71
     3
 72
    13
 73
     9
 74
     0
 42
0.000000001
 43
0.00000001
 40
0.0
 40
0.0
 40
0.0
 40
0.0
 40
0.1018734039400739
 40
0.3008739254107087
 40
0.4953055374904891
 40
0.6882942005398422
 40
0.8820885976578898
 40
1.0
 40
1.0
 40
1.0
 40
1.0
 10
152.2201980519223
 20
75.43347626167008
 30
0.0
 10
152.3265717520647
 20
75.40840445007375
 30
0.0
 10
152.6407368970827
 20
75.33435711209945
 30
0.0
 10
153.2547865963774
 20
75.25466672526892
 30
0.0
 10
154.0452136846718
 20
75.21775710602428
 30
0.0
 10
154.8338851073028
 20
75.2440366346697
 30
0.0
 10
155.4744126136464
 20
75.31583954750764
 30
0.0
 10
155.8096082282096
 20
75.38851020097749
 30
0.0
 10
155.9364053075084
 20
75.41599990015726
 30
0.0
  0
SPLINE
  5
AC
330
1F
100
AcDbEntity
  8
0
  6
Continuous
 62
     7
370
    25
100
AcDbSpline
210
0.0
220
0.0
230
1.0
 70
     8
 71
     3
 72
    12
 73
     8
 74
     0
 42
0.000000001
 43
0.00000001
 40
0.0
 40
0.0
 40
0.0
 40
0.0
 40
0.1840276445858719
 40
0.3969536879352879
 40
0.6419539089699221
 40
0.900537048397909
 40
1.0
 40
1.0
 40
1.0
 40
1.0
 10
120.4278145685373
 20
75.18639772384083
 30
0.0
 10
120.4718230840476
 20
75.19631102057674
 30
0.0
 10
120.566750900853
 20
75.21769432800195
 30
0.0
 10
120.7845934240429
 20
75.24182615026479
 30
0.0
 10
121.048336665556
 20
75.24983849366762
 30
0.0
 10
121.2712653083661
 20
75.23835288793951
 30
0.0
 10
121.3844942591674
 20
75.22393747229079
 30
0.0
 10
121.4159485493709
 20
75.2199329605117
 30
0.0
  0
LINE
  5
AD
330
1F
100
AcDbEntity
  8
0
  6
Continuous
 62
     7
370
    25
100
AcDbLine
 10
120.3095974375108
 20
75.15580087887378
 30
0.0
 11
120.4278145685373
 21
75.18639772384083
 31
0.0
  0
SPLINE
  5
AE
330
1F
100
AcDbEntity
  8
0
  6
Continuous
 62
     7
370
    25
100
AcDbSpline
210
0.0
220
0.0
230
1.0
 70
     8
 71
     3
 72
     9
 73
     5
 74
     0
 42
0.000000001
 43
0.00000001
 40
0.0
 40
0.0
 40
0.0
 40
0.0
 40
0.6389155202000902
 40
1.0
 40
1.0
 40
1.0
 40
1.0
 10
155.9364053075084
 20
75.41599990015725
 30
0.0
 10
156.2746324336076
 20
75.4995236693245
 30
0.0
 10
156.8040093471521
 20
75.63025107619839
 30
0.0
 10
157.307093326815
 20
75.76803364632461
 30
0.0
 10
157.4887491439072
 20
75.81778479398416
 30
0.0
  0
LINE
  5
AF
330
1F
100
AcDbEntity
  8
0
  6
Continuous
 62
     7
370
    25
100
AcDbLine
 10
151.5662813990295
 20
75.6027223453484
 30
0.0
 11
152.2201980519223
 21
75.43347626167008
 31
0.0
  0
SPLINE
  5
B0
330
1F
100
AcDbEntity
  8
0
  6
Continuous
 62
     7
370
    25
100
AcDbSpline
210
0.0
220
0.0
230
1.0
 70
     8
 71
     3
 72
    10
 73
     6
 74
     0
 42
0.000000001
 43
0.00000001
 40
0.0
 40
0.0
 40
0.0
 40
0.0
 40
0.2836682723687134
 40
0.7518513924397777
 40
1.0
 40
1.0
 40
1.0
 40
1.0
 10
150.6903479666747
 20
75.69523096088996
 30
0.0
 10
150.7854797635491
 20
75.69457867180526
 30
0.0
 10
151.0376227802779
 20
75.6928498057163
 30
0.0
 10
151.3480131824408
 20
75.65279207595991
 30
0.0
 10
151.5101237439226
 20
75.61560465458665
 30
0.0
 10
151.5662813990295
 20
75.6027223453484
 30
0.0
  0
SPLINE
  5
B1
330
1F
100
AcDbEntity
  8
0
  6
Continuous
 62
     7
370
    25
100
AcDbSpline
210
0.0
220
0.0
230
1.0
 70
     8
 71
     3
 72
    10
 73
     6
 74
     0
 42
0.000000001
 43
0.00000001
 40
0.0
 40
0.0
 40
0.0
 40
0.0
 40
0.3016987689670333
 40
0.7949080027813669
 40
1.0
 40
1.0
 40
1.0
 40
1.0
 10
149.8616010895968
 20
75.63862964468787
 30
0.0
 10
149.9348979627895
 20
75.65006330872421
 30
0.0
 10
150.1280186416678
 20
75.68018842681714
 30
0.0
 10
150.4243189868142
 20
75.70380662228453
 30
0.0
 10
150.6299529879529
 20
75.69717784234521
 30
0.0
 10
150.6903479666747
 20
75.69523096088997
 30
0.0
  0
LINE
  5
B2
330
1F
100
AcDbEntity
  8
0
  6
Continuous
 62
     7
370
    25
100
AcDbLine
 10
158.5274599708046
 20
76.74108359312825
 30
0.0
 11
158.5274599708046
 21
78.6729352457064
 31
0.0
  0
SPLINE
  5
B3
330
1F
100
AcDbEntity
  8
0
  6
Continuous
 62
     7
370
    25
100
AcDbSpline
210
0.0
220
0.0
230
1.0
 70
     8
 71
     3
 72
    11
 73
     7
 74
     0
 42
0.000000001
 43
0.00000001
 40
0.0
 40
0.0
 40
0.0
 40
0.0
 40
0.188644132227881
 40
0.5895869990732948
 40
0.8217520920349263
 40
1.0
 40
1.0
 40
1.0
 40
1.0
 10
157.4887491439072
 20
75.81778479398416
 30
0.0
 10
157.5865574402516
 20
75.84772531194776
 30
0.0
 10
157.8922467783993
 20
75.94130118906824
 30
0.0
 10
158.2107385576888
 20
76.11206697113823
 30
0.0
 10
158.4868216644479
 20
76.41834993278951
 30
0.0
 10
158.5059486608073
 20
76.64285597406214
 30
0.0
 10
158.5142557735913
 20
76.74036197921306
 30
0.0
  0
LINE
  5
B4
330
1F
100
AcDbEntity
  8
0
  6
Continuous
 62
     7
370
    25
100
AcDbLine
 10
135.142632137884
 20
60.49232604167928
 30
0.0
 11
138.4735558501731
 21
73.20480053467482
 31
0.0
  0
SPLINE
  5
B5
330
1F
100
AcDbEntity
  8
0
  6
Continuous
 62
     7
370
    25
100
AcDbSpline
210
0.0
220
0.0
230
1.0
 70
     8
 71
     3
 72
    10
 73
     6
 74
     0
 42
0.000000001
 43
0.00000001
 40
0.0
 40
0.0
 40
0.0
 40
0.0
 40
0.2784965683487236
 40
0.7622363834806604
 40
0.9999999999999999
 40
0.9999999999999999
 40
0.9999999999999999
 40
0.9999999999999999
 10
130.3549050466739
 20
57.01261712256888
 30
0.0
 10
130.4908114075612
 20
56.98549270757657
 30
0.0
 10
130.862782859953
 20
56.91125403343296
 30
0.0
 10
131.3641256261485
 20
56.93331594831083
 30
0.0
 10
131.679870304051
 20
57.08772312558595
 30
0.0
 10
131.78392053198
 20
57.13860633317018
 30
0.0
  0
LINE
  5
B6
330
1F
100
AcDbEntity
  8
0
  6
Continuous
 62
     7
370
    25
100
AcDbLine
 10
131.4796346252102
 20
57.00428082038702
 30
0.0
 11
132.3601033644516
 21
57.2321628987201
 31
0.0
  0
SPLINE
  5
B7
330
1F
100
AcDbEntity
  8
0
  6
Continuous
 62
     7
370
    25
100
AcDbSpline
210
0.0
220
0.0
230
1.0
 70
     8
 71
     3
 72
    13
 73
     9
 74
     0
 42
0.000000001
 43
0.00000001
 40
0.0
 40
0.0
 40
0.0
 40
0.0
 40
0.0576778140149542
 40
0.2717971319107784
 40
0.4938784814817642
 40
0.7221489847644746
 40
0.9439518286073932
 40
1.0
 40
1.0
 40
1.0
 40
1.0
 10
132.7974593229886
 20
57.40766580903397
 30
0.0
 10
132.8624254096694
 20
57.43062830970199
 30
0.0
 10
133.1685673176602
 20
57.53883528546318
 30
0.0
 10
133.6698385653477
 20
57.93351120749337
 30
0.0
 10
134.2671120548645
 20
58.5722280373582
 30
0.0
 10
134.7497173470623
 20
59.36938999222578
 30
0.0
 10
135.0168821548997
 20
60.03592602041726
 30
0.0
 10
135.1215238007536
 20
60.4157149337769
 30
0.0
 10
135.142632137884
 20
60.49232604167927
 30
0.0
  0
LINE
  5
B8
330
1F
100
AcDbEntity
  8
0
  6
Continuous
 62
     7
370
    25
100
AcDbLine
 10
161.8264516576988
 20
81.86228291615245
 30
0.0
 11
161.8264516576988
 21
83.79413456873058
 31
0.0
  0
SPLINE
  5
B9
330
1F
100
AcDbEntity
  8
0
  6
Continuous
 62
     7
370
    25
100
AcDbSpline
210
0.0
220
0.0
230
1.0
 70
     8
 71
     3
 72
    14
 73
    10
 74
     0
 42
0.000000001
 43
0.00000001
 40
0.0
 40
0.0
 40
0.0
 40
0.0
 40
0.0102905078869096
 40
0.2033374193622074
 40
0.3975573664692703
 40
0.5926193745305015
 40
0.7653189213173608
 40
0.9295702210747974
 40
1.0
 40
1.0
 40
1.0
 40
1.0
 10
158.5581624808199
 20
78.22104964751156
 30
0.0
 10
158.5806036709348
 20
78.23124669700977
 30
0.0
 10
159.0240350093614
 20
78.43273740600648
 30
0.0
 10
159.711612389799
 20
78.85937347908373
 30
0.0
 10
160.5962055056709
 20
79.50602744914568
 30
0.0
 10
161.2313520602774
 20
80.17603037562631
 30
0.0
 10
161.6315956992735
 20
80.85748433347293
 30
0.0
 10
161.824693041142
 20
81.41536636908457
 30
0.0
 10
161.8047049742183
 20
81.74298466748611
 30
0.0
 10
161.7987063860812
 20
81.84130569301487
 30
0.0
  0
LINE
  5
BA
330
1F
100
AcDbEntity
  8
0
  6
Continuous
 62
     7
370
    25
100
AcDbLine
 10
114.7006767998979
 20
61.06422952921632
 30
0.0
 11
130.3549050466739
 21
57.01261712256888
 31
0.0
  0
LINE
  5
BB
330
1F
100
AcDbEntity
  8
0
  6
Continuous
 62
     7
370
    25
100
AcDbLine
 10
109.6351599944352
 20
78.4598059534431
 30
0.0
 11
109.9413197712011
 21
78.30258875282028
 31
0.0
  0
SPLINE
  5
BC
330
1F
100
AcDbEntity
  8
0
  6
Continuous
 62
     7
370
    25
100
AcDbSpline
210
0.0
220
0.0
230
1.0
 70
     8
 71
     3
 72
    10
 73
     6
 74
     0
 42
0.000000001
 43
0.00000001
 40
0.0
 40
0.0
 40
0.0
 40
0.0
 40
0.2088722672905727
 40
0.7140422539246711
 40
1.0
 40
1.0
 40
1.0
 40
1.0
 10
105.7460411474756
 20
78.56781428386317
 30
0.0
 10
105.8468288162201
 20
78.55690981419197
 30
0.0
 10
106.1913774491799
 20
78.51963223683389
 30
0.0
 10
106.72625551091
 20
78.5177419760745
 30
0.0
 10
107.126903671405
 20
78.53923561472254
 30
0.0
 10
107.2717202922964
 20
78.54700461612222
 30
0.0
  0
SPLINE
  5
BD
330
1F
100
AcDbEntity
  8
0
  6
Continuous
 62
     7
370
    25
100
AcDbSpline
210
0.0
220
0.0
230
1.0
 70
     8
 71
     3
 72
    11
 73
     7
 74
     0
 42
0.000000001
 43
0.00000001
 40
0.0
 40
0.0
 40
0.0
 40
0.0
 40
0.1730756225778315
 40
0.482047051317963
 40
0.8142034257510494
 40
1.0
 40
1.0
 40
1.0
 40
1.0
 10
103.8756721239442
 20
79.10050717405989
 30
0.0
 10
103.949346704318
 20
79.04719069601742
 30
0.0
 10
104.1545437950311
 20
78.89869461872921
 30
0.0
 10
104.601036804693
 20
78.74325609109076
 30
0.0
 10
105.168654098266
 20
78.61540702012772
 30
0.0
 10
105.5936054693495
 20
78.58037921935365
 30
0.0
 10
105.7460411474756
 20
78.56781428386317
 30
0.0
  0
SPLINE
  5
BE
330
1F
100
AcDbEntity
  8
0
  6
Continuous
 62
     7
370
    25
100
AcDbSpline
210
0.0
220
0.0
230
1.0
 70
     8
 71
     3
 72
    13
 73
     9
 74
     0
 42
0.000000001
 43
0.00000001
 40
0.0
 40
0.0
 40
0.0
 40
0.0
 40
0.1443172497126612
 40
0.3917112211489384
 40
0.6411290495366855
 40
0.8315918461825158
 40
0.9760305979206425
 40
1.0
 40
1.0
 40
1.0
 40
1.0
 10
108.1649870521055
 20
78.60895298223951
 30
0.0
 10
108.2532692341051
 20
78.61364655673034
 30
0.0
 10
108.4928880002998
 20
78.62638603034846
 30
0.0
 10
108.9022454238181
 20
78.61381618709353
 30
0.0
 10
109.2904168805255
 20
78.5651724807521
 30
0.0
 10
109.5335754507289
 20
78.50491390120152
 30
0.0
 10
109.6186349587886
 20
78.4687543297222
 30
0.0
 10
109.6331010472678
 20
78.46092088199073
 30
0.0
 10
109.6351599944352
 20
78.4598059534431
 30
0.0
  0
LINE
  5
BF
330
1F
100
AcDbEntity
  8
0
  6
Continuous
 62
     7
370
    25
100
AcDbLine
 10
107.2717202922963
 20
78.54700461612222
 30
0.0
 11
108.1649870521055
 21
78.60895298223951
 31
0.0
  0
SPLINE
  5
C0
330
1F
100
AcDbEntity
  8
0
  6
Continuous
 62
     7
370
    25
100
AcDbSpline
210
0.0
220
0.0
230
1.0
 70
     8
 71
     3
 72
     9
 73
     5
 74
     0
 42
0.000000001
 43
0.00000001
 40
0.0
 40
0.0
 40
0.0
 40
0.0
 40
0.6391419559851205
 40
1.0
 40
1.0
 40
1.0
 40
1.0
 10
103.2639399938447
 20
79.69180625506137
 30
0.0
 10
103.3841321808658
 20
79.56382324404792
 30
0.0
 10
103.5721845937854
 20
79.3635813262471
 30
0.0
 10
103.7951964880043
 20
79.17026641486142
 30
0.0
 10
103.8756721239442
 20
79.10050717405987
 30
0.0
  0
LINE
  5
C1
330
1F
100
AcDbEntity
  8
0
  6
Continuous
 62
     7
370
    25
100
AcDbLine
 10
103.0724424973378
 20
82.10265822055226
 30
0.0
 11
103.0724424973378
 21
80.17080656797413
 31
0.0
  0
SPLINE
  5
C2
330
1F
100
AcDbEntity
  8
0
  6
Continuous
 62
     7
370
    25
100
AcDbSpline
210
0.0
220
0.0
230
1.0
 70
     8
 71
     3
 72
    10
 73
     6
 74
     0
 42
0.000000001
 43
0.00000001
 40
0.0
 40
0.0
 40
0.0
 40
0.0
 40
0.1147849614684424
 40
0.7402660281978255
 40
1.0
 40
1.0
 40
1.0
 40
1.0
 10
103.0860105689842
 20
80.18303117003175
 30
0.0
 10
103.0813236122708
 20
80.16218100784575
 30
0.0
 10
103.0510967011303
 20
80.02771507649686
 30
0.0
 10
103.1450988601275
 20
79.84031965467399
 30
0.0
 10
103.2369806450918
 20
79.7254968166489
 30
0.0
 10
103.2639399938447
 20
79.69180625506137
 30
0.0
  0
LINE
  5
C3
330
1F
100
AcDbEntity
  8
0
  6
Continuous
 62
     7
370
    25
100
AcDbLine
 10
111.5137638981228
 20
77.04624845781139
 30
0.0
 11
111.7448543026092
 21
68.00373373794575
 31
0.0
  0
SPLINE
  5
C4
330
1F
100
AcDbEntity
  8
0
  6
Continuous
 62
     7
370
    25
100
AcDbSpline
210
0.0
220
0.0
230
1.0
 70
     8
 71
     3
 72
    13
 73
     9
 74
     0
 42
0.000000001
 43
0.00000001
 40
0.0
 40
0.0
 40
0.0
 40
0.0
 40
0.0511541939140946
 40
0.2474388887835734
 40
0.4443756272276211
 40
0.6423562625583226
 40
0.841414292816687
 40
1.0
 40
1.0
 40
1.0
 40
1.0
 10
111.9854293835002
 20
64.31299014053772
 30
0.0
 10
112.0007502660438
 20
64.23254379651762
 30
0.0
 10
112.0748591877512
 20
63.84341531167692
 30
0.0
 10
112.3618420755633
 20
63.1806858651352
 30
0.0
 10
112.8319548735761
 20
62.38615203392057
 30
0.0
 10
113.4289319189957
 20
61.73490112668937
 30
0.0
 10
114.0630980326997
 20
61.27831036696091
 30
0.0
 10
114.5048125756969
 20
61.12999517160966
 30
0.0
 10
114.7006767998979
 20
61.06422952921631
 30
0.0
  0
SPLINE
  5
C5
330
1F
100
AcDbEntity
  8
0
  6
Continuous
 62
     7
370
    25
100
AcDbSpline
210
0.0
220
0.0
230
1.0
 70
     8
 71
     3
 72
    10
 73
     6
 74
     0
 42
0.000000001
 43
0.00000001
 40
0.0
 40
0.0
 40
0.0
 40
0.0
 40
0.0219360122230073
 40
0.5808433619139685
 40
1.0
 40
1.0
 40
1.0
 40
1.0
 10
161.8264516576988
 20
82.29160319559628
 30
0.0
 10
161.8290937391294
 20
82.29236172441135
 30
0.0
 10
161.8990533765073
 20
82.31244679833368
 30
0.0
 10
162.0886057401979
 20
82.34354057546778
 30
0.0
 10
162.2847672714546
 20
82.36066860232899
 30
0.0
 10
162.3688337630041
 20
82.3680089463616
 30
0.0
  0
LINE
  5
C6
330
1F
100
AcDbEntity
  8
0
  6
Continuous
 62
     7
370
    25
100
AcDbLine
 10
165.5804608180597
 20
83.55375926433078
 30
0.0
 11
165.5804608180597
 21
85.48561091690893
 31
0.0
  0
LINE
  5
C7
330
1F
100
AcDbEntity
  8
0
  6
Continuous
 62
     7
370
    25
100
AcDbLine
 10
162.3688337630041
 20
82.3680089463616
 30
0.0
 11
163.2621005228133
 21
82.4299573124789
 31
0.0
  0
SPLINE
  5
C8
330
1F
100
AcDbEntity
  8
0
  6
Continuous
 62
     7
370
    25
100
AcDbSpline
210
0.0
220
0.0
230
1.0
 70
     8
 71
     3
 72
    13
 73
     9
 74
     0
 42
0.000000001
 43
0.00000001
 40
0.0
 40
0.0
 40
0.0
 40
0.0
 40
0.1107476394131456
 40
0.3252981427069808
 40
0.5462258210238504
 40
0.7526351039928583
 40
0.8929011856021405
 40
1.0
 40
1.0
 40
1.0
 40
1.0
 10
163.2621005228133
 20
82.4299573124789
 30
0.0
 10
163.3923482245585
 20
82.44070108740905
 30
0.0
 10
163.7749237421415
 20
82.47225869034277
 30
0.0
 10
164.3569311390071
 20
82.56981829779599
 30
0.0
 10
164.9120034319044
 20
82.73678575198856
 30
0.0
 10
165.2762166264235
 20
82.94084559950994
 30
0.0
 10
165.534358120858
 20
83.2208987994437
 30
0.0
 10
165.5570626291924
 20
83.44465670338921
 30
0.0
 10
165.5668927464133
 20
83.54153466227316
 30
0.0
  0
LINE
  5
C9
330
1F
100
AcDbEntity
  8
0
  6
Continuous
 62
     7
370
    25
100
AcDbLine
 10
162.2943026408844
 20
131.0572951324372
 30
0.0
 11
162.5872903298835
 21
131.339471832269
 31
0.0
  0
LINE
  5
CA
330
1F
100
AcDbEntity
  8
0
  6
Continuous
 62
     7
370
    25
100
AcDbLine
 10
82.66307499101003
 20
137.3964943689819
 30
0.0
 11
133.5747632364416
 21
124.2195798327422
 31
0.0
  0
ARC
  5
CB
330
1F
100
AcDbEntity
  8
0
  6
Continuous
 62
     7
370
    25
100
AcDbCircle
 10
134.3264516576988
 20
127.1238808704013
 30
0.0
 40
3.000000000000001
100
AcDbArc
 50
255.4891813009309
 51
284.5108186990702
  0
LINE
  5
CC
330
1F
100
AcDbEntity
  8
0
  6
Continuous
 62
     7
370
    25
100
AcDbLine
 10
135.0781400789559
 20
124.2195798327422
 30
0.0
 11
185.9898283243873
 21
137.396494368982
 31
0.0
  0
LINE
  5
CD
330
1F
100
AcDbEntity
  8
0
  6
Continuous
 62
     7
370
    25
100
AcDbLine
 10
106.5332888471834
 20
130.9891654943411
 30
0.0
 11
106.4270266944423
 21
130.9178528506894
 31
0.0
  0
LINE
  5
CE
330
1F
100
AcDbEntity
  8
0
  6
Continuous
 62
     7
370
    25
100
AcDbLine
 10
185.9898283243873
 20
205.0243493268006
 30
0.0
 11
135.0781400789558
 21
218.2012638630404
 31
0.0
  0
ARC
  5
CF
330
1F
100
AcDbEntity
  8
0
  6
Continuous
 62
     7
370
    25
100
AcDbCircle
 10
185.2381399031301
 20
202.1200482891415
 30
0.0
 40
3.0
100
AcDbArc
 50
0.0
 51
75.48918130093051
  0
ARC
  5
D0
330
1F
100
AcDbEntity
  8
0
  6
Continuous
 62
     7
370
    25
100
AcDbCircle
 10
83.41476341226722
 20
202.1200482891414
 30
0.0
 40
3.0
100
AcDbArc
 50
104.5108186990699
 51
179.9999999999999
  0
LINE
  5
D1
330
1F
100
AcDbEntity
  8
0
  6
Continuous
 62
     7
370
    25
100
AcDbLine
 10
80.41476341226722
 20
202.1200482891414
 30
0.0
 11
80.41476341226722
 21
140.3007954066411
 31
0.0
  0
LINE
  5
D2
330
1F
100
AcDbEntity
  8
0
  6
Continuous
 62
     7
370
    25
100
AcDbLine
 10
188.2381399031301
 20
140.3007954066411
 30
0.0
 11
188.2381399031301
 21
202.1200482891415
 31
0.0
  0
LINE
  5
D3
330
1F
100
AcDbEntity
  8
0
  6
Continuous
 62
     7
370
    25
100
AcDbLine
 10
133.5747632364414
 20
218.2012638630404
 30
0.0
 11
82.66307499101002
 21
205.0243493268005
 31
0.0
  0
ARC
  5
D4
330
1F
100
AcDbEntity
  8
0
  6
Continuous
 62
     7
370
    25
100
AcDbCircle
 10
185.2381399031301
 20
140.3007954066411
 30
0.0
 40
3.000000000000015
100
AcDbArc
 50
284.5108186990707
 51
0.0000000000001951
  0
ARC
  5
D5
330
1F
100
AcDbEntity
  8
0
  6
Continuous
 62
     7
370
    25
100
AcDbCircle
 10
83.41476341226723
 20
140.3007954066411
 30
0.0
 40
3.000000000000015
100
AcDbArc
 50
179.9999999999999
 51
255.4891813009309
  0
ARC
  5
D6
330
1F
100
AcDbEntity
  8
0
  6
Continuous
 62
     7
370
    25
100
AcDbCircle
 10
134.3264516576986
 20
215.2969628253813
 30
0.0
 40
2.999999999999987
100
AcDbArc
 50
75.48918130092999
 51
93.96713080083777
  0
ARC
  5
D7
330
1F
100
AcDbEntity
  8
0
  6
Continuous
 62
     7
370
    25
100
AcDbCircle
 10
134.3264516576986
 20
215.2969628253813
 30
0.0
 40
2.999999999999994
100
AcDbArc
 50
93.96713080083777
 51
104.5108186990706
  0
LINE
  5
D8
330
1F
100
AcDbEntity
  8
0
  6
Continuous
 62
     7
370
    25
100
AcDbLine
 10
122.5710040313461
 20
93.52957660992645
 30
0.0
 11
122.8592700607331
 21
77.57772777523078
 31
0.0
  0
LINE
  5
D9
330
1F
100
AcDbEntity
  8
0
  6
Continuous
 62
     7
370
    25
100
AcDbLine
 10
158.5274271581415
 20
79.63522952719352
 30
0.0
 11
158.8381747042347
 21
96.8311436332431
 31
0.0
  0
LINE
  5
DA
330
1F
100
AcDbEntity
  8
0
  6
Continuous
 62
     7
370
    25
100
AcDbLine
 10
161.8261508749558
 20
84.72677123433529
 30
0.0
 11
162.0599577884877
 21
97.6650024546369
 31
0.0
  0
SPLINE
  5
DB
330
1F
100
AcDbEntity
  8
0
  6
Continuous
 62
     7
370
    25
100
AcDbSpline
210
0.0
220
0.0
230
1.0
 70
     8
 71
     3
 72
    11
 73
     7
 74
     0
 42
0.000000001
 43
0.00000001
 40
0.0
 40
0.0
 40
0.0
 40
0.0
 40
0.2643789788751691
 40
0.522493928219364
 40
0.7690838520813095
 40
0.9999999999999999
 40
0.9999999999999999
 40
0.9999999999999999
 40
0.9999999999999999
 10
188.3156596735911
 20
133.5489084811892
 30
0.0
 10
188.30820720864
 20
133.6048992448752
 30
0.0
 10
188.2934788527633
 20
133.7155541622472
 30
0.0
 10
188.1916264648758
 20
133.8671732079007
 30
0.0
 10
188.0486632524504
 20
133.9958517571434
 30
0.0
 10
187.9272800634753
 20
134.0535195355334
 30
0.0
 10
187.8685806247107
 20
134.081406974106
 30
0.0
  0
SPLINE
  5
DC
330
1F
100
AcDbEntity
  8
0
  6
Continuous
 62
     7
370
    25
100
AcDbSpline
210
0.0
220
0.0
230
1.0
 70
     8
 71
     3
 72
    11
 73
     7
 74
     0
 42
0.000000001
 43
0.00000001
 40
0.0
 40
0.0
 40
0.0
 40
0.0
 40
0.2309161479186902
 40
0.4775060717806353
 40
0.7356210211248368
 40
1.0
 40
1.0
 40
1.0
 40
1.0
 10
80.78432269068666
 20
134.0814069741061
 30
0.0
 10
80.72562325192206
 20
134.0535195355334
 30
0.0
 10
80.60424006294697
 20
133.9958517571434
 30
0.0
 10
80.46127685052154
 20
133.8671732079007
 30
0.0
 10
80.359424462634
 20
133.7155541622473
 30
0.0
 10
80.3446961067573
 20
133.6048992448753
 30
0.0
 10
80.33724364180625
 20
133.5489084811892
 30
0.0
  0
LINE
  5
DD
330
1F
100
AcDbEntity
  8
0
  6
Continuous
 62
     7
370
    25
100
AcDbLine
 10
188.3594493091354
 20
131.1257105718289
 30
0.0
 11
188.3156598093264
 21
133.5489009941826
 31
0.0
  0
LINE
  5
DE
330
1F
100
AcDbEntity
  8
0
  6
Continuous
 62
     7
370
    25
100
AcDbLine
 10
80.33724350607089
 20
133.5489009941827
 30
0.0
 11
80.29345400626187
 21
131.125710571829
 31
0.0
  0
LINE
  5
DF
330
1F
100
AcDbEntity
  8
0
  6
Continuous
 62
     7
370
    25
100
AcDbLine
 10
187.8073846977875
 20
134.1068709610379
 30
0.0
 11
180.5435420940909
 21
135.9868917675017
 31
0.0
  0
LINE
  5
E0
330
1F
100
AcDbEntity
  8
0
  6
Continuous
 62
     7
370
    25
100
AcDbLine
 10
88.10936122130626
 20
135.9868917675017
 30
0.0
 11
80.84551861760983
 21
134.1068709610379
 31
0.0
  0
LINE
  5
E1
330
1F
100
AcDbEntity
  8
0
  6
Continuous
 62
     7
370
    25
100
AcDbLine
 10
102.7995455294745
 20
98.16813552605285
 30
0.0
 11
103.0724753100005
 21
83.06495250203943
 31
0.0
  0
LINE
  5
E2
330
1F
100
AcDbEntity
  8
0
  6
Continuous
 62
     7
370
    25
100
AcDbLine
 10
165.5804280053968
 20
86.44790519839604
 30
0.0
 11
165.8006278580027
 21
98.63315911007237
 31
0.0
  0
LWPOLYLINE
  5
E3
330
1F
100
AcDbEntity
  8
0
  6
Continuous
 62
     7
370
    25
100
AcDbPolyline
 90
       18
 70
   128
 43
0.0
 10
125.0283790448759
 20
62.99970417316236
 10
125.2986065439242
 20
63.67598931935367
 10
125.7233356998702
 20
64.21150465012862
 10
126.2452044866978
 20
64.53392585267316
 10
126.7937316329711
 20
64.5997081569861
 10
127.2948355080922
 20
64.39996729835764
 10
127.6808392570135
 20
63.96167938654787
 10
127.8996109345225
 20
63.34403763268381
 10
127.9216042133159
 20
62.63045797809598
 10
127.7438487792238
 20
61.9173133092178
 10
127.3903514885971
 20
61.30091776525227
 10
126.9088541093311
 20
60.8645189799776
 10
126.3643855305648
 20
60.66705502751422
 10
125.830479250865
 20
60.73519450882793
 10
125.379242271782
 20
61.05973480939335
 10
125.0716166477315
 20
61.59684496327923
 10
124.9491489238539
 20
62.2739852679732
 10
125.0283790448759
 20
62.99970417316236
  0
LWPOLYLINE
  5
E4
330
1F
100
AcDbEntity
  8
0
  6
Continuous
 62
     7
370
    25
100
AcDbPolyline
 90
       18
 70
   128
 43
0.0
 10
110.8862434211438
 20
66.65995821100707
 10
111.1564709201922
 20
67.33624335719837
 10
111.5812000761382
 20
67.87175868797333
 10
112.1030688629658
 20
68.19417989051787
 10
112.6515960092391
 20
68.25996219483078
 10
113.1526998843602
 20
68.06022133620233
 10
113.5387036332814
 20
67.62193342439254
 10
113.7574753107904
 20
67.0042916705285
 10
113.7794685895839
 20
66.29071201594066
 10
113.6017131554918
 20
65.57756734706248
 10
113.2482158648651
 20
64.96117180309696
 10
112.7667184855991
 20
64.52477301782228
 10
112.2222499068327
 20
64.32730906535893
 10
111.6883436271329
 20
64.39544854667263
 10
111.23710664805
 20
64.71998884723806
 10
110.9294810239995
 20
65.25709900112396
 10
110.8070133001219
 20
65.93423930581791
 10
110.8862434211438
 20
66.65995821100707
  0
ARC
  5
E6
330
1F
100
AcDbEntity
  8
0
  6
Continuous
 62
     7
370
    25
100
AcDbCircle
 10
136.5227031207475
 20
60.68587282026275
 30
0.0
 40
3.627803806150886
100
AcDbArc
 50
338.6883517382302
 51
65.25240796925506
  0
ARC
  5
E8
330
1F
100
AcDbEntity
  8
0
  6
Continuous
 62
     7
370
    25
100
AcDbCircle
 10
136.3706234824141
 20
59.76236608758814
 30
0.0
 40
3.553822848816806
100
AcDbArc
 50
265.7397649274237
 51
353.6187579185718
  0
LINE
  5
E9
330
1F
100
AcDbEntity
  8
0
  6
Continuous
 62
     7
370
    25
100
AcDbLine
 10
136.1066219468756
 20
56.21836269735194
 30
0.0
 11
133.7900149151884
 21
56.83353532786661
 31
0.0
  0
LINE
  5
EA
330
1F
100
AcDbEntity
  8
0
  6
Continuous
 62
     7
370
    25
100
AcDbLine
 10
136.1826551874728
 20
64.461575304653
 30
0.0
 11
138.0413800480594
 21
63.98050191112765
 31
0.0
  0
LINE
  5
EB
330
1F
100
AcDbEntity
  8
0
  6
Continuous
 62
     7
370
    25
100
AcDbLine
 10
133.1353109392886
 20
56.98739457503821
 30
0.0
 11
136.1066219468756
 21
56.21836269735194
 31
0.0
  0
LWPOLYLINE
  5
EC
330
1F
100
AcDbEntity
  8
0
  6
Continuous
 62
     7
370
    25
100
AcDbPolyline
 90
        3
 70
   128
 43
0.0
 10
130.2752537961014
 20
71.9703273828132
 10
130.3544839171234
 20
72.69604628800239
 10
130.2846087495834
 20
73.20017748893754
  0
LWPOLYLINE
  5
ED
330
1F
100
AcDbEntity
  8
0
  6
Continuous
 62
     7
370
    25
100
AcDbPolyline
 90
        9
 70
   128
 43
0.0
 10
127.3674858910489
 20
71.98033720383108
 10
127.4040219064548
 20
71.62599392329174
 10
127.6227935839638
 20
71.00835216942772
 10
128.0087973328851
 20
70.57006425761794
 10
128.5099012080061
 20
70.37032339898947
 10
129.0584283542795
 20
70.43610570330242
 10
129.5802971411071
 20
70.75852690584696
 10
130.005026297053
 20
71.29404223662192
 10
130.2752537961014
 20
71.9703273828132
  0
LWPOLYLINE
  5
EE
330
1F
100
AcDbEntity
  8
0
  6
Continuous
 62
     7
370
    25
100
AcDbPolyline
 90
        3
 70
   128
 43
0.0
 10
137.789539448021
 20
70.1588286918397
 10
137.9223727644089
 20
71.07290035802552
 10
137.9236717408934
 20
71.10616714732612
  0
LWPOLYLINE
  5
EF
330
1F
100
AcDbEntity
  8
0
  6
Continuous
 62
     7
370
    25
100
AcDbPolyline
 90
        3
 70
   128
 43
0.0
 10
137.4146853684774
 20
69.16362002361134
 10
137.4782124721361
 20
69.29095458416184
 10
137.789539448021
 20
70.1588286918397
  0
ARC
  5
F0
330
1F
100
AcDbEntity
  8
0
  6
Continuous
 62
     7
370
    25
100
AcDbCircle
 10
126.7788432228578
 20
82.43036546681454
 30
0.0
 40
9.01420905551806
100
AcDbArc
 50
259.354801855781
 51
271.577812072295
  0
ARC
  5
F1
330
1F
100
AcDbEntity
  8
0
  6
Continuous
 62
     7
370
    25
100
AcDbCircle
 10
126.8206993497251
 20
79.16520589025347
 30
0.0
 40
7.205030730592409
100
AcDbArc
 50
263.8396621447524
 51
276.1603378552502
  0
ARC
  5
F3
330
1F
100
AcDbEntity
  8
0
  6
Continuous
 62
     7
370
    25
100
AcDbCircle
 10
106.3146026953166
 20
84.39345867941661
 30
0.0
 40
7.126377076022353
100
AcDbArc
 50
263.7714030226404
 51
276.2285969773618
  0
ARC
  5
F4
330
1F
100
AcDbEntity
  8
0
  6
Continuous
 62
     7
370
    25
100
AcDbCircle
 10
155.6181912871744
 20
79.5442707009924
 30
0.0
 40
4.141137542365718
100
AcDbArc
 50
272.8998440150163
 51
294.3436633331763
  0
ARC
  5
F5
330
1F
100
AcDbEntity
  8
0
  6
Continuous
 62
     7
370
    25
100
AcDbCircle
 10
154.8325483121089
 20
81.12428685607651
 30
0.0
 40
7.221385280211359
100
AcDbArc
 50
263.853667525239
 51
276.1463324747606
  0
ARC
  5
F6
330
1F
100
AcDbEntity
  8
0
  6
Continuous
 62
     7
370
    25
100
AcDbCircle
 10
117.3732514653594
 20
100.1160138770212
 30
0.0
 40
6.601584818832952
100
AcDbArc
 50
257.7293991636962
 51
276.5742281430325
  0
ARC
  5
F7
330
1F
100
AcDbEntity
  8
0
  6
Continuous
 62
     7
370
    25
100
AcDbCircle
 10
106.7666497475611
 20
102.8612044054036
 30
0.0
 40
6.601584818832006
100
AcDbArc
 50
257.7293991636951
 51
276.5742281430343
  0
ARC
  5
F8
330
1F
100
AcDbEntity
  8
0
  6
Continuous
 62
     7
370
    25
100
AcDbCircle
 10
162.3371441390204
 20
88.40716640370331
 30
0.0
 40
7.254200035506091
100
AcDbArc
 50
264.5512101242943
 51
276.127609435763
  0
LWPOLYLINE
  5
F9
330
1F
100
AcDbEntity
  8
0
  6
Continuous
 62
     7
370
    25
100
AcDbPolyline
 90
        8
 70
   128
 43
0.0
 10
163.3569179533672
 20
85.701536743198
 10
163.8957148018781
 20
85.75367943538048
 10
164.3861556444189
 20
85.83147921931737
 10
164.8102091649077
 20
85.93207574494485
 10
165.1522848121502
 20
86.05177052797497
 10
165.3998059946714
 20
86.18616292661987
 10
165.5436724657303
 20
86.33031193350676
 10
165.5804608180596
 20
86.451536743198
  0
LINE
  5
FA
330
1F
100
AcDbEntity
  8
0
  6
Continuous
 62
     7
370
    25
100
AcDbLine
 10
163.3569179533672
 20
85.701536743198
 30
0.0
 11
162.463651193558
 21
85.6395883770807
 31
0.0
  0
ARC
  5
FB
330
1F
100
AcDbEntity
  8
0
  6
Continuous
 62
     7
370
    25
100
AcDbCircle
 10
162.5214315704351
 20
83.77787045187426
 30
0.0
 40
1.862614346821963
100
AcDbArc
 50
91.77766424665933
 51
111.4487505863968
  0
LWPOLYLINE
  5
FC
330
1F
100
AcDbEntity
  8
0
  6
Continuous
 62
     7
370
    25
100
AcDbPolyline
 90
        8
 70
   128
 43
0.0
 10
161.8264516576987
 20
84.76006039501965
 10
161.8264260853131
 20
84.75035388524091
 10
161.7196154604151
 20
84.13328119979039
 10
161.4064912865793
 20
83.52092914614053
 10
160.8894118806481
 20
82.91790969705572
 10
160.172271662707
 20
82.32876453612953
 10
159.2604718249848
 20
81.75793085177382
 10
158.5592314222122
 20
81.39518998397084
  0
LWPOLYLINE
  5
FD
330
1F
100
AcDbEntity
  8
0
  6
Continuous
 62
     7
370
    25
100
AcDbPolyline
 90
        5
 70
   128
 43
0.0
 10
157.7206677273327
 20
79.10908183168263
 10
158.0710240422578
 20
79.22716125149672
 10
158.3278648834128
 20
79.36037703221363
 10
158.4817473618948
 20
79.50383142543885
 10
158.5274599708045
 20
79.63886107199546
  0
ARC
  5
FE
330
1F
100
AcDbEntity
  8
0
  6
Continuous
 62
     7
370
    25
100
AcDbCircle
 10
144.8760077628486
 20
125.5204151865243
 30
0.0
 40
48.1559669550665
100
AcDbArc
 50
283.5518390094728
 51
285.4697983886688
  0
ARC
  5
FF
330
1F
100
AcDbEntity
  8
0
  6
Continuous
 62
     7
370
    25
100
AcDbCircle
 10
154.1188373312262
 20
88.30204701279285
 30
0.0
 40
9.811555129862063
100
AcDbArc
 50
257.4802482724023
 51
282.0082499599209
  0
LINE
  5
100
330
1F
100
AcDbEntity
  8
0
  6
Continuous
 62
     7
370
    25
100
AcDbLine
 10
151.9919260648717
 20
78.72379756253437
 30
0.0
 11
151.338009411979
 21
78.8930436462127
 31
0.0
  0
ARC
  5
101
330
1F
100
AcDbEntity
  8
0
  6
Continuous
 62
     7
370
    25
100
AcDbCircle
 10
150.623574463318
 20
75.63688534065243
 30
0.0
 40
3.333614285837145
100
AcDbArc
 50
77.6248083004974
 51
99.75369549080753
  0
ARC
  5
102
330
1F
100
AcDbEntity
  8
0
  6
Continuous
 62
     7
370
    25
100
AcDbCircle
 10
134.6019357957599
 20
170.8286892000244
 30
0.0
 40
93.19708799271761
100
AcDbArc
 50
268.3875557129666
 51
279.5467058887103
  0
ARC
  5
103
330
1F
100
AcDbEntity
  8
0
  6
Continuous
 62
     7
370
    25
100
AcDbCircle
 10
131.7762650909757
 20
75.79744012849473
 30
0.0
 40
1.882068461486148
100
AcDbArc
 50
83.80124852087764
 51
116.7817955855912
  0
LINE
  5
104
330
1F
100
AcDbEntity
  8
0
  6
Continuous
 62
     7
370
    25
100
AcDbLine
 10
130.9282164864321
 20
77.47761727928942
 30
0.0
 11
130.6888663795157
 21
77.24642282949381
 31
0.0
  0
ARC
  5
105
330
1F
100
AcDbEntity
  8
0
  6
Continuous
 62
     7
370
    25
100
AcDbCircle
 10
127.9872063939649
 20
82.85344646964818
 30
0.0
 40
6.223960216676873
100
AcDbArc
 50
261.9443898080606
 51
295.7263926212954
  0
ARC
  5
106
330
1F
100
AcDbEntity
  8
0
  6
Continuous
 62
     7
370
    25
100
AcDbCircle
 10
133.8107796600267
 20
188.6836691487754
 30
0.0
 40
112.1927508760426
100
AcDbArc
 50
265.4872344527714
 51
266.5785039455557
  0
LWPOLYLINE
  5
107
330
1F
100
AcDbEntity
  8
0
  6
Continuous
 62
     7
370
    25
100
AcDbPolyline
 90
        8
 70
   128
 43
0.0
 10
122.8592372480704
 20
77.58135932003272
 10
122.881636922965
 20
77.48665265908942
 10
123.0062126978676
 20
77.34130539993647
 10
123.2356814241545
 20
77.2047838496855
 10
123.5616065631536
 20
77.08210729509041
 10
123.9720053053381
 20
76.97778600434226
 10
124.4517891246351
 20
76.89565540468196
 10
124.9833185160399
 20
76.83873507089612
  0
LWPOLYLINE
  5
108
330
1F
100
AcDbEntity
  8
0
  6
Continuous
 62
     7
370
    25
100
AcDbPolyline
 90
        3
 70
   128
 43
0.0
 10
122.6591495799312
 20
78.31487339849664
 10
122.8097630633162
 20
78.29227865003782
 10
122.8464840198958
 20
78.28527209138127
  0
ARC
  5
109
330
1F
100
AcDbEntity
  8
0
  6
Continuous
 62
     7
370
    25
100
AcDbCircle
 10
131.9525749749995
 20
155.0515300946812
 30
0.0
 40
77.29736241607333
100
AcDbArc
 50
262.0393545504934
 51
263.0946505304937
  0
ARC
  5
10C
330
1F
100
AcDbEntity
  8
0
  6
Continuous
 62
     7
370
    25
100
AcDbCircle
 10
134.6019357957598
 20
169.8627633737347
 30
0.0
 40
93.197087992717
100
AcDbArc
 50
268.3875557129666
 51
279.5467058887104
  0
ARC
  5
10F
330
1F
100
AcDbEntity
  8
0
  6
Continuous
 62
     7
370
    25
100
AcDbCircle
 10
127.9872063939649
 20
81.88752064335904
 30
0.0
 40
6.223960216676817
100
AcDbArc
 50
261.9443898080609
 51
295.726392621296
  0
ARC
  5
111
330
1F
100
AcDbEntity
  8
0
  6
Continuous
 62
     7
370
    25
100
AcDbCircle
 10
133.8107796600459
 20
187.7177433227635
 30
0.0
 40
112.1927508763205
100
AcDbArc
 50
265.4872344527727
 51
266.5785039455543
  0
LWPOLYLINE
  5
112
330
1F
100
AcDbEntity
  8
0
  6
Continuous
 62
     7
370
    25
100
AcDbPolyline
 90
        8
 70
   128
 43
0.0
 10
124.9833185160399
 20
75.87280924460704
 10
124.4517891246351
 20
75.92972957839291
 10
123.9720053053381
 20
76.0118601780532
 10
123.5616065631536
 20
76.11618146880133
 10
123.2356814241545
 20
76.23885802339643
 10
123.0062126978676
 20
76.37537957364741
 10
122.881636922965
 20
76.52072683280034
 10
122.8592372480704
 20
76.61543349374364
  0
LINE
  5
114
330
1F
100
AcDbEntity
  8
0
  6
Continuous
 62
     7
370
    25
100
AcDbLine
 10
130.9282164864321
 20
76.51169145300035
 30
0.0
 11
130.6888663795157
 21
76.28049700320474
 31
0.0
  0
ARC
  5
115
330
1F
100
AcDbEntity
  8
0
  6
Continuous
 62
     7
370
    25
100
AcDbCircle
 10
131.7762650909757
 20
74.83151430220543
 30
0.0
 40
1.882068461486346
100
AcDbArc
 50
83.80124852087829
 51
116.781795585588
  0
LWPOLYLINE
  5
117
330
1F
100
AcDbEntity
  8
0
  6
Continuous
 62
     7
370
    25
100
AcDbPolyline
 90
        3
 70
   128
 43
0.0
 10
122.8592372480704
 20
77.31675160552088
 10
122.8097630633162
 20
77.32635282374875
 10
122.6591495799312
 20
77.34894757220758
  0
ELLIPSE
  5
118
330
1F
100
AcDbEntity
  8
0
  6
Continuous
 62
     7
370
    25
100
AcDbEllipse
 10
134.3264516576987
 20
145.4832653279156
 30
0.0
 11
-19.20405229480649
 21
308.6874752844354
 31
0.0
210
0.0
220
0.0
230
1.0
 40
0.0637663085237315
 41
1.7844918637843
 42
1.787739955106641
  0
ARC
  5
119
330
1F
100
AcDbEntity
  8
0
  6
Continuous
 62
     7
370
    25
100
AcDbCircle
 10
131.3643653414582
 20
149.6329523417175
 30
0.0
 40
72.80630554404794
100
AcDbArc
 50
260.4119938014352
 51
263.1328989160169
  0
ARC
  5
11C
330
1F
100
AcDbEntity
  8
0
  6
Continuous
 62
     7
370
    25
100
AcDbCircle
 10
154.1188373312262
 20
87.33612118650372
 30
0.0
 40
9.811555129861993
100
AcDbArc
 50
257.4802482724022
 51
282.008249959921
  0
LINE
  5
11D
330
1F
100
AcDbEntity
  8
0
  6
Continuous
 62
     7
370
    25
100
AcDbLine
 10
110.8347495453452
 20
83.65759844213349
 30
0.0
 11
110.5765106606932
 21
79.69236031285246
 31
0.0
  0
LWPOLYLINE
  5
11E
330
1F
100
AcDbEntity
  8
0
  6
Continuous
 62
     7
370
    25
100
AcDbPolyline
 90
        9
 70
   128
 43
0.0
 10
112.2435815981507
 20
85.05644556243595
 10
111.9828285910402
 20
85.09081179405906
 10
111.73101680889
 20
85.05775638165724
 10
111.4967808819078
 20
84.95841279587276
 10
111.2881527639342
 20
84.7961875299182
 10
111.1122863166123
 20
84.57664329086728
 10
110.9752120033525
 20
84.30730825433677
 10
110.8816301046411
 20
83.99741792321893
 10
110.8347495453452
 20
83.65759844213349
  0
LINE
  5
11F
330
1F
100
AcDbEntity
  8
0
  6
Continuous
 62
     7
370
    25
100
AcDbLine
 10
116.8113419708
 20
83.87422218452973
 30
0.0
 11
112.2435815981507
 21
85.05644556243595
 31
0.0
  0
ARC
  5
120
330
1F
100
AcDbEntity
  8
0
  6
Continuous
 62
     7
370
    25
100
AcDbCircle
 10
115.9197742586008
 20
81.75360851810986
 30
0.0
 40
2.300411986502215
100
AcDbArc
 50
359.8132342565343
 51
67.19669805172764
  0
LINE
  5
121
330
1F
100
AcDbEntity
  8
0
  6
Continuous
 62
     7
370
    25
100
AcDbLine
 10
118.2201740236056
 20
81.74610993099337
 30
0.0
 11
118.4784129082575
 21
77.6471975186444
 31
0.0
  0
LINE
  5
122
330
1F
100
AcDbEntity
  8
0
  6
Continuous
 62
     7
370
    25
100
AcDbLine
 10
118.4784129082575
 20
77.6471975186444
 30
0.0
 11
110.5765106606932
 21
79.69236031285246
 31
0.0
  0
LINE
  5
123
330
1F
100
AcDbEntity
  8
0
  6
Continuous
 62
     7
370
    25
100
AcDbLine
 10
119.2375764897973
 20
77.84368351189514
 30
0.0
 11
118.4784129082575
 21
77.6471975186444
 31
0.0
  0
ARC
  5
125
330
1F
100
AcDbEntity
  8
0
  6
Continuous
 62
     7
370
    25
100
AcDbCircle
 10
144.8760077628679
 20
124.5544893601605
 30
0.0
 40
48.15596695498934
100
AcDbArc
 50
283.5518390094713
 51
285.4697983886704
  0
LINE
  5
127
330
1F
100
AcDbEntity
  8
0
  6
Continuous
 62
     7
370
    25
100
AcDbLine
 10
151.9919260648717
 20
77.7578717362453
 30
0.0
 11
151.338009411979
 21
77.92711781992364
 31
0.0
  0
ARC
  5
128
330
1F
100
AcDbEntity
  8
0
  6
Continuous
 62
     7
370
    25
100
AcDbCircle
 10
150.6235744633179
 20
74.67095951436268
 30
0.0
 40
3.333614285837816
100
AcDbArc
 50
77.62480830049944
 51
99.75369549080506
  0
LWPOLYLINE
  5
129
330
1F
100
AcDbEntity
  8
0
  6
Continuous
 62
     7
370
    25
100
AcDbPolyline
 90
        5
 70
   128
 43
0.0
 10
158.5274599708045
 20
78.6729352457064
 10
158.4817473618948
 20
78.53790559914978
 10
158.3278648834128
 20
78.39445120592455
 10
158.0710240422578
 20
78.26123542520766
 10
157.7206677273327
 20
78.14315600539356
  0
ARC
  5
12A
330
1F
100
AcDbEntity
  8
0
  6
Continuous
 62
     7
370
    25
100
AcDbCircle
 10
108.5478008259969
 20
79.36712337323203
 30
0.0
 40
2.529855113391914
100
AcDbArc
 50
69.73226764252146
 51
96.5366686943154
  0
LINE
  5
12B
330
1F
100
AcDbEntity
  8
0
  6
Continuous
 62
     7
370
    25
100
AcDbLine
 10
108.2598044826594
 20
81.88053241295864
 30
0.0
 11
107.3665377228503
 21
81.81858404684134
 31
0.0
  0
ARC
  5
12C
330
1F
100
AcDbEntity
  8
0
  6
Continuous
 62
     7
370
    25
100
AcDbCircle
 10
106.4439102982459
 20
88.35210233034216
 30
0.0
 40
6.598340891881224
100
AcDbArc
 50
245.6256882363785
 51
278.0378462450388
  0
ARC
  5
12D
330
1F
100
AcDbEntity
  8
0
  6
Continuous
 62
     7
370
    25
100
AcDbCircle
 10
107.4290424764396
 20
86.7524639967951
 30
0.0
 40
5.762318189553763
100
AcDbArc
 50
222.041716028855
 51
229.9442295798731
  0
LWPOLYLINE
  5
12E
330
1F
100
AcDbEntity
  8
0
  6
Continuous
 62
     7
370
    25
100
AcDbPolyline
 90
        3
 70
   128
 43
0.0
 10
103.0724424973377
 20
83.06858404684134
 10
103.0743084167091
 20
83.04120295562123
 10
103.1496139635073
 20
82.89360373496082
  0
ARC
  5
12F
330
1F
100
AcDbEntity
  8
0
  6
Continuous
 62
     7
370
    25
100
AcDbCircle
 10
115.8958456927525
 20
93.47990658722601
 30
0.0
 40
13.40522704462428
100
AcDbArc
 50
241.1333188391535
 51
243.5452114849806
  0
LWPOLYLINE
  5
130
330
1F
100
AcDbEntity
  8
0
  6
Continuous
 62
     7
370
    25
100
AcDbPolyline
 90
        8
 70
   128
 43
0.0
 10
161.8264516576987
 20
83.79413456873058
 10
161.8264260853131
 20
83.78442805895183
 10
161.7196154604151
 20
83.16735537350131
 10
161.4064912865793
 20
82.55500331985147
 10
160.8894118806481
 20
81.95198387076664
 10
160.172271662707
 20
81.36283870984046
 10
159.2604718249848
 20
80.79200502548476
 10
158.5416229067414
 20
80.42078319178012
  0
ARC
  5
132
330
1F
100
AcDbEntity
  8
0
  6
Continuous
 62
     7
370
    25
100
AcDbCircle
 10
116.6276222217496
 20
93.92507869534681
 30
0.0
 40
14.99432609180814
100
AcDbArc
 50
241.2876570640502
 51
246.3348106202222
  0
ARC
  5
135
330
1F
100
AcDbEntity
  8
0
  6
Continuous
 62
     7
370
    25
100
AcDbCircle
 10
106.4439102982458
 20
87.38617650405293
 30
0.0
 40
6.598340891881057
100
AcDbArc
 50
245.6256882363781
 51
278.0378462450393
  0
ARC
  5
137
330
1F
100
AcDbEntity
  8
0
  6
Continuous
 62
     7
370
    25
100
AcDbCircle
 10
108.5478008259969
 20
78.40119754694274
 30
0.0
 40
2.529855113392139
100
AcDbArc
 50
69.73226764252234
 51
96.53666869431386
  0
LINE
  5
138
330
1F
100
AcDbEntity
  8
0
  6
Continuous
 62
     7
370
    25
100
AcDbLine
 10
108.2598044826594
 20
80.91460658666958
 30
0.0
 11
107.3665377228503
 21
80.85265822055227
 31
0.0
  0
ARC
  5
13A
330
1F
100
AcDbEntity
  8
0
  6
Continuous
 62
     7
370
    25
100
AcDbCircle
 10
107.4290424764396
 20
85.78653817050603
 30
0.0
 40
5.762318189553763
100
AcDbArc
 50
222.041716028855
 51
229.9442295798731
  0
LWPOLYLINE
  5
13B
330
1F
100
AcDbEntity
  8
0
  6
Continuous
 62
     7
370
    25
100
AcDbPolyline
 90
        3
 70
   128
 43
0.0
 10
103.1496139635073
 20
81.92767790867175
 10
103.0743084167091
 20
82.07527712933216
 10
103.0724424973377
 20
82.10265822055227
  0
ARC
  5
13D
330
1F
100
AcDbEntity
  8
0
  6
Continuous
 62
     7
370
    25
100
AcDbCircle
 10
162.4983070340365
 20
82.93974547272778
 30
0.0
 40
1.734263377022295
100
AcDbArc
 50
91.14501960659342
 51
112.7928787431099
  0
LINE
  5
13F
330
1F
100
AcDbEntity
  8
0
  6
Continuous
 62
     7
370
    25
100
AcDbLine
 10
163.3569179533672
 20
84.73561091690894
 30
0.0
 11
162.463651193558
 21
84.67366255079163
 31
0.0
  0
LWPOLYLINE
  5
140
330
1F
100
AcDbEntity
  8
0
  6
Continuous
 62
     7
370
    25
100
AcDbPolyline
 90
        8
 70
   128
 43
0.0
 10
165.5804608180596
 20
85.48561091690893
 10
165.5436724657303
 20
85.3643861072177
 10
165.3998059946714
 20
85.2202371003308
 10
165.1522848121502
 20
85.0858447016859
 10
164.8102091649077
 20
84.96614991865579
 10
164.3861556444189
 20
84.8655533930283
 10
163.8957148018781
 20
84.78775360909141
 10
163.3569179533672
 20
84.73561091690894
  0
ARC
  5
141
330
1F
100
AcDbEntity
  8
0
  6
Continuous
 62
     7
370
    25
100
AcDbCircle
 10
117.2908236551755
 20
108.4719445695841
 30
0.0
 40
0.418619113594331
100
AcDbArc
 50
350.0201693995813
 51
359.9142382268941
  0
LINE
  5
142
330
1F
100
AcDbEntity
  8
0
  6
Continuous
 62
     7
370
    25
100
AcDbLine
 10
117.7094422998147
 20
108.4713179701323
 30
0.0
 11
117.7094422998147
 21
109.4015705254777
 31
0.0
  0
LINE
  5
143
330
1F
100
AcDbEntity
  8
0
  6
Continuous
 62
     7
370
    25
100
AcDbLine
 10
117.9215743341707
 20
109.4564743360454
 30
0.0
 11
117.7094422998147
 21
109.4015705254777
 31
0.0
  0
LINE
  5
144
330
1F
100
AcDbEntity
  8
0
  6
Continuous
 62
     7
370
    25
100
AcDbLine
 10
117.9215743341707
 20
109.4564743360454
 30
0.0
 11
117.9215743341707
 21
108.5262217807
 31
0.0
  0
ARC
  5
145
330
1F
100
AcDbEntity
  8
0
  6
Continuous
 62
     7
370
    25
100
AcDbCircle
 10
117.0843370448935
 20
108.5274749796034
 30
0.0
 40
0.8372382271873076
100
AcDbArc
 50
350.0201693995708
 51
359.9142382268988
  0
LINE
  5
146
330
1F
100
AcDbEntity
  8
0
  6
Continuous
 62
     7
370
    25
100
AcDbLine
 10
117.9089068698008
 20
108.3823803452572
 30
0.0
 11
116.8845447337144
 21
102.5200371130805
 31
0.0
  0
ARC
  5
147
330
1F
100
AcDbEntity
  8
0
  6
Continuous
 62
     7
370
    25
100
AcDbCircle
 10
117.2607121176542
 20
102.4502563411825
 30
0.0
 40
0.3825849668594166
100
AcDbArc
 50
169.4908308867626
 51
193.7535744845358
  0
LINE
  5
148
330
1F
100
AcDbEntity
  8
0
  6
Continuous
 62
     7
370
    25
100
AcDbLine
 10
116.8890969179104
 20
102.3592981079863
 30
0.0
 11
118.253355892002
 21
97.12155706508328
 31
0.0
  0
ARC
  5
149
330
1F
100
AcDbEntity
  8
0
  6
Continuous
 62
     7
370
    25
100
AcDbCircle
 10
117.5684285743149
 20
96.94745718867182
 30
0.0
 40
0.7067080001532366
100
AcDbArc
 50
359.7132638462298
 51
14.26182603777108
  0
LINE
  5
14A
330
1F
100
AcDbEntity
  8
0
  6
Continuous
 62
     7
370
    25
100
AcDbLine
 10
118.275127724764
 20
96.94392049033765
 30
0.0
 11
118.275127724764
 21
94.67272296213982
 31
0.0
  0
LWPOLYLINE
  5
14B
330
1F
100
AcDbEntity
  8
0
  6
Continuous
 62
     7
370
    25
100
AcDbPolyline
 90
        9
 70
   128
 43
0.0
 10
118.4872597591199
 20
94.43784902482076
 10
118.4458748522275
 20
94.43270582090824
 10
118.406080344098
 20
94.43889626377977
 10
118.3694055153619
 20
94.45618245818746
 10
118.3372597591199
 20
94.48390010537445
 10
118.310878418757
 20
94.52098403170353
 10
118.2912753143885
 20
94.56600912268281
 10
118.2792037823216
 20
94.61724508931634
 10
118.275127724764
 20
94.67272296213982
  0
LINE
  5
14C
330
1F
100
AcDbEntity
  8
0
  6
Continuous
 62
     7
370
    25
100
AcDbLine
 10
118.4872597591199
 20
94.43784902482076
 30
0.0
 11
118.7744843295283
 21
94.51218821386384
 31
0.0
  0
LINE
  5
14D
330
1F
100
AcDbEntity
  8
0
  6
Continuous
 62
     7
370
    25
100
AcDbLine
 10
119.3342919506636
 20
94.36729933992046
 30
0.0
 11
118.4872597591199
 21
94.14807127693403
 31
0.0
  0
LWPOLYLINE
  5
14E
330
1F
100
AcDbEntity
  8
0
  6
Continuous
 62
     7
370
    25
100
AcDbPolyline
 90
        9
 70
   128
 43
0.0
 10
118.062995690408
 20
94.61781915157214
 10
118.0711478055233
 20
94.50686340592517
 10
118.095290869657
 20
94.40439147265813
 10
118.1344970783941
 20
94.31434129069957
 10
118.1872597591199
 20
94.24017343804138
 10
118.2515512716038
 20
94.18473814366743
 10
118.3249009290761
 20
94.15016575485205
 10
118.404489945335
 20
94.13778486910897
 10
118.4872597591199
 20
94.14807127693403
  0
LINE
  5
14F
330
1F
100
AcDbEntity
  8
0
  6
Continuous
 62
     7
370
    25
100
AcDbLine
 10
118.062995690408
 20
94.61781915157214
 30
0.0
 11
118.062995690408
 21
96.88901667976998
 31
0.0
  0
ARC
  5
150
330
1F
100
AcDbEntity
  8
0
  6
Continuous
 62
     7
370
    25
100
AcDbCircle
 10
117.7096461151823
 20
96.89078502893695
 30
0.0
 40
0.353354000077805
100
AcDbArc
 50
359.7132638462503
 51
14.26182603774238
  0
LINE
  5
151
330
1F
100
AcDbEntity
  8
0
  6
Continuous
 62
     7
370
    25
100
AcDbLine
 10
118.052109774027
 20
96.9778349671428
 30
0.0
 11
116.6878507999354
 21
102.2155760100459
 31
0.0
  0
ARC
  5
152
330
1F
100
AcDbEntity
  8
0
  6
Continuous
 62
     7
370
    25
100
AcDbCircle
 10
117.4310811994226
 20
102.3974924764383
 30
0.0
 40
0.7651699337183895
100
AcDbArc
 50
169.4908308867589
 51
193.7535744845463
  0
LINE
  5
153
330
1F
100
AcDbEntity
  8
0
  6
Continuous
 62
     7
370
    25
100
AcDbLine
 10
116.6787464315434
 20
102.5370540202342
 30
0.0
 11
117.7031085676298
 21
108.3993972524109
 31
0.0
  0
LINE
  5
154
330
1F
100
AcDbEntity
  8
0
  6
Continuous
 62
     7
370
    25
100
AcDbLine
 10
117.7031085676298
 20
108.3993972524109
 30
0.0
 11
110.6320407557643
 21
110.2295242713331
 31
0.0
  0
LINE
  5
155
330
1F
100
AcDbEntity
  8
0
  6
Continuous
 62
     7
370
    25
100
AcDbLine
 10
109.6076786196779
 20
104.3671810391564
 30
0.0
 11
116.6787464315434
 21
102.5370540202342
 31
0.0
  0
LINE
  5
156
330
1F
100
AcDbEntity
  8
0
  6
Continuous
 62
     7
370
    25
100
AcDbLine
 10
109.6076786196779
 20
104.3671810391564
 30
0.0
 11
110.6320407557643
 21
110.2295242713331
 31
0.0
  0
LWPOLYLINE
  5
157
330
1F
100
AcDbEntity
  8
0
  6
Continuous
 62
     7
370
    25
100
AcDbPolyline
 90
        9
 70
   128
 43
0.0
 10
112.0525880503224
 20
112.7975237931936
 10
111.7766886710394
 20
112.8318118192771
 10
111.5113919501762
 20
112.7905422001335
 10
111.2668930919353
 20
112.6753009040822
 10
111.0525880503224
 20
112.4905165895024
 10
110.876712447903
 20
112.2432904139751
 10
110.746025085446
 20
111.9431231407798
 10
110.6655482050002
 20
111.6015500298897
 10
110.6383744879493
 20
111.2316975443999
  0
LINE
  5
158
330
1F
100
AcDbEntity
  8
0
  6
Continuous
 62
     7
370
    25
100
AcDbLine
 10
112.0525880503224
 20
112.7975237931936
 30
0.0
 11
116.2952287374416
 21
111.6994475818402
 31
0.0
  0
ARC
  5
159
330
1F
100
AcDbEntity
  8
0
  6
Continuous
 62
     7
370
    25
100
AcDbCircle
 10
115.3696848175191
 20
109.5457047462513
 30
0.0
 40
2.344192771415432
100
AcDbArc
 50
356.4749081676888
 51
66.74499275941027
  0
LINE
  5
15A
330
1F
100
AcDbEntity
  8
0
  6
Continuous
 62
     7
370
    25
100
AcDbLine
 10
110.6383744879493
 20
110.3014449890545
 30
0.0
 11
117.7094422998147
 21
108.4713179701323
 31
0.0
  0
LINE
  5
15B
330
1F
100
AcDbEntity
  8
0
  6
Continuous
 62
     7
370
    25
100
AcDbLine
 10
110.6383744879493
 20
110.3014449890545
 30
0.0
 11
110.6383744879493
 21
111.2316975443999
 31
0.0
  0
LINE
  5
15C
330
1F
100
AcDbEntity
  8
0
  6
Continuous
 62
     7
370
    25
100
AcDbLine
 10
116.2952287374416
 20
111.6994475818402
 30
0.0
 11
116.5073607717976
 21
111.7543513924079
 31
0.0
  0
ARC
  5
15D
330
1F
100
AcDbEntity
  8
0
  6
Continuous
 62
     7
370
    25
100
AcDbCircle
 10
115.5818168518751
 20
109.600608556819
 30
0.0
 40
2.34419277141543
100
AcDbArc
 50
356.4749081676888
 51
66.7449927594095
  0
ARC
  5
15E
330
1F
100
AcDbEntity
  8
0
  6
Continuous
 62
     7
370
    25
100
AcDbCircle
 10
110.2197558433094
 20
110.3020715885064
 30
0.0
 40
0.4186191135949258
100
AcDbArc
 50
350.0201693995797
 51
359.9142382268786
  0
LINE
  5
15F
330
1F
100
AcDbEntity
  8
0
  6
Continuous
 62
     7
370
    25
100
AcDbLine
 10
116.6878507999354
 20
102.2155760100459
 30
0.0
 11
109.61678298807
 21
104.0457030289681
 31
0.0
  0
ARC
  5
160
330
1F
100
AcDbEntity
  8
0
  6
Continuous
 62
     7
370
    25
100
AcDbCircle
 10
110.3600133875575
 20
104.2276194953606
 30
0.0
 40
0.765169933718774
100
AcDbArc
 50
169.4908308867693
 51
193.7535744845446
  0
LINE
  5
161
330
1F
100
AcDbEntity
  8
0
  6
Continuous
 62
     7
370
    25
100
AcDbLine
 10
112.2647200846783
 20
112.8524276037612
 30
0.0
 11
112.0525880503224
 21
112.7975237931936
 31
0.0
  0
LINE
  5
162
330
1F
100
AcDbEntity
  8
0
  6
Continuous
 62
     7
370
    25
100
AcDbLine
 10
112.2647200846783
 20
112.8524276037612
 30
0.0
 11
116.5073607717976
 21
111.7543513924079
 31
0.0
  0
LINE
  5
163
330
1F
100
AcDbEntity
  8
0
  6
Continuous
 62
     7
370
    25
100
AcDbLine
 10
110.9810419621615
 20
98.80796198606501
 30
0.0
 11
118.052109774027
 21
96.9778349671428
 31
0.0
  0
LINE
  5
164
330
1F
100
AcDbEntity
  8
0
  6
Continuous
 62
     7
370
    25
100
AcDbLine
 10
110.9810419621615
 20
98.80796198606501
 30
0.0
 11
109.61678298807
 21
104.0457030289681
 31
0.0
  0
LINE
  5
165
330
1F
100
AcDbEntity
  8
0
  6
Continuous
 62
     7
370
    25
100
AcDbLine
 10
118.062995690408
 20
96.88901667976998
 30
0.0
 11
110.9919278785425
 21
98.71914369869218
 31
0.0
  0
ARC
  5
166
330
1F
100
AcDbEntity
  8
0
  6
Continuous
 62
     7
370
    25
100
AcDbCircle
 10
110.6385783033178
 20
98.72091204785919
 30
0.0
 40
0.3533540000767798
100
AcDbArc
 50
359.7132638462426
 51
14.26182603778049
  0
LINE
  5
167
330
1F
100
AcDbEntity
  8
0
  6
Continuous
 62
     7
370
    25
100
AcDbLine
 10
107.4563939726098
 20
99.63420720815328
 30
0.0
 11
100.3853261607443
 21
101.4643342270755
 31
0.0
  0
LINE
  5
168
330
1F
100
AcDbEntity
  8
0
  6
Continuous
 62
     7
370
    25
100
AcDbLine
 10
107.4563939726098
 20
98.71530583676014
 30
0.0
 11
107.4563939726098
 21
99.63420720815328
 31
0.0
  0
LINE
  5
169
330
1F
100
AcDbEntity
  8
0
  6
Continuous
 62
     7
370
    25
100
AcDbLine
 10
110.9919278785425
 20
97.80024232729903
 30
0.0
 11
107.4563939726098
 21
98.71530583676014
 31
0.0
  0
LINE
  5
16A
330
1F
100
AcDbEntity
  8
0
  6
Continuous
 62
     7
370
    25
100
AcDbLine
 10
110.9919278785425
 20
97.80024232729903
 30
0.0
 11
110.9919278785425
 21
98.71914369869218
 31
0.0
  0
LINE
  5
16B
330
1F
100
AcDbEntity
  8
0
  6
Continuous
 62
     7
370
    25
100
AcDbLine
 10
100.3853261607443
 20
99.19313669887764
 30
0.0
 11
118.062995690408
 21
94.61781915157214
 31
0.0
  0
LINE
  5
16C
330
1F
100
AcDbEntity
  8
0
  6
Continuous
 62
     7
370
    25
100
AcDbLine
 10
100.3853261607443
 20
99.19313669887764
 30
0.0
 11
100.3853261607443
 21
101.4643342270755
 31
0.0
  0
ARC
  5
16D
330
1F
100
AcDbEntity
  8
0
  6
Continuous
 62
     7
370
    25
100
AcDbCircle
 10
100.8362412555124
 20
99.14017963900973
 30
0.0
 40
0.4540141769587512
100
AcDbArc
 50
173.3016656813215
 51
247.0560282378429
  0
LWPOLYLINE
  5
16E
330
1F
100
AcDbEntity
  8
0
  6
Continuous
 62
     7
370
    25
100
AcDbPolyline
 90
        3
 70
   128
 43
0.0
 10
111.7635944705069
 20
112.8567766429559
 10
111.9888207053954
 20
112.8867156298448
 10
112.2647200846783
 20
112.8524276037612
  0
ARC
  5
16F
330
1F
100
AcDbEntity
  8
0
  6
Continuous
 62
     7
370
    25
100
AcDbCircle
 10
106.68422193738
 20
111.2171350979672
 30
0.0
 40
0.4186191135915582
100
AcDbArc
 50
350.0201693995382
 51
359.9142382269169
  0
LINE
  5
170
330
1F
100
AcDbEntity
  8
0
  6
Continuous
 62
     7
370
    25
100
AcDbLine
 10
107.1028405820165
 20
111.2165084985156
 30
0.0
 11
107.1028405820165
 21
112.146761053861
 31
0.0
  0
LINE
  5
171
330
1F
100
AcDbEntity
  8
0
  6
Continuous
 62
     7
370
    25
100
AcDbLine
 10
107.3149726163725
 20
112.2016648644287
 30
0.0
 11
107.1028405820165
 21
112.146761053861
 31
0.0
  0
LINE
  5
172
330
1F
100
AcDbEntity
  8
0
  6
Continuous
 62
     7
370
    25
100
AcDbLine
 10
107.3149726163725
 20
112.2016648644287
 30
0.0
 11
107.3149726163725
 21
111.2714123090832
 31
0.0
  0
ARC
  5
173
330
1F
100
AcDbEntity
  8
0
  6
Continuous
 62
     7
370
    25
100
AcDbCircle
 10
106.4777353270957
 20
111.2726655079867
 30
0.0
 40
0.8372382271869239
100
AcDbArc
 50
350.0201693995691
 51
359.9142382269007
  0
LINE
  5
174
330
1F
100
AcDbEntity
  8
0
  6
Continuous
 62
     7
370
    25
100
AcDbLine
 10
107.3023051520026
 20
111.1275708736405
 30
0.0
 11
106.2779430159162
 21
105.2652276414638
 31
0.0
  0
ARC
  5
175
330
1F
100
AcDbEntity
  8
0
  6
Continuous
 62
     7
370
    25
100
AcDbCircle
 10
106.6541103998559
 20
105.1954468695659
 30
0.0
 40
0.3825849668592473
100
AcDbArc
 50
169.4908308867646
 51
193.7535744845486
  0
LINE
  5
176
330
1F
100
AcDbEntity
  8
0
  6
Continuous
 62
     7
370
    25
100
AcDbLine
 10
106.2824952001122
 20
105.1044886363696
 30
0.0
 11
107.6467541742038
 21
99.86674759346658
 31
0.0
  0
ARC
  5
177
330
1F
100
AcDbEntity
  8
0
  6
Continuous
 62
     7
370
    25
100
AcDbCircle
 10
106.9618268565147
 20
99.69264771705485
 30
0.0
 40
0.7067080001551763
100
AcDbArc
 50
359.7132638462536
 51
14.26182603775369
  0
LINE
  5
178
330
1F
100
AcDbEntity
  8
0
  6
Continuous
 62
     7
370
    25
100
AcDbLine
 10
107.6685260069658
 20
98.7702096473278
 30
0.0
 11
107.4563939726098
 21
98.71530583676014
 31
0.0
  0
ARC
  5
179
330
1F
100
AcDbEntity
  8
0
  6
Continuous
 62
     7
370
    25
100
AcDbCircle
 10
107.1030443973847
 20
99.6359755573203
 30
0.0
 40
0.3533540000771507
100
AcDbArc
 50
359.7132638462429
 51
14.26182603776459
  0
LINE
  5
17A
330
1F
100
AcDbEntity
  8
0
  6
Continuous
 62
     7
370
    25
100
AcDbLine
 10
107.4455080562288
 20
99.72302549552612
 30
0.0
 11
106.0812490821372
 21
104.9607665384292
 31
0.0
  0
ARC
  5
17B
330
1F
100
AcDbEntity
  8
0
  6
Continuous
 62
     7
370
    25
100
AcDbCircle
 10
106.8244794816251
 20
105.1426830048217
 30
0.0
 40
0.7651699337191087
100
AcDbArc
 50
169.4908308867741
 51
193.7535744845395
  0
LINE
  5
17C
330
1F
100
AcDbEntity
  8
0
  6
Continuous
 62
     7
370
    25
100
AcDbLine
 10
106.0721447137452
 20
105.2822445486175
 30
0.0
 11
107.0965068498316
 21
111.1445877807942
 31
0.0
  0
LINE
  5
17D
330
1F
100
AcDbEntity
  8
0
  6
Continuous
 62
     7
370
    25
100
AcDbLine
 10
107.6685260069658
 20
99.68911101872096
 30
0.0
 11
107.6685260069658
 21
98.7702096473278
 31
0.0
  0
LINE
  5
17E
330
1F
100
AcDbEntity
  8
0
  6
Continuous
 62
     7
370
    25
100
AcDbLine
 10
107.0965068498316
 20
111.1445877807942
 30
0.0
 11
100.0254390379661
 21
112.9747147997164
 31
0.0
  0
LINE
  5
17F
330
1F
100
AcDbEntity
  8
0
  6
Continuous
 62
     7
370
    25
100
AcDbLine
 10
99.00107690187971
 20
107.1123715675397
 30
0.0
 11
106.0721447137452
 21
105.2822445486175
 31
0.0
  0
LINE
  5
180
330
1F
100
AcDbEntity
  8
0
  6
Continuous
 62
     7
370
    25
100
AcDbLine
 10
99.00107690187971
 20
107.1123715675397
 30
0.0
 11
100.0254390379661
 21
112.9747147997164
 31
0.0
  0
LINE
  5
181
330
1F
100
AcDbEntity
  8
0
  6
Continuous
 62
     7
370
    25
100
AcDbLine
 10
105.6886270196434
 20
114.4446381102236
 30
0.0
 11
105.9007590539994
 21
114.4995419207912
 31
0.0
  0
ARC
  5
182
330
1F
100
AcDbEntity
  8
0
  6
Continuous
 62
     7
370
    25
100
AcDbCircle
 10
104.9752151340768
 20
112.3457990852022
 30
0.0
 40
2.344192771415456
100
AcDbArc
 50
356.4749081676889
 51
66.74499275940977
  0
ARC
  5
183
330
1F
100
AcDbEntity
  8
0
  6
Continuous
 62
     7
370
    25
100
AcDbCircle
 10
104.7630830997209
 20
112.2908952746346
 30
0.0
 40
2.344192771415432
100
AcDbArc
 50
356.4749081676888
 51
66.74499275941027
  0
LWPOLYLINE
  5
184
330
1F
100
AcDbEntity
  8
0
  6
Continuous
 62
     7
370
    25
100
AcDbPolyline
 90
        9
 70
   128
 43
0.0
 10
101.4459863325242
 20
115.5427143215769
 10
101.1700869532412
 20
115.5770023476604
 10
100.904790232378
 20
115.5357327285168
 10
100.6602913741371
 20
115.4204914324655
 10
100.4459863325242
 20
115.2357071178857
 10
100.2701107301048
 20
114.9884809423584
 10
100.1394233676478
 20
114.6883136691631
 10
100.058946487202
 20
114.346740558273
 10
100.0317727701511
 20
113.9768880727832
  0
LINE
  5
185
330
1F
100
AcDbEntity
  8
0
  6
Continuous
 62
     7
370
    25
100
AcDbLine
 10
101.4459863325242
 20
115.5427143215769
 30
0.0
 11
105.6886270196434
 21
114.4446381102236
 31
0.0
  0
LINE
  5
186
330
1F
100
AcDbEntity
  8
0
  6
Continuous
 62
     7
370
    25
100
AcDbLine
 10
100.0317727701511
 20
113.0466355174378
 30
0.0
 11
107.1028405820165
 21
111.2165084985156
 31
0.0
  0
LINE
  5
187
330
1F
100
AcDbEntity
  8
0
  6
Continuous
 62
     7
370
    25
100
AcDbLine
 10
100.0317727701511
 20
113.0466355174378
 30
0.0
 11
100.0317727701511
 21
113.9768880727832
 31
0.0
  0
ARC
  5
188
330
1F
100
AcDbEntity
  8
0
  6
Continuous
 62
     7
370
    25
100
AcDbCircle
 10
99.61315412550611
 20
113.0472621168901
 30
0.0
 40
0.4186191136000282
100
AcDbArc
 50
350.0201693996372
 51
359.9142382268155
  0
LINE
  5
189
330
1F
100
AcDbEntity
  8
0
  6
Continuous
 62
     7
370
    25
100
AcDbLine
 10
110.9919278785425
 20
97.91004994843438
 30
0.0
 11
107.6685260069658
 21
98.7702096473278
 31
0.0
  0
LINE
  5
18A
330
1F
100
AcDbEntity
  8
0
  6
Continuous
 62
     7
370
    25
100
AcDbLine
 10
106.0812490821372
 20
104.9607665384292
 30
0.0
 11
99.01018127027179
 21
106.7908935573514
 31
0.0
  0
ARC
  5
18B
330
1F
100
AcDbEntity
  8
0
  6
Continuous
 62
     7
370
    25
100
AcDbCircle
 10
99.75341166975898
 20
106.9728100237439
 30
0.0
 40
0.7651699337184019
100
AcDbArc
 50
169.4908308867655
 51
193.7535744845538
  0
LINE
  5
18C
330
1F
100
AcDbEntity
  8
0
  6
Continuous
 62
     7
370
    25
100
AcDbLine
 10
101.6581183668801
 20
115.5976181321445
 30
0.0
 11
101.4459863325242
 21
115.5427143215769
 31
0.0
  0
LINE
  5
18D
330
1F
100
AcDbEntity
  8
0
  6
Continuous
 62
     7
370
    25
100
AcDbLine
 10
101.6581183668801
 20
115.5976181321445
 30
0.0
 11
105.9007590539994
 21
114.4995419207912
 31
0.0
  0
LINE
  5
18E
330
1F
100
AcDbEntity
  8
0
  6
Continuous
 62
     7
370
    25
100
AcDbLine
 10
100.3744402443634
 20
101.5531525144483
 30
0.0
 11
107.4455080562288
 21
99.72302549552612
 31
0.0
  0
LINE
  5
18F
330
1F
100
AcDbEntity
  8
0
  6
Continuous
 62
     7
370
    25
100
AcDbLine
 10
100.3744402443634
 20
101.5531525144483
 30
0.0
 11
99.01018127027179
 21
106.7908935573514
 31
0.0
  0
ARC
  5
190
330
1F
100
AcDbEntity
  8
0
  6
Continuous
 62
     7
370
    25
100
AcDbCircle
 10
100.0319765855207
 20
101.4661025762427
 30
0.0
 40
0.3533540000756623
100
AcDbArc
 50
359.7132638462071
 51
14.26182603778789
  0
LWPOLYLINE
  5
191
330
1F
100
AcDbEntity
  8
0
  6
Continuous
 62
     7
370
    25
100
AcDbPolyline
 90
        3
 70
   128
 43
0.0
 10
101.1569927527087
 20
115.6019671713392
 10
101.3822189875972
 20
115.6319061582281
 10
101.6581183668801
 20
115.5976181321445
  0
LWPOLYLINE
  5
192
330
1F
100
AcDbEntity
  8
0
  6
Continuous
 62
     7
370
    25
100
AcDbPolyline
 90
        3
 70
   128
 43
0.0
 10
103.0724424973378
 20
82.10265822055226
 10
103.0743084167093
 20
82.07527712933215
 10
103.1496139635074
 20
81.92767790867174
  0
LWPOLYLINE
  5
193
330
1F
100
AcDbEntity
  8
0
  6
Continuous
 62
     7
370
    25
100
AcDbPolyline
 90
        8
 70
   128
 43
0.0
 10
163.3569179533673
 20
84.73561091690893
 10
163.8957148018783
 20
84.78775360909141
 10
164.386155644419
 20
84.86555339302829
 10
164.8102091649079
 20
84.96614991865576
 10
165.1522848121503
 20
85.08584470168587
 10
165.3998059946715
 20
85.2202371003308
 10
165.5436724657305
 20
85.36438610721767
 10
165.5804608180597
 20
85.48561091690893
  0
ARC
  5
194
330
1F
100
AcDbEntity
  8
0
  6
Continuous
 62
     7
370
    25
100
AcDbCircle
 10
162.5151613056593
 20
82.86024051729203
 30
0.0
 40
1.814153456362077
100
AcDbArc
 50
91.62704467576569
 51
112.3108536739428
  0
LWPOLYLINE
  5
195
330
1F
100
AcDbEntity
  8
0
  6
Continuous
 62
     7
370
    25
100
AcDbPolyline
 90
        8
 70
   128
 43
0.0
 10
161.8264516576988
 20
83.79413456873058
 10
161.8264260853132
 20
83.78442805895183
 10
161.7196154604152
 20
83.16735537350131
 10
161.4064912865794
 20
82.55500331985144
 10
160.8894118806482
 20
81.95198387076663
 10
160.1722716627071
 20
81.36283870984043
 10
159.2604718249849
 20
80.79200502548473
 10
158.5416229067414
 20
80.42078319178006
  0
LWPOLYLINE
  5
196
330
1F
100
AcDbEntity
  8
0
  6
Continuous
 62
     7
370
    25
100
AcDbPolyline
 90
        5
 70
   128
 43
0.0
 10
157.7206677273328
 20
78.14315600539355
 10
158.0710240422579
 20
78.26123542520763
 10
158.3278648834129
 20
78.39445120592455
 10
158.4817473618949
 20
78.53790559914977
 10
158.5274599708046
 20
78.6729352457064
  0
LWPOLYLINE
  5
197
330
1F
100
AcDbEntity
  8
0
  6
Continuous
 62
     7
370
    25
100
AcDbPolyline
 90
        8
 70
   128
 43
0.0
 10
122.8592372480705
 20
76.61543349374362
 10
122.8816369229651
 20
76.52072683280032
 10
123.0062126978677
 20
76.3753795736474
 10
123.2356814241546
 20
76.23885802339642
 10
123.5616065631537
 20
76.11618146880133
 10
123.9720053053382
 20
76.01186017805318
 10
124.4517891246353
 20
75.9297295783929
 10
124.98331851604
 20
75.87280924460704
  0
LWPOLYLINE
  5
198
330
1F
100
AcDbEntity
  8
0
  6
Continuous
 62
     7
370
    25
100
AcDbPolyline
 90
        3
 70
   128
 43
0.0
 10
122.6591495799313
 20
77.34894757220756
 10
122.8097630633164
 20
77.32635282374875
 10
122.8592372480704
 20
77.3167516055209
  0
ARC
  5
199
330
1F
100
AcDbEntity
  8
0
  6
Continuous
 62
     7
370
    25
100
AcDbCircle
 10
131.9886748625958
 20
154.3623102200183
 30
0.0
 40
77.57640149119507
100
AcDbArc
 50
262.0412525316361
 51
263.0927525493519
  0
ARC
  5
19A
330
1F
100
AcDbEntity
  8
0
  6
Continuous
 62
     7
370
    25
100
AcDbCircle
 10
121.0138171640936
 20
75.87863591596647
 30
0.0
 40
1.670900530526919
100
AcDbArc
 50
81.96264981533776
 51
102.3624088619069
  0
LINE
  5
19B
330
1F
100
AcDbEntity
  8
0
  6
Continuous
 62
     7
370
    25
100
AcDbLine
 10
120.5378694245612
 20
77.48019635344899
 30
0.0
 11
120.6560865555877
 21
77.51079319841602
 31
0.0
  0
LINE
  5
19C
330
1F
100
AcDbEntity
  8
0
  6
Continuous
 62
     7
370
    25
100
AcDbLine
 10
120.5378694245612
 20
77.48019635344899
 30
0.0
 11
119.1855196894441
 21
77.83021022053663
 31
0.0
  0
LINE
  5
19D
330
1F
100
AcDbEntity
  8
0
  6
Continuous
 62
     7
370
    25
100
AcDbLine
 10
110.5999531774319
 20
80.0523183468398
 30
0.0
 11
109.9312677067629
 21
80.22538688183228
 31
0.0
  0
LINE
  5
19E
330
1F
100
AcDbEntity
  8
0
  6
Continuous
 62
     7
370
    25
100
AcDbLine
 10
110.0494848377894
 20
80.25598372679931
 30
0.0
 11
109.9312677067629
 21
80.22538688183228
 31
0.0
  0
LWPOLYLINE
  5
19F
330
1F
100
AcDbEntity
  8
0
  6
Continuous
 62
     7
370
    25
100
AcDbPolyline
 90
        9
 70
   128
 43
0.0
 10
110.1357621652408
 20
80.40903730079873
 10
110.1680517358379
 20
80.39009898247623
 10
110.1882611376791
 20
80.3700704276779
 10
110.1958732716469
 20
80.34946410817786
 10
110.1906933656352
 20
80.32880727904853
 10
110.1728539581946
 20
80.30862848775513
 10
110.1428115072608
 20
80.28944405018157
 10
110.1013347107396
 20
80.27174483962627
 10
110.0494848377894
 20
80.25598372679931
  0
ARC
  5
1A0
330
1F
100
AcDbEntity
  8
0
  6
Continuous
 62
     7
370
    25
100
AcDbCircle
 10
116.0620638210576
 20
92.8266104987863
 30
0.0
 40
13.75925780858528
100
AcDbArc
 50
241.1556574623634
 51
244.4871343714589
  0
ARC
  5
1A1
330
1F
100
AcDbEntity
  8
0
  6
Continuous
 62
     7
370
    25
100
AcDbCircle
 10
134.4667846290535
 20
150.9988326974481
 30
0.0
 40
77.92020276335391
100
AcDbArc
 50
266.3138378603196
 51
283.2044499723052
  0
ARC
  5
1A2
330
1F
100
AcDbEntity
  8
0
  6
Continuous
 62
     7
370
    25
100
AcDbCircle
 10
127.3254155410463
 20
111.812956170359
 30
0.0
 40
38.25853677732565
100
AcDbArc
 50
248.0819722975771
 51
265.253358230546
  0
LWPOLYLINE
  5
1A6
330
1F
100
AcDbEntity
  8
0
  6
Continuous
 62
     7
370
    25
100
AcDbPolyline
 90
        3
 70
   128
 43
0.0
 10
149.8631250279479
 20
75.63891275102085
 10
149.8285778530971
 20
75.63628609589823
 10
149.7727736322087
 20
75.6477131549771
  0
ARC
  5
1A8
330
1F
100
AcDbEntity
  8
0
  6
Continuous
 62
     7
370
    25
100
AcDbCircle
 10
134.5969269932497
 20
165.8830646479225
 30
0.0
 40
91.50259548376
100
AcDbArc
 50
268.3875557129667
 51
279.5467058887103
  0
LWPOLYLINE
  5
1AE
330
1F
100
AcDbEntity
  8
0
  6
Continuous
 62
     7
370
    25
100
AcDbPolyline
 90
        3
 70
   128
 43
0.0
 10
125.0898683599943
 20
73.56628600680152
 10
125.1008244267965
 20
73.56689891670867
 10
125.1293049713784
 20
73.58176538707382
  0
ARC
  5
1AF
330
1F
100
AcDbEntity
  8
0
  6
Continuous
 62
     7
370
    25
100
AcDbCircle
 10
133.8188370349661
 20
183.6791223696231
 30
0.0
 40
110.4397391432405
100
AcDbArc
 50
265.4872344527691
 51
266.578503945557
  0
LWPOLYLINE
  5
1B9
330
1F
100
AcDbEntity
  8
0
  6
Continuous
 62
     7
370
    25
100
AcDbPolyline
 90
        3
 70
   128
 43
0.0
 10
121.4160047469629
 20
75.21992511196913
 10
121.4388478450739
 20
75.21921699919498
 10
121.4852403644495
 20
75.23214541464941
  0
ARC
  5
1BA
330
1F
100
AcDbEntity
  8
0
  6
Continuous
 62
     7
370
    25
100
AcDbCircle
 10
132.0311798952354
 20
150.6644379151883
 30
0.0
 40
76.16592146408951
100
AcDbArc
 50
262.0412525316358
 51
263.0927525493515
  0
ARC
  5
1BD
330
1F
100
AcDbEntity
  8
0
  6
Continuous
 62
     7
370
    25
100
AcDbCircle
 10
110.5162070773368
 20
78.25750167406075
 30
0.0
 40
0.5860481928538622
100
AcDbArc
 50
176.4749081676866
 51
246.7449927594128
  0
LINE
  5
1BE
330
1F
100
AcDbEntity
  8
0
  6
Continuous
 62
     7
370
    25
100
AcDbLine
 10
109.9312677067629
 20
78.29353522925415
 30
0.0
 11
109.9312677067629
 21
80.22538688183228
 31
0.0
  0
LINE
  5
1BF
330
1F
100
AcDbEntity
  8
0
  6
Continuous
 62
     7
370
    25
100
AcDbLine
 10
120.5378694245612
 20
75.54834470087086
 30
0.0
 11
120.5378694245612
 21
77.48019635344899
 31
0.0
  0
LWPOLYLINE
  5
1C0
330
1F
100
AcDbEntity
  8
0
  6
Continuous
 62
     7
370
    25
100
AcDbPolyline
 90
        9
 70
   128
 43
0.0
 10
120.1843160339679
 20
75.15688813867243
 10
120.2532908787886
 20
75.14831613215155
 10
120.3196150590044
 20
75.15863353693744
 10
120.3807397735647
 20
75.18744386095028
 10
120.4343160339679
 20
75.23363993959522
 10
120.4782849345727
 20
75.29544648347705
 10
120.510956775187
 20
75.37048830177586
 10
120.5310759952984
 20
75.4558815794984
 10
120.5378694245612
 20
75.54834470087086
  0
LINE
  5
1C1
330
1F
100
AcDbEntity
  8
0
  6
Continuous
 62
     7
370
    25
100
AcDbLine
 10
120.1843160339679
 20
75.15688813867243
 30
0.0
 11
110.2848210973562
 21
77.7190659651635
 31
0.0
  0
ELLIPSE
  5
1C8
330
1F
100
AcDbEntity
  8
0
  6
Continuous
 62
     7
370
    25
100
AcDbEllipse
 10
132.9122380953258
 20
73.17933210579572
 30
0.0
 11
0.5
 21
0.0
 31
0.0
210
0.0
220
0.0
230
1.0
 40
0.2352187548298446
 41
3.927143110234848
 42
5.497634850534554
  0
LINE
  5
1C9
330
1F
100
AcDbEntity
  8
0
  6
Continuous
 62
     7
370
    25
100
AcDbLine
 10
132.5587385526264
 20
60.06705184023168
 30
0.0
 11
132.5587385526264
 21
73.09615705338877
 31
0.0
  0
ELLIPSE
  5
1CC
330
1F
100
AcDbEntity
  8
0
  6
Continuous
 62
     7
370
    25
100
AcDbEllipse
 10
130.0834878257986
 20
60.76630566330409
 30
0.0
 11
-0.9517029455087425
 21
3.368603161218722
 31
0.0
210
0.0
220
0.0
230
1.0
 40
0.6783163797203193
 41
2.764393372097264
 42
4.317736406372225
  0
LINE
  5
1CD
330
1F
100
AcDbEntity
  8
0
  6
Continuous
 62
     7
370
    25
100
AcDbLine
 10
114.4724586607414
 20
61.44835842301954
 30
0.0
 11
130.1266869075174
 21
57.3967460163721
 31
0.0
  0
ELLIPSE
  5
1CF
330
1F
100
AcDbEntity
  8
0
  6
Continuous
 62
     7
370
    25
100
AcDbEllipse
 10
130.436987368498
 20
60.86622694244405
 30
0.0
 11
-1.077108520988958
 21
3.852670209710205
 31
0.0
210
0.0
220
0.0
230
1.0
 40
0.6789226323799387
 41
3.128452870359615
 42
3.235171454324083
  0
ELLIPSE
  5
1D0
330
1F
100
AcDbEntity
  8
0
  6
Continuous
 62
     7
370
    25
100
AcDbEllipse
 10
132.2001836868344
 20
61.32257572988419
 30
0.0
 11
0.7592933264660074
 21
4.128125845727276
 31
0.0
210
0.0
220
0.0
230
1.0
 40
0.6951454441744631
 41
3.45415965220561
 42
3.593733155103393
  0
ARC
  5
1EF
330
1F
100
AcDbEntity
  8
0
  6
Continuous
 62
     7
370
    25
100
AcDbCircle
 10
134.3264516576986
 20
121.6585639303777
 30
0.0
 40
1.481309463031957
100
AcDbArc
 50
257.419602062426
 51
282.5803979375756
  0
ARC
  5
1F0
330
1F
100
AcDbEntity
  8
0
  6
Continuous
 62
     7
370
    25
100
AcDbCircle
 10
134.4193194058783
 20
119.6759190870151
 30
0.0
 40
0.5840016379158217
100
AcDbArc
 50
357.1412125621144
 51
66.83067594135025
  0
ARC
  5
1F1
330
1F
100
AcDbEntity
  8
0
  6
Continuous
 62
     7
370
    25
100
AcDbCircle
 10
134.3264516576986
 20
122.6765488753683
 30
0.0
 40
3.104286377446405
100
AcDbArc
 50
257.4196020624235
 51
282.5803979375781
  0
ARC
  5
1F2
330
1F
100
AcDbEntity
  8
0
  6
Continuous
 62
     7
370
    25
100
AcDbCircle
 10
134.2335839095188
 20
119.6759190870151
 30
0.0
 40
0.5840016379158217
100
AcDbArc
 50
113.1693240586498
 51
182.8587874378873
  0
ARC
  5
1F3
330
1F
100
AcDbEntity
  8
0
  6
Continuous
 62
     7
370
    25
100
AcDbCircle
 10
134.3264516576986
 20
120.3840401061368
 30
0.0
 40
3.246448278625453
100
AcDbArc
 50
257.4196020624178
 51
282.5803979375833
  0
LINE
  5
1F4
330
1F
100
AcDbEntity
  8
0
  6
Continuous
 62
     7
370
    25
100
AcDbLine
 10
133.619344876512
 20
117.2155347130862
 30
0.0
 11
133.6503090674443
 21
119.6467922661927
 31
0.0
  0
LINE
  5
1F5
330
1F
100
AcDbEntity
  8
0
  6
Continuous
 62
     7
370
    25
100
AcDbLine
 10
135.0025942479529
 20
119.6467922661927
 30
0.0
 11
135.0335584388851
 21
117.2155347130862
 31
0.0
  0
LINE
  5
1F6
330
1F
100
AcDbEntity
  8
0
  6
Continuous
 62
     7
370
    25
100
AcDbLine
 10
80.9708000211527
 20
133.938771370285
 30
0.0
 11
134.0038086101437
 21
120.2128187283685
 31
0.0
  0
LINE
  5
1F7
330
1F
100
AcDbEntity
  8
0
  6
Continuous
 62
     7
370
    25
100
AcDbLine
 10
133.6503090674443
 20
119.6467922661927
 30
0.0
 11
80.61730047845327
 21
133.3727449081092
 31
0.0
  0
ARC
  5
1F8
330
1F
100
AcDbEntity
  8
0
  6
Continuous
 62
     7
370
    25
100
AcDbCircle
 10
81.20057532052782
 20
133.4018717289316
 30
0.0
 40
0.5840016379157863
100
AcDbArc
 50
113.1693240586452
 51
182.8587874378861
  0
LINE
  5
1F9
330
1F
100
AcDbEntity
  8
0
  6
Continuous
 62
     7
370
    25
100
AcDbLine
 10
188.035602836944
 20
133.3727449081092
 30
0.0
 11
135.0025942479529
 21
119.6467922661927
 31
0.0
  0
LINE
  5
1FA
330
1F
100
AcDbEntity
  8
0
  6
Continuous
 62
     7
370
    25
100
AcDbLine
 10
134.6490947052534
 20
120.2128187283685
 30
0.0
 11
187.6821032942446
 21
133.938771370285
 31
0.0
  0
ARC
  5
1FB
330
1F
100
AcDbEntity
  8
0
  6
Continuous
 62
     7
370
    25
100
AcDbCircle
 10
187.4523279948694
 20
133.4018717289316
 30
0.0
 40
0.5840016379158732
100
AcDbArc
 50
357.141212562116
 51
66.83067594134566
  0
LWPOLYLINE
  5
1FC
330
1F
100
AcDbEntity
  8
0
  6
Continuous
 62
     7
370
    25
100
AcDbPolyline
 90
       11
 70
   128
 43
0.0
 10
124.2073499581936
 20
126.6440447924989
 10
121.8117688267415
 20
126.8944310429876
 10
119.3111690918847
 20
127.2256096299866
 10
116.9400416971205
 20
127.6153938739045
 10
114.7188321726019
 20
128.060422780503
 10
112.6666933510323
 20
128.5568589971585
 10
110.801320218454
 20
129.1004219012191
 10
109.1387973356179
 20
129.6864245105473
 10
107.6934601455735
 20
130.3098138979805
 10
106.4777713633846
 20
130.9652147612274
 10
105.8191494213405
 20
131.4032612966009
  0
LWPOLYLINE
  5
1FD
330
1F
100
AcDbEntity
  8
0
  6
Continuous
 62
     7
370
    25
100
AcDbPolyline
 90
       11
 70
   128
 43
0.0
 10
162.8337538940569
 20
131.4032612966009
 10
161.846493116527
 20
130.7719614588426
 10
160.5765684278206
 20
130.1314268947828
 10
159.0846798939021
 20
129.5237923051109
 10
157.3834425182976
 20
128.9541956825906
 10
155.4872415013784
 20
128.4274533812845
 10
153.4121106030206
 20
127.9480193907753
 10
151.1755965654938
 20
127.519947674441
 10
148.7966107429835
 20
127.1468578902442
 10
146.2952691923242
 20
126.831904783889
 10
144.4455533572038
 20
126.644044792499
  0
LWPOLYLINE
  5
1FE
330
1F
100
AcDbEntity
  8
0
  6
Continuous
 62
     7
370
    25
100
AcDbPolyline
 90
        9
 70
   128
 43
0.0
 10
80.97080002115268
 20
134.1057837012393
 10
80.91405498079756
 20
134.0878879089718
 10
80.8718896118975
 20
134.0674707468565
 10
80.84592430593278
 20
134.0453168349836
 10
80.83715689505007
 20
134.0222775357622
 10
80.84592430593278
 20
133.9992382365407
 10
80.8718896118975
 20
133.9770843246678
 10
80.91405498079756
 20
133.9566671625525
 10
80.9708000211527
 20
133.938771370285
  0
LWPOLYLINE
  5
1FF
330
1F
100
AcDbEntity
  8
0
  6
Continuous
 62
     7
370
    25
100
AcDbPolyline
 90
        9
 70
   128
 43
0.0
 10
187.6821032942446
 20
133.938771370285
 10
187.7388483345997
 20
133.9566671625525
 10
187.7810137034998
 20
133.9770843246677
 10
187.8069790094645
 20
133.9992382365407
 10
187.8157464203473
 20
134.0222775357621
 10
187.8069790094645
 20
134.0453168349836
 10
187.7810137034998
 20
134.0674707468565
 10
187.7388483345997
 20
134.0878879089717
 10
187.6821032942446
 20
134.1057837012392
  0
LINE
  5
200
330
1F
100
AcDbEntity
  8
0
  6
Continuous
 62
     7
370
    25
100
AcDbLine
 10
188.0665670278763
 20
130.9414873550027
 30
0.0
 11
188.035602836944
 21
133.3727449081092
 31
0.0
  0
LINE
  5
201
330
1F
100
AcDbEntity
  8
0
  6
Continuous
 62
     7
370
    25
100
AcDbLine
 10
135.0335584388851
 20
117.2155347130862
 30
0.0
 11
188.0665670278763
 21
130.9414873550027
 31
0.0
  0
LINE
  5
202
330
1F
100
AcDbEntity
  8
0
  6
Continuous
 62
     7
370
    25
100
AcDbLine
 10
80.61730047845327
 20
133.3727449081092
 30
0.0
 11
80.58633628752104
 21
130.9414873550027
 31
0.0
  0
LINE
  5
203
330
1F
100
AcDbEntity
  8
0
  6
Continuous
 62
     7
370
    25
100
AcDbLine
 10
80.58633628752104
 20
130.9414873550027
 30
0.0
 11
133.619344876512
 21
117.2155347130862
 31
0.0
  0
LINE
  5
204
330
1F
100
AcDbEntity
  8
0
  6
Continuous
 62
     7
370
    25
100
AcDbLine
 10
133.1219117094612
 20
90.79880075971181
 30
0.0
 11
132.9218911198036
 21
117.3960490284007
 31
0.0
  0
LINE
  5
205
330
1F
100
AcDbEntity
  8
0
  6
Continuous
 62
     7
370
    25
100
AcDbLine
 10
135.7310121955936
 20
117.3960490284007
 30
0.0
 11
135.5309916059359
 21
90.79880075971181
 31
0.0
  0
LINE
  5
206
330
1F
100
AcDbEntity
  8
0
  6
Continuous
 62
     7
370
    25
100
AcDbLine
 10
135.5309916059359
 20
90.79880075971181
 30
0.0
 11
133.1219117094612
 21
90.79880075971181
 31
0.0
  0
LINE
  5
207
330
1F
100
AcDbEntity
  8
0
  6
Continuous
 62
     7
370
    25
100
AcDbLine
 10
86.74938741993171
 20
102.8008932153214
 30
0.0
 11
100.3853261607443
 21
99.27165257134773
 31
0.0
  0
LINE
  5
208
330
1F
100
AcDbEntity
  8
0
  6
Continuous
 62
     7
370
    25
100
AcDbLine
 10
118.2764220205888
 20
94.64109622506511
 30
0.0
 11
133.1219117094612
 21
90.79880075971181
 31
0.0
  0
LINE
  5
209
330
1F
100
AcDbEntity
  8
0
  6
Continuous
 62
     7
370
    25
100
AcDbLine
 10
86.26649499962636
 20
129.4713541011049
 30
0.0
 11
86.74938741993171
 21
102.8008932153214
 31
0.0
  0
LINE
  5
20A
330
1F
100
AcDbEntity
  8
0
  6
Continuous
 62
     7
370
    25
100
AcDbLine
 10
181.9035158954656
 20
102.8008932153213
 30
0.0
 11
182.386408315771
 21
129.4713541011048
 31
0.0
  0
LINE
  5
20B
330
1F
100
AcDbEntity
  8
0
  6
Continuous
 62
     7
370
    25
100
AcDbLine
 10
135.5309916059359
 20
90.79880075971181
 30
0.0
 11
181.9035158954656
 21
102.8008932153213
 31
0.0
  0
ELLIPSE
  5
20C
330
1F
100
AcDbEntity
  8
0
  6
Continuous
 62
     7
370
    25
100
AcDbEllipse
 10
158.828800636243
 20
105.5005848113204
 30
0.0
 11
0.5847566575240251
 21
2.070814556280425
 31
0.0
210
0.0
220
0.0
230
1.0
 40
0.6782410643089252
 41
0.0
 42
6.283185307179586
  0
LINE
  5
20D
330
1F
100
AcDbEntity
  8
0
  6
Continuous
 62
     7
370
    25
100
AcDbLine
 10
162.5562749009701
 20
131.3314444485742
 30
0.0
 11
162.5279406304372
 21
131.2823120847623
 31
0.0
  0
LWPOLYLINE
  5
20E
330
1F
100
AcDbEntity
  8
0
  6
Continuous
 62
     7
370
    25
100
AcDbPolyline
 90
        8
 70
   128
 43
0.0
 10
124.9833185160397
 20
76.83873507089613
 10
124.451789124635
 20
76.89565540468199
 10
123.9720053053379
 20
76.97778600434228
 10
123.5616065631534
 20
77.08210729509042
 10
123.2356814241544
 20
77.20478384968551
 10
123.0062126978675
 20
77.34130539993649
 10
122.8816369229648
 20
77.48665265908944
 10
122.8592700607331
 20
77.57772777523078
  0
LWPOLYLINE
  5
20F
330
1F
100
AcDbEntity
  8
0
  6
Continuous
 62
     7
370
    25
100
AcDbPolyline
 90
       16
 70
   128
 43
0.0
 10
157.3091172652061
 20
105.1686833465947
 10
157.3962337891962
 20
104.6672026863586
 10
157.6491482352192
 20
104.2156030911625
 10
158.0276614525986
 20
103.9680819623918
 10
158.4741482352192
 20
103.9623221481173
 10
158.9206350178399
 20
104.1992005278494
 10
159.2991482352192
 20
104.6426545155817
 10
159.5520626812422
 20
105.2251722616024
 10
159.640874424177
 20
105.8580707196164
 10
159.5520626812422
 20
106.4449968366299
 10
159.2991482352192
 20
106.896596431826
 10
158.9206350178398
 20
107.1441175605967
 10
158.4741482352192
 20
107.1498773748712
 10
158.0276614525986
 20
106.9129989951391
 10
157.6491482352192
 20
106.4695450074068
 10
157.645162310341
 20
106.4630420649699
  0
LWPOLYLINE
  5
210
330
1F
100
AcDbEntity
  8
0
  6
Continuous
 62
     7
370
    25
100
AcDbPolyline
 90
        3
 70
   128
 43
0.0
 10
122.8464840198958
 20
78.28527209138126
 10
122.8097630633161
 20
78.29227865003784
 10
122.6591495799311
 20
78.31487339849666
  0
ARC
  5
211
330
1F
100
AcDbEntity
  8
0
  6
Continuous
 62
     7
370
    25
100
AcDbCircle
 10
131.988674862594
 20
155.3282360462901
 30
0.0
 40
77.5764014911777
100
AcDbArc
 50
262.0412525316355
 51
263.0927525493515
  0
LINE
  5
212
330
1F
100
AcDbEntity
  8
0
  6
Continuous
 62
     7
370
    25
100
AcDbLine
 10
120.5378694245609
 20
78.4461221797381
 30
0.0
 11
120.5378694245609
 21
94.05579056741948
 31
0.0
  0
LINE
  5
213
330
1F
100
AcDbEntity
  8
0
  6
Continuous
 62
     7
370
    25
100
AcDbLine
 10
120.6560865555874
 20
78.47671902470513
 30
0.0
 11
120.5378694245609
 21
78.4461221797381
 31
0.0
  0
LINE
  5
214
330
1F
100
AcDbEntity
  8
0
  6
Continuous
 62
     7
370
    25
100
AcDbLine
 10
110.661817004688
 20
81.00223263643205
 30
0.0
 11
109.9312677067627
 21
81.1913127081214
 31
0.0
  0
LINE
  5
215
330
1F
100
AcDbEntity
  8
0
  6
Continuous
 62
     7
370
    25
100
AcDbLine
 10
109.9312677067627
 20
81.1913127081214
 30
0.0
 11
109.5420053824713
 21
96.42305850525813
 31
0.0
  0
LINE
  5
216
330
1F
100
AcDbEntity
  8
0
  6
Continuous
 62
     7
370
    25
100
AcDbLine
 10
118.9623079864642
 20
80.94023943491594
 30
0.0
 11
119.1236558621878
 21
78.81214758352253
 31
0.0
  0
LINE
  5
217
330
1F
100
AcDbEntity
  8
0
  6
Continuous
 62
     7
370
    25
100
AcDbLine
 10
120.5378694245609
 20
78.4461221797381
 30
0.0
 11
119.1236558621878
 21
78.81214758352253
 31
0.0
  0
ARC
  5
218
330
1F
100
AcDbEntity
  8
0
  6
Continuous
 62
     7
370
    25
100
AcDbCircle
 10
121.0138171640934
 20
76.84456174225492
 30
0.0
 40
1.670900530527575
100
AcDbArc
 50
81.96264981534236
 51
102.3624088619029
  0
LWPOLYLINE
  5
219
330
1F
100
AcDbEntity
  8
0
  6
Continuous
 62
     7
370
    25
100
AcDbPolyline
 90
        5
 70
   128
 43
0.0
 10
158.5274271581415
 20
79.63522952719352
 10
158.4817473618947
 20
79.50383142543882
 10
158.3278648834127
 20
79.3603770322136
 10
158.0710240422576
 20
79.22716125149668
 10
157.7206677273325
 20
79.10908183168262
  0
ARC
  5
21A
330
1F
100
AcDbEntity
  8
0
  6
Continuous
 62
     7
370
    25
100
AcDbCircle
 10
157.1346707023349
 20
86.05964872857713
 30
0.0
 40
4.877145540657086
100
AcDbArc
 50
286.9830647891577
 51
344.1398356032998
  0
ARC
  5
21B
330
1F
100
AcDbEntity
  8
0
  6
Continuous
 62
     7
370
    25
100
AcDbCircle
 10
115.8429674158547
 20
93.37902038530613
 30
0.0
 40
13.29134841677367
100
AcDbArc
 50
241.1229848946277
 51
243.5555454295067
  0
LWPOLYLINE
  5
21C
330
1F
100
AcDbEntity
  8
0
  6
Continuous
 62
     7
370
    25
100
AcDbPolyline
 90
        3
 70
   128
 43
0.0
 10
187.8692130371467
 20
134.081033079245
 10
187.815975796753
 20
134.104471279413
 10
187.8073846977875
 20
134.1068709610379
  0
LWPOLYLINE
  5
21D
330
1F
100
AcDbEntity
  8
0
  6
Continuous
 62
     7
370
    25
100
AcDbPolyline
 90
        3
 70
   128
 43
0.0
 10
80.84551861760983
 20
134.1068709610379
 10
80.83692751864429
 20
134.104471279413
 10
80.78394272341751
 20
134.0811826326742
  0
LWPOLYLINE
  5
21E
330
1F
100
AcDbEntity
  8
0
  6
Continuous
 62
     7
370
    25
100
AcDbPolyline
 90
        6
 70
   128
 43
0.0
 10
188.3594493091354
 20
131.1257105718289
 10
188.3594602466897
 20
131.1245000568949
 10
188.340245527093
 20
131.074006966042
 10
188.283339779201
 20
131.0254542963536
 10
188.1909298589923
 20
130.9807078996974
 10
188.0665670278763
 20
130.9414873550027
  0
LWPOLYLINE
  5
21F
330
1F
100
AcDbEntity
  8
0
  6
Continuous
 62
     7
370
    25
100
AcDbPolyline
 90
        6
 70
   128
 43
0.0
 10
80.58633628752104
 20
130.9414873550027
 10
80.46197345640503
 20
130.9807078996974
 10
80.36956353619628
 20
131.0254542963537
 10
80.31265778830435
 20
131.074006966042
 10
80.29344306870759
 20
131.124500056895
 10
80.29345400626187
 20
131.125710571829
  0
LWPOLYLINE
  5
220
330
1F
100
AcDbEntity
  8
0
  6
Continuous
 62
     7
370
    25
100
AcDbPolyline
 90
        3
 70
   128
 43
0.0
 10
103.1496139635072
 20
82.89360373496085
 10
103.0743084167091
 20
83.04120295562126
 10
103.0724753100005
 20
83.06495250203943
  0
ARC
  5
221
330
1F
100
AcDbEntity
  8
0
  6
Continuous
 62
     7
370
    25
100
AcDbCircle
 10
162.5049407067517
 20
83.8581137631632
 30
0.0
 40
1.781953036399142
100
AcDbArc
 50
91.32771545372535
 51
111.8986993793306
  0
ARC
  5
222
330
1F
100
AcDbEntity
  8
0
  6
Continuous
 62
     7
370
    25
100
AcDbCircle
 10
163.6512257003212
 20
88.50998230765707
 30
0.0
 40
2.823824275419272
100
AcDbArc
 50
264.017591562707
 51
313.0932543224001
  0
ARC
  5
226
330
1F
100
AcDbEntity
  8
0
  6
Continuous
 62
     8
370
    25
100
AcDbCircle
 10
133.8627466444374
 20
57.08684148455171
 30
0.0
 40
0.2635411039176515
100
AcDbArc
 50
217.2581125219241
 51
253.9796536770012
  0
LINE
  5
227
330
1F
100
AcDbEntity
  8
0
  6
Continuous
 62
     8
370
    25
100
AcDbLine
 10
136.16083901594
 20
64.37831385884942
 30
0.0
 11
138.0413800480594
 21
63.98050191112765
 31
0.0
  0
LINE
  5
228
330
1F
100
AcDbEntity
  8
0
  6
Continuous
 62
     8
370
    25
100
AcDbLine
 10
133.7900149151884
 20
56.83353532786661
 30
0.0
 11
133.2706540578335
 21
56.96795580903081
 31
0.0
  0
LINE
  5
235
330
1F
100
AcDbEntity
  8
0
  6
Continuous
 62
     8
370
    25
100
AcDbLine
 10
118.8881015644313
 20
81.91898229930757
 30
0.0
 11
118.2201740236056
 21
81.74610993099337
 31
0.0
  0
LINE
  5
236
330
1F
100
AcDbEntity
  8
0
  6
Continuous
 62
     8
370
    25
100
AcDbLine
 10
116.8113419708
 20
83.87422218452973
 30
0.0
 11
117.4567357781026
 21
84.04126239345085
 31
0.0
  0
LINE
  5
237
330
1F
100
AcDbEntity
  8
0
  6
Continuous
 62
     8
370
    25
100
AcDbLine
 10
112.8889754054533
 20
85.22348577135708
 30
0.0
 11
112.2435815981507
 21
85.05644556243595
 31
0.0
  0
LINE
  5
238
330
1F
100
AcDbEntity
  8
0
  6
Continuous
 62
     8
370
    25
100
AcDbLine
 10
118.3466770171641
 20
94.47423451585166
 30
0.0
 11
118.4872597591199
 21
94.43784902482076
 31
0.0
  0
LINE
  5
24A
330
1F
100
AcDbEntity
  8
0
  6
Continuous
 62
     8
370
    25
100
AcDbLine
 10
132.5587385526264
 20
73.09615705338877
 30
0.0
 11
132.557428705559
 21
73.12976719968844
 31
0.0
  0
LINE
  5
24B
330
1F
100
AcDbEntity
  8
0
  6
Continuous
 62
     8
370
    25
100
AcDbLine
 10
133.2657376380251
 20
73.09615705338877
 30
0.0
 11
133.266441196721
 21
73.11914216618223
 31
0.0
  0
LINE
  5
24C
330
1F
100
AcDbEntity
  8
0
  6
Continuous
 62
     8
370
    25
100
AcDbLine
 10
132.5587385526264
 20
73.09615705338877
 30
0.0
 11
132.4184054754562
 21
73.13247792641822
 31
0.0
  0
LINE
  5
24D
330
1F
100
AcDbEntity
  8
0
  6
Continuous
 62
     8
370
    25
100
AcDbLine
 10
133.3510249061276
 20
73.11823102267842
 30
0.0
 11
133.2657376380251
 21
73.09615705338877
 31
0.0
  0
ELLIPSE
  5
24F
330
1F
100
AcDbEntity
  8
0
  6
Continuous
 62
     8
370
    25
100
AcDbEllipse
 10
114.4292595790226
 20
64.81791806995153
 30
0.0
 11
-0.9517029455087567
 21
3.368603161218729
 31
0.0
210
0.0
220
0.0
230
1.0
 40
0.6783163797203251
 41
1.538282301172764
 42
2.764393372097257
  0
LINE
  5
250
330
1F
100
AcDbEntity
  8
0
  6
Continuous
 62
     8
370
    25
100
AcDbLine
 10
111.6600114589456
 20
76.96261091440749
 30
0.0
 11
111.8866546278152
 21
68.09411550796598
 31
0.0
  0
LINE
  5
258
330
1F
100
AcDbEntity
  8
0
  6
Continuous
 62
     8
370
    25
100
AcDbLine
 10
110.1357621652408
 20
80.28594285469212
 30
0.0
 11
110.1357621652408
 21
80.40903730079873
 31
0.0
  0
LINE
  5
270
330
1F
100
AcDbEntity
  8
0
  6
Continuous
 62
     8
370
    25
100
AcDbLine
 10
88.17410234771651
 20
135.9701355309853
 30
0.0
 11
80.97080002115268
 21
134.1057837012393
 31
0.0
  0
LINE
  5
271
330
1F
100
AcDbEntity
  8
0
  6
Continuous
 62
     8
370
    25
100
AcDbLine
 10
187.6821032942446
 20
134.1057837012392
 30
0.0
 11
180.4788009676807
 21
135.9701355309853
 31
0.0
  0
LWPOLYLINE
  5
284
330
1F
100
AcDbEntity
  8
0
  6
Continuous
 62
     8
370
    25
100
AcDbPolyline
 90
        6
 70
   128
 43
0.0
 10
188.3156602210437
 20
133.5488779821314
 10
188.3156702679254
 20
133.5477434876719
 10
188.2972969604918
 20
133.4994614881952
 10
188.2428831140916
 20
133.4530349388814
 10
188.1545198223264
 20
133.4102479859845
 10
188.035602836944
 20
133.3727449081092
  0
LWPOLYLINE
  5
285
330
1F
100
AcDbEntity
  8
0
  6
Continuous
 62
     8
370
    25
100
AcDbPolyline
 90
        3
 70
   128
 43
0.0
 10
187.8073846977875
 20
134.1068709610379
 10
187.7503214626377
 20
134.114364297231
 10
187.6821032942446
 20
134.1057837012392
  0
LWPOLYLINE
  5
286
330
1F
100
AcDbEntity
  8
0
  6
Continuous
 62
     8
370
    25
100
AcDbPolyline
 90
        6
 70
   128
 43
0.0
 10
80.61730047845327
 20
133.3727449081092
 10
80.49838349307092
 20
133.4102479859846
 10
80.41002020130574
 20
133.4530349388815
 10
80.35560635490555
 20
133.4994614881952
 10
80.33723304747188
 20
133.547743487672
 10
80.33725113173945
 20
133.5492655634771
  0
LWPOLYLINE
  5
287
330
1F
100
AcDbEntity
  8
0
  6
Continuous
 62
     8
370
    25
100
AcDbPolyline
 90
        3
 70
   128
 43
0.0
 10
80.97080002115268
 20
134.1057837012393
 10
80.90258185275964
 20
134.114364297231
 10
80.84551861760983
 20
134.1068709610379
  0
SPLINE
  5
57B
330
1F
100
AcDbEntity
  8
0
  6
Continuous
 62
     7
370
    18
100
AcDbSpline
210
0.0
220
0.0
230
1.0
 70
     8
 71
     3
 72
    14
 73
    10
 74
     0
 42
0.000000001
 43
0.00000001
 40
0.0
 40
0.0
 40
0.0
 40
0.0
 40
0.1459825487739414
 40
0.3452478490809148
 40
0.5220480875218408
 40
0.6827047238512283
 40
0.8316396410005321
 40
0.9717282285227115
 40
1.0
 40
1.0
 40
1.0
 40
1.0
 10
154.3264516576981
 20
134.505239124929
 30
0.0
 10
153.5497449621557
 20
139.3727474494322
 30
0.0
 10
152.7654107877289
 20
144.2942589894739
 30
0.0
 10
151.4485282166611
 20
151.7203357860845
 30
0.0
 10
149.9370474709405
 20
159.3297911238688
 30
0.0
 10
148.393117342072
 20
166.1947158905264
 30
0.0
 10
146.7709115927949
 20
172.4976094823214
 30
0.0
 10
145.5287311594826
 20
176.9257890053439
 30
0.0
 10
144.7759863588368
 20
179.245365045417
 30
0.0
 10
144.6495823222153
 20
179.6348778981981
 30
0.0
  0
SPLINE
  5
57E
330
1F
100
AcDbEntity
  8
0
  6
Continuous
 62
     7
370
    18
100
AcDbSpline
210
0.0
220
0.0
230
1.0
 70
     8
 71
     3
 72
    15
 73
    11
 74
     0
 42
0.000000001
 43
0.00000001
 40
0.0
 40
0.0
 40
0.0
 40
0.0
 40
0.1343406107788442
 40
0.2767813596354666
 40
0.4156040709566277
 40
0.5508155682466862
 40
0.6856192642810425
 40
0.8208711332931651
 40
0.9608679088510438
 40
1.0
 40
1.0
 40
1.0
 40
1.0
 10
138.2212365760002
 20
182.6992501104407
 30
0.0
 10
137.9149657709696
 20
182.7684796537516
 30
0.0
 10
137.2839574009647
 20
182.9111129722505
 30
0.0
 10
136.2020091969034
 20
183.0462042861439
 30
0.0
 10
135.0534004946569
 20
183.1215126010947
 30
0.0
 10
133.8961567710315
 20
183.1292251127802
 30
0.0
 10
132.7643290042628
 20
183.074445899009
 30
0.0
 10
131.6854133088982
 20
182.9515972211487
 30
0.0
 10
130.905356900522
 20
182.8265959809918
 30
0.0
 10
130.5261231306927
 20
182.7166916060959
 30
0.0
 10
130.4432765704451
 20
182.6926821424335
 30
0.0
  0
SPLINE
  5
580
330
1F
100
AcDbEntity
  8
0
  6
Continuous
 62
     7
370
    18
100
AcDbSpline
210
0.0
220
0.0
230
1.0
 70
     8
 71
     3
 72
    12
 73
     8
 74
     0
 42
0.000000001
 43
0.00000001
 40
0.0
 40
0.0
 40
0.0
 40
0.0
 40
0.1287837162125131
 40
0.3427080351540235
 40
0.5591543330637507
 40
0.7802744201001194
 40
1.0
 40
1.0
 40
1.0
 40
1.0
 10
129.5558090948853
 20
177.1653402358051
 30
0.0
 10
129.899969243402
 20
177.1124821351185
 30
0.0
 10
130.8158183254536
 20
176.9718207505816
 30
0.0
 10
132.6664952079223
 20
176.8316854015947
 30
0.0
 10
134.9674358838692
 20
176.8000449479952
 30
0.0
 10
137.2640064990417
 20
176.9047225865813
 30
0.0
 10
138.4873549008906
 20
177.0786510794391
 30
0.0
 10
139.0970942205121
 20
177.1653402358051
 30
0.0
  0
SPLINE
  5
586
330
1F
100
AcDbEntity
  8
0
  6
Continuous
 62
     7
370
    18
100
AcDbSpline
210
0.0
220
0.0
230
1.0
 70
     8
 71
     3
 72
    14
 73
    10
 74
     0
 42
0.000000001
 43
0.00000001
 40
0.0
 40
0.0
 40
0.0
 40
0.0
 40
0.0034784519653287
 40
0.1607968938116799
 40
0.3119059237146112
 40
0.4754711155305534
 40
0.6693628381327016
 40
0.9159947139451946
 40
1.0
 40
1.0
 40
1.0
 40
1.0
 10
144.6599569303426
 20
179.6393259067392
 30
0.0
 10
144.6592231767268
 20
179.6440765531721
 30
0.0
 10
144.6253042658339
 20
179.8636826301327
 30
0.0
 10
144.392664280629
 20
180.235569064266
 30
0.0
 10
144.0229889734769
 20
180.7030862719307
 30
0.0
 10
143.545925276415
 20
181.0786824434277
 30
0.0
 10
142.9371870907243
 20
181.4050078043839
 30
0.0
 10
142.3863530364162
 20
181.6231858264288
 30
0.0
 10
141.9729050710387
 20
181.7203672949605
 30
0.0
 10
141.8678599684127
 20
181.7450582795344
 30
0.0
  0
SPLINE
  5
587
330
1F
100
AcDbEntity
  8
0
  6
Continuous
 62
     7
370
    18
100
AcDbSpline
210
0.0
220
0.0
230
1.0
 70
     8
 71
     3
 72
     9
 73
     5
 74
     0
 42
0.000000001
 43
0.00000001
 40
0.0
 40
0.0
 40
0.0
 40
0.0
 40
0.8060290908333325
 40
1.0
 40
1.0
 40
1.0
 40
1.0
 10
141.866539520206
 20
181.7486166490944
 30
0.0
 10
140.8993649619163
 20
182.0073548180193
 30
0.0
 10
139.6994398360257
 20
182.3283583300107
 30
0.0
 10
138.4612275419282
 20
182.6391248207319
 30
0.0
 10
138.2210503775008
 20
182.6994044794756
 30
0.0
  0
SPLINE
  5
588
330
1F
100
AcDbEntity
  8
0
  6
Continuous
 62
     7
370
    18
100
AcDbSpline
210
0.0
220
0.0
230
1.0
 70
     8
 71
     3
 72
     9
 73
     5
 74
     0
 42
0.000000001
 43
0.00000001
 40
0.0
 40
0.0
 40
0.0
 40
0.0
 40
0.7703982863962013
 40
1.0
 40
1.0
 40
1.0
 40
1.0
 10
139.0970942205121
 20
177.1653402358051
 30
0.0
 10
140.0458288163428
 20
177.4198439825808
 30
0.0
 10
141.2773146757789
 20
177.750197452039
 30
0.0
 10
142.4902373788577
 20
178.0473921800911
 30
0.0
 10
142.7687265099536
 20
178.1156285989259
 30
0.0
  0
SPLINE
  5
589
330
1F
100
AcDbEntity
  8
0
  6
Continuous
 62
     7
370
    18
100
AcDbSpline
210
0.0
220
0.0
230
1.0
 70
     8
 71
     3
 72
    12
 73
     8
 74
     0
 42
0.000000001
 43
0.00000001
 40
0.0
 40
0.0
 40
0.0
 40
0.0
 40
0.2204141772674599
 40
0.4410588631371589
 40
0.6567630208551749
 40
0.8706321822034333
 40
1.0
 40
1.0
 40
1.0
 40
1.0
 10
141.3688273696838
 20
181.7516323626625
 30
0.0
 10
141.7183186476308
 20
181.6390951531474
 30
0.0
 10
142.4176667006402
 20
181.4139030429812
 30
0.0
 10
142.840461170445
 20
180.9884620650264
 30
0.0
 10
142.7127825461254
 20
180.5621173766959
 30
0.0
 10
142.1477972377245
 20
180.2199288266328
 30
0.0
 10
141.5820576047764
 20
180.0512890683518
 30
0.0
 10
141.3688273696838
 20
179.9877278589014
 30
0.0
  0
SPLINE
  5
58A
330
1F
100
AcDbEntity
  8
0
  6
Continuous
 62
     7
370
    18
100
AcDbSpline
210
0.0
220
0.0
230
1.0
 70
     8
 71
     3
 72
    10
 73
     6
 74
     0
 42
0.000000001
 43
0.00000001
 40
0.0
 40
0.0
 40
0.0
 40
0.0
 40
0.128783716212535
 40
0.3427080351540849
 40
0.5572341086925116
 40
0.5572341086925116
 40
0.5572341086925116
 40
0.5572341086925116
 10
142.7687265099536
 20
178.1156285989259
 30
0.0
 10
143.0602776860946
 20
178.2273046962482
 30
0.0
 10
143.836128342223
 20
178.5244874225477
 30
0.0
 10
144.6034311085156
 20
179.0607713844631
 30
0.0
 10
144.719718842926
 20
179.4612107792445
 30
0.0
 10
144.6580392956978
 20
179.6515677406103
 30
0.0
  0
LINE
  5
58B
330
1F
100
AcDbEntity
  8
0
  6
Continuous
 62
     7
370
    18
100
AcDbLine
 10
137.7340534882797
 20
182.6923810678111
 30
0.0
 11
141.3688273696838
 21
181.7516323626625
 31
0.0
  0
LINE
  5
58C
330
1F
100
AcDbEntity
  8
0
  6
Continuous
 62
     7
370
    18
100
AcDbLine
 10
141.3688273696838
 20
179.9877278589014
 30
0.0
 11
137.7340534882797
 21
179.0469791537528
 31
0.0
  0
SPLINE
  5
58D
330
1F
100
AcDbEntity
  8
0
  6
Continuous
 62
     7
370
    18
100
AcDbSpline
210
0.0
220
0.0
230
1.0
 70
     8
 71
     3
 72
    14
 73
    10
 74
     0
 42
0.000000001
 43
0.00000001
 40
0.0
 40
0.0
 40
0.0
 40
0.0
 40
0.0398880775511165
 40
0.1817987948204688
 40
0.3304944543922015
 40
0.4891920332035005
 40
0.6612314222041376
 40
0.85234193210142
 40
1.0
 40
1.0
 40
1.0
 40
1.0
 10
124.0142463207929
 20
179.6494423969092
 30
0.0
 10
123.835883404024
 20
179.0996305124948
 30
0.0
 10
123.0229546970017
 20
176.5937404295141
 30
0.0
 10
121.7411764546262
 20
171.9765841267594
 30
0.0
 10
120.1360146644782
 20
165.6726613653851
 30
0.0
 10
118.6269547009295
 20
158.9007378657425
 30
0.0
 10
117.1650586731012
 20
151.4978977956091
 30
0.0
 10
115.8772087923965
 20
144.228747398495
 30
0.0
 10
115.1072853569899
 20
139.3976918917531
 30
0.0
 10
114.3264516576993
 20
134.5052417479647
 30
0.0
  0
SPLINE
  5
592
330
1F
100
AcDbEntity
  8
0
  6
Continuous
 62
     7
370
    18
100
AcDbSpline
210
0.0
220
0.0
230
1.0
 70
     8
 71
     3
 72
    12
 73
     8
 74
     0
 42
0.000000001
 43
0.00000001
 40
0.0
 40
0.0
 40
0.0
 40
0.0
 40
0.2204141772674584
 40
0.4410588631371562
 40
0.6567630208551729
 40
0.8706321822034307
 40
1.0
 40
1.0
 40
1.0
 40
1.0
 10
130.9188498271177
 20
182.6923810678111
 30
0.0
 10
131.3536602154745
 20
182.782836066641
 30
0.0
 10
132.2237357158184
 20
182.9638406619152
 30
0.0
 10
133.8675134284916
 20
183.0732679228647
 30
0.0
 10
135.51478280993
 20
183.0402222632383
 30
0.0
 10
136.8368978417953
 20
182.893993305221
 30
0.0
 10
137.4884718332464
 20
182.7475691136448
 30
0.0
 10
137.7340534882797
 20
182.6923810678111
 30
0.0
  0
SPLINE
  5
593
330
1F
100
AcDbEntity
  8
0
  6
Continuous
 62
     7
370
    18
100
AcDbSpline
210
0.0
220
0.0
230
1.0
 70
     8
 71
     3
 72
    12
 73
     8
 74
     0
 42
0.000000001
 43
0.00000001
 40
0.0
 40
0.0
 40
0.0
 40
0.0
 40
0.2204141772674579
 40
0.4410588631371556
 40
0.656763020855171
 40
0.8706321822034272
 40
1.0
 40
1.0
 40
1.0
 40
1.0
 10
137.7340534882797
 20
179.0469791537528
 30
0.0
 10
137.2992430999229
 20
178.9565241549229
 30
0.0
 10
136.429167599579
 20
178.7755195596487
 30
0.0
 10
134.7853898869058
 20
178.6660922986991
 30
0.0
 10
133.1381205054674
 20
178.6991379583256
 30
0.0
 10
131.8160054736021
 20
178.8453669163429
 30
0.0
 10
131.1644314821511
 20
178.9917911079191
 30
0.0
 10
130.9188498271177
 20
179.0469791537528
 30
0.0
  0
SPLINE
  5
598
330
1F
100
AcDbEntity
  8
0
  6
Continuous
 62
     7
370
    18
100
AcDbSpline
210
0.0
220
0.0
230
1.0
 70
     8
 71
     3
 72
    10
 73
     6
 74
     0
 42
0.000000001
 43
0.00000001
 40
0.4082640656041826
 40
0.4082640656041826
 40
0.4082640656041826
 40
0.4082640656041826
 40
0.5591543330637166
 40
0.7802744201001015
 40
1.0
 40
1.0
 40
1.0
 40
1.0
 10
124.0394436973644
 20
179.7428692680891
 30
0.0
 10
123.9660877628803
 20
179.6127558456907
 30
0.0
 10
123.9305071215366
 20
179.2759716211308
 30
0.0
 10
124.4474959037802
 20
178.7012893424482
 30
0.0
 10
125.4062941459108
 20
178.3104367246374
 30
0.0
 10
125.8841768054439
 20
178.1156285989259
 30
0.0
  0
SPLINE
  5
599
330
1F
100
AcDbEntity
  8
0
  6
Continuous
 62
     7
370
    18
100
AcDbSpline
210
0.0
220
0.0
230
1.0
 70
     8
 71
     3
 72
    12
 73
     8
 74
     0
 42
0.000000001
 43
0.00000001
 40
0.0
 40
0.0
 40
0.0
 40
0.0
 40
0.2204141772674603
 40
0.4410588631371603
 40
0.6567630208551756
 40
0.8706321822034343
 40
0.9999999999999999
 40
0.9999999999999999
 40
0.9999999999999999
 40
0.9999999999999999
 10
127.2840759457136
 20
179.9877278589014
 30
0.0
 10
126.9345846677666
 20
180.1002650684165
 30
0.0
 10
126.2352366147572
 20
180.3254571785826
 30
0.0
 10
125.8124421449524
 20
180.7508981565375
 30
0.0
 10
125.940120769272
 20
181.177242844868
 30
0.0
 10
126.5051060776729
 20
181.5194313949311
 30
0.0
 10
127.070845710621
 20
181.6880711532121
 30
0.0
 10
127.2840759457136
 20
181.7516323626625
 30
0.0
  0
SPLINE
  5
59B
330
1F
100
AcDbEntity
  8
0
  6
Continuous
 62
     7
370
    18
100
AcDbSpline
210
0.0
220
0.0
230
1.0
 70
     8
 71
     3
 72
    12
 73
     8
 74
     0
 42
0.000000001
 43
0.00000001
 40
0.0
 40
0.0
 40
0.0
 40
0.0
 40
0.2556977610617186
 40
0.5044800414314821
 40
0.6818982097365918
 40
0.8528719252031692
 40
1.0
 40
1.0
 40
1.0
 40
1.0
 10
126.7767917523495
 20
181.7482054271452
 30
0.0
 10
126.4800470167097
 20
181.6626016577818
 30
0.0
 10
125.8945831631802
 20
181.4937093181077
 30
0.0
 10
125.2193053064479
 20
181.1556306107053
 30
0.0
 10
124.6641194593496
 20
180.7340074497125
 30
0.0
 10
124.2424150570494
 20
180.2554233884198
 30
0.0
 10
124.0848797238639
 20
179.8577294909479
 30
0.0
 10
124.0120166624368
 20
179.6737885661106
 30
0.0
  0
SPLINE
  5
59C
330
1F
100
AcDbEntity
  8
0
  6
Continuous
 62
     7
370
    18
100
AcDbSpline
210
0.0
220
0.0
230
1.0
 70
     8
 71
     3
 72
     9
 73
     5
 74
     0
 42
0.000000001
 43
0.00000001
 40
0.0
 40
0.0
 40
0.0
 40
0.0
 40
0.8002666078963586
 40
1.0
 40
1.0
 40
1.0
 40
1.0
 10
130.445274719239
 20
182.6956780957781
 30
0.0
 10
129.4531586669792
 20
182.4472600164092
 30
0.0
 10
128.2134267545509
 20
182.1368408674434
 30
0.0
 10
127.0121311518566
 20
181.8162220299648
 30
0.0
 10
126.7721923062112
 20
181.7521837419829
 30
0.0
  0
SPLINE
  5
59D
330
1F
100
AcDbEntity
  8
0
  6
Continuous
 62
     7
370
    18
100
AcDbSpline
210
0.0
220
0.0
230
1.0
 70
     8
 71
     3
 72
     9
 73
     5
 74
     0
 42
0.000000001
 43
0.00000001
 40
0.0
 40
0.0
 40
0.0
 40
0.0
 40
0.7703982863962028
 40
1.0
 40
1.0
 40
1.0
 40
1.0
 10
125.8841768054439
 20
178.1156285989259
 30
0.0
 10
126.8212913752306
 20
177.8820386654491
 30
0.0
 10
128.0376940935836
 20
177.5788319506867
 30
0.0
 10
129.2723337207945
 20
177.2425509335842
 30
0.0
 10
129.5558090948853
 20
177.1653402358051
 30
0.0
  0
LINE
  5
59E
330
1F
100
AcDbEntity
  8
0
  6
Continuous
 62
     7
370
    18
100
AcDbLine
 10
127.2840759457136
 20
181.7516323626625
 30
0.0
 11
130.9188498271177
 21
182.6923810678111
 31
0.0
  0
LINE
  5
59F
330
1F
100
AcDbEntity
  8
0
  6
Continuous
 62
     7
370
    18
100
AcDbLine
 10
130.9188498271177
 20
179.0469791537528
 30
0.0
 11
127.2840759457136
 21
179.9877278589014
 31
0.0
  0
LWPOLYLINE
  5
5A0
330
1F
100
AcDbEntity
  8
0
  6
Continuous
 62
     7
370
    18
100
AcDbPolyline
 90
       10
 70
   128
 43
0.0
 10
134.3264465422419
 20
129.3288595468564
 10
131.7159278132977
 20
129.3731442030553
 10
127.8976623516355
 20
129.6035694110121
 10
124.3264516576987
 20
130.0223630880664
 10
121.1395353556973
 20
130.6134312280712
 10
118.459384851874
 20
131.354059413881
 10
116.3889968270449
 20
132.2157857196641
 10
115.0079351319173
 20
133.165494486751
 10
114.4975541026558
 20
133.8295878042537
 10
114.3264516576993
 20
134.5052417479647
  0
LWPOLYLINE
  5
5A1
330
1F
100
AcDbEntity
  8
0
  6
Continuous
 62
     7
370
    18
100
AcDbPolyline
 90
       10
 70
   128
 43
0.0
 10
154.3264516576981
 20
134.505239124929
 10
154.1553488851749
 20
133.8295871602814
 10
153.2650542476008
 20
132.8413473395461
 10
151.6469597333875
 20
131.9170499978815
 10
149.3632478072782
 20
131.0922153637758
 10
146.5016802378731
 20
130.3985413696452
 10
143.1722254620787
 20
129.8626855180673
 10
139.5028325597491
 20
129.5052404489067
 10
136.936972966253
 20
129.3731441166484
 10
134.3264465422419
 20
129.3288595468564
  0
MTEXT
  5
5BA
330
1F
100
AcDbEntity
  8
0
100
AcDbMText
 10
194.4599543014644
 20
66.96969663925117
 30
0.0
 40
6.0
 41
231.4298032286652
 46
3.0
 71
     1
 72
     5
  1
{\fＭＳ Ｐゴシック|b0|i0|c0|p0;HBE-D26T}
 73
     1
 44
1.0
  0
LINE
  5
5BB
330
1F
100
AcDbEntity
  8
0
100
AcDbLine
 10
81.8084811354553
 20
203.6302175689875
 30
0.0
 11
132.7201693808868
 21
190.4533030327478
 31
0.0
  0
LINE
  5
5BD
330
1F
100
AcDbEntity
  8
0
100
AcDbLine
 10
135.9327339345107
 20
190.4533030327478
 30
0.0
 11
186.844422179942
 21
203.6302175689876
 31
0.0
  0
LINE
  5
5BF
330
1F
100
AcDbEntity
  8
0
100
AcDbLine
 10
134.3264516576989
 20
188.1602669905002
 30
0.0
 11
134.3264516576989
 21
126.3410141079998
 31
0.0
  0
ENDSEC
  0
SECTION
  2
OBJECTS
  0
DICTIONARY
  5
C
330
0
100
AcDbDictionary
281
     1
  3
ACAD_DETAILVIEWSTYLE
350
5A7
  3
ACAD_GROUP
350
D
  3
ACAD_LAYOUT
350
1A
  3
ACAD_MATERIAL
350
570
  3
ACAD_MLEADERSTYLE
350
576
  3
ACAD_MLINESTYLE
350
17
  3
ACAD_PLOTSETTINGS
350
19
  3
ACAD_PLOTSTYLENAME
350
E
  3
ACAD_SCALELIST
350
47
  3
ACAD_SECTIONVIEWSTYLE
350
5A8
  3
ACAD_TABLESTYLE
350
574
  3
ACAD_VISUALSTYLE
350
557
  3
ACDB_RECOMPOSE_DATA
350
5C3
  3
AcDbVariableDictionary
350
5A2
  3
APPDATA
350
578
  0
SUN
  5
5A9
330
29
100
AcDbSun
 90
        1
290
     0
 63
     7
421
 16777215
 40
1.0
291
     1
 91
  2455826
 92
 54000000
292
     0
 70
     2
 71
   256
280
     1
  0
DICTIONARY
  5
5B5
330
2
100
AcDbDictionary
280
     1
281
     1
  3
ACAD_LAYERSTATES
360
5B6
  0
DICTIONARY
  5
5A7
102
{ACAD_REACTORS
330
C
102
}
330
C
100
AcDbDictionary
281
     1
  0
DICTIONARY
  5
D
102
{ACAD_REACTORS
330
C
102
}
330
C
100
AcDbDictionary
281
     1
  0
DICTIONARY
  5
1A
102
{ACAD_REACTORS
330
C
102
}
330
C
100
AcDbDictionary
281
     1
  3
Layout1
350
1E
  3
Layout2
350
26
  3
Model
350
22
  0
DICTIONARY
  5
570
102
{ACAD_REACTORS
330
C
102
}
330
C
100
AcDbDictionary
281
     1
  3
ByBlock
350
572
  3
ByLayer
350
571
  3
Global
350
573
  0
DICTIONARY
  5
576
102
{ACAD_REACTORS
330
C
102
}
330
C
100
AcDbDictionary
281
     1
  3
Standard
350
577
  0
DICTIONARY
  5
17
102
{ACAD_REACTORS
330
C
102
}
330
C
100
AcDbDictionary
281
     1
  3
Standard
350
18
  0
DICTIONARY
  5
19
102
{ACAD_REACTORS
330
C
102
}
330
C
100
AcDbDictionary
281
     1
  0
ACDBDICTIONARYWDFLT
  5
E
102
{ACAD_REACTORS
330
C
102
}
330
C
100
AcDbDictionary
281
     1
  3
Normal
350
F
100
AcDbDictionaryWithDefault
340
F
  0
DICTIONARY
  5
47
102
{ACAD_REACTORS
330
C
102
}
330
C
100
AcDbDictionary
281
     1
  3
A0
350
48
  3
A1
350
49
  3
A2
350
4A
  3
A3
350
4B
  3
A4
350
4C
  3
A5
350
4D
  3
A6
350
4E
  3
A7
350
4F
  3
A8
350
50
  3
A9
350
51
  3
B0
350
52
  3
B1
350
53
  3
B2
350
54
  3
B3
350
55
  3
B4
350
56
  3
B5
350
57
  3
B6
350
58
  3
B7
350
59
  3
B8
350
5A
  3
B9
350
5B
  3
C0
350
5C
  3
C1
350
5D
  3
C2
350
5E
  3
C3
350
5F
  3
C4
350
60
  3
C5
350
61
  3
C6
350
62
  3
C7
350
63
  3
C8
350
64
  3
C9
350
65
  3
D0
350
66
  3
D1
350
67
  3
D2
350
68
  0
DICTIONARY
  5
5A8
102
{ACAD_REACTORS
330
C
102
}
330
C
100
AcDbDictionary
281
     1
  0
DICTIONARY
  5
574
102
{ACAD_REACTORS
330
C
102
}
330
C
100
AcDbDictionary
281
     1
  3
Standard
350
575
  0
DICTIONARY
  5
557
102
{ACAD_REACTORS
330
C
102
}
330
C
100
AcDbDictionary
281
     1
  3
2dWireframe
350
55C
  3
Basic
350
55F
  3
Brighten
350
563
  3
ColorChange
350
567
  3
Conceptual
350
561
  3
Dim
350
562
  3
EdgeColorOff
350
56A
  3
Facepattern
350
566
  3
Flat
350
558
  3
FlatWithEdges
350
559
  3
Gouraud
350
55A
  3
GouraudWithEdges
350
55B
  3
Hidden
350
55E
  3
JitterOff
350
568
  3
Linepattern
350
565
  3
OverhangOff
350
569
  3
Realistic
350
560
  3
Shaded
350
56F
  3
Shaded with edges
350
56E
  3
Shades of Gray
350
56B
  3
Sketchy
350
56C
  3
Thicken
350
564
  3
Wireframe
350
55D
  3
X-Ray
350
56D
  0
XRECORD
  5
5C3
102
{ACAD_REACTORS
330
C
102
}
330
C
100
AcDbXrecord
280
     1
 90
        1
330
575
  0
DICTIONARY
  5
5A2
102
{ACAD_REACTORS
330
C
102
}
330
C
100
AcDbDictionary
281
     1
  3
CANNOSCALE
350
5A3
  3
CMLEADERSTYLE
350
5A5
  3
CTABLESTYLE
350
5A4
  3
MSLTSCALE
350
5A6
  0
DICTIONARY
  5
578
102
{ACAD_REACTORS
330
C
102
}
330
C
100
AcDbDictionary
281
     1
  0
DICTIONARY
  5
5B6
102
{ACAD_REACTORS
330
5B5
102
}
330
5B5
100
AcDbDictionary
281
     1
  0
LAYOUT
  5
1E
102
{ACAD_REACTORS
330
1A
102
}
330
1A
100
AcDbPlotSettings
  1

  2
none_device
  4

  6

 40
0.0
 41
0.0
 42
0.0
 43
0.0
 44
0.0
 45
0.0
 46
0.0
 47
0.0
 48
0.0
 49
0.0
140
0.0
141
0.0
142
1.0
143
1.0
 70
   688
 72
     1
 73
     0
 74
     5
  7

 75
    16
 76
     0
 77
     2
 78
   300
147
1.0
148
0.0
149
0.0
100
AcDbLayout
  1
Layout1
 70
     1
 71
     1
 10
0.0
 20
0.0
 11
420.0
 21
297.0
 12
0.0
 22
0.0
 32
0.0
 14
1.000000000000000E+20
 24
1.000000000000000E+20
 34
1.000000000000000E+20
 15
-1.000000000000000E+20
 25
-1.000000000000000E+20
 35
-1.000000000000000E+20
146
0.0
 13
0.0
 23
0.0
 33
0.0
 16
1.0
 26
0.0
 36
0.0
 17
0.0
 27
1.0
 37
0.0
 76
     0
330
1B
  0
LAYOUT
  5
26
102
{ACAD_REACTORS
330
1A
102
}
330
1A
100
AcDbPlotSettings
  1

  2
none_device
  4

  6

 40
0.0
 41
0.0
 42
0.0
 43
0.0
 44
0.0
 45
0.0
 46
0.0
 47
0.0
 48
0.0
 49
0.0
140
0.0
141
0.0
142
1.0
143
1.0
 70
   688
 72
     1
 73
     0
 74
     5
  7

 75
    16
 76
     0
 77
     2
 78
   300
147
1.0
148
0.0
149
0.0
100
AcDbLayout
  1
Layout2
 70
     1
 71
     2
 10
0.0
 20
0.0
 11
0.0
 21
0.0
 12
0.0
 22
0.0
 32
0.0
 14
0.0
 24
0.0
 34
0.0
 15
0.0
 25
0.0
 35
0.0
146
0.0
 13
0.0
 23
0.0
 33
0.0
 16
1.0
 26
0.0
 36
0.0
 17
0.0
 27
1.0
 37
0.0
 76
     0
330
23
  0
LAYOUT
  5
22
102
{ACAD_REACTORS
330
1A
102
}
330
1A
100
AcDbPlotSettings
  1

  2
none_device
  4
Letter_(8.50_x_11.00_Inches)
  6

 40
6.35
 41
6.35
 42
6.35000508
 43
6.35000508
 44
215.9
 45
279.4
 46
0.0
 47
0.0
 48
0.0
 49
0.0
140
0.0
141
0.0
142
1.0
143
1.0
 70
  1712
 72
     1
 73
     0
 74
     0
  7

 75
     0
 76
     0
 77
     2
 78
   300
147
1.0
148
0.0
149
0.0
100
AcDbLayout
  1
Model
 70
     1
 71
     0
 10
0.0
 20
0.0
 11
431.8
 21
279.4
 12
0.0
 22
0.0
 32
0.0
 14
80.29344306870757
 24
56.20854323877133
 34
0.0
 15
233.6006320556223
 25
218.2969628253813
 35
0.0
146
0.0
 13
0.0
 23
0.0
 33
0.0
 16
1.0
 26
0.0
 36
0.0
 17
0.0
 27
1.0
 37
0.0
 76
     0
330
1F
331
29
  0
MATERIAL
  5
572
102
{ACAD_REACTORS
330
570
102
}
330
570
100
AcDbMaterial
  1
ByBlock
 72
     1
 94
      127
  0
MATERIAL
  5
571
102
{ACAD_REACTORS
330
570
102
}
330
570
100
AcDbMaterial
  1
ByLayer
 72
     1
 94
      127
  0
MATERIAL
  5
573
102
{ACAD_REACTORS
330
570
102
}
330
570
100
AcDbMaterial
  1
Global
 72
     1
 94
      127
  0
MLEADERSTYLE
  5
577
102
{ACAD_REACTORS
330
576
102
}
330
576
100
AcDbMLeaderStyle
179
     2
170
     2
171
     1
172
     0
 90
        2
 40
0.0
 41
0.0
173
     1
 91
-1056964608
340
14
 92
       -2
290
     1
 42
2.0
291
     1
 43
8.0
  3
Standard
341
0
 44
4.0
300

342
11
174
     1
178
     1
175
     1
176
     0
 93
-1056964608
 45
4.0
292
     0
297
     0
 46
4.0
343
0
 94
-1056964608
 47
1.0
 49
1.0
140
1.0
293
     1
141
0.0
294
     1
177
     0
142
1.0
295
     0
296
     0
143
3.75
271
     0
272
     9
273
     9
298
     0
  0
MLINESTYLE
  5
18
102
{ACAD_REACTORS
330
17
102
}
330
17
100
AcDbMlineStyle
  2
Standard
 70
     0
  3

 62
   256
 51
90.0
 52
90.0
 71
     2
 49
0.5
 62
   256
  6
BYLAYER
 49
-0.5
 62
   256
  6
BYLAYER
  0
ACDBPLACEHOLDER
  5
F
102
{ACAD_REACTORS
330
E
102
}
330
E
  0
SCALE
  5
48
102
{ACAD_REACTORS
330
47
102
}
330
47
100
AcDbScale
 70
     0
300
1:1
140
1.0
141
1.0
290
     1
  0
SCALE
  5
49
102
{ACAD_REACTORS
330
47
102
}
330
47
100
AcDbScale
 70
     0
300
1:2
140
1.0
141
2.0
290
     0
  0
SCALE
  5
4A
102
{ACAD_REACTORS
330
47
102
}
330
47
100
AcDbScale
 70
     0
300
1:4
140
1.0
141
4.0
290
     0
  0
SCALE
  5
4B
102
{ACAD_REACTORS
330
47
102
}
330
47
100
AcDbScale
 70
     0
300
1:5
140
1.0
141
5.0
290
     0
  0
SCALE
  5
4C
102
{ACAD_REACTORS
330
47
102
}
330
47
100
AcDbScale
 70
     0
300
1:8
140
1.0
141
8.0
290
     0
  0
SCALE
  5
4D
102
{ACAD_REACTORS
330
47
102
}
330
47
100
AcDbScale
 70
     0
300
1:10
140
1.0
141
10.0
290
     0
  0
SCALE
  5
4E
102
{ACAD_REACTORS
330
47
102
}
330
47
100
AcDbScale
 70
     0
300
1:16
140
1.0
141
16.0
290
     0
  0
SCALE
  5
4F
102
{ACAD_REACTORS
330
47
102
}
330
47
100
AcDbScale
 70
     0
300
1:20
140
1.0
141
20.0
290
     0
  0
SCALE
  5
50
102
{ACAD_REACTORS
330
47
102
}
330
47
100
AcDbScale
 70
     0
300
1:30
140
1.0
141
30.0
290
     0
  0
SCALE
  5
51
102
{ACAD_REACTORS
330
47
102
}
330
47
100
AcDbScale
 70
     0
300
1:40
140
1.0
141
40.0
290
     0
  0
SCALE
  5
52
102
{ACAD_REACTORS
330
47
102
}
330
47
100
AcDbScale
 70
     0
300
1:50
140
1.0
141
50.0
290
     0
  0
SCALE
  5
53
102
{ACAD_REACTORS
330
47
102
}
330
47
100
AcDbScale
 70
     0
300
1:100
140
1.0
141
100.0
290
     0
  0
SCALE
  5
54
102
{ACAD_REACTORS
330
47
102
}
330
47
100
AcDbScale
 70
     0
300
2:1
140
2.0
141
1.0
290
     0
  0
SCALE
  5
55
102
{ACAD_REACTORS
330
47
102
}
330
47
100
AcDbScale
 70
     0
300
4:1
140
4.0
141
1.0
290
     0
  0
SCALE
  5
56
102
{ACAD_REACTORS
330
47
102
}
330
47
100
AcDbScale
 70
     0
300
8:1
140
8.0
141
1.0
290
     0
  0
SCALE
  5
57
102
{ACAD_REACTORS
330
47
102
}
330
47
100
AcDbScale
 70
     0
300
10:1
140
10.0
141
1.0
290
     0
  0
SCALE
  5
58
102
{ACAD_REACTORS
330
47
102
}
330
47
100
AcDbScale
 70
     0
300
100:1
140
100.0
141
1.0
290
     0
  0
SCALE
  5
59
102
{ACAD_REACTORS
330
47
102
}
330
47
100
AcDbScale
 70
     0
300
1/128" = 1'-0"
140
0.0078125
141
12.0
290
     0
  0
SCALE
  5
5A
102
{ACAD_REACTORS
330
47
102
}
330
47
100
AcDbScale
 70
     0
300
1/64" = 1'-0"
140
0.015625
141
12.0
290
     0
  0
SCALE
  5
5B
102
{ACAD_REACTORS
330
47
102
}
330
47
100
AcDbScale
 70
     0
300
1/32" = 1'-0"
140
0.03125
141
12.0
290
     0
  0
SCALE
  5
5C
102
{ACAD_REACTORS
330
47
102
}
330
47
100
AcDbScale
 70
     0
300
1/16" = 1'-0"
140
0.0625
141
12.0
290
     0
  0
SCALE
  5
5D
102
{ACAD_REACTORS
330
47
102
}
330
47
100
AcDbScale
 70
     0
300
3/32" = 1'-0"
140
0.09375
141
12.0
290
     0
  0
SCALE
  5
5E
102
{ACAD_REACTORS
330
47
102
}
330
47
100
AcDbScale
 70
     0
300
1/8" = 1'-0"
140
0.125
141
12.0
290
     0
  0
SCALE
  5
5F
102
{ACAD_REACTORS
330
47
102
}
330
47
100
AcDbScale
 70
     0
300
3/16" = 1'-0"
140
0.1875
141
12.0
290
     0
  0
SCALE
  5
60
102
{ACAD_REACTORS
330
47
102
}
330
47
100
AcDbScale
 70
     0
300
1/4" = 1'-0"
140
0.25
141
12.0
290
     0
  0
SCALE
  5
61
102
{ACAD_REACTORS
330
47
102
}
330
47
100
AcDbScale
 70
     0
300
3/8" = 1'-0"
140
0.375
141
12.0
290
     0
  0
SCALE
  5
62
102
{ACAD_REACTORS
330
47
102
}
330
47
100
AcDbScale
 70
     0
300
1/2" = 1'-0"
140
0.5
141
12.0
290
     0
  0
SCALE
  5
63
102
{ACAD_REACTORS
330
47
102
}
330
47
100
AcDbScale
 70
     0
300
3/4" = 1'-0"
140
0.75
141
12.0
290
     0
  0
SCALE
  5
64
102
{ACAD_REACTORS
330
47
102
}
330
47
100
AcDbScale
 70
     0
300
1" = 1'-0"
140
1.0
141
12.0
290
     0
  0
SCALE
  5
65
102
{ACAD_REACTORS
330
47
102
}
330
47
100
AcDbScale
 70
     0
300
1-1/2" = 1'-0"
140
1.5
141
12.0
290
     0
  0
SCALE
  5
66
102
{ACAD_REACTORS
330
47
102
}
330
47
100
AcDbScale
 70
     0
300
3" = 1'-0"
140
3.0
141
12.0
290
     0
  0
SCALE
  5
67
102
{ACAD_REACTORS
330
47
102
}
330
47
100
AcDbScale
 70
     0
300
6" = 1'-0"
140
6.0
141
12.0
290
     0
  0
SCALE
  5
68
102
{ACAD_REACTORS
330
47
102
}
330
47
100
AcDbScale
 70
     0
300
1'-0" = 1'-0"
140
12.0
141
12.0
290
     0
  0
TABLESTYLE
  5
575
102
{ACAD_REACTORS
330
574
102
}
102
{ACAD_XDICTIONARY
360
5C1
102
}
330
574
100
AcDbTableStyle
  3
Standard
 70
     0
 71
     0
 40
1.5
 41
1.5
280
     0
281
     0
  7
Standard
140
4.5
170
     2
 62
     0
 63
   257
283
     0
 90
        4
 91
        0
  1

274
    -2
284
     1
 64
     0
275
    -2
285
     1
 65
     0
276
    -2
286
     1
 66
     0
277
    -2
287
     1
 67
     0
278
    -2
288
     1
 68
     0
279
    -2
289
     1
 69
     0
  7
Standard
140
6.0
170
     5
 62
     0
 63
   257
283
     0
 90
        4
 91
        0
  1

274
    -2
284
     1
 64
     0
275
    -2
285
     1
 65
     0
276
    -2
286
     1
 66
     0
277
    -2
287
     1
 67
     0
278
    -2
288
     1
 68
     0
279
    -2
289
     1
 69
     0
  7
Standard
140
4.5
170
     5
 62
     0
 63
   257
283
     0
 90
        4
 91
        0
  1

274
    -2
284
     1
 64
     0
275
    -2
285
     1
 65
     0
276
    -2
286
     1
 66
     0
277
    -2
287
     1
 67
     0
278
    -2
288
     1
 68
     0
279
    -2
289
     1
 69
     0
  0
VISUALSTYLE
  5
55C
102
{ACAD_REACTORS
330
557
102
}
330
557
100
AcDbVisualStyle
  2
2dWireframe
 70
     4
177
     3
291
     0
 70
    58
 90
        0
176
     1
 90
        2
176
     1
 90
        0
176
     1
 90
        0
176
     1
 40
0.6
176
     1
 40
30.0
176
     1
 62
     7
420
 16777215
176
     1
 90
        1
176
     1
 90
        4
176
     1
 62
     7
176
     1
 62
   257
176
     1
 90
        1
176
     1
 90
        1
176
     1
 40
1.0
176
     1
 90
        0
176
     1
 62
   257
176
     1
 40
1.0
176
     1
 90
        1
176
     1
 90
        6
176
     1
 90
        2
176
     1
 62
     7
176
     1
 90
        5
176
     1
 90
        0
176
     1
 90
        0
176
     1
290
     0
176
     1
 90
        1
176
     1
 40
0.0
176
     1
 90
        0
176
     1
290
     1
176
     1
290
     1
176
     1
290
     0
176
     1
290
     0
176
     1
290
     0
176
     1
290
     0
176
     1
290
     0
176
     1
290
     0
176
     1
290
     0
176
     1
 90
       50
176
     1
 40
0.0
176
     1
 40
1.0
176
     1
 90
        0
176
     1
 62
    18
420
        0
176
     1
 90
       50
176
     1
 90
        3
176
     1
 62
     5
420
      255
176
     1
290
     0
176
     1
 90
       50
176
     1
 90
       50
176
     1
 90
       50
176
     1
290
     0
176
     1
 90
       50
176
     1
 62
   256
176
     0
 40
1.0
176
     0
 90
        2
176
     1
  1
strokes_ogs.tif
176
     1
290
     0
176
     1
 40
1.0
176
     1
 40
1.0
176
     1
  0
VISUALSTYLE
  5
55F
102
{ACAD_REACTORS
330
557
102
}
330
557
100
AcDbVisualStyle
  2
Basic
 70
     7
177
     3
291
     1
 70
    58
 90
        1
176
     1
 90
        0
176
     1
 90
        1
176
     1
 90
        0
176
     1
 40
0.6
176
     1
 40
30.0
176
     1
 62
     7
420
 16777215
176
     1
 90
        0
176
     1
 90
        4
176
     1
 62
     7
176
     1
 62
   257
176
     1
 90
        1
176
     1
 90
        1
176
     1
 40
1.0
176
     1
 90
        8
176
     1
 62
     7
176
     1
 40
1.0
176
     1
 90
        1
176
     1
 90
        6
176
     1
 90
        2
176
     1
 62
     7
176
     1
 90
        5
176
     1
 90
        0
176
     1
 90
        0
176
     1
290
     0
176
     1
 90
        1
176
     1
 40
0.0
176
     1
 90
        0
176
     1
290
     0
176
     1
290
     1
176
     1
290
     1
176
     1
290
     0
176
     1
290
     0
176
     1
290
     0
176
     1
290
     0
176
     1
290
     0
176
     1
290
     0
176
     1
 90
       50
176
     1
 40
0.0
176
     1
 40
1.0
176
     1
 90
        0
176
     1
 62
    18
420
        0
176
     1
 90
       50
176
     1
 90
        3
176
     1
 62
     5
420
      255
176
     1
290
     0
176
     1
 90
       50
176
     1
 90
       50
176
     1
 90
       50
176
     1
290
     0
176
     1
 90
       50
176
     1
 62
   256
176
     0
 40
1.0
176
     0
 90
        2
176
     1
  1
strokes_ogs.tif
176
     1
290
     0
176
     1
 40
1.0
176
     1
 40
1.0
176
     1
  0
VISUALSTYLE
  5
563
102
{ACAD_REACTORS
330
557
102
}
330
557
100
AcDbVisualStyle
  2
Brighten
 70
    12
177
     3
291
     1
 70
    58
 90
        2
176
     1
 90
        2
176
     1
 90
        0
176
     1
 90
        0
176
     1
 40
0.6
176
     1
 40
30.0
176
     1
 62
     7
420
 16777215
176
     1
 90
        1
176
     1
 90
        4
176
     1
 62
     7
176
     1
 62
   257
176
     1
 90
        1
176
     1
 90
        1
176
     1
 40
1.0
176
     1
 90
        8
176
     1
 62
     7
176
     1
 40
1.0
176
     1
 90
        1
176
     1
 90
        6
176
     1
 90
        2
176
     1
 62
     7
176
     1
 90
        5
176
     1
 90
        0
176
     1
 90
        0
176
     1
290
     0
176
     1
 90
        1
176
     1
 40
50.0
176
     1
 90
        0
176
     1
290
     0
176
     1
290
     1
176
     1
290
     1
176
     1
290
     0
176
     1
290
     0
176
     1
290
     0
176
     1
290
     0
176
     1
290
     0
176
     1
290
     0
176
     1
 90
       50
176
     1
 40
0.0
176
     1
 40
1.0
176
     1
 90
        0
176
     1
 62
    18
420
        0
176
     1
 90
       50
176
     1
 90
        3
176
     1
 62
     5
420
      255
176
     1
290
     0
176
     1
 90
       50
176
     1
 90
       50
176
     1
 90
       50
176
     1
290
     0
176
     1
 90
       50
176
     1
 62
   256
176
     0
 40
1.0
176
     0
 90
        2
176
     1
  1
strokes_ogs.tif
176
     1
290
     0
176
     1
 40
1.0
176
     1
 40
1.0
176
     1
  0
VISUALSTYLE
  5
567
102
{ACAD_REACTORS
330
557
102
}
330
557
100
AcDbVisualStyle
  2
ColorChange
 70
    16
177
     3
291
     1
 70
    58
 90
        2
176
     1
 90
        2
176
     1
 90
        3
176
     1
 90
        0
176
     1
 40
0.6
176
     1
 40
30.0
176
     1
 62
     8
420
  8421504
176
     1
 90
        1
176
     1
 90
        4
176
     1
 62
     7
176
     1
 62
   257
176
     1
 90
        1
176
     1
 90
        1
176
     1
 40
1.0
176
     1
 90
        8
176
     1
 62
     8
420
  8421504
176
     1
 40
1.0
176
     1
 90
        1
176
     1
 90
        6
176
     1
 90
        2
176
     1
 62
     7
176
     1
 90
        5
176
     1
 90
        0
176
     1
 90
        0
176
     1
290
     0
176
     1
 90
        1
176
     1
 40
0.0
176
     1
 90
        0
176
     1
290
     0
176
     1
290
     1
176
     1
290
     1
176
     1
290
     0
176
     1
290
     0
176
     1
290
     0
176
     1
290
     0
176
     1
290
     0
176
     1
290
     0
176
     1
 90
       50
176
     1
 40
0.0
176
     1
 40
1.0
176
     1
 90
        0
176
     1
 62
    18
420
        0
176
     1
 90
       50
176
     1
 90
        3
176
     1
 62
     5
420
      255
176
     1
290
     0
176
     1
 90
       50
176
     1
 90
       50
176
     1
 90
       50
176
     1
290
     0
176
     1
 90
       50
176
     1
 62
   256
176
     0
 40
1.0
176
     0
 90
        2
176
     1
  1
strokes_ogs.tif
176
     1
290
     0
176
     1
 40
1.0
176
     1
 40
1.0
176
     1
  0
VISUALSTYLE
  5
561
102
{ACAD_REACTORS
330
557
102
}
330
557
100
AcDbVisualStyle
  2
Conceptual
 70
     9
177
     3
291
     0
 70
    58
 90
        3
176
     1
 90
        2
176
     1
 90
        0
176
     1
 90
        0
176
     1
 40
0.6
176
     1
 40
30.0
176
     1
 62
     7
420
 16777215
176
     1
 90
        2
176
     1
 90
        2
176
     1
 62
     7
176
     1
 62
   257
176
     1
 90
        1
176
     1
 90
        1
176
     1
 40
179.0
176
     1
 90
        8
176
     1
 62
     7
176
     1
 40
1.0
176
     1
 90
        1
176
     1
 90
        6
176
     1
 90
        2
176
     1
 62
     7
176
     1
 90
        3
176
     1
 90
        0
176
     1
 90
        0
176
     1
290
     0
176
     1
 90
        1
176
     1
 40
0.0
176
     1
 90
        0
176
     1
290
     0
176
     1
290
     1
176
     1
290
     1
176
     1
290
     0
176
     1
290
     0
176
     1
290
     0
176
     1
290
     0
176
     1
290
     0
176
     1
290
     0
176
     1
 90
       50
176
     1
 40
0.0
176
     1
 40
1.0
176
     1
 90
        0
176
     1
 62
    18
420
        0
176
     1
 90
       50
176
     1
 90
        3
176
     1
 62
     5
420
      255
176
     1
290
     0
176
     1
 90
       50
176
     1
 90
       50
176
     1
 90
       50
176
     1
290
     0
176
     1
 90
       50
176
     1
 62
   256
176
     0
 40
1.0
176
     0
 90
        2
176
     1
  1
strokes_ogs.tif
176
     1
290
     0
176
     1
 40
1.0
176
     1
 40
1.0
176
     1
  0
VISUALSTYLE
  5
562
102
{ACAD_REACTORS
330
557
102
}
330
557
100
AcDbVisualStyle
  2
Dim
 70
    11
177
     3
291
     1
 70
    58
 90
        2
176
     1
 90
        2
176
     1
 90
        0
176
     1
 90
        0
176
     1
 40
0.6
176
     1
 40
30.0
176
     1
 62
     7
420
 16777215
176
     1
 90
        1
176
     1
 90
        4
176
     1
 62
     7
176
     1
 62
   257
176
     1
 90
        1
176
     1
 90
        1
176
     1
 40
1.0
176
     1
 90
        8
176
     1
 62
     7
176
     1
 40
1.0
176
     1
 90
        1
176
     1
 90
        6
176
     1
 90
        2
176
     1
 62
     7
176
     1
 90
        5
176
     1
 90
        0
176
     1
 90
        0
176
     1
290
     0
176
     1
 90
        1
176
     1
 40
-50.0
176
     1
 90
        0
176
     1
290
     0
176
     1
290
     1
176
     1
290
     1
176
     1
290
     0
176
     1
290
     0
176
     1
290
     0
176
     1
290
     0
176
     1
290
     0
176
     1
290
     0
176
     1
 90
       50
176
     1
 40
0.0
176
     1
 40
1.0
176
     1
 90
        0
176
     1
 62
    18
420
        0
176
     1
 90
       50
176
     1
 90
        3
176
     1
 62
     5
420
      255
176
     1
290
     0
176
     1
 90
       50
176
     1
 90
       50
176
     1
 90
       50
176
     1
290
     0
176
     1
 90
       50
176
     1
 62
   256
176
     0
 40
1.0
176
     0
 90
        2
176
     1
  1
strokes_ogs.tif
176
     1
290
     0
176
     1
 40
1.0
176
     1
 40
1.0
176
     1
  0
VISUALSTYLE
  5
56A
102
{ACAD_REACTORS
330
557
102
}
330
557
100
AcDbVisualStyle
  2
EdgeColorOff
 70
    22
177
     3
291
     1
 70
    58
 90
        2
176
     0
 90
        2
176
     0
 90
        0
176
     0
 90
        0
176
     0
 40
0.6
176
     0
 40
30.0
176
     0
 62
     7
420
 16777215
176
     0
 90
        1
176
     0
 90
        4
176
     0
 62
     7
176
     0
 62
   257
176
     0
 90
        1
176
     0
 90
        1
176
     0
 40
1.0
176
     0
 90
        8
176
     2
 62
     7
176
     0
 40
1.0
176
     0
 90
        1
176
     0
 90
        6
176
     0
 90
        2
176
     0
 62
     7
176
     0
 90
        5
176
     0
 90
        0
176
     0
 90
        0
176
     0
290
     0
176
     0
 90
        1
176
     0
 40
0.0
176
     0
 90
        0
176
     0
290
     0
176
     0
290
     1
176
     0
290
     1
176
     0
290
     0
176
     0
290
     0
176
     0
290
     0
176
     0
290
     0
176
     0
290
     0
176
     0
290
     0
176
     0
 90
       50
176
     0
 40
0.0
176
     0
 40
1.0
176
     0
 90
        0
176
     0
 62
    18
420
        0
176
     0
 90
       50
176
     0
 90
        3
176
     0
 62
     5
420
      255
176
     0
290
     0
176
     0
 90
       50
176
     0
 90
       50
176
     0
 90
       50
176
     0
290
     0
176
     0
 90
       50
176
     0
 62
   256
176
     0
 40
1.0
176
     0
 90
        2
176
     0
  1
strokes_ogs.tif
176
     0
290
     0
176
     0
 40
1.0
176
     0
 40
1.0
176
     0
  0
VISUALSTYLE
  5
566
102
{ACAD_REACTORS
330
557
102
}
330
557
100
AcDbVisualStyle
  2
Facepattern
 70
    15
177
     3
291
     1
 70
    58
 90
        2
176
     1
 90
        2
176
     1
 90
        0
176
     1
 90
        0
176
     1
 40
0.6
176
     1
 40
30.0
176
     1
 62
     7
420
 16777215
176
     1
 90
        1
176
     1
 90
        4
176
     1
 62
     7
176
     1
 62
   257
176
     1
 90
        1
176
     1
 90
        1
176
     1
 40
1.0
176
     1
 90
        8
176
     1
 62
     7
176
     1
 40
1.0
176
     1
 90
        1
176
     1
 90
        6
176
     1
 90
        2
176
     1
 62
     7
176
     1
 90
        5
176
     1
 90
        0
176
     1
 90
        0
176
     1
290
     0
176
     1
 90
        1
176
     1
 40
0.0
176
     1
 90
        0
176
     1
290
     0
176
     1
290
     1
176
     1
290
     1
176
     1
290
     0
176
     1
290
     0
176
     1
290
     0
176
     1
290
     0
176
     1
290
     0
176
     1
290
     0
176
     1
 90
       50
176
     1
 40
0.0
176
     1
 40
1.0
176
     1
 90
        0
176
     1
 62
    18
420
        0
176
     1
 90
       50
176
     1
 90
        3
176
     1
 62
     5
420
      255
176
     1
290
     0
176
     1
 90
       50
176
     1
 90
       50
176
     1
 90
       50
176
     1
290
     0
176
     1
 90
       50
176
     1
 62
   256
176
     0
 40
1.0
176
     0
 90
        2
176
     1
  1
strokes_ogs.tif
176
     1
290
     0
176
     1
 40
1.0
176
     1
 40
1.0
176
     1
  0
VISUALSTYLE
  5
558
102
{ACAD_REACTORS
330
557
102
}
330
557
100
AcDbVisualStyle
  2
Flat
 70
     0
177
     3
291
     1
 70
    58
 90
        2
176
     1
 90
        1
176
     1
 90
        1
176
     1
 90
        2
176
     1
 40
0.6
176
     1
 40
30.0
176
     1
 62
     7
420
 16777215
176
     1
 90
        0
176
     1
 90
        0
176
     1
 62
     7
176
     1
 62
   257
176
     1
 90
        1
176
     1
 90
        1
176
     1
 40
1.0
176
     1
 90
        8
176
     1
 62
     7
176
     1
 40
1.0
176
     1
 90
        1
176
     1
 90
        6
176
     1
 90
        2
176
     1
 62
     7
176
     1
 90
        5
176
     1
 90
        0
176
     1
 90
        0
176
     1
290
     0
176
     1
 90
       13
176
     1
 40
0.0
176
     1
 90
        0
176
     1
290
     0
176
     1
290
     1
176
     1
290
     1
176
     1
290
     0
176
     1
290
     0
176
     1
290
     0
176
     1
290
     0
176
     1
290
     0
176
     1
290
     0
176
     1
 90
       50
176
     1
 40
0.0
176
     1
 40
1.0
176
     1
 90
        0
176
     1
 62
    18
420
        0
176
     1
 90
       50
176
     1
 90
        3
176
     1
 62
     5
420
      255
176
     1
290
     0
176
     1
 90
       50
176
     1
 90
       50
176
     1
 90
       50
176
     1
290
     0
176
     1
 90
       50
176
     1
 62
   256
176
     0
 40
1.0
176
     0
 90
        2
176
     1
  1
strokes_ogs.tif
176
     1
290
     0
176
     1
 40
1.0
176
     1
 40
1.0
176
     1
  0
VISUALSTYLE
  5
559
102
{ACAD_REACTORS
330
557
102
}
330
557
100
AcDbVisualStyle
  2
FlatWithEdges
 70
     1
177
     3
291
     1
 70
    58
 90
        2
176
     1
 90
        1
176
     1
 90
        1
176
     1
 90
        2
176
     1
 40
0.6
176
     1
 40
30.0
176
     1
 62
     7
420
 16777215
176
     1
 90
        1
176
     1
 90
        0
176
     1
 62
     7
176
     1
 62
   257
176
     1
 90
        1
176
     1
 90
        1
176
     1
 40
1.0
176
     1
 90
        0
176
     1
 62
   257
176
     1
 40
1.0
176
     1
 90
        1
176
     1
 90
        6
176
     1
 90
        2
176
     1
 62
     7
176
     1
 90
        5
176
     1
 90
        0
176
     1
 90
        0
176
     1
290
     0
176
     1
 90
       13
176
     1
 40
0.0
176
     1
 90
        0
176
     1
290
     0
176
     1
290
     1
176
     1
290
     1
176
     1
290
     0
176
     1
290
     0
176
     1
290
     0
176
     1
290
     0
176
     1
290
     0
176
     1
290
     0
176
     1
 90
       50
176
     1
 40
0.0
176
     1
 40
1.0
176
     1
 90
        0
176
     1
 62
    18
420
        0
176
     1
 90
       50
176
     1
 90
        3
176
     1
 62
     5
420
      255
176
     1
290
     0
176
     1
 90
       50
176
     1
 90
       50
176
     1
 90
       50
176
     1
290
     0
176
     1
 90
       50
176
     1
 62
   256
176
     0
 40
1.0
176
     0
 90
        2
176
     1
  1
strokes_ogs.tif
176
     1
290
     0
176
     1
 40
1.0
176
     1
 40
1.0
176
     1
  0
VISUALSTYLE
  5
55A
102
{ACAD_REACTORS
330
557
102
}
330
557
100
AcDbVisualStyle
  2
Gouraud
 70
     2
177
     3
291
     1
 70
    58
 90
        2
176
     1
 90
        2
176
     1
 90
        1
176
     1
 90
        2
176
     1
 40
0.6
176
     1
 40
30.0
176
     1
 62
     7
420
 16777215
176
     1
 90
        0
176
     1
 90
        0
176
     1
 62
     7
176
     1
 62
   257
176
     1
 90
        1
176
     1
 90
        1
176
     1
 40
1.0
176
     1
 90
        0
176
     1
 62
     7
176
     1
 40
1.0
176
     1
 90
        1
176
     1
 90
        6
176
     1
 90
        2
176
     1
 62
     7
176
     1
 90
        5
176
     1
 90
        0
176
     1
 90
        0
176
     1
290
     0
176
     1
 90
       13
176
     1
 40
0.0
176
     1
 90
        0
176
     1
290
     0
176
     1
290
     1
176
     1
290
     1
176
     1
290
     0
176
     1
290
     0
176
     1
290
     0
176
     1
290
     0
176
     1
290
     0
176
     1
290
     0
176
     1
 90
       50
176
     1
 40
0.0
176
     1
 40
1.0
176
     1
 90
        0
176
     1
 62
    18
420
        0
176
     1
 90
       50
176
     1
 90
        3
176
     1
 62
     5
420
      255
176
     1
290
     0
176
     1
 90
       50
176
     1
 90
       50
176
     1
 90
       50
176
     1
290
     0
176
     1
 90
       50
176
     1
 62
   256
176
     0
 40
1.0
176
     0
 90
        2
176
     1
  1
strokes_ogs.tif
176
     1
290
     0
176
     1
 40
1.0
176
     1
 40
1.0
176
     1
  0
VISUALSTYLE
  5
55B
102
{ACAD_REACTORS
330
557
102
}
330
557
100
AcDbVisualStyle
  2
GouraudWithEdges
 70
     3
177
     3
291
     1
 70
    58
 90
        2
176
     1
 90
        2
176
     1
 90
        1
176
     1
 90
        2
176
     1
 40
0.6
176
     1
 40
30.0
176
     1
 62
     7
420
 16777215
176
     1
 90
        1
176
     1
 90
        0
176
     1
 62
     7
176
     1
 62
   257
176
     1
 90
        1
176
     1
 90
        1
176
     1
 40
1.0
176
     1
 90
        0
176
     1
 62
   257
176
     1
 40
1.0
176
     1
 90
        1
176
     1
 90
        6
176
     1
 90
        2
176
     1
 62
     7
176
     1
 90
        5
176
     1
 90
        0
176
     1
 90
        0
176
     1
290
     0
176
     1
 90
       13
176
     1
 40
0.0
176
     1
 90
        0
176
     1
290
     0
176
     1
290
     1
176
     1
290
     1
176
     1
290
     0
176
     1
290
     0
176
     1
290
     0
176
     1
290
     0
176
     1
290
     0
176
     1
290
     0
176
     1
 90
       50
176
     1
 40
0.0
176
     1
 40
1.0
176
     1
 90
        0
176
     1
 62
    18
420
        0
176
     1
 90
       50
176
     1
 90
        3
176
     1
 62
     5
420
      255
176
     1
290
     0
176
     1
 90
       50
176
     1
 90
       50
176
     1
 90
       50
176
     1
290
     0
176
     1
 90
       50
176
     1
 62
   256
176
     0
 40
1.0
176
     0
 90
        2
176
     1
  1
strokes_ogs.tif
176
     1
290
     0
176
     1
 40
1.0
176
     1
 40
1.0
176
     1
  0
VISUALSTYLE
  5
55E
102
{ACAD_REACTORS
330
557
102
}
330
557
100
AcDbVisualStyle
  2
Hidden
 70
     6
177
     3
291
     0
 70
    58
 90
        1
176
     1
 90
        2
176
     1
 90
        2
176
     1
 90
        0
176
     1
 40
0.6
176
     1
 40
30.0
176
     1
 62
     7
420
 16777215
176
     1
 90
        2
176
     1
 90
        2
176
     1
 62
     7
176
     1
 62
   257
176
     1
 90
        2
176
     1
 90
        1
176
     1
 40
40.0
176
     1
 90
        0
176
     1
 62
   257
176
     1
 40
1.0
176
     1
 90
        1
176
     1
 90
        6
176
     1
 90
        2
176
     1
 62
     7
176
     1
 90
        3
176
     1
 90
        0
176
     1
 90
        0
176
     1
290
     0
176
     1
 90
        1
176
     1
 40
0.0
176
     1
 90
        0
176
     1
290
     0
176
     1
290
     1
176
     1
290
     1
176
     1
290
     0
176
     1
290
     0
176
     1
290
     0
176
     1
290
     0
176
     1
290
     0
176
     1
290
     0
176
     1
 90
       50
176
     1
 40
0.0
176
     1
 40
1.0
176
     1
 90
        0
176
     1
 62
    18
420
        0
176
     1
 90
       50
176
     1
 90
        3
176
     1
 62
     5
420
      255
176
     1
290
     0
176
     1
 90
       50
176
     1
 90
       50
176
     1
 90
       50
176
     1
290
     0
176
     1
 90
       50
176
     1
 62
   256
176
     0
 40
1.0
176
     0
 90
        2
176
     1
  1
strokes_ogs.tif
176
     1
290
     0
176
     1
 40
1.0
176
     1
 40
1.0
176
     1
  0
VISUALSTYLE
  5
568
102
{ACAD_REACTORS
330
557
102
}
330
557
100
AcDbVisualStyle
  2
JitterOff
 70
    20
177
     3
291
     1
 70
    58
 90
        2
176
     0
 90
        2
176
     0
 90
        0
176
     0
 90
        0
176
     0
 40
0.6
176
     0
 40
30.0
176
     0
 62
     7
420
 16777215
176
     0
 90
        1
176
     0
 90
        4
176
     0
 62
     7
176
     0
 62
   257
176
     0
 90
        1
176
     0
 90
        1
176
     0
 40
1.0
176
     0
 90
       10
176
     2
 62
     7
176
     0
 40
1.0
176
     0
 90
        1
176
     0
 90
        6
176
     0
 90
        2
176
     0
 62
     7
176
     0
 90
        5
176
     0
 90
        0
176
     0
 90
        0
176
     0
290
     0
176
     0
 90
        1
176
     0
 40
0.0
176
     0
 90
        0
176
     0
290
     0
176
     0
290
     1
176
     0
290
     1
176
     0
290
     0
176
     0
290
     0
176
     0
290
     0
176
     0
290
     0
176
     0
290
     0
176
     0
290
     0
176
     0
 90
       50
176
     0
 40
0.0
176
     0
 40
1.0
176
     0
 90
        0
176
     0
 62
    18
420
        0
176
     0
 90
       50
176
     0
 90
        3
176
     0
 62
     5
420
      255
176
     0
290
     0
176
     0
 90
       50
176
     0
 90
       50
176
     0
 90
       50
176
     0
290
     0
176
     0
 90
       50
176
     0
 62
   256
176
     0
 40
1.0
176
     0
 90
        2
176
     0
  1
strokes_ogs.tif
176
     0
290
     0
176
     0
 40
1.0
176
     0
 40
1.0
176
     0
  0
VISUALSTYLE
  5
565
102
{ACAD_REACTORS
330
557
102
}
330
557
100
AcDbVisualStyle
  2
Linepattern
 70
    14
177
     3
291
     1
 70
    58
 90
        2
176
     1
 90
        2
176
     1
 90
        0
176
     1
 90
        0
176
     1
 40
0.6
176
     1
 40
30.0
176
     1
 62
     7
420
 16777215
176
     1
 90
        1
176
     1
 90
        4
176
     1
 62
     7
176
     1
 62
   257
176
     1
 90
        7
176
     1
 90
        7
176
     1
 40
1.0
176
     1
 90
        8
176
     1
 62
     7
176
     1
 40
1.0
176
     1
 90
        1
176
     1
 90
        6
176
     1
 90
        2
176
     1
 62
     7
176
     1
 90
        5
176
     1
 90
        0
176
     1
 90
        0
176
     1
290
     0
176
     1
 90
        1
176
     1
 40
0.0
176
     1
 90
        0
176
     1
290
     0
176
     1
290
     1
176
     1
290
     1
176
     1
290
     0
176
     1
290
     0
176
     1
290
     0
176
     1
290
     0
176
     1
290
     0
176
     1
290
     0
176
     1
 90
       50
176
     1
 40
0.0
176
     1
 40
1.0
176
     1
 90
        0
176
     1
 62
    18
420
        0
176
     1
 90
       50
176
     1
 90
        3
176
     1
 62
     5
420
      255
176
     1
290
     0
176
     1
 90
       50
176
     1
 90
       50
176
     1
 90
       50
176
     1
290
     0
176
     1
 90
       50
176
     1
 62
   256
176
     0
 40
1.0
176
     0
 90
        2
176
     1
  1
strokes_ogs.tif
176
     1
290
     0
176
     1
 40
1.0
176
     1
 40
1.0
176
     1
  0
VISUALSTYLE
  5
569
102
{ACAD_REACTORS
330
557
102
}
330
557
100
AcDbVisualStyle
  2
OverhangOff
 70
    21
177
     3
291
     1
 70
    58
 90
        2
176
     0
 90
        2
176
     0
 90
        0
176
     0
 90
        0
176
     0
 40
0.6
176
     0
 40
30.0
176
     0
 62
     7
420
 16777215
176
     0
 90
        1
176
     0
 90
        4
176
     0
 62
     7
176
     0
 62
   257
176
     0
 90
        1
176
     0
 90
        1
176
     0
 40
1.0
176
     0
 90
        9
176
     2
 62
     7
176
     0
 40
1.0
176
     0
 90
        1
176
     0
 90
        6
176
     0
 90
        2
176
     0
 62
     7
176
     0
 90
        5
176
     0
 90
        0
176
     0
 90
        0
176
     0
290
     0
176
     0
 90
        1
176
     0
 40
0.0
176
     0
 90
        0
176
     0
290
     0
176
     0
290
     1
176
     0
290
     1
176
     0
290
     0
176
     0
290
     0
176
     0
290
     0
176
     0
290
     0
176
     0
290
     0
176
     0
290
     0
176
     0
 90
       50
176
     0
 40
0.0
176
     0
 40
1.0
176
     0
 90
        0
176
     0
 62
    18
420
        0
176
     0
 90
       50
176
     0
 90
        3
176
     0
 62
     5
420
      255
176
     0
290
     0
176
     0
 90
       50
176
     0
 90
       50
176
     0
 90
       50
176
     0
290
     0
176
     0
 90
       50
176
     0
 62
   256
176
     0
 40
1.0
176
     0
 90
        2
176
     0
  1
strokes_ogs.tif
176
     0
290
     0
176
     0
 40
1.0
176
     0
 40
1.0
176
     0
  0
VISUALSTYLE
  5
560
102
{ACAD_REACTORS
330
557
102
}
330
557
100
AcDbVisualStyle
  2
Realistic
 70
     8
177
     3
291
     0
 70
    58
 90
        2
176
     1
 90
        3
176
     1
 90
        0
176
     1
 90
        2
176
     1
 40
0.6
176
     1
 40
30.0
176
     1
 62
     7
420
 16777215
176
     1
 90
        0
176
     1
 90
        0
176
     1
 62
     7
176
     1
 62
   257
176
     1
 90
        1
176
     1
 90
        1
176
     1
 40
1.0
176
     1
 90
        8
176
     1
 62
   257
176
     1
 40
1.0
176
     1
 90
        1
176
     1
 90
        6
176
     1
 90
        2
176
     1
 62
     7
176
     1
 90
        3
176
     1
 90
        0
176
     1
 90
        0
176
     1
290
     0
176
     1
 90
       13
176
     1
 40
0.0
176
     1
 90
        0
176
     1
290
     0
176
     1
290
     1
176
     1
290
     1
176
     1
290
     0
176
     1
290
     0
176
     1
290
     0
176
     1
290
     0
176
     1
290
     0
176
     1
290
     0
176
     1
 90
       50
176
     1
 40
0.0
176
     1
 40
1.0
176
     1
 90
        0
176
     1
 62
    18
420
        0
176
     1
 90
       50
176
     1
 90
        3
176
     1
 62
     5
420
      255
176
     1
290
     0
176
     1
 90
       50
176
     1
 90
       50
176
     1
 90
       50
176
     1
290
     0
176
     1
 90
       50
176
     1
 62
   256
176
     0
 40
1.0
176
     0
 90
        2
176
     1
  1
strokes_ogs.tif
176
     1
290
     0
176
     1
 40
1.0
176
     1
 40
1.0
176
     1
  0
VISUALSTYLE
  5
56F
102
{ACAD_REACTORS
330
557
102
}
330
557
100
AcDbVisualStyle
  2
Shaded
 70
    27
177
     3
291
     0
 70
    58
 90
        2
176
     1
 90
        2
176
     1
 90
        1
176
     1
 90
        2
176
     1
 40
0.6
176
     1
 40
30.0
176
     1
 62
     7
420
 16777215
176
     1
 90
        0
176
     1
 90
        4
176
     1
 62
     7
176
     1
 62
   257
176
     1
 90
        1
176
     1
 90
        1
176
     1
 40
1.0
176
     1
 90
        8
176
     1
 62
   257
176
     1
 40
1.0
176
     1
 90
        1
176
     1
 90
        6
176
     1
 90
        2
176
     1
 62
     8
420
  7895160
176
     1
 90
        3
176
     1
 90
        0
176
     1
 90
        0
176
     1
290
     0
176
     1
 90
        5
176
     1
 40
0.0
176
     1
 90
        0
176
     1
290
     0
176
     1
290
     1
176
     1
290
     1
176
     1
290
     0
176
     1
290
     0
176
     1
290
     0
176
     1
290
     0
176
     1
290
     0
176
     1
290
     0
176
     1
 90
       50
176
     1
 40
0.0
176
     1
 40
1.0
176
     1
 90
        0
176
     1
 62
    18
420
        0
176
     1
 90
       50
176
     1
 90
        3
176
     1
 62
     5
420
      255
176
     1
290
     0
176
     1
 90
       50
176
     1
 90
       50
176
     1
 90
       50
176
     1
290
     0
176
     1
 90
       50
176
     1
 62
   256
176
     0
 40
1.0
176
     0
 90
        2
176
     1
  1
strokes_ogs.tif
176
     1
290
     0
176
     1
 40
1.0
176
     1
 40
1.0
176
     1
  0
VISUALSTYLE
  5
56E
102
{ACAD_REACTORS
330
557
102
}
330
557
100
AcDbVisualStyle
  2
Shaded with edges
 70
    26
177
     3
291
     0
 70
    58
 90
        2
176
     1
 90
        2
176
     1
 90
        1
176
     1
 90
        2
176
     1
 40
0.6
176
     1
 40
30.0
176
     1
 62
     7
420
 16777215
176
     1
 90
        1
176
     1
 90
       10
176
     1
 62
     7
176
     1
 62
   257
176
     1
 90
        2
176
     1
 90
        1
176
     1
 40
1.0
176
     1
 90
        8
176
     1
 62
   257
176
     1
 40
1.0
176
     1
 90
        1
176
     1
 90
        6
176
     1
 90
        2
176
     1
 62
     7
176
     1
 90
        3
176
     1
 90
        0
176
     1
 90
        0
176
     1
290
     0
176
     1
 90
        5
176
     1
 40
0.0
176
     1
 90
        0
176
     1
290
     0
176
     1
290
     1
176
     1
290
     1
176
     1
290
     0
176
     1
290
     0
176
     1
290
     0
176
     1
290
     0
176
     1
290
     0
176
     1
290
     0
176
     1
 90
       50
176
     1
 40
0.0
176
     1
 40
1.0
176
     1
 90
        0
176
     1
 62
    18
420
        0
176
     1
 90
       50
176
     1
 90
        3
176
     1
 62
     5
420
      255
176
     1
290
     0
176
     1
 90
       50
176
     1
 90
       50
176
     1
 90
       50
176
     1
290
     0
176
     1
 90
       50
176
     1
 62
   256
176
     0
 40
1.0
176
     0
 90
        2
176
     1
  1
strokes_ogs.tif
176
     1
290
     0
176
     1
 40
1.0
176
     1
 40
1.0
176
     1
  0
VISUALSTYLE
  5
56B
102
{ACAD_REACTORS
330
557
102
}
330
557
100
AcDbVisualStyle
  2
Shades of Gray
 70
    23
177
     3
291
     0
 70
    58
 90
        2
176
     1
 90
        2
176
     1
 90
        3
176
     1
 90
        0
176
     1
 40
0.6
176
     1
 40
30.0
176
     1
 62
     7
420
 16777215
176
     1
 90
        2
176
     1
 90
        2
176
     1
 62
     7
176
     1
 62
     7
176
     1
 90
        1
176
     1
 90
        1
176
     1
 40
40.0
176
     1
 90
        8
176
     1
 62
     7
176
     1
 40
1.0
176
     1
 90
        1
176
     1
 90
        6
176
     1
 90
        2
176
     1
 62
     7
176
     1
 90
        3
176
     1
 90
        0
176
     1
 90
        0
176
     1
290
     0
176
     1
 90
        1
176
     1
 40
0.0
176
     1
 90
        0
176
     1
290
     0
176
     1
290
     1
176
     1
290
     1
176
     1
290
     0
176
     1
290
     0
176
     1
290
     0
176
     1
290
     0
176
     1
290
     0
176
     1
290
     0
176
     1
 90
       50
176
     1
 40
0.0
176
     1
 40
1.0
176
     1
 90
        0
176
     1
 62
    18
420
        0
176
     1
 90
       50
176
     1
 90
        3
176
     1
 62
     5
420
      255
176
     1
290
     0
176
     1
 90
       50
176
     1
 90
       50
176
     1
 90
       50
176
     1
290
     0
176
     1
 90
       50
176
     1
 62
   256
176
     0
 40
1.0
176
     0
 90
        2
176
     1
  1
strokes_ogs.tif
176
     1
290
     0
176
     1
 40
1.0
176
     1
 40
1.0
176
     1
  0
VISUALSTYLE
  5
56C
102
{ACAD_REACTORS
330
557
102
}
330
557
100
AcDbVisualStyle
  2
Sketchy
 70
    24
177
     3
291
     0
 70
    58
 90
        1
176
     1
 90
        2
176
     1
 90
        2
176
     1
 90
        0
176
     1
 40
0.6
176
     1
 40
30.0
176
     1
 62
     7
420
 16777215
176
     1
 90
        2
176
     1
 90
        2
176
     1
 62
     7
176
     1
 62
     7
176
     1
 90
        1
176
     1
 90
        1
176
     1
 40
40.0
176
     1
 90
       11
176
     1
 62
     7
176
     1
 40
1.0
176
     1
 90
        1
176
     1
 90
        6
176
     1
 90
        2
176
     1
 62
     7
176
     1
 90
        6
176
     1
 90
        0
176
     1
 90
        0
176
     1
290
     0
176
     1
 90
        1
176
     1
 40
0.0
176
     1
 90
        0
176
     1
290
     0
176
     1
290
     1
176
     1
290
     1
176
     1
290
     0
176
     1
290
     0
176
     1
290
     0
176
     1
290
     0
176
     1
290
     0
176
     1
290
     0
176
     1
 90
       50
176
     1
 40
0.0
176
     1
 40
1.0
176
     1
 90
        0
176
     1
 62
    18
420
        0
176
     1
 90
       50
176
     1
 90
        3
176
     1
 62
     5
420
      255
176
     1
290
     0
176
     1
 90
       50
176
     1
 90
       50
176
     1
 90
       50
176
     1
290
     0
176
     1
 90
       50
176
     1
 62
   256
176
     0
 40
1.0
176
     0
 90
        2
176
     1
  1
strokes_ogs.tif
176
     1
290
     0
176
     1
 40
1.0
176
     1
 40
1.0
176
     1
  0
VISUALSTYLE
  5
564
102
{ACAD_REACTORS
330
557
102
}
330
557
100
AcDbVisualStyle
  2
Thicken
 70
    13
177
     3
291
     1
 70
    58
 90
        2
176
     1
 90
        2
176
     1
 90
        0
176
     1
 90
        0
176
     1
 40
0.6
176
     1
 40
30.0
176
     1
 62
     7
420
 16777215
176
     1
 90
        1
176
     1
 90
        4
176
     1
 62
     7
176
     1
 62
   257
176
     1
 90
        1
176
     1
 90
        1
176
     1
 40
1.0
176
     1
 90
       12
176
     1
 62
     7
176
     1
 40
1.0
176
     1
 90
        1
176
     1
 90
        6
176
     1
 90
        2
176
     1
 62
     7
176
     1
 90
        5
176
     1
 90
        0
176
     1
 90
        0
176
     1
290
     0
176
     1
 90
        1
176
     1
 40
0.0
176
     1
 90
        0
176
     1
290
     0
176
     1
290
     1
176
     1
290
     1
176
     1
290
     0
176
     1
290
     0
176
     1
290
     0
176
     1
290
     0
176
     1
290
     0
176
     1
290
     0
176
     1
 90
       50
176
     1
 40
0.0
176
     1
 40
1.0
176
     1
 90
        0
176
     1
 62
    18
420
        0
176
     1
 90
       50
176
     1
 90
        3
176
     1
 62
     5
420
      255
176
     1
290
     0
176
     1
 90
       50
176
     1
 90
       50
176
     1
 90
       50
176
     1
290
     0
176
     1
 90
       50
176
     1
 62
   256
176
     0
 40
1.0
176
     0
 90
        2
176
     1
  1
strokes_ogs.tif
176
     1
290
     0
176
     1
 40
1.0
176
     1
 40
1.0
176
     1
  0
VISUALSTYLE
  5
55D
102
{ACAD_REACTORS
330
557
102
}
330
557
100
AcDbVisualStyle
  2
Wireframe
 70
     5
177
     3
291
     0
 70
    58
 90
        0
176
     1
 90
        2
176
     1
 90
        0
176
     1
 90
        0
176
     1
 40
0.6
176
     1
 40
30.0
176
     1
 62
     7
420
 16777215
176
     1
 90
        1
176
     1
 90
        4
176
     1
 62
     7
176
     1
 62
   257
176
     1
 90
        1
176
     1
 90
        1
176
     1
 40
1.0
176
     1
 90
        0
176
     1
 62
   257
176
     1
 40
1.0
176
     1
 90
        1
176
     1
 90
        6
176
     1
 90
        2
176
     1
 62
     7
176
     1
 90
        3
176
     1
 90
        0
176
     1
 90
        0
176
     1
290
     0
176
     1
 90
        1
176
     1
 40
0.0
176
     1
 90
        0
176
     1
290
     0
176
     1
290
     1
176
     1
290
     1
176
     1
290
     0
176
     1
290
     0
176
     1
290
     0
176
     1
290
     0
176
     1
290
     0
176
     1
290
     0
176
     1
 90
       50
176
     1
 40
0.0
176
     1
 40
1.0
176
     1
 90
        0
176
     1
 62
    18
420
        0
176
     1
 90
       50
176
     1
 90
        3
176
     1
 62
     5
420
      255
176
     1
290
     0
176
     1
 90
       50
176
     1
 90
       50
176
     1
 90
       50
176
     1
290
     0
176
     1
 90
       50
176
     1
 62
   256
176
     0
 40
1.0
176
     0
 90
        2
176
     1
  1
strokes_ogs.tif
176
     1
290
     0
176
     1
 40
1.0
176
     1
 40
1.0
176
     1
  0
VISUALSTYLE
  5
56D
102
{ACAD_REACTORS
330
557
102
}
330
557
100
AcDbVisualStyle
  2
X-Ray
 70
    25
177
     3
291
     0
 70
    58
 90
        2
176
     1
 90
        2
176
     1
 90
        1
176
     1
 90
        1
176
     1
 40
0.5
176
     1
 40
30.0
176
     1
 62
     7
420
 16777215
176
     1
 90
        1
176
     1
 90
        0
176
     1
 62
     7
176
     1
 62
   257
176
     1
 90
        1
176
     1
 90
        1
176
     1
 40
1.0
176
     1
 90
        8
176
     1
 62
     7
176
     1
 40
1.0
176
     1
 90
        1
176
     1
 90
        6
176
     1
 90
        2
176
     1
 62
     7
176
     1
 90
        3
176
     1
 90
        0
176
     1
 90
        0
176
     1
290
     0
176
     1
 90
       13
176
     1
 40
0.0
176
     1
 90
        0
176
     1
290
     0
176
     1
290
     1
176
     1
290
     1
176
     1
290
     0
176
     1
290
     0
176
     1
290
     0
176
     1
290
     0
176
     1
290
     0
176
     1
290
     0
176
     1
 90
       50
176
     1
 40
0.0
176
     1
 40
1.0
176
     1
 90
        0
176
     1
 62
    18
420
        0
176
     1
 90
       50
176
     1
 90
        3
176
     1
 62
     5
420
      255
176
     1
290
     0
176
     1
 90
       50
176
     1
 90
       50
176
     1
 90
       50
176
     1
290
     0
176
     1
 90
       50
176
     1
 62
   256
176
     0
 40
1.0
176
     0
 90
        2
176
     1
  1
strokes_ogs.tif
176
     1
290
     0
176
     1
 40
1.0
176
     1
 40
1.0
176
     1
  0
DICTIONARYVAR
  5
5A3
102
{ACAD_REACTORS
330
5A2
102
}
330
5A2
100
DictionaryVariables
280
     0
  1
1:1
  0
DICTIONARYVAR
  5
5A5
102
{ACAD_REACTORS
330
5A2
102
}
330
5A2
100
DictionaryVariables
280
     0
  1
Standard
  0
DICTIONARYVAR
  5
5A4
102
{ACAD_REACTORS
330
5A2
102
}
330
5A2
100
DictionaryVariables
280
     0
  1
Standard
  0
DICTIONARYVAR
  5
5A6
102
{ACAD_REACTORS
330
5A2
102
}
330
5A2
100
DictionaryVariables
280
     0
  1
0
  0
DICTIONARY
  5
5C1
330
575
100
AcDbDictionary
280
     1
281
     1
  3
ACAD_ROUNDTRIP_2008_TABLESTYLE_CELLSTYLEMAP
360
5C2
  0
CELLSTYLEMAP
  5
5C2
102
{ACAD_REACTORS
330
5C1
102
}
330
5C1
100
AcDbCellStyleMap
 90
        3
300
CELLSTYLE
  1
TABLEFORMAT_BEGIN
 90
        5
170
     1
 91
        0
 92
    32768
 62
   257
 93
        1
300
CONTENTFORMAT
  1
CONTENTFORMAT_BEGIN
 90
        0
 91
        0
 92
        4
 93
        0
300

 40
0.0
140
1.0
 94
        5
 62
     0
340
11
144
6.0
309
CONTENTFORMAT_END
171
     1
301
MARGIN
  1
CELLMARGIN_BEGIN
 40
1.5
 40
1.5
 40
1.5
 40
1.5
 40
1.5
 40
1.5
309
CELLMARGIN_END
 94
        6
 95
        1
302
GRIDFORMAT
  1
GRIDFORMAT_BEGIN
 90
        0
 91
        1
 62
     0
 92
       -2
340
14
 93
        0
 40
0.045
309
GRIDFORMAT_END
 95
        2
302
GRIDFORMAT
  1
GRIDFORMAT_BEGIN
 90
        0
 91
        1
 62
     0
 92
       -2
340
14
 93
        0
 40
0.045
309
GRIDFORMAT_END
 95
        4
302
GRIDFORMAT
  1
GRIDFORMAT_BEGIN
 90
        0
 91
        1
 62
     0
 92
       -2
340
14
 93
        0
 40
0.045
309
GRIDFORMAT_END
 95
        8
302
GRIDFORMAT
  1
GRIDFORMAT_BEGIN
 90
        0
 91
        1
 62
     0
 92
       -2
340
14
 93
        0
 40
0.045
309
GRIDFORMAT_END
 95
       16
302
GRIDFORMAT
  1
GRIDFORMAT_BEGIN
 90
        0
 91
        1
 62
     0
 92
       -2
340
14
 93
        0
 40
0.045
309
GRIDFORMAT_END
 95
       32
302
GRIDFORMAT
  1
GRIDFORMAT_BEGIN
 90
        0
 91
        1
 62
     0
 92
       -2
340
14
 93
        0
 40
0.045
309
GRIDFORMAT_END
309
TABLEFORMAT_END
  1
CELLSTYLE_BEGIN
 90
        1
 91
        1
300
_TITLE
309
CELLSTYLE_END
300
CELLSTYLE
  1
TABLEFORMAT_BEGIN
 90
        5
170
     1
 91
        0
 92
        0
 62
   257
 93
        1
300
CONTENTFORMAT
  1
CONTENTFORMAT_BEGIN
 90
        0
 91
        0
 92
        4
 93
        0
300

 40
0.0
140
1.0
 94
        5
 62
     0
340
11
144
4.5
309
CONTENTFORMAT_END
171
     1
301
MARGIN
  1
CELLMARGIN_BEGIN
 40
1.5
 40
1.5
 40
1.5
 40
1.5
 40
1.5
 40
1.5
309
CELLMARGIN_END
 94
        6
 95
        1
302
GRIDFORMAT
  1
GRIDFORMAT_BEGIN
 90
        0
 91
        1
 62
     0
 92
       -2
340
14
 93
        0
 40
0.045
309
GRIDFORMAT_END
 95
        2
302
GRIDFORMAT
  1
GRIDFORMAT_BEGIN
 90
        0
 91
        1
 62
     0
 92
       -2
340
14
 93
        0
 40
0.045
309
GRIDFORMAT_END
 95
        4
302
GRIDFORMAT
  1
GRIDFORMAT_BEGIN
 90
        0
 91
        1
 62
     0
 92
       -2
340
14
 93
        0
 40
0.045
309
GRIDFORMAT_END
 95
        8
302
GRIDFORMAT
  1
GRIDFORMAT_BEGIN
 90
        0
 91
        1
 62
     0
 92
       -2
340
14
 93
        0
 40
0.045
309
GRIDFORMAT_END
 95
       16
302
GRIDFORMAT
  1
GRIDFORMAT_BEGIN
 90
        0
 91
        1
 62
     0
 92
       -2
340
14
 93
        0
 40
0.045
309
GRIDFORMAT_END
 95
       32
302
GRIDFORMAT
  1
GRIDFORMAT_BEGIN
 90
        0
 91
        1
 62
     0
 92
       -2
340
14
 93
        0
 40
0.045
309
GRIDFORMAT_END
309
TABLEFORMAT_END
  1
CELLSTYLE_BEGIN
 90
        2
 91
        1
300
_HEADER
309
CELLSTYLE_END
300
CELLSTYLE
  1
TABLEFORMAT_BEGIN
 90
        5
170
     1
 91
        0
 92
        0
 62
   257
 93
        1
300
CONTENTFORMAT
  1
CONTENTFORMAT_BEGIN
 90
        0
 91
        0
 92
        4
 93
        0
300

 40
0.0
140
1.0
 94
        2
 62
     0
340
11
144
4.5
309
CONTENTFORMAT_END
171
     1
301
MARGIN
  1
CELLMARGIN_BEGIN
 40
1.5
 40
1.5
 40
1.5
 40
1.5
 40
1.5
 40
1.5
309
CELLMARGIN_END
 94
        6
 95
        1
302
GRIDFORMAT
  1
GRIDFORMAT_BEGIN
 90
        0
 91
        1
 62
     0
 92
       -2
340
14
 93
        0
 40
0.045
309
GRIDFORMAT_END
 95
        2
302
GRIDFORMAT
  1
GRIDFORMAT_BEGIN
 90
        0
 91
        1
 62
     0
 92
       -2
340
14
 93
        0
 40
0.045
309
GRIDFORMAT_END
 95
        4
302
GRIDFORMAT
  1
GRIDFORMAT_BEGIN
 90
        0
 91
        1
 62
     0
 92
       -2
340
14
 93
        0
 40
0.045
309
GRIDFORMAT_END
 95
        8
302
GRIDFORMAT
  1
GRIDFORMAT_BEGIN
 90
        0
 91
        1
 62
     0
 92
       -2
340
14
 93
        0
 40
0.045
309
GRIDFORMAT_END
 95
       16
302
GRIDFORMAT
  1
GRIDFORMAT_BEGIN
 90
        0
 91
        1
 62
     0
 92
       -2
340
14
 93
        0
 40
0.045
309
GRIDFORMAT_END
 95
       32
302
GRIDFORMAT
  1
GRIDFORMAT_BEGIN
 90
        0
 91
        1
 62
     0
 92
       -2
340
14
 93
        0
 40
0.045
309
GRIDFORMAT_END
309
TABLEFORMAT_END
  1
CELLSTYLE_BEGIN
 90
        3
 91
        2
300
_DATA
309
CELLSTYLE_END
  0
ENDSEC
  0
EOF
