  0
SECTION
  2
HEADER
  9
$ACADVER
  1
AC1015
  9
$ACADMAINTVER
 70
     6
  9
$DWGCODEPAGE
  3
ANSI_932
  9
$INSBASE
 10
0.0
 20
0.0
 30
0.0
  9
$EXTMIN
 10
1.000000000000000E+20
 20
1.000000000000000E+20
 30
1.000000000000000E+20
  9
$EXTMAX
 10
-1.000000000000000E+20
 20
-1.000000000000000E+20
 30
-1.000000000000000E+20
  9
$LIMMIN
 10
0.0
 20
0.0
  9
$LIMMAX
 10
12.0
 20
9.0
  9
$ORTHOMODE
 70
     0
  9
$REGENMODE
 70
     1
  9
$FILLMODE
 70
     1
  9
$QTEXTMODE
 70
     0
  9
$MIRRTEXT
 70
     1
  9
$LTSCALE
 40
1.0
  9
$ATTMODE
 70
     1
  9
$TEXTSIZE
 40
0.2
  9
$TRACEWID
 40
0.05
  9
$TEXTSTYLE
  7
Standard
  9
$CLAYER
  8
0
  9
$CELTYPE
  6
ByLayer
  9
$CECOLOR
 62
   256
  9
$CELTSCALE
 40
1.0
  9
$DISPSILH
 70
     0
  9
$DIMSCALE
 40
1.0
  9
$DIMASZ
 40
0.18
  9
$DIMEXO
 40
0.0625
  9
$DIMDLI
 40
0.38
  9
$DIMRND
 40
0.0
  9
$DIMDLE
 40
0.0
  9
$DIMEXE
 40
0.18
  9
$DIMTP
 40
0.0
  9
$DIMTM
 40
0.0
  9
$DIMTXT
 40
0.18
  9
$DIMCEN
 40
0.09
  9
$DIMTSZ
 40
0.0
  9
$DIMTOL
 70
     0
  9
$DIMLIM
 70
     0
  9
$DIMTIH
 70
     1
  9
$DIMTOH
 70
     1
  9
$DIMSE1
 70
     0
  9
$DIMSE2
 70
     0
  9
$DIMTAD
 70
     0
  9
$DIMZIN
 70
     0
  9
$DIMBLK
  1

  9
$DIMASO
 70
     1
  9
$DIMSHO
 70
     1
  9
$DIMPOST
  1

  9
$DIMAPOST
  1

  9
$DIMALT
 70
     0
  9
$DIMALTD
 70
     2
  9
$DIMALTF
 40
25.4
  9
$DIMLFAC
 40
1.0
  9
$DIMTOFL
 70
     0
  9
$DIMTVP
 40
0.0
  9
$DIMTIX
 70
     0
  9
$DIMSOXD
 70
     0
  9
$DIMSAH
 70
     0
  9
$DIMBLK1
  1

  9
$DIMBLK2
  1

  9
$DIMSTYLE
  2
Standard
  9
$DIMCLRD
 70
     0
  9
$DIMCLRE
 70
     0
  9
$DIMCLRT
 70
     0
  9
$DIMTFAC
 40
1.0
  9
$DIMGAP
 40
0.09
  9
$DIMJUST
 70
     0
  9
$DIMSD1
 70
     0
  9
$DIMSD2
 70
     0
  9
$DIMTOLJ
 70
     1
  9
$DIMTZIN
 70
     0
  9
$DIMALTZ
 70
     0
  9
$DIMALTTZ
 70
     0
  9
$DIMUPT
 70
     0
  9
$DIMDEC
 70
     4
  9
$DIMTDEC
 70
     4
  9
$DIMALTU
 70
     2
  9
$DIMALTTD
 70
     2
  9
$DIMTXSTY
  7
Standard
  9
$DIMAUNIT
 70
     0
  9
$DIMADEC
 70
     0
  9
$DIMALTRND
 40
0.0
  9
$DIMAZIN
 70
     0
  9
$DIMDSEP
 70
    46
  9
$DIMATFIT
 70
     3
  9
$DIMFRAC
 70
     0
  9
$DIMLDRBLK
  1

  9
$DIMLUNIT
 70
     2
  9
$DIMLWD
 70
    -2
  9
$DIMLWE
 70
    -2
  9
$DIMTMOVE
 70
     0
  9
$LUNITS
 70
     2
  9
$LUPREC
 70
     4
  9
$SKETCHINC
 40
0.1
  9
$FILLETRAD
 40
0.5
  9
$AUNITS
 70
     0
  9
$AUPREC
 70
     0
  9
$MENU
  1
.
  9
$ELEVATION
 40
0.0
  9
$PELEVATION
 40
0.0
  9
$THICKNESS
 40
0.0
  9
$LIMCHECK
 70
     0
  9
$CHAMFERA
 40
0.5
  9
$CHAMFERB
 40
0.5
  9
$CHAMFERC
 40
1.0
  9
$CHAMFERD
 40
0.0
  9
$SKPOLY
 70
     0
  9
$TDCREATE
 40
2456666.507801667
  9
$TDUCREATE
 40
2456666.132801667
  9
$TDUPDATE
 40
2456666.507801678
  9
$TDUUPDATE
 40
2456666.132801678
  9
$TDINDWG
 40
0.0000000116
  9
$TDUSRTIMER
 40
0.0000000116
  9
$USRTIMER
 70
     1
  9
$ANGBASE
 50
0.0
  9
$ANGDIR
 70
     0
  9
$PDMODE
 70
     0
  9
$PDSIZE
 40
0.0
  9
$PLINEWID
 40
0.0
  9
$SPLFRAME
 70
     0
  9
$SPLINETYPE
 70
     6
  9
$SPLINESEGS
 70
     8
  9
$HANDSEED
  5
1FD
  9
$SURFTAB1
 70
     6
  9
$SURFTAB2
 70
     6
  9
$SURFTYPE
 70
     6
  9
$SURFU
 70
     6
  9
$SURFV
 70
     6
  9
$UCSBASE
  2

  9
$UCSNAME
  2

  9
$UCSORG
 10
0.0
 20
0.0
 30
0.0
  9
$UCSXDIR
 10
1.0
 20
0.0
 30
0.0
  9
$UCSYDIR
 10
0.0
 20
1.0
 30
0.0
  9
$UCSORTHOREF
  2

  9
$UCSORTHOVIEW
 70
     0
  9
$UCSORGTOP
 10
0.0
 20
0.0
 30
0.0
  9
$UCSORGBOTTOM
 10
0.0
 20
0.0
 30
0.0
  9
$UCSORGLEFT
 10
0.0
 20
0.0
 30
0.0
  9
$UCSORGRIGHT
 10
0.0
 20
0.0
 30
0.0
  9
$UCSORGFRONT
 10
0.0
 20
0.0
 30
0.0
  9
$UCSORGBACK
 10
0.0
 20
0.0
 30
0.0
  9
$PUCSBASE
  2

  9
$PUCSNAME
  2

  9
$PUCSORG
 10
0.0
 20
0.0
 30
0.0
  9
$PUCSXDIR
 10
1.0
 20
0.0
 30
0.0
  9
$PUCSYDIR
 10
0.0
 20
1.0
 30
0.0
  9
$PUCSORTHOREF
  2

  9
$PUCSORTHOVIEW
 70
     0
  9
$PUCSORGTOP
 10
0.0
 20
0.0
 30
0.0
  9
$PUCSORGBOTTOM
 10
0.0
 20
0.0
 30
0.0
  9
$PUCSORGLEFT
 10
0.0
 20
0.0
 30
0.0
  9
$PUCSORGRIGHT
 10
0.0
 20
0.0
 30
0.0
  9
$PUCSORGFRONT
 10
0.0
 20
0.0
 30
0.0
  9
$PUCSORGBACK
 10
0.0
 20
0.0
 30
0.0
  9
$USERI1
 70
     0
  9
$USERI2
 70
     0
  9
$USERI3
 70
     0
  9
$USERI4
 70
     0
  9
$USERI5
 70
     0
  9
$USERR1
 40
0.0
  9
$USERR2
 40
0.0
  9
$USERR3
 40
0.0
  9
$USERR4
 40
0.0
  9
$USERR5
 40
0.0
  9
$WORLDVIEW
 70
     1
  9
$SHADEDGE
 70
     3
  9
$SHADEDIF
 70
    70
  9
$TILEMODE
 70
     1
  9
$MAXACTVP
 70
    64
  9
$PINSBASE
 10
0.0
 20
0.0
 30
0.0
  9
$PLIMCHECK
 70
     0
  9
$PEXTMIN
 10
1.000000000000000E+20
 20
1.000000000000000E+20
 30
1.000000000000000E+20
  9
$PEXTMAX
 10
-1.000000000000000E+20
 20
-1.000000000000000E+20
 30
-1.000000000000000E+20
  9
$PLIMMIN
 10
0.0
 20
0.0
  9
$PLIMMAX
 10
12.0
 20
9.0
  9
$UNITMODE
 70
     0
  9
$VISRETAIN
 70
     1
  9
$PLINEGEN
 70
     0
  9
$PSLTSCALE
 70
     1
  9
$TREEDEPTH
 70
  3020
  9
$CMLSTYLE
  2
Standard
  9
$CMLJUST
 70
     0
  9
$CMLSCALE
 40
1.0
  9
$PROXYGRAPHICS
 70
     1
  9
$MEASUREMENT
 70
     0
  9
$CELWEIGHT
370
    -1
  9
$ENDCAPS
280
     0
  9
$JOINSTYLE
280
     0
  9
$LWDISPLAY
290
     1
  9
$INSUNITS
 70
     1
  9
$HYPERLINKBASE
  1

  9
$STYLESHEET
  1

  9
$XEDIT
290
     1
  9
$CEPSNTYPE
380
     0
  9
$PSTYLEMODE
290
     1
  9
$FINGERPRINTGUID
  2
{DA83358F-9852-4042-A436-DC390E10762E}
  9
$VERSIONGUID
  2
{FAEB1C32-E019-11D5-929B-00C0DF256EC4}
  9
$EXTNAMES
290
     1
  9
$PSVPSCALE
 40
0.0
  9
$OLESTARTUP
290
     0
  0
ENDSEC
  0
SECTION
  2
CLASSES
  0
CLASS
  1
ACDBDICTIONARYWDFLT
  2
AcDbDictionaryWithDefault
  3
ObjectDBX Classes
 90
        0
280
     0
281
     0
  0
CLASS
  1
VISUALSTYLE
  2
AcDbVisualStyle
  3
ObjectDBX Classes
 90
     4095
280
     0
281
     0
  0
CLASS
  1
ACDBPLACEHOLDER
  2
AcDbPlaceHolder
  3
ObjectDBX Classes
 90
        0
280
     0
281
     0
  0
CLASS
  1
LAYOUT
  2
AcDbLayout
  3
ObjectDBX Classes
 90
        0
280
     0
281
     0
  0
ENDSEC
  0
SECTION
  2
TABLES
  0
TABLE
  2
VPORT
  5
8
330
0
100
AcDbSymbolTable
 70
     1
  0
VPORT
  5
29
330
8
100
AcDbSymbolTableRecord
100
AcDbViewportTableRecord
  2
*Active
 70
     0
 10
0.0
 20
0.0
 11
1.0
 21
1.0
 12
0.0
 22
0.0
 13
0.0
 23
0.0
 14
0.5
 24
0.5
 15
0.5
 25
0.5
 16
0.0
 26
0.0
 36
1.0
 17
104.9999647089931
 27
148.4996351082744
 37
0.0
 40
296.9999592356459
 41
0.7070705664688927
 42
50.0
 43
0.0
 44
0.0
 50
0.0
 51
0.0
 71
     0
 72
   100
 73
     1
 74
     3
 75
     0
 76
     0
 77
     0
 78
     0
281
     0
 65
     1
110
0.0
120
0.0
130
0.0
111
1.0
121
0.0
131
0.0
112
0.0
122
1.0
132
0.0
 79
     0
146
0.0
  0
ENDTAB
  0
TABLE
  2
LTYPE
  5
5
330
0
100
AcDbSymbolTable
 70
     1
  0
LTYPE
  5
14
330
5
100
AcDbSymbolTableRecord
100
AcDbLinetypeTableRecord
  2
ByBlock
 70
     0
  3

 72
    65
 73
     0
 40
0.0
  0
LTYPE
  5
15
330
5
100
AcDbSymbolTableRecord
100
AcDbLinetypeTableRecord
  2
ByLayer
 70
     0
  3

 72
    65
 73
     0
 40
0.0
  0
LTYPE
  5
16
330
5
100
AcDbSymbolTableRecord
100
AcDbLinetypeTableRecord
  2
Continuous
 70
     0
  3
Solid line
 72
    65
 73
     0
 40
0.0
  0
ENDTAB
  0
TABLE
  2
LAYER
  5
2
330
0
100
AcDbSymbolTable
 70
     2
  0
LAYER
  5
10
330
2
100
AcDbSymbolTableRecord
100
AcDbLayerTableRecord
  2
0
 70
     0
 62
     7
  6
Continuous
370
    -3
390
F
  0
LAYER
  5
3B
330
2
100
AcDbSymbolTableRecord
100
AcDbLayerTableRecord
  2
\U+30EC\U+30A4\U+30E4\U+30FC 1
 70
     0
 62
     7
  6
Continuous
370
    -3
390
F
  0
ENDTAB
  0
TABLE
  2
STYLE
  5
3
330
0
100
AcDbSymbolTable
 70
     1
  0
STYLE
  5
11
330
3
100
AcDbSymbolTableRecord
100
AcDbTextStyleTableRecord
  2
Standard
 70
     0
 40
0.0
 41
1.0
 50
0.0
 71
     0
 42
0.2
  3
txt
  4

  0
ENDTAB
  0
TABLE
  2
VIEW
  5
6
330
0
100
AcDbSymbolTable
 70
     0
  0
ENDTAB
  0
TABLE
  2
UCS
  5
7
330
0
100
AcDbSymbolTable
 70
     0
  0
ENDTAB
  0
TABLE
  2
APPID
  5
9
330
0
100
AcDbSymbolTable
 70
     1
  0
APPID
  5
12
330
9
100
AcDbSymbolTableRecord
100
AcDbRegAppTableRecord
  2
ACAD
 70
     0
  0
ENDTAB
  0
TABLE
  2
DIMSTYLE
  5
A
330
0
100
AcDbSymbolTable
 70
     1
100
AcDbDimStyleTable
  0
DIMSTYLE
105
27
330
A
100
AcDbSymbolTableRecord
100
AcDbDimStyleTableRecord
  2
Standard
 70
     0
340
11
  0
ENDTAB
  0
TABLE
  2
BLOCK_RECORD
  5
1
330
0
100
AcDbSymbolTable
 70
    12
  0
BLOCK_RECORD
  5
1F
330
1
100
AcDbSymbolTableRecord
100
AcDbBlockTableRecord
  2
*Model_Space
340
22
  0
BLOCK_RECORD
  5
1B
330
1
100
AcDbSymbolTableRecord
100
AcDbBlockTableRecord
  2
*Paper_Space
340
1E
  0
BLOCK_RECORD
  5
23
330
1
100
AcDbSymbolTableRecord
100
AcDbBlockTableRecord
  2
*Paper_Space0
340
26
  0
BLOCK_RECORD
  5
3C
330
1
100
AcDbSymbolTableRecord
100
AcDbBlockTableRecord
  2
block 2
340
0
102
{BLKREFS
331
3D
102
}
  0
BLOCK_RECORD
  5
66
330
1
100
AcDbSymbolTableRecord
100
AcDbBlockTableRecord
  2
block 3
340
0
102
{BLKREFS
331
67
102
}
  0
BLOCK_RECORD
  5
C1
330
1
100
AcDbSymbolTableRecord
100
AcDbBlockTableRecord
  2
block 4
340
0
102
{BLKREFS
331
C2
102
}
  0
BLOCK_RECORD
  5
10C
330
1
100
AcDbSymbolTableRecord
100
AcDbBlockTableRecord
  2
block 5
340
0
102
{BLKREFS
331
10D
102
}
  0
BLOCK_RECORD
  5
110
330
1
100
AcDbSymbolTableRecord
100
AcDbBlockTableRecord
  2
block 6
340
0
102
{BLKREFS
331
111
102
}
  0
BLOCK_RECORD
  5
118
330
1
100
AcDbSymbolTableRecord
100
AcDbBlockTableRecord
  2
block 7
340
0
102
{BLKREFS
331
119
102
}
  0
BLOCK_RECORD
  5
11D
330
1
100
AcDbSymbolTableRecord
100
AcDbBlockTableRecord
  2
block 8
340
0
102
{BLKREFS
331
11E
102
}
  0
BLOCK_RECORD
  5
13A
330
1
100
AcDbSymbolTableRecord
100
AcDbBlockTableRecord
  2
block 9
340
0
102
{BLKREFS
331
13B
102
}
  0
BLOCK_RECORD
  5
172
330
1
100
AcDbSymbolTableRecord
100
AcDbBlockTableRecord
  2
block 10
340
0
102
{BLKREFS
331
173
102
}
  0
BLOCK_RECORD
  5
1BD
330
1
100
AcDbSymbolTableRecord
100
AcDbBlockTableRecord
  2
block 11
340
0
102
{BLKREFS
331
1BE
102
}
  0
BLOCK_RECORD
  5
1D4
330
1
100
AcDbSymbolTableRecord
100
AcDbBlockTableRecord
  2
block 12
340
0
102
{BLKREFS
331
1D5
102
}
  0
ENDTAB
  0
ENDSEC
  0
SECTION
  2
BLOCKS
  0
BLOCK
  5
20
330
1F
100
AcDbEntity
  8
0
100
AcDbBlockBegin
  2
*Model_Space
 70
     0
 71
     0
 10
0.0
 20
0.0
 30
0.0
  3
*Model_Space
  1

  0
ENDBLK
  5
21
330
1F
100
AcDbEntity
  8
0
100
AcDbBlockEnd
  0
BLOCK
  5
1C
330
1B
100
AcDbEntity
 67
     1
  8
0
100
AcDbBlockBegin
  2
*Paper_Space
 70
     0
 71
     0
 10
0.0
 20
0.0
 30
0.0
  3
*Paper_Space
  1

  0
ENDBLK
  5
1D
330
1B
100
AcDbEntity
 67
     1
  8
0
100
AcDbBlockEnd
  0
BLOCK
  5
24
330
23
100
AcDbEntity
  8
0
100
AcDbBlockBegin
  2
*Paper_Space0
 70
     0
 71
     0
 10
0.0
 20
0.0
 30
0.0
  3
*Paper_Space0
  1

  0
ENDBLK
  5
25
330
23
100
AcDbEntity
  8
0
100
AcDbBlockEnd
  0
BLOCK
  5
3E
330
3C
100
AcDbEntity
  8
0
100
AcDbBlockBegin
  2
block 2
 70
     0
 71
     0
 10
0.0
 20
0.0
 30
0.0
  3
block 2
  1

  0
POLYLINE
  5
40
330
3C
100
AcDbEntity
  8
\U+30EC\U+30A4\U+30E4\U+30FC 1
 62
    29
370
    35
100
AcDb2dPolyline
 66
     1
 10
0.0
 20
0.0
 30
0.0
  0
VERTEX
  5
41
330
40
100
AcDbEntity
  8
\U+30EC\U+30A4\U+30E4\U+30FC 1
 62
    29
370
    35
100
AcDbVertex
100
AcDb2dVertex
 10
199.9998507529514
 20
10.0000786650347
 30
0.0
  0
VERTEX
  5
42
330
40
100
AcDbEntity
  8
\U+30EC\U+30A4\U+30E4\U+30FC 1
 62
    29
370
    35
100
AcDbVertex
100
AcDb2dVertex
 10
10.00025091980897
 20
10.0000786650347
 30
0.0
  0
VERTEX
  5
43
330
40
100
AcDbEntity
  8
\U+30EC\U+30A4\U+30E4\U+30FC 1
 62
    29
370
    35
100
AcDbVertex
100
AcDb2dVertex
 10
10.00025091980897
 20
286.9998805706111
 30
0.0
  0
VERTEX
  5
44
330
40
100
AcDbEntity
  8
\U+30EC\U+30A4\U+30E4\U+30FC 1
 62
    29
370
    35
100
AcDbVertex
100
AcDb2dVertex
 10
199.9998507529514
 20
286.9998805706111
 30
0.0
  0
VERTEX
  5
45
330
40
100
AcDbEntity
  8
\U+30EC\U+30A4\U+30E4\U+30FC 1
 62
    29
370
    35
100
AcDbVertex
100
AcDb2dVertex
 10
199.9998507529514
 20
10.0000786650347
 30
0.0
  0
SEQEND
  5
46
330
40
100
AcDbEntity
  8
\U+30EC\U+30A4\U+30E4\U+30FC 1
370
    35
  0
POLYLINE
  5
47
330
3C
100
AcDbEntity
  8
\U+30EC\U+30A4\U+30E4\U+30FC 1
 62
    29
370
    35
100
AcDb2dPolyline
 66
     1
 10
0.0
 20
0.0
 30
0.0
  0
VERTEX
  5
48
330
47
100
AcDbEntity
  8
\U+30EC\U+30A4\U+30E4\U+30FC 1
 62
    29
370
    35
100
AcDbVertex
100
AcDb2dVertex
 10
10.0000786650347
 20
10.0000786650347
 30
0.0
  0
VERTEX
  5
49
330
47
100
AcDbEntity
  8
\U+30EC\U+30A4\U+30E4\U+30FC 1
 62
    29
370
    35
100
AcDbVertex
100
AcDb2dVertex
 10
10.0000786650347
 20
34.9766764235475
 30
0.0
  0
VERTEX
  5
4A
330
47
100
AcDbEntity
  8
\U+30EC\U+30A4\U+30E4\U+30FC 1
 62
    29
370
    35
100
AcDbVertex
100
AcDb2dVertex
 10
199.9168239517569
 20
34.9766764235475
 30
0.0
  0
SEQEND
  5
4B
330
47
100
AcDbEntity
  8
\U+30EC\U+30A4\U+30E4\U+30FC 1
370
    35
  0
POLYLINE
  5
4C
330
3C
100
AcDbEntity
  8
\U+30EC\U+30A4\U+30E4\U+30FC 1
 62
    29
370
    35
100
AcDb2dPolyline
 66
     1
 10
0.0
 20
0.0
 30
0.0
  0
VERTEX
  5
4D
330
4C
100
AcDbEntity
  8
\U+30EC\U+30A4\U+30E4\U+30FC 1
 62
    29
370
    35
100
AcDbVertex
100
AcDb2dVertex
 10
199.9998507529514
 20
10.0000786650347
 30
0.0
  0
VERTEX
  5
4E
330
4C
100
AcDbEntity
  8
\U+30EC\U+30A4\U+30E4\U+30FC 1
 62
    29
370
    35
100
AcDbVertex
100
AcDb2dVertex
 10
10.70063883196026
 20
10.0000786650347
 30
0.0
  0
SEQEND
  5
4F
330
4C
100
AcDbEntity
  8
\U+30EC\U+30A4\U+30E4\U+30FC 1
370
    35
  0
MTEXT
  5
50
330
3C
100
AcDbEntity
  8
\U+30EC\U+30A4\U+30E4\U+30FC 1
 62
    29
100
AcDbMText
 10
14.79634059959953
 20
14.33159721863932
 30
0.0
 40
2.187786638666616
 41
0.0
 71
     7
 72
     1
  1
\fMS Gothic|b0|i0|c0|p34;\W1;　
 73
     1
 44
1.0
  0
MTEXT
  5
51
330
3C
100
AcDbEntity
  8
\U+30EC\U+30A4\U+30E4\U+30FC 1
 62
    29
100
AcDbMText
 10
11.20586208487215
 20
19.56952039441317
 30
0.0
 40
2.187786638666616
 41
0.0
 71
     7
 72
     1
  1
\fMS Gothic|b0|i0|c0|p34;\W1;品
 73
     1
 44
1.0
  0
MTEXT
  5
52
330
3C
100
AcDbEntity
  8
\U+30EC\U+30A4\U+30E4\U+30FC 1
 62
    29
100
AcDbMText
 10
11.20586208487215
 20
11.18829209789737
 30
0.0
 40
2.187786638666616
 41
0.0
 71
     7
 72
     1
  1
\fMS Gothic|b0|i0|c0|p34;\W1;名
 73
     1
 44
1.0
  0
MTEXT
  5
53
330
3C
100
AcDbEntity
  8
\U+30EC\U+30A4\U+30E4\U+30FC 1
 62
    29
100
AcDbMText
 10
11.20586208487215
 20
31.23220214062945
 30
0.0
 40
2.187786638666616
 41
0.0
 71
     7
 72
     1
  1
\fMS Gothic|b0|i0|c0|p34;\W1;品
 73
     1
 44
1.0
  0
MTEXT
  5
54
330
3C
100
AcDbEntity
  8
\U+30EC\U+30A4\U+30E4\U+30FC 1
 62
    29
100
AcDbMText
 10
11.20586208487215
 20
26.15861001950201
 30
0.0
 40
2.187786638666616
 41
0.0
 71
     7
 72
     1
  1
\fMS Gothic|b0|i0|c0|p34;\W1;番
 73
     1
 44
1.0
  0
POLYLINE
  5
55
330
3C
100
AcDbEntity
  8
\U+30EC\U+30A4\U+30E4\U+30FC 1
 62
    29
370
    35
100
AcDb2dPolyline
 66
     1
 10
0.0
 20
0.0
 30
0.0
  0
VERTEX
  5
56
330
55
100
AcDbEntity
  8
\U+30EC\U+30A4\U+30E4\U+30FC 1
 62
    29
370
    35
100
AcDbVertex
100
AcDb2dVertex
 10
10.0000786650347
 20
24.56732041486512
 30
0.0
  0
VERTEX
  5
57
330
55
100
AcDbEntity
  8
\U+30EC\U+30A4\U+30E4\U+30FC 1
 62
    29
370
    35
100
AcDbVertex
100
AcDb2dVertex
 10
75.72474905875978
 20
24.56732041486512
 30
0.0
  0
SEQEND
  5
58
330
55
100
AcDbEntity
  8
\U+30EC\U+30A4\U+30E4\U+30FC 1
370
    35
  0
POLYLINE
  5
59
330
3C
100
AcDbEntity
  8
\U+30EC\U+30A4\U+30E4\U+30FC 1
 62
    29
370
    35
100
AcDb2dPolyline
 66
     1
 10
0.0
 20
0.0
 30
0.0
  0
VERTEX
  5
5A
330
59
100
AcDbEntity
  8
\U+30EC\U+30A4\U+30E4\U+30FC 1
 62
    29
370
    35
100
AcDbVertex
100
AcDb2dVertex
 10
15.69619954034678
 20
34.9766764235475
 30
0.0
  0
VERTEX
  5
5B
330
59
100
AcDbEntity
  8
\U+30EC\U+30A4\U+30E4\U+30FC 1
 62
    29
370
    35
100
AcDbVertex
100
AcDb2dVertex
 10
15.69619954034678
 20
10.0000786650347
 30
0.0
  0
SEQEND
  5
5C
330
59
100
AcDbEntity
  8
\U+30EC\U+30A4\U+30E4\U+30FC 1
370
    35
  0
MTEXT
  5
5D
330
3C
100
AcDbEntity
  8
\U+30EC\U+30A4\U+30E4\U+30FC 1
 62
    29
100
AcDbMText
 10
14.79634059959953
 20
14.33159721863932
 30
0.0
 40
2.187786638666616
 41
0.0
 71
     7
 72
     1
  1
\fMS Gothic|b0|i0|c0|p34;\W1;　
 73
     1
 44
1.0
  0
POLYLINE
  5
5E
330
3C
100
AcDbEntity
  8
\U+30EC\U+30A4\U+30E4\U+30FC 1
 62
    29
370
    35
100
AcDb2dPolyline
 66
     1
 10
0.0
 20
0.0
 30
0.0
  0
VERTEX
  5
5F
330
5E
100
AcDbEntity
  8
\U+30EC\U+30A4\U+30E4\U+30FC 1
 62
    29
370
    35
100
AcDbVertex
100
AcDb2dVertex
 10
15.69619954034678
 20
34.9766764235475
 30
0.0
  0
VERTEX
  5
60
330
5E
100
AcDbEntity
  8
\U+30EC\U+30A4\U+30E4\U+30FC 1
 62
    29
370
    35
100
AcDbVertex
100
AcDb2dVertex
 10
15.69619954034678
 20
10.0000786650347
 30
0.0
  0
SEQEND
  5
61
330
5E
100
AcDbEntity
  8
\U+30EC\U+30A4\U+30E4\U+30FC 1
370
    35
  0
POLYLINE
  5
62
330
3C
100
AcDbEntity
  8
\U+30EC\U+30A4\U+30E4\U+30FC 1
 62
    29
370
    35
100
AcDb2dPolyline
 66
     1
 10
0.0
 20
0.0
 30
0.0
  0
VERTEX
  5
63
330
62
100
AcDbEntity
  8
\U+30EC\U+30A4\U+30E4\U+30FC 1
 62
    29
370
    35
100
AcDbVertex
100
AcDb2dVertex
 10
75.72457680398553
 20
34.9766764235475
 30
0.0
  0
VERTEX
  5
64
330
62
100
AcDbEntity
  8
\U+30EC\U+30A4\U+30E4\U+30FC 1
 62
    29
370
    35
100
AcDbVertex
100
AcDb2dVertex
 10
75.72457680398553
 20
10.0000786650347
 30
0.0
  0
SEQEND
  5
65
330
62
100
AcDbEntity
  8
\U+30EC\U+30A4\U+30E4\U+30FC 1
370
    35
  0
INSERT
  5
67
330
3C
100
AcDbEntity
  8
\U+30EC\U+30A4\U+30E4\U+30FC 1
100
AcDbBlockReference
  2
block 3
 10
0.0
 20
0.0
 30
0.0
  0
MTEXT
  5
8A
330
3C
100
AcDbEntity
  8
\U+30EC\U+30A4\U+30E4\U+30FC 1
 62
    29
100
AcDbMText
 10
142.9277099252056
 20
22.18228081042665
 30
0.0
 40
2.604209742848704
 41
0.0
 71
     7
 72
     1
  1
\fHGPGothicE|b0|i0|c0|p34;\W1;和
 73
     1
 44
1.0
  0
MTEXT
  5
8B
330
3C
100
AcDbEntity
  8
\U+30EC\U+30A4\U+30E4\U+30FC 1
 62
    29
100
AcDbMText
 10
146.7572780666093
 20
22.18228081042665
 30
0.0
 40
2.604209742848704
 41
0.0
 71
     7
 72
     1
  1
\fHGPGothicE|b0|i0|c0|p34;\W1;歌
 73
     1
 44
1.0
  0
MTEXT
  5
8C
330
3C
100
AcDbEntity
  8
\U+30EC\U+30A4\U+30E4\U+30FC 1
 62
    29
100
AcDbMText
 10
150.5871907175616
 20
22.18228081042665
 30
0.0
 40
2.604209742848704
 41
0.0
 71
     7
 72
     1
  1
\fHGPGothicE|b0|i0|c0|p34;\W1;山
 73
     1
 44
1.0
  0
MTEXT
  5
8D
330
3C
100
AcDbEntity
  8
\U+30EC\U+30A4\U+30E4\U+30FC 1
 62
    29
100
AcDbMText
 10
154.4167588589653
 20
22.18228081042665
 30
0.0
 40
2.604209742848704
 41
0.0
 71
     7
 72
     1
  1
\fHGPGothicE|b0|i0|c0|p34;\W1;県
 73
     1
 44
1.0
  0
MTEXT
  5
8E
330
3C
100
AcDbEntity
  8
\U+30EC\U+30A4\U+30E4\U+30FC 1
 62
    29
100
AcDbMText
 10
158.2466715099175
 20
22.18228081042665
 30
0.0
 40
2.604209742848704
 41
0.0
 71
     7
 72
     1
  1
\fHGPGothicE|b0|i0|c0|p34;\W1;海
 73
     1
 44
1.0
  0
MTEXT
  5
8F
330
3C
100
AcDbEntity
  8
\U+30EC\U+30A4\U+30E4\U+30FC 1
 62
    29
100
AcDbMText
 10
162.0762396513212
 20
22.18228081042665
 30
0.0
 40
2.604209742848704
 41
0.0
 71
     7
 72
     1
  1
\fHGPGothicE|b0|i0|c0|p34;\W1;南
 73
     1
 44
1.0
  0
MTEXT
  5
90
330
3C
100
AcDbEntity
  8
\U+30EC\U+30A4\U+30E4\U+30FC 1
 62
    29
100
AcDbMText
 10
165.9061523022735
 20
22.18228081042665
 30
0.0
 40
2.604209742848704
 41
0.0
 71
     7
 72
     1
  1
\fHGPGothicE|b0|i0|c0|p34;\W1;市
 73
     1
 44
1.0
  0
MTEXT
  5
91
330
3C
100
AcDbEntity
  8
\U+30EC\U+30A4\U+30E4\U+30FC 1
 62
    29
100
AcDbMText
 10
169.7357204436772
 20
22.18228081042665
 30
0.0
 40
2.604209742848704
 41
0.0
 71
     7
 72
     1
  1
\fHGPGothicE|b0|i0|c0|p34;\W1;南
 73
     1
 44
1.0
  0
MTEXT
  5
92
330
3C
100
AcDbEntity
  8
\U+30EC\U+30A4\U+30E4\U+30FC 1
 62
    29
100
AcDbMText
 10
173.5652885850809
 20
22.18228081042665
 30
0.0
 40
2.604209742848704
 41
0.0
 71
     7
 72
     1
  1
\fHGPGothicE|b0|i0|c0|p34;\W1;赤
 73
     1
 44
1.0
  0
MTEXT
  5
93
330
3C
100
AcDbEntity
  8
\U+30EC\U+30A4\U+30E4\U+30FC 1
 62
    29
100
AcDbMText
 10
177.3952012360332
 20
22.18228081042665
 30
0.0
 40
2.604209742848704
 41
0.0
 71
     7
 72
     1
  1
\fHGPGothicE|b0|i0|c0|p34;\W1;坂
 73
     1
 44
1.0
  0
MTEXT
  5
94
330
3C
100
AcDbEntity
  8
\U+30EC\U+30A4\U+30E4\U+30FC 1
 62
    29
100
AcDbMText
 10
181.2247693774369
 20
22.18228081042665
 30
0.0
 40
2.604209742848704
 41
0.0
 71
     7
 72
     1
  1
\fHGPGothicE|b0|i0|c0|p34;\W1;２
 73
     1
 44
1.0
  0
MTEXT
  5
95
330
3C
100
AcDbEntity
  8
\U+30EC\U+30A4\U+30E4\U+30FC 1
 62
    29
100
AcDbMText
 10
183.6952473499095
 20
22.18228081042665
 30
0.0
 40
2.604209742848704
 41
0.0
 71
     7
 72
     1
  1
\fHGPGothicE|b0|i0|c0|p34;\W1;０
 73
     1
 44
1.0
  0
MTEXT
  5
96
330
3C
100
AcDbEntity
  8
\U+30EC\U+30A4\U+30E4\U+30FC 1
 62
    29
100
AcDbMText
 10
186.1612466982514
 20
22.18228081042665
 30
0.0
 40
2.604209742848704
 41
0.0
 71
     7
 72
     1
  1
\fHGPGothicE|b0|i0|c0|p34;\W1;-
 73
     1
 44
1.0
  0
MTEXT
  5
97
330
3C
100
AcDbEntity
  8
\U+30EC\U+30A4\U+30E4\U+30FC 1
 62
    29
100
AcDbMText
 10
187.4328314418571
 20
22.18228081042665
 30
0.0
 40
2.604209742848704
 41
0.0
 71
     7
 72
     1
  1
\fHGPGothicE|b0|i0|c0|p34;\W1;１
 73
     1
 44
1.0
  0
MTEXT
  5
98
330
3C
100
AcDbEntity
  8
\U+30EC\U+30A4\U+30E4\U+30FC 1
 62
    29
100
AcDbMText
 10
142.9277099252056
 20
17.64405652770704
 30
0.0
 40
2.604209742848704
 41
0.0
 71
     7
 72
     1
  1
\fHGPGothicE|b0|i0|c0|p34;\W1;Ｔ
 73
     1
 44
1.0
  0
MTEXT
  5
99
330
3C
100
AcDbEntity
  8
\U+30EC\U+30A4\U+30E4\U+30FC 1
 62
    29
100
AcDbMText
 10
145.6658718168821
 20
17.64405652770704
 30
0.0
 40
2.604209742848704
 41
0.0
 71
     7
 72
     1
  1
\fHGPGothicE|b0|i0|c0|p34;\W1;Ｅ
 73
     1
 44
1.0
  0
MTEXT
  5
9A
330
3C
100
AcDbEntity
  8
\U+30EC\U+30A4\U+30E4\U+30FC 1
 62
    29
100
AcDbMText
 10
148.4346950583775
 20
17.64405652770704
 30
0.0
 40
2.604209742848704
 41
0.0
 71
     7
 72
     1
  1
\fHGPGothicE|b0|i0|c0|p34;\W1;Ｌ
 73
     1
 44
1.0
  0
MTEXT
  5
9B
330
3C
100
AcDbEntity
  8
\U+30EC\U+30A4\U+30E4\U+30FC 1
 62
    29
100
AcDbMText
 10
151.035053130644
 20
17.64405652770704
 30
0.0
 40
2.604209742848704
 41
0.0
 71
     7
 72
     1
  1
\fHGPGothicE|b0|i0|c0|p34;\W1;.
 73
     1
 44
1.0
  0
MTEXT
  5
9C
330
3C
100
AcDbEntity
  8
\U+30EC\U+30A4\U+30E4\U+30FC 1
 62
    29
100
AcDbMText
 10
151.889436810986
 20
17.64405652770704
 30
0.0
 40
2.604209742848704
 41
0.0
 71
     7
 72
     1
  1
\fHGPGothicE|b0|i0|c0|p34;\W1; 
 73
     1
 44
1.0
  0
MTEXT
  5
9D
330
3C
100
AcDbEntity
  8
\U+30EC\U+30A4\U+30E4\U+30FC 1
 62
    29
100
AcDbMText
 10
153.1606770450432
 20
17.64405652770704
 30
0.0
 40
2.604209742848704
 41
0.0
 71
     7
 72
     1
  1
\fHGPGothicE|b0|i0|c0|p34;\W1; 
 73
     1
 44
1.0
  0
MTEXT
  5
9E
330
3C
100
AcDbEntity
  8
\U+30EC\U+30A4\U+30E4\U+30FC 1
 62
    29
100
AcDbMText
 10
142.9277099252056
 20
13.10962185002121
 30
0.0
 40
2.604209742848704
 41
0.0
 71
     7
 72
     1
  1
\fHGPGothicE|b0|i0|c0|p34;\W1;Ｆ
 73
     1
 44
1.0
  0
MTEXT
  5
9F
330
3C
100
AcDbEntity
  8
\U+30EC\U+30A4\U+30E4\U+30FC 1
 62
    29
100
AcDbMText
 10
145.4860378325521
 20
13.10962185002121
 30
0.0
 40
2.604209742848704
 41
0.0
 71
     7
 72
     1
  1
\fHGPGothicE|b0|i0|c0|p34;\W1;Ａ
 73
     1
 44
1.0
  0
MTEXT
  5
A0
330
3C
100
AcDbEntity
  8
\U+30EC\U+30A4\U+30E4\U+30FC 1
 62
    29
100
AcDbMText
 10
148.7909179315523
 20
13.10962185002121
 30
0.0
 40
2.604209742848704
 41
0.0
 71
     7
 72
     1
  1
\fHGPGothicE|b0|i0|c0|p34;\W1;Ｘ
 73
     1
 44
1.0
  0
MTEXT
  5
A1
330
3C
100
AcDbEntity
  8
\U+30EC\U+30A4\U+30E4\U+30FC 1
 62
    29
100
AcDbMText
 10
151.9466253960411
 20
13.10962185002121
 30
0.0
 40
2.604209742848704
 41
0.0
 71
     7
 72
     1
  1
\fHGPGothicE|b0|i0|c0|p34;\W1;.
 73
     1
 44
1.0
  0
MTEXT
  5
A2
330
3C
100
AcDbEntity
  8
\U+30EC\U+30A4\U+30E4\U+30FC 1
 62
    29
100
AcDbMText
 10
152.8006645668346
 20
13.10962185002121
 30
0.0
 40
2.604209742848704
 41
0.0
 71
     7
 72
     1
  1
\fHGPGothicE|b0|i0|c0|p34;\W1; 
 73
     1
 44
1.0
  0
MTEXT
  5
A3
330
3C
100
AcDbEntity
  8
\U+30EC\U+30A4\U+30E4\U+30FC 1
 62
    29
100
AcDbMText
 10
156.5003526084444
 20
17.16932236983962
 30
0.0
 40
2.604209742848704
 41
0.0
 71
     7
 72
     1
  1
\fHGPGothicE|b0|i0|c0|p34;\W1;０
 73
     1
 44
1.0
  0
MTEXT
  5
A4
330
3C
100
AcDbEntity
  8
\U+30EC\U+30A4\U+30E4\U+30FC 1
 62
    29
100
AcDbMText
 10
159.073838935926
 20
17.16932236983962
 30
0.0
 40
2.604209742848704
 41
0.0
 71
     7
 72
     1
  1
\fHGPGothicE|b0|i0|c0|p34;\W1;７
 73
     1
 44
1.0
  0
MTEXT
  5
A5
330
3C
100
AcDbEntity
  8
\U+30EC\U+30A4\U+30E4\U+30FC 1
 62
    29
100
AcDbMText
 10
161.6473252634076
 20
17.16932236983962
 30
0.0
 40
2.604209742848704
 41
0.0
 71
     7
 72
     1
  1
\fHGPGothicE|b0|i0|c0|p34;\W1;３
 73
     1
 44
1.0
  0
MTEXT
  5
A6
330
3C
100
AcDbEntity
  8
\U+30EC\U+30A4\U+30E4\U+30FC 1
 62
    29
100
AcDbMText
 10
164.2363145205729
 20
17.16932236983962
 30
0.0
 40
2.604209742848704
 41
0.0
 71
     7
 72
     1
  1
\fHGPGothicE|b0|i0|c0|p34;\W1;-
 73
     1
 44
1.0
  0
MTEXT
  5
A7
330
3C
100
AcDbEntity
  8
\U+30EC\U+30A4\U+30E4\U+30FC 1
 62
    29
100
AcDbMText
 10
165.6188313388036
 20
17.16932236983962
 30
0.0
 40
2.604209742848704
 41
0.0
 71
     7
 72
     1
  1
\fHGPGothicE|b0|i0|c0|p34;\W1;４
 73
     1
 44
1.0
  0
MTEXT
  5
A8
330
3C
100
AcDbEntity
  8
\U+30EC\U+30A4\U+30E4\U+30FC 1
 62
    29
100
AcDbMText
 10
168.1961072713191
 20
17.16932236983962
 30
0.0
 40
2.604209742848704
 41
0.0
 71
     7
 72
     1
  1
\fHGPGothicE|b0|i0|c0|p34;\W1;８
 73
     1
 44
1.0
  0
MTEXT
  5
A9
330
3C
100
AcDbEntity
  8
\U+30EC\U+30A4\U+30E4\U+30FC 1
 62
    29
100
AcDbMText
 10
170.773727713383
 20
17.16932236983962
 30
0.0
 40
2.604209742848704
 41
0.0
 71
     7
 72
     1
  1
\fHGPGothicE|b0|i0|c0|p34;\W1;２
 73
     1
 44
1.0
  0
MTEXT
  5
AA
330
3C
100
AcDbEntity
  8
\U+30EC\U+30A4\U+30E4\U+30FC 1
 62
    29
100
AcDbMText
 10
173.3623724609997
 20
17.16932236983962
 30
0.0
 40
2.604209742848704
 41
0.0
 71
     7
 72
     1
  1
\fHGPGothicE|b0|i0|c0|p34;\W1;-
 73
     1
 44
1.0
  0
MTEXT
  5
AB
330
3C
100
AcDbEntity
  8
\U+30EC\U+30A4\U+30E4\U+30FC 1
 62
    29
100
AcDbMText
 10
174.7448892792304
 20
17.16932236983962
 30
0.0
 40
2.604209742848704
 41
0.0
 71
     7
 72
     1
  1
\fHGPGothicE|b0|i0|c0|p34;\W1;４
 73
     1
 44
1.0
  0
MTEXT
  5
AC
330
3C
100
AcDbEntity
  8
\U+30EC\U+30A4\U+30E4\U+30FC 1
 62
    29
100
AcDbMText
 10
177.3149305112268
 20
17.16932236983962
 30
0.0
 40
2.604209742848704
 41
0.0
 71
     7
 72
     1
  1
\fHGPGothicE|b0|i0|c0|p34;\W1;１
 73
     1
 44
1.0
  0
MTEXT
  5
AD
330
3C
100
AcDbEntity
  8
\U+30EC\U+30A4\U+30E4\U+30FC 1
 62
    29
100
AcDbMText
 10
179.8922064437422
 20
17.16932236983962
 30
0.0
 40
2.604209742848704
 41
0.0
 71
     7
 72
     1
  1
\fHGPGothicE|b0|i0|c0|p34;\W1;２
 73
     1
 44
1.0
  0
MTEXT
  5
AE
330
3C
100
AcDbEntity
  8
\U+30EC\U+30A4\U+30E4\U+30FC 1
 62
    29
100
AcDbMText
 10
182.4694823762576
 20
17.16932236983962
 30
0.0
 40
2.604209742848704
 41
0.0
 71
     7
 72
     1
  1
\fHGPGothicE|b0|i0|c0|p34;\W1;８
 73
     1
 44
1.0
  0
MTEXT
  5
AF
330
3C
100
AcDbEntity
  8
\U+30EC\U+30A4\U+30E4\U+30FC 1
 62
    29
100
AcDbMText
 10
186.9618868890234
 20
17.16932236983962
 30
0.0
 40
2.604209742848704
 41
0.0
 71
     7
 72
     1
  1
\fHGPGothicE|b0|i0|c0|p34;\W1;（
 73
     1
 44
1.0
  0
MTEXT
  5
B0
330
3C
100
AcDbEntity
  8
\U+30EC\U+30A4\U+30E4\U+30FC 1
 62
    29
100
AcDbMText
 10
188.9838134293166
 20
17.16932236983962
 30
0.0
 40
2.604209742848704
 41
0.0
 71
     7
 72
     1
  1
\fHGPGothicE|b0|i0|c0|p34;\W1;代
 73
     1
 44
1.0
  0
MTEXT
  5
B1
330
3C
100
AcDbEntity
  8
\U+30EC\U+30A4\U+30E4\U+30FC 1
 62
    29
100
AcDbMText
 10
192.9208685498601
 20
17.16932236983962
 30
0.0
 40
2.604209742848704
 41
0.0
 71
     7
 72
     1
  1
\fHGPGothicE|b0|i0|c0|p34;\W1;）
 73
     1
 44
1.0
  0
MTEXT
  5
B2
330
3C
100
AcDbEntity
  8
\U+30EC\U+30A4\U+30E4\U+30FC 1
 62
    29
100
AcDbMText
 10
156.5041422134781
 20
12.63109808712
 30
0.0
 40
2.604209742848704
 41
0.0
 71
     7
 72
     1
  1
\fHGPGothicE|b0|i0|c0|p34;\W1;０
 73
     1
 44
1.0
  0
MTEXT
  5
B3
330
3C
100
AcDbEntity
  8
\U+30EC\U+30A4\U+30E4\U+30FC 1
 62
    29
100
AcDbMText
 10
159.0776285409598
 20
12.63109808712
 30
0.0
 40
2.604209742848704
 41
0.0
 71
     7
 72
     1
  1
\fHGPGothicE|b0|i0|c0|p34;\W1;７
 73
     1
 44
1.0
  0
MTEXT
  5
B4
330
3C
100
AcDbEntity
  8
\U+30EC\U+30A4\U+30E4\U+30FC 1
 62
    29
100
AcDbMText
 10
161.6511148684414
 20
12.63109808712
 30
0.0
 40
2.604209742848704
 41
0.0
 71
     7
 72
     1
  1
\fHGPGothicE|b0|i0|c0|p34;\W1;３
 73
     1
 44
1.0
  0
MTEXT
  5
B5
330
3C
100
AcDbEntity
  8
\U+30EC\U+30A4\U+30E4\U+30FC 1
 62
    29
100
AcDbMText
 10
164.2401041256066
 20
12.63109808712
 30
0.0
 40
2.604209742848704
 41
0.0
 71
     7
 72
     1
  1
\fHGPGothicE|b0|i0|c0|p34;\W1;-
 73
     1
 44
1.0
  0
MTEXT
  5
B6
330
3C
100
AcDbEntity
  8
\U+30EC\U+30A4\U+30E4\U+30FC 1
 62
    29
100
AcDbMText
 10
165.6226209438374
 20
12.63109808712
 30
0.0
 40
2.604209742848704
 41
0.0
 71
     7
 72
     1
  1
\fHGPGothicE|b0|i0|c0|p34;\W1;４
 73
     1
 44
1.0
  0
MTEXT
  5
B7
330
3C
100
AcDbEntity
  8
\U+30EC\U+30A4\U+30E4\U+30FC 1
 62
    29
100
AcDbMText
 10
168.1998968763528
 20
12.63109808712
 30
0.0
 40
2.604209742848704
 41
0.0
 71
     7
 72
     1
  1
\fHGPGothicE|b0|i0|c0|p34;\W1;８
 73
     1
 44
1.0
  0
MTEXT
  5
B8
330
3C
100
AcDbEntity
  8
\U+30EC\U+30A4\U+30E4\U+30FC 1
 62
    29
100
AcDbMText
 10
170.7775173184167
 20
12.63109808712
 30
0.0
 40
2.604209742848704
 41
0.0
 71
     7
 72
     1
  1
\fHGPGothicE|b0|i0|c0|p34;\W1;６
 73
     1
 44
1.0
  0
MTEXT
  5
B9
330
3C
100
AcDbEntity
  8
\U+30EC\U+30A4\U+30E4\U+30FC 1
 62
    29
100
AcDbMText
 10
173.3661620660335
 20
12.63109808712
 30
0.0
 40
2.604209742848704
 41
0.0
 71
     7
 72
     1
  1
\fHGPGothicE|b0|i0|c0|p34;\W1;-
 73
     1
 44
1.0
  0
MTEXT
  5
BA
330
3C
100
AcDbEntity
  8
\U+30EC\U+30A4\U+30E4\U+30FC 1
 62
    29
100
AcDbMText
 10
174.7490233938128
 20
12.63109808712
 30
0.0
 40
2.604209742848704
 41
0.0
 71
     7
 72
     1
  1
\fHGPGothicE|b0|i0|c0|p34;\W1;２
 73
     1
 44
1.0
  0
MTEXT
  5
BB
330
3C
100
AcDbEntity
  8
\U+30EC\U+30A4\U+30E4\U+30FC 1
 62
    29
100
AcDbMText
 10
177.3187201162606
 20
12.63109808712
 30
0.0
 40
2.604209742848704
 41
0.0
 71
     7
 72
     1
  1
\fHGPGothicE|b0|i0|c0|p34;\W1;５
 73
     1
 44
1.0
  0
MTEXT
  5
BC
330
3C
100
AcDbEntity
  8
\U+30EC\U+30A4\U+30E4\U+30FC 1
 62
    29
100
AcDbMText
 10
179.895996048776
 20
12.63109808712
 30
0.0
 40
2.604209742848704
 41
0.0
 71
     7
 72
     1
  1
\fHGPGothicE|b0|i0|c0|p34;\W1;６
 73
     1
 44
1.0
  0
MTEXT
  5
BD
330
3C
100
AcDbEntity
  8
\U+30EC\U+30A4\U+30E4\U+30FC 1
 62
    29
100
AcDbMText
 10
182.4732719812914
 20
12.63109808712
 30
0.0
 40
2.604209742848704
 41
0.0
 71
     7
 72
     1
  1
\fHGPGothicE|b0|i0|c0|p34;\W1;０
 73
     1
 44
1.0
  0
MTEXT
  5
BE
330
3C
100
AcDbEntity
  8
\U+30EC\U+30A4\U+30E4\U+30FC 1
 62
    29
100
AcDbMText
 10
186.9656764940572
 20
12.63109808712
 30
0.0
 40
2.604209742848704
 41
0.0
 71
     7
 72
     1
  1
\fHGPGothicE|b0|i0|c0|p34;\W1;（
 73
     1
 44
1.0
  0
MTEXT
  5
BF
330
3C
100
AcDbEntity
  8
\U+30EC\U+30A4\U+30E4\U+30FC 1
 62
    29
100
AcDbMText
 10
188.9876030343503
 20
12.63109808712
 30
0.0
 40
2.604209742848704
 41
0.0
 71
     7
 72
     1
  1
\fHGPGothicE|b0|i0|c0|p34;\W1;代
 73
     1
 44
1.0
  0
MTEXT
  5
C0
330
3C
100
AcDbEntity
  8
\U+30EC\U+30A4\U+30E4\U+30FC 1
 62
    29
100
AcDbMText
 10
192.9246581548938
 20
12.63109808712
 30
0.0
 40
2.604209742848704
 41
0.0
 71
     7
 72
     1
  1
\fHGPGothicE|b0|i0|c0|p34;\W1;）
 73
     1
 44
1.0
  0
INSERT
  5
C2
330
3C
100
AcDbEntity
  8
\U+30EC\U+30A4\U+30E4\U+30FC 1
100
AcDbBlockReference
  2
block 4
 10
0.0
 20
0.0
 30
0.0
  0
MTEXT
  5
109
330
3C
100
AcDbEntity
  8
\U+30EC\U+30A4\U+30E4\U+30FC 1
 62
    29
100
AcDbMText
 10
29.05266248188614
 20
17.68815374991824
 30
0.0
 40
2.15899999946025
 41
0.0
 71
     7
 72
     1
  1
\fMS Gothic|b0|i0|c0|p34;\W1;ﾗﾀﾝｽﾀﾝﾄﾞﾗｲﾄ1型ﾛｰﾎﾞﾙﾄ
 73
     1
 44
1.0
  0
MTEXT
  5
10A
330
3C
100
AcDbEntity
  8
\U+30EC\U+30A4\U+30E4\U+30FC 1
 62
    29
100
AcDbMText
 10
25.87766248267989
 20
13.87822265278045
 30
0.0
 40
2.15899999946025
 41
0.0
 71
     7
 72
     1
  1
\fMS Gothic|b0|i0|c0|p34;\W1;ﾍﾞｰｼﾞｭ/ﾀﾞｰｸﾌﾞﾗｳﾝ(電球色)
 73
     1
 44
1.0
  0
MTEXT
  5
10B
330
3C
100
AcDbEntity
  8
\U+30EC\U+30A4\U+30E4\U+30FC 1
 62
    29
100
AcDbMText
 10
36.99016247990177
 20
27.94627006679816
 30
0.0
 40
2.15899999946025
 41
0.0
 71
     7
 72
     1
  1
\fMS Gothic|b0|i0|c0|p34;\W1;HBF-D08H/B
 73
     1
 44
1.0
  0
INSERT
  5
10D
330
3C
100
AcDbEntity
  8
\U+30EC\U+30A4\U+30E4\U+30FC 1
100
AcDbBlockReference
  2
block 5
 10
0.0
 20
0.0
 30
0.0
  0
SPLINE
  5
1D3
330
3C
100
AcDbEntity
  8
\U+30EC\U+30A4\U+30E4\U+30FC 1
370
     0
100
AcDbSpline
210
0.0
220
0.0
230
1.0
 70
    11
 71
     3
 72
    17
 73
    13
 74
     0
 42
0.0000000001
 43
0.0000000001
 40
0.0
 40
0.0
 40
0.0
 40
0.0
 40
1.0
 40
1.0
 40
1.0
 40
2.0
 40
2.0
 40
2.0
 40
3.0
 40
3.0
 40
3.0
 40
4.0
 40
4.0
 40
4.0
 40
4.0
 10
130.5419026366354
 20
119.1999592800959
 30
0.0
 10
130.5419026366354
 20
106.2922200255103
 30
0.0
 10
120.078114119286
 20
95.82843150816095
 30
0.0
 10
107.1703748647005
 20
95.82843150816095
 30
0.0
 10
94.2626356101149
 20
95.82843150816095
 30
0.0
 10
83.79884709276557
 20
106.2922200255103
 30
0.0
 10
83.79884709276557
 20
119.1999592800959
 30
0.0
 10
83.79884709276557
 20
132.1076985346814
 30
0.0
 10
94.2626356101149
 20
142.5714870520307
 30
0.0
 10
107.1703748647005
 20
142.5714870520307
 30
0.0
 10
120.078114119286
 20
142.5714870520307
 30
0.0
 10
130.5419026366354
 20
132.1076985346814
 30
0.0
 10
130.5419026366354
 20
119.1999592800959
 30
0.0
  0
INSERT
  5
1D5
330
3C
100
AcDbEntity
  8
\U+30EC\U+30A4\U+30E4\U+30FC 1
100
AcDbBlockReference
  2
block 12
 10
0.0
 20
0.0
 30
0.0
  0
ENDBLK
  5
3F
330
3C
100
AcDbEntity
  8
0
100
AcDbBlockEnd
  0
BLOCK
  5
68
330
66
100
AcDbEntity
  8
0
100
AcDbBlockBegin
  2
block 3
 70
     0
 71
     0
 10
0.0
 20
0.0
 30
0.0
  3
block 3
  1

  0
SPLINE
  5
6A
330
66
100
AcDbEntity
  8
\U+30EC\U+30A4\U+30E4\U+30FC 1
370
     0
100
AcDbSpline
210
0.0
220
0.0
230
1.0
 70
    11
 71
     3
 72
    68
 73
    64
 74
     0
 42
0.0000000001
 43
0.0000000001
 40
0.0
 40
0.0
 40
0.0
 40
0.0
 40
1.0
 40
1.0
 40
1.0
 40
2.0
 40
2.0
 40
2.0
 40
3.0
 40
3.0
 40
3.0
 40
4.0
 40
4.0
 40
4.0
 40
5.0
 40
5.0
 40
5.0
 40
6.0
 40
6.0
 40
6.0
 40
7.0
 40
7.0
 40
7.0
 40
8.0
 40
8.0
 40
8.0
 40
9.0
 40
9.0
 40
9.0
 40
10.0
 40
10.0
 40
10.0
 40
11.0
 40
11.0
 40
11.0
 40
12.0
 40
12.0
 40
12.0
 40
13.0
 40
13.0
 40
13.0
 40
14.0
 40
14.0
 40
14.0
 40
15.0
 40
15.0
 40
15.0
 40
16.0
 40
16.0
 40
16.0
 40
17.0
 40
17.0
 40
17.0
 40
18.0
 40
18.0
 40
18.0
 40
19.0
 40
19.0
 40
19.0
 40
20.0
 40
20.0
 40
20.0
 40
21.0
 40
21.0
 40
21.0
 40
21.0
 10
109.10203990328
 20
20.32399630568289
 30
0.0
 10
109.10203990328
 20
20.26198458694839
 30
0.0
 10
109.0531195473895
 20
20.21375325015489
 30
0.0
 10
108.9938639050432
 20
20.21375325015489
 30
0.0
 10
108.9938639050432
 20
20.21375325015489
 30
0.0
 10
105.9938747564876
 20
20.21375325015489
 30
0.0
 10
105.9938747564876
 20
20.21375325015489
 30
0.0
 10
105.0683498543753
 20
20.21375325015489
 30
0.0
 10
104.3173190385908
 20
20.96443955639084
 30
0.0
 10
104.3173190385908
 20
21.89048122282599
 30
0.0
 10
104.3173190385908
 20
22.81548936061557
 30
0.0
 10
105.0683498543753
 20
23.56652017640004
 30
0.0
 10
105.9938747564876
 20
23.56652017640004
 30
0.0
 10
105.9938747564876
 20
23.56652017640004
 30
0.0
 10
107.1631401641814
 20
23.56652017640004
 30
0.0
 10
107.1631401641814
 20
23.56652017640004
 30
0.0
 10
107.2244628638189
 20
23.56652017640004
 30
0.0
 10
107.2726942006124
 20
23.51759982050949
 30
0.0
 10
107.2726942006124
 20
23.45627712087204
 30
0.0
 10
107.2726942006124
 20
23.45627712087204
 30
0.0
 10
107.2726942006124
 20
22.39208712547837
 30
0.0
 10
107.2726942006124
 20
22.39208712547837
 30
0.0
 10
107.2726942006124
 20
22.33214246403502
 30
0.0
 10
107.2244628638189
 20
22.28322210814448
 30
0.0
 10
107.1631401641814
 20
22.28322210814448
 30
0.0
 10
107.1631401641814
 20
22.28322210814448
 30
0.0
 10
106.0786241054248
 20
22.2821885794989
 30
0.0
 10
106.0786241054248
 20
22.2821885794989
 30
0.0
 10
105.8643391662423
 20
22.2821885794989
 30
0.0
 10
105.6893283155916
 20
22.10752223839673
 30
0.0
 10
105.6893283155916
 20
21.89289278966567
 30
0.0
 10
105.6893283155916
 20
21.67722981228903
 30
0.0
 10
105.8643391662423
 20
21.50152994254129
 30
0.0
 10
106.0786241054248
 20
21.50152994254129
 30
0.0
 10
106.0786241054248
 20
21.50152994254129
 30
0.0
 10
107.5972221953229
 20
21.50359699983244
 30
0.0
 10
107.5972221953229
 20
21.50359699983244
 30
0.0
 10
107.5972221953229
 20
21.50359699983244
 30
0.0
 10
107.5972221953229
 20
23.75152180395795
 30
0.0
 10
107.5972221953229
 20
23.75152180395795
 30
0.0
 10
107.5972221953229
 20
24.08052842279931
 30
0.0
 10
107.3312608238616
 20
24.34683430380912
 30
0.0
 10
107.0005316572776
 20
24.34683430380912
 30
0.0
 10
107.0005316572776
 20
24.34683430380912
 30
0.0
 10
104.8673285328109
 20
24.34683430380912
 30
0.0
 10
104.8673285328109
 20
24.34683430380912
 30
0.0
 10
104.8051445593022
 20
24.34683430380912
 30
0.0
 10
104.7572577320572
 20
24.39541015015115
 30
0.0
 10
104.7572577320572
 20
24.45638834024007
 30
0.0
 10
104.7572577320572
 20
24.45638834024007
 30
0.0
 10
104.7572577320572
 20
25.52505695976457
 30
0.0
 10
104.7572577320572
 20
25.52505695976457
 30
0.0
 10
104.7572577320572
 20
25.58500162120792
 30
0.0
 10
104.8051445593022
 20
25.63495550574404
 30
0.0
 10
104.8673285328109
 20
25.63495550574404
 30
0.0
 10
104.8673285328109
 20
25.63495550574404
 30
0.0
 10
107.4215223255752
 20
25.63495550574404
 30
0.0
 10
107.4215223255752
 20
25.63495550574404
 30
0.0
 10
108.3530761447867
 20
25.63495550574404
 30
0.0
 10
109.10203990328
 20
24.8815131231199
 30
0.0
 10
109.10203990328
 20
23.95030381345687
 30
0.0
 10
109.10203990328
 20
23.95030381345687
 30
0.0
 10
109.10203990328
 20
20.32399630568289
 30
0.0
 10
109.10203990328
 20
20.32399630568289
 30
0.0
  0
HATCH
  5
6B
330
66
100
AcDbEntity
  8
\U+30EC\U+30A4\U+30E4\U+30FC 1
 62
    29
100
AcDbHatch
 10
0.0
 20
0.0
 30
0.0
210
0.0
220
0.0
230
1.0
  2
SOLID
 70
     1
 71
     0
 91
        1
 92
        1
 93
        1
 72
     4
 94
        3
 73
     0
 74
     1
 95
       68
 96
       64
 40
0.0
 40
0.0
 40
0.0
 40
0.0
 40
1.0
 40
1.0
 40
1.0
 40
2.0
 40
2.0
 40
2.0
 40
3.0
 40
3.0
 40
3.0
 40
4.0
 40
4.0
 40
4.0
 40
5.0
 40
5.0
 40
5.0
 40
6.0
 40
6.0
 40
6.0
 40
7.0
 40
7.0
 40
7.0
 40
8.0
 40
8.0
 40
8.0
 40
9.0
 40
9.0
 40
9.0
 40
10.0
 40
10.0
 40
10.0
 40
11.0
 40
11.0
 40
11.0
 40
12.0
 40
12.0
 40
12.0
 40
13.0
 40
13.0
 40
13.0
 40
14.0
 40
14.0
 40
14.0
 40
15.0
 40
15.0
 40
15.0
 40
16.0
 40
16.0
 40
16.0
 40
17.0
 40
17.0
 40
17.0
 40
18.0
 40
18.0
 40
18.0
 40
19.0
 40
19.0
 40
19.0
 40
20.0
 40
20.0
 40
20.0
 40
21.0
 40
21.0
 40
21.0
 40
21.0
 10
109.10203990328
 20
20.32399630568289
 10
109.10203990328
 20
20.26198458694839
 10
109.0531195473895
 20
20.21375325015489
 10
108.9938639050432
 20
20.21375325015489
 10
108.9938639050432
 20
20.21375325015489
 10
105.9938747564876
 20
20.21375325015489
 10
105.9938747564876
 20
20.21375325015489
 10
105.0683498543753
 20
20.21375325015489
 10
104.3173190385908
 20
20.96443955639084
 10
104.3173190385908
 20
21.89048122282599
 10
104.3173190385908
 20
22.81548936061557
 10
105.0683498543753
 20
23.56652017640004
 10
105.9938747564876
 20
23.56652017640004
 10
105.9938747564876
 20
23.56652017640004
 10
107.1631401641814
 20
23.56652017640004
 10
107.1631401641814
 20
23.56652017640004
 10
107.2244628638189
 20
23.56652017640004
 10
107.2726942006124
 20
23.51759982050949
 10
107.2726942006124
 20
23.45627712087204
 10
107.2726942006124
 20
23.45627712087204
 10
107.2726942006124
 20
22.39208712547837
 10
107.2726942006124
 20
22.39208712547837
 10
107.2726942006124
 20
22.33214246403502
 10
107.2244628638189
 20
22.28322210814448
 10
107.1631401641814
 20
22.28322210814448
 10
107.1631401641814
 20
22.28322210814448
 10
106.0786241054248
 20
22.2821885794989
 10
106.0786241054248
 20
22.2821885794989
 10
105.8643391662423
 20
22.2821885794989
 10
105.6893283155916
 20
22.10752223839673
 10
105.6893283155916
 20
21.89289278966567
 10
105.6893283155916
 20
21.67722981228903
 10
105.8643391662423
 20
21.50152994254129
 10
106.0786241054248
 20
21.50152994254129
 10
106.0786241054248
 20
21.50152994254129
 10
107.5972221953229
 20
21.50359699983244
 10
107.5972221953229
 20
21.50359699983244
 10
107.5972221953229
 20
21.50359699983244
 10
107.5972221953229
 20
23.75152180395795
 10
107.5972221953229
 20
23.75152180395795
 10
107.5972221953229
 20
24.08052842279931
 10
107.3312608238616
 20
24.34683430380912
 10
107.0005316572776
 20
24.34683430380912
 10
107.0005316572776
 20
24.34683430380912
 10
104.8673285328109
 20
24.34683430380912
 10
104.8673285328109
 20
24.34683430380912
 10
104.8051445593022
 20
24.34683430380912
 10
104.7572577320572
 20
24.39541015015115
 10
104.7572577320572
 20
24.45638834024007
 10
104.7572577320572
 20
24.45638834024007
 10
104.7572577320572
 20
25.52505695976457
 10
104.7572577320572
 20
25.52505695976457
 10
104.7572577320572
 20
25.58500162120792
 10
104.8051445593022
 20
25.63495550574404
 10
104.8673285328109
 20
25.63495550574404
 10
104.8673285328109
 20
25.63495550574404
 10
107.4215223255752
 20
25.63495550574404
 10
107.4215223255752
 20
25.63495550574404
 10
108.3530761447867
 20
25.63495550574404
 10
109.10203990328
 20
24.8815131231199
 10
109.10203990328
 20
23.95030381345687
 10
109.10203990328
 20
23.95030381345687
 10
109.10203990328
 20
20.32399630568289
 10
109.10203990328
 20
20.32399630568289
 97
        0
 75
     2
 76
     1
 98
        0
  0
SPLINE
  5
6C
330
66
100
AcDbEntity
  8
\U+30EC\U+30A4\U+30E4\U+30FC 1
370
     0
100
AcDbSpline
210
0.0
220
0.0
230
1.0
 70
    11
 71
     3
 72
    68
 73
    64
 74
     0
 42
0.0000000001
 43
0.0000000001
 40
0.0
 40
0.0
 40
0.0
 40
0.0
 40
1.0
 40
1.0
 40
1.0
 40
2.0
 40
2.0
 40
2.0
 40
3.0
 40
3.0
 40
3.0
 40
4.0
 40
4.0
 40
4.0
 40
5.0
 40
5.0
 40
5.0
 40
6.0
 40
6.0
 40
6.0
 40
7.0
 40
7.0
 40
7.0
 40
8.0
 40
8.0
 40
8.0
 40
9.0
 40
9.0
 40
9.0
 40
10.0
 40
10.0
 40
10.0
 40
11.0
 40
11.0
 40
11.0
 40
12.0
 40
12.0
 40
12.0
 40
13.0
 40
13.0
 40
13.0
 40
14.0
 40
14.0
 40
14.0
 40
15.0
 40
15.0
 40
15.0
 40
16.0
 40
16.0
 40
16.0
 40
17.0
 40
17.0
 40
17.0
 40
18.0
 40
18.0
 40
18.0
 40
19.0
 40
19.0
 40
19.0
 40
20.0
 40
20.0
 40
20.0
 40
21.0
 40
21.0
 40
21.0
 40
21.0
 10
119.1961696750621
 20
20.32399630568289
 30
0.0
 10
119.1961696750621
 20
20.26198458694839
 30
0.0
 10
119.1472493191715
 20
20.21375325015489
 30
0.0
 10
119.0859266195341
 20
20.21375325015489
 30
0.0
 10
119.0859266195341
 20
20.21375325015489
 30
0.0
 10
116.0859374709785
 20
20.21375325015489
 30
0.0
 10
116.0859374709785
 20
20.21375325015489
 30
0.0
 10
115.1612738427375
 20
20.21375325015489
 30
0.0
 10
114.410243026953
 20
20.96443955639084
 30
0.0
 10
114.410243026953
 20
21.89048122282599
 30
0.0
 10
114.410243026953
 20
22.81548936061557
 30
0.0
 10
115.1612738427375
 20
23.56652017640004
 30
0.0
 10
116.0859374709785
 20
23.56652017640004
 30
0.0
 10
116.0859374709785
 20
23.56652017640004
 30
0.0
 10
117.2552028786723
 20
23.56652017640004
 30
0.0
 10
117.2552028786723
 20
23.56652017640004
 30
0.0
 10
117.3158365592127
 20
23.56652017640004
 30
0.0
 10
117.3654459342003
 20
23.51759982050949
 30
0.0
 10
117.3654459342003
 20
23.45627712087204
 30
0.0
 10
117.3654459342003
 20
23.45627712087204
 30
0.0
 10
117.3654459342003
 20
22.39208712547837
 30
0.0
 10
117.3654459342003
 20
22.39208712547837
 30
0.0
 10
117.3654459342003
 20
22.33214246403502
 30
0.0
 10
117.3158365592127
 20
22.28322210814448
 30
0.0
 10
117.2552028786723
 20
22.28322210814448
 30
0.0
 10
117.2552028786723
 20
22.28322210814448
 30
0.0
 10
116.1713758390127
 20
22.2821885794989
 30
0.0
 10
116.1713758390127
 20
22.2821885794989
 30
0.0
 10
115.9564018807331
 20
22.2821885794989
 30
0.0
 10
115.7820800491795
 20
22.10752223839673
 30
0.0
 10
115.7820800491795
 20
21.89289278966567
 30
0.0
 10
115.7820800491795
 20
21.67722981228903
 30
0.0
 10
115.9564018807331
 20
21.50152994254129
 30
0.0
 10
116.1713758390127
 20
21.50152994254129
 30
0.0
 10
116.1713758390127
 20
21.50152994254129
 30
0.0
 10
117.6899739289108
 20
21.50359699983244
 30
0.0
 10
117.6899739289108
 20
21.50359699983244
 30
0.0
 10
117.6899739289108
 20
21.50359699983244
 30
0.0
 10
117.6899739289108
 20
23.75152180395795
 30
0.0
 10
117.6899739289108
 20
23.75152180395795
 30
0.0
 10
117.6899739289108
 20
24.08052842279931
 30
0.0
 10
117.4233235383525
 20
24.34683430380912
 30
0.0
 10
117.0939724099626
 20
24.34683430380912
 30
0.0
 10
117.0939724099626
 20
24.34683430380912
 30
0.0
 10
114.9580132091077
 20
24.34683430380912
 30
0.0
 10
114.9580132091077
 20
24.34683430380912
 30
0.0
 10
114.8980685476644
 20
24.34683430380912
 30
0.0
 10
114.8491481917738
 20
24.39541015015115
 30
0.0
 10
114.8491481917738
 20
24.45638834024007
 30
0.0
 10
114.8491481917738
 20
24.45638834024007
 30
0.0
 10
114.8491481917738
 20
25.52505695976457
 30
0.0
 10
114.8491481917738
 20
25.52505695976457
 30
0.0
 10
114.8491481917738
 20
25.58500162120792
 30
0.0
 10
114.8980685476644
 20
25.63495550574404
 30
0.0
 10
114.9580132091077
 20
25.63495550574404
 30
0.0
 10
114.9580132091077
 20
25.63495550574404
 30
0.0
 10
117.513585040066
 20
25.63495550574404
 30
0.0
 10
117.513585040066
 20
25.63495550574404
 30
0.0
 10
118.4444498401806
 20
25.63495550574404
 30
0.0
 10
119.1961696750621
 20
24.8815131231199
 30
0.0
 10
119.1961696750621
 20
23.95030381345687
 30
0.0
 10
119.1961696750621
 20
23.95030381345687
 30
0.0
 10
119.1961696750621
 20
20.32399630568289
 30
0.0
 10
119.1961696750621
 20
20.32399630568289
 30
0.0
  0
HATCH
  5
6D
330
66
100
AcDbEntity
  8
\U+30EC\U+30A4\U+30E4\U+30FC 1
 62
    29
100
AcDbHatch
 10
0.0
 20
0.0
 30
0.0
210
0.0
220
0.0
230
1.0
  2
SOLID
 70
     1
 71
     0
 91
        1
 92
        1
 93
        1
 72
     4
 94
        3
 73
     0
 74
     1
 95
       68
 96
       64
 40
0.0
 40
0.0
 40
0.0
 40
0.0
 40
1.0
 40
1.0
 40
1.0
 40
2.0
 40
2.0
 40
2.0
 40
3.0
 40
3.0
 40
3.0
 40
4.0
 40
4.0
 40
4.0
 40
5.0
 40
5.0
 40
5.0
 40
6.0
 40
6.0
 40
6.0
 40
7.0
 40
7.0
 40
7.0
 40
8.0
 40
8.0
 40
8.0
 40
9.0
 40
9.0
 40
9.0
 40
10.0
 40
10.0
 40
10.0
 40
11.0
 40
11.0
 40
11.0
 40
12.0
 40
12.0
 40
12.0
 40
13.0
 40
13.0
 40
13.0
 40
14.0
 40
14.0
 40
14.0
 40
15.0
 40
15.0
 40
15.0
 40
16.0
 40
16.0
 40
16.0
 40
17.0
 40
17.0
 40
17.0
 40
18.0
 40
18.0
 40
18.0
 40
19.0
 40
19.0
 40
19.0
 40
20.0
 40
20.0
 40
20.0
 40
21.0
 40
21.0
 40
21.0
 40
21.0
 10
119.1961696750621
 20
20.32399630568289
 10
119.1961696750621
 20
20.26198458694839
 10
119.1472493191715
 20
20.21375325015489
 10
119.0859266195341
 20
20.21375325015489
 10
119.0859266195341
 20
20.21375325015489
 10
116.0859374709785
 20
20.21375325015489
 10
116.0859374709785
 20
20.21375325015489
 10
115.1612738427375
 20
20.21375325015489
 10
114.410243026953
 20
20.96443955639084
 10
114.410243026953
 20
21.89048122282599
 10
114.410243026953
 20
22.81548936061557
 10
115.1612738427375
 20
23.56652017640004
 10
116.0859374709785
 20
23.56652017640004
 10
116.0859374709785
 20
23.56652017640004
 10
117.2552028786723
 20
23.56652017640004
 10
117.2552028786723
 20
23.56652017640004
 10
117.3158365592127
 20
23.56652017640004
 10
117.3654459342003
 20
23.51759982050949
 10
117.3654459342003
 20
23.45627712087204
 10
117.3654459342003
 20
23.45627712087204
 10
117.3654459342003
 20
22.39208712547837
 10
117.3654459342003
 20
22.39208712547837
 10
117.3654459342003
 20
22.33214246403502
 10
117.3158365592127
 20
22.28322210814448
 10
117.2552028786723
 20
22.28322210814448
 10
117.2552028786723
 20
22.28322210814448
 10
116.1713758390127
 20
22.2821885794989
 10
116.1713758390127
 20
22.2821885794989
 10
115.9564018807331
 20
22.2821885794989
 10
115.7820800491795
 20
22.10752223839673
 10
115.7820800491795
 20
21.89289278966567
 10
115.7820800491795
 20
21.67722981228903
 10
115.9564018807331
 20
21.50152994254129
 10
116.1713758390127
 20
21.50152994254129
 10
116.1713758390127
 20
21.50152994254129
 10
117.6899739289108
 20
21.50359699983244
 10
117.6899739289108
 20
21.50359699983244
 10
117.6899739289108
 20
21.50359699983244
 10
117.6899739289108
 20
23.75152180395795
 10
117.6899739289108
 20
23.75152180395795
 10
117.6899739289108
 20
24.08052842279931
 10
117.4233235383525
 20
24.34683430380912
 10
117.0939724099626
 20
24.34683430380912
 10
117.0939724099626
 20
24.34683430380912
 10
114.9580132091077
 20
24.34683430380912
 10
114.9580132091077
 20
24.34683430380912
 10
114.8980685476644
 20
24.34683430380912
 10
114.8491481917738
 20
24.39541015015115
 10
114.8491481917738
 20
24.45638834024007
 10
114.8491481917738
 20
24.45638834024007
 10
114.8491481917738
 20
25.52505695976457
 10
114.8491481917738
 20
25.52505695976457
 10
114.8491481917738
 20
25.58500162120792
 10
114.8980685476644
 20
25.63495550574404
 10
114.9580132091077
 20
25.63495550574404
 10
114.9580132091077
 20
25.63495550574404
 10
117.513585040066
 20
25.63495550574404
 10
117.513585040066
 20
25.63495550574404
 10
118.4444498401806
 20
25.63495550574404
 10
119.1961696750621
 20
24.8815131231199
 10
119.1961696750621
 20
23.95030381345687
 10
119.1961696750621
 20
23.95030381345687
 10
119.1961696750621
 20
20.32399630568289
 10
119.1961696750621
 20
20.32399630568289
 97
        0
 75
     2
 76
     1
 98
        0
  0
SPLINE
  5
6E
330
66
100
AcDbEntity
  8
\U+30EC\U+30A4\U+30E4\U+30FC 1
370
     0
100
AcDbSpline
210
0.0
220
0.0
230
1.0
 70
    11
 71
     3
 72
    65
 73
    61
 74
     0
 42
0.0000000001
 43
0.0000000001
 40
0.0
 40
0.0
 40
0.0
 40
0.0
 40
1.0
 40
1.0
 40
1.0
 40
2.0
 40
2.0
 40
2.0
 40
3.0
 40
3.0
 40
3.0
 40
4.0
 40
4.0
 40
4.0
 40
5.0
 40
5.0
 40
5.0
 40
6.0
 40
6.0
 40
6.0
 40
7.0
 40
7.0
 40
7.0
 40
8.0
 40
8.0
 40
8.0
 40
9.0
 40
9.0
 40
9.0
 40
10.0
 40
10.0
 40
10.0
 40
11.0
 40
11.0
 40
11.0
 40
12.0
 40
12.0
 40
12.0
 40
13.0
 40
13.0
 40
13.0
 40
14.0
 40
14.0
 40
14.0
 40
15.0
 40
15.0
 40
15.0
 40
16.0
 40
16.0
 40
16.0
 40
17.0
 40
17.0
 40
17.0
 40
18.0
 40
18.0
 40
18.0
 40
19.0
 40
19.0
 40
19.0
 40
20.0
 40
20.0
 40
20.0
 40
20.0
 10
119.8328233207362
 20
20.20858560692702
 30
0.0
 10
119.7728786592929
 20
20.20858560692702
 30
0.0
 10
119.7246473224994
 20
20.25578341507494
 30
0.0
 10
119.7246473224994
 20
20.31538356696977
 30
0.0
 10
119.7246473224994
 20
20.31538356696977
 30
0.0
 10
119.7246473224994
 20
21.38577473423689
 30
0.0
 10
119.7246473224994
 20
21.38577473423689
 30
0.0
 10
119.7246473224994
 20
21.44571939568024
 30
0.0
 10
119.7728786592929
 20
21.49705131841046
 30
0.0
 10
119.8328233207362
 20
21.49705131841046
 30
0.0
 10
119.8328233207362
 20
21.49705131841046
 30
0.0
 10
122.3821939798211
 20
21.49705131841046
 30
0.0
 10
122.3821939798211
 20
21.49705131841046
 30
0.0
 10
122.5971679381007
 20
21.49705131841046
 30
0.0
 10
122.7714897696544
 20
21.67447373590083
 30
0.0
 10
122.7714897696544
 20
21.89185926102009
 30
0.0
 10
122.7714897696544
 20
22.10511067155706
 30
0.0
 10
122.5971679381007
 20
22.2821885794989
 30
0.0
 10
122.3821939798211
 20
22.2821885794989
 30
0.0
 10
122.3821939798211
 20
22.2821885794989
 30
0.0
 10
121.2515136415621
 20
22.31319443886615
 30
0.0
 10
121.2515136415621
 20
22.31319443886615
 30
0.0
 10
120.3309841279034
 20
22.31319443886615
 30
0.0
 10
119.5840874267012
 20
23.05492349684044
 30
0.0
 10
119.5840874267012
 20
23.96994085772279
 30
0.0
 10
119.5840874267012
 20
24.88461370905663
 30
0.0
 10
120.3309841279034
 20
25.62772080522501
 30
0.0
 10
121.2515136415621
 20
25.62772080522501
 30
0.0
 10
121.2515136415621
 20
25.62772080522501
 30
0.0
 10
123.8187987971703
 20
25.62772080522501
 30
0.0
 10
123.8187987971703
 20
25.62772080522501
 30
0.0
 10
123.8794324777107
 20
25.62772080522501
 30
0.0
 10
123.9276638145042
 20
25.57983397798004
 30
0.0
 10
123.9276638145042
 20
25.52057833563375
 30
0.0
 10
123.9276638145042
 20
25.52057833563375
 30
0.0
 10
123.9276638145042
 20
24.46224500256499
 30
0.0
 10
123.9276638145042
 20
24.46224500256499
 30
0.0
 10
123.9276638145042
 20
24.40092230292755
 30
0.0
 10
123.8794324777107
 20
24.34959038019733
 30
0.0
 10
123.8187987971703
 20
24.34959038019733
 30
0.0
 10
123.8187987971703
 20
24.34959038019733
 30
0.0
 10
121.4099880338836
 20
24.34959038019733
 30
0.0
 10
121.4099880338836
 20
24.34959038019733
 30
0.0
 10
121.1957030947011
 20
24.34959038019733
 30
0.0
 10
121.0200032249533
 20
24.17182345315844
 30
0.0
 10
121.0200032249533
 20
23.95753851397589
 30
0.0
 10
121.0200032249533
 20
23.74153102705073
 30
0.0
 10
121.1957030947011
 20
23.56755370504561
 30
0.0
 10
121.4099880338836
 20
23.56755370504561
 30
0.0
 10
121.4099880338836
 20
23.56755370504561
 30
0.0
 10
122.5544487540836
 20
23.53275824064459
 30
0.0
 10
122.5544487540836
 20
23.53275824064459
 30
0.0
 10
123.4756672868394
 20
23.53275824064459
 30
0.0
 10
124.2239420262357
 20
22.78999565402473
 30
0.0
 10
124.2239420262357
 20
21.87463378359384
 30
0.0
 10
124.2239420262357
 20
20.95754936542033
 30
0.0
 10
123.4756672868394
 20
20.20858560692702
 30
0.0
 10
122.5544487540836
 20
20.20858560692702
 30
0.0
 10
122.5544487540836
 20
20.20858560692702
 30
0.0
 10
119.8328233207362
 20
20.20858560692702
 30
0.0
 10
119.8328233207362
 20
20.20858560692702
 30
0.0
  0
HATCH
  5
6F
330
66
100
AcDbEntity
  8
\U+30EC\U+30A4\U+30E4\U+30FC 1
 62
    29
100
AcDbHatch
 10
0.0
 20
0.0
 30
0.0
210
0.0
220
0.0
230
1.0
  2
SOLID
 70
     1
 71
     0
 91
        1
 92
        1
 93
        1
 72
     4
 94
        3
 73
     0
 74
     1
 95
       65
 96
       61
 40
0.0
 40
0.0
 40
0.0
 40
0.0
 40
1.0
 40
1.0
 40
1.0
 40
2.0
 40
2.0
 40
2.0
 40
3.0
 40
3.0
 40
3.0
 40
4.0
 40
4.0
 40
4.0
 40
5.0
 40
5.0
 40
5.0
 40
6.0
 40
6.0
 40
6.0
 40
7.0
 40
7.0
 40
7.0
 40
8.0
 40
8.0
 40
8.0
 40
9.0
 40
9.0
 40
9.0
 40
10.0
 40
10.0
 40
10.0
 40
11.0
 40
11.0
 40
11.0
 40
12.0
 40
12.0
 40
12.0
 40
13.0
 40
13.0
 40
13.0
 40
14.0
 40
14.0
 40
14.0
 40
15.0
 40
15.0
 40
15.0
 40
16.0
 40
16.0
 40
16.0
 40
17.0
 40
17.0
 40
17.0
 40
18.0
 40
18.0
 40
18.0
 40
19.0
 40
19.0
 40
19.0
 40
20.0
 40
20.0
 40
20.0
 40
20.0
 10
119.8328233207362
 20
20.20858560692702
 10
119.7728786592929
 20
20.20858560692702
 10
119.7246473224994
 20
20.25578341507494
 10
119.7246473224994
 20
20.31538356696977
 10
119.7246473224994
 20
20.31538356696977
 10
119.7246473224994
 20
21.38577473423689
 10
119.7246473224994
 20
21.38577473423689
 10
119.7246473224994
 20
21.44571939568024
 10
119.7728786592929
 20
21.49705131841046
 10
119.8328233207362
 20
21.49705131841046
 10
119.8328233207362
 20
21.49705131841046
 10
122.3821939798211
 20
21.49705131841046
 10
122.3821939798211
 20
21.49705131841046
 10
122.5971679381007
 20
21.49705131841046
 10
122.7714897696544
 20
21.67447373590083
 10
122.7714897696544
 20
21.89185926102009
 10
122.7714897696544
 20
22.10511067155706
 10
122.5971679381007
 20
22.2821885794989
 10
122.3821939798211
 20
22.2821885794989
 10
122.3821939798211
 20
22.2821885794989
 10
121.2515136415621
 20
22.31319443886615
 10
121.2515136415621
 20
22.31319443886615
 10
120.3309841279034
 20
22.31319443886615
 10
119.5840874267012
 20
23.05492349684044
 10
119.5840874267012
 20
23.96994085772279
 10
119.5840874267012
 20
24.88461370905663
 10
120.3309841279034
 20
25.62772080522501
 10
121.2515136415621
 20
25.62772080522501
 10
121.2515136415621
 20
25.62772080522501
 10
123.8187987971703
 20
25.62772080522501
 10
123.8187987971703
 20
25.62772080522501
 10
123.8794324777107
 20
25.62772080522501
 10
123.9276638145042
 20
25.57983397798004
 10
123.9276638145042
 20
25.52057833563375
 10
123.9276638145042
 20
25.52057833563375
 10
123.9276638145042
 20
24.46224500256499
 10
123.9276638145042
 20
24.46224500256499
 10
123.9276638145042
 20
24.40092230292755
 10
123.8794324777107
 20
24.34959038019733
 10
123.8187987971703
 20
24.34959038019733
 10
123.8187987971703
 20
24.34959038019733
 10
121.4099880338836
 20
24.34959038019733
 10
121.4099880338836
 20
24.34959038019733
 10
121.1957030947011
 20
24.34959038019733
 10
121.0200032249533
 20
24.17182345315844
 10
121.0200032249533
 20
23.95753851397589
 10
121.0200032249533
 20
23.74153102705073
 10
121.1957030947011
 20
23.56755370504561
 10
121.4099880338836
 20
23.56755370504561
 10
121.4099880338836
 20
23.56755370504561
 10
122.5544487540836
 20
23.53275824064459
 10
122.5544487540836
 20
23.53275824064459
 10
123.4756672868394
 20
23.53275824064459
 10
124.2239420262357
 20
22.78999565402473
 10
124.2239420262357
 20
21.87463378359384
 10
124.2239420262357
 20
20.95754936542033
 10
123.4756672868394
 20
20.20858560692702
 10
122.5544487540836
 20
20.20858560692702
 10
122.5544487540836
 20
20.20858560692702
 10
119.8328233207362
 20
20.20858560692702
 10
119.8328233207362
 20
20.20858560692702
 97
        0
 75
     2
 76
     1
 98
        0
  0
SPLINE
  5
70
330
66
100
AcDbEntity
  8
\U+30EC\U+30A4\U+30E4\U+30FC 1
370
     0
100
AcDbSpline
210
0.0
220
0.0
230
1.0
 70
    11
 71
     3
 72
    65
 73
    61
 74
     0
 42
0.0000000001
 43
0.0000000001
 40
0.0
 40
0.0
 40
0.0
 40
0.0
 40
1.0
 40
1.0
 40
1.0
 40
2.0
 40
2.0
 40
2.0
 40
3.0
 40
3.0
 40
3.0
 40
4.0
 40
4.0
 40
4.0
 40
5.0
 40
5.0
 40
5.0
 40
6.0
 40
6.0
 40
6.0
 40
7.0
 40
7.0
 40
7.0
 40
8.0
 40
8.0
 40
8.0
 40
9.0
 40
9.0
 40
9.0
 40
10.0
 40
10.0
 40
10.0
 40
11.0
 40
11.0
 40
11.0
 40
12.0
 40
12.0
 40
12.0
 40
13.0
 40
13.0
 40
13.0
 40
14.0
 40
14.0
 40
14.0
 40
15.0
 40
15.0
 40
15.0
 40
16.0
 40
16.0
 40
16.0
 40
17.0
 40
17.0
 40
17.0
 40
18.0
 40
18.0
 40
18.0
 40
19.0
 40
19.0
 40
19.0
 40
20.0
 40
20.0
 40
20.0
 40
20.0
 10
128.97128360491
 20
25.63323295800141
 30
0.0
 10
128.97128360491
 20
25.63323295800141
 30
0.0
 10
127.7668782232666
 20
25.63323295800141
 30
0.0
 10
127.7668782232666
 20
25.63323295800141
 30
0.0
 10
127.7062445427262
 20
25.63323295800141
 30
0.0
 10
127.5801540479661
 20
25.58396809256234
 30
0.0
 10
127.5801540479661
 20
25.52436794066752
 30
0.0
 10
127.5801540479661
 20
25.52436794066752
 30
0.0
 10
127.5801540479661
 20
23.57306585782201
 30
0.0
 10
127.5801540479661
 20
23.57306585782201
 30
0.0
 10
127.5801540479661
 20
23.57306585782201
 30
0.0
 10
126.0705132063296
 20
23.57306585782201
 30
0.0
 10
126.0705132063296
 20
23.57306585782201
 30
0.0
 10
126.0705132063296
 20
23.57306585782201
 30
0.0
 10
126.0705132063296
 20
25.52436794066752
 30
0.0
 10
126.0705132063296
 20
25.52436794066752
 30
0.0
 10
126.0705132063296
 20
25.58396809256234
 30
0.0
 10
126.020903831342
 20
25.63323295800141
 30
0.0
 10
125.9616481889957
 20
25.63323295800141
 30
0.0
 10
125.9616481889957
 20
25.63323295800141
 30
0.0
 10
124.6786946302887
 20
25.63323295800141
 30
0.0
 10
124.6786946302887
 20
25.63323295800141
 30
0.0
 10
124.6187499688453
 20
25.63323295800141
 30
0.0
 10
124.5698296129548
 20
25.58396809256234
 30
0.0
 10
124.5698296129548
 20
25.52436794066752
 30
0.0
 10
124.5698296129548
 20
25.52436794066752
 30
0.0
 10
124.5698296129548
 20
20.32399630568289
 30
0.0
 10
124.5698296129548
 20
20.32399630568289
 30
0.0
 10
124.5698296129548
 20
20.26198458694839
 30
0.0
 10
124.6187499688453
 20
20.21409775970342
 30
0.0
 10
124.6786946302887
 20
20.21409775970342
 30
0.0
 10
124.6786946302887
 20
20.21409775970342
 30
0.0
 10
125.9616481889957
 20
20.21409775970342
 30
0.0
 10
125.9616481889957
 20
20.21409775970342
 30
0.0
 10
126.020903831342
 20
20.21409775970342
 30
0.0
 10
126.0705132063296
 20
20.26198458694839
 30
0.0
 10
126.0705132063296
 20
20.32399630568289
 30
0.0
 10
126.0705132063296
 20
20.32399630568289
 30
0.0
 10
126.0705132063296
 20
22.2863226940812
 30
0.0
 10
126.0705132063296
 20
22.2863226940812
 30
0.0
 10
126.0705132063296
 20
22.2863226940812
 30
0.0
 10
127.5801540479661
 20
22.2863226940812
 30
0.0
 10
127.5801540479661
 20
22.2863226940812
 30
0.0
 10
127.5801540479661
 20
22.2863226940812
 30
0.0
 10
127.5801540479661
 20
20.32399630568289
 30
0.0
 10
127.5801540479661
 20
20.32399630568289
 30
0.0
 10
127.5801540479661
 20
20.26198458694839
 30
0.0
 10
127.6290744038566
 20
20.21409775970342
 30
0.0
 10
127.6890190653
 20
20.21409775970342
 30
0.0
 10
127.6890190653
 20
20.21409775970342
 30
0.0
 10
128.97128360491
 20
20.21409775970342
 30
0.0
 10
128.97128360491
 20
20.21409775970342
 30
0.0
 10
129.0312282663533
 20
20.21409775970342
 30
0.0
 10
129.0801486222439
 20
20.26198458694839
 30
0.0
 10
129.0801486222439
 20
20.32399630568289
 30
0.0
 10
129.0801486222439
 20
20.32399630568289
 30
0.0
 10
129.0801486222439
 20
25.52436794066752
 30
0.0
 10
129.0801486222439
 20
25.52436794066752
 30
0.0
 10
129.0801486222439
 20
25.58396809256234
 30
0.0
 10
129.0312282663533
 20
25.63323295800141
 30
0.0
 10
128.97128360491
 20
25.63323295800141
 30
0.0
  0
HATCH
  5
71
330
66
100
AcDbEntity
  8
\U+30EC\U+30A4\U+30E4\U+30FC 1
 62
    29
100
AcDbHatch
 10
0.0
 20
0.0
 30
0.0
210
0.0
220
0.0
230
1.0
  2
SOLID
 70
     1
 71
     0
 91
        1
 92
        1
 93
        2
 72
     4
 94
        3
 73
     0
 74
     0
 95
       65
 96
       61
 40
0.0
 40
0.0
 40
0.0
 40
0.0
 40
0.3527777776895833
 40
0.3527777776895833
 40
0.3527777776895833
 40
0.7055555553791667
 40
0.7055555553791667
 40
0.7055555553791667
 40
1.05833333306875
 40
1.05833333306875
 40
1.05833333306875
 40
1.411111110758333
 40
1.411111110758333
 40
1.411111110758333
 40
1.763888888447917
 40
1.763888888447917
 40
1.763888888447917
 40
2.1166666661375
 40
2.1166666661375
 40
2.1166666661375
 40
2.469444443827083
 40
2.469444443827083
 40
2.469444443827083
 40
2.822222221516667
 40
2.822222221516667
 40
2.822222221516667
 40
3.17499999920625
 40
3.17499999920625
 40
3.17499999920625
 40
3.527777776895833
 40
3.527777776895833
 40
3.527777776895833
 40
3.880555554585417
 40
3.880555554585417
 40
3.880555554585417
 40
4.233333332275
 40
4.233333332275
 40
4.233333332275
 40
4.586111109964584
 40
4.586111109964584
 40
4.586111109964584
 40
4.938888887654167
 40
4.938888887654167
 40
4.938888887654167
 40
5.29166666534375
 40
5.29166666534375
 40
5.29166666534375
 40
5.644444443033334
 40
5.644444443033334
 40
5.644444443033334
 40
5.997222220722917
 40
5.997222220722917
 40
5.997222220722917
 40
6.349999998412501
 40
6.349999998412501
 40
6.349999998412501
 40
6.702777776102083
 40
6.702777776102083
 40
6.702777776102083
 40
7.055555553791667
 40
7.055555553791667
 40
7.055555553791667
 40
7.055555553791667
 10
128.97128360491
 20
25.63323295800141
 10
128.97128360491
 20
25.63323295800141
 10
127.7668782232666
 20
25.63323295800141
 10
127.7668782232666
 20
25.63323295800141
 10
127.7062445427262
 20
25.63323295800141
 10
127.5801540479661
 20
25.58396809256234
 10
127.5801540479661
 20
25.52436794066752
 10
127.5801540479661
 20
25.52436794066752
 10
127.5801540479661
 20
23.57306585782201
 10
127.5801540479661
 20
23.57306585782201
 10
127.5801540479661
 20
23.57306585782201
 10
126.0705132063296
 20
23.57306585782201
 10
126.0705132063296
 20
23.57306585782201
 10
126.0705132063296
 20
23.57306585782201
 10
126.0705132063296
 20
25.52436794066752
 10
126.0705132063296
 20
25.52436794066752
 10
126.0705132063296
 20
25.58396809256234
 10
126.020903831342
 20
25.63323295800141
 10
125.9616481889957
 20
25.63323295800141
 10
125.9616481889957
 20
25.63323295800141
 10
124.6786946302887
 20
25.63323295800141
 10
124.6786946302887
 20
25.63323295800141
 10
124.6187499688453
 20
25.63323295800141
 10
124.5698296129548
 20
25.58396809256234
 10
124.5698296129548
 20
25.52436794066752
 10
124.5698296129548
 20
25.52436794066752
 10
124.5698296129548
 20
20.32399630568289
 10
124.5698296129548
 20
20.32399630568289
 10
124.5698296129548
 20
20.26198458694839
 10
124.6187499688453
 20
20.21409775970342
 10
124.6786946302887
 20
20.21409775970342
 10
124.6786946302887
 20
20.21409775970342
 10
125.9616481889957
 20
20.21409775970342
 10
125.9616481889957
 20
20.21409775970342
 10
126.020903831342
 20
20.21409775970342
 10
126.0705132063296
 20
20.26198458694839
 10
126.0705132063296
 20
20.32399630568289
 10
126.0705132063296
 20
20.32399630568289
 10
126.0705132063296
 20
22.2863226940812
 10
126.0705132063296
 20
22.2863226940812
 10
126.0705132063296
 20
22.2863226940812
 10
127.5801540479661
 20
22.2863226940812
 10
127.5801540479661
 20
22.2863226940812
 10
127.5801540479661
 20
22.2863226940812
 10
127.5801540479661
 20
20.32399630568289
 10
127.5801540479661
 20
20.32399630568289
 10
127.5801540479661
 20
20.26198458694839
 10
127.6290744038566
 20
20.21409775970342
 10
127.6890190653
 20
20.21409775970342
 10
127.6890190653
 20
20.21409775970342
 10
128.97128360491
 20
20.21409775970342
 10
128.97128360491
 20
20.21409775970342
 10
129.0312282663533
 20
20.21409775970342
 10
129.0801486222439
 20
20.26198458694839
 10
129.0801486222439
 20
20.32399630568289
 10
129.0801486222439
 20
20.32399630568289
 10
129.0801486222439
 20
25.52436794066752
 10
129.0801486222439
 20
25.52436794066752
 10
129.0801486222439
 20
25.58396809256234
 10
129.0312282663533
 20
25.63323295800141
 10
128.97128360491
 20
25.63323295800141
 72
     1
 10
128.97128360491
 20
25.63323295800141
 11
128.97128360491
 21
25.63323295800141
 97
        0
 75
     2
 76
     1
 98
        0
  0
SPLINE
  5
72
330
66
100
AcDbEntity
  8
\U+30EC\U+30A4\U+30E4\U+30FC 1
370
     0
100
AcDbSpline
210
0.0
220
0.0
230
1.0
 70
    11
 71
     3
 72
    29
 73
    25
 74
     0
 42
0.0000000001
 43
0.0000000001
 40
0.0
 40
0.0
 40
0.0
 40
0.0
 40
1.0
 40
1.0
 40
1.0
 40
2.0
 40
2.0
 40
2.0
 40
3.0
 40
3.0
 40
3.0
 40
4.0
 40
4.0
 40
4.0
 40
5.0
 40
5.0
 40
5.0
 40
6.0
 40
6.0
 40
6.0
 40
7.0
 40
7.0
 40
7.0
 40
8.0
 40
8.0
 40
8.0
 40
8.0
 10
133.0633680222897
 20
25.63392197709846
 30
0.0
 10
133.0633680222897
 20
25.63392197709846
 30
0.0
 10
131.0514322589038
 20
25.63392197709846
 30
0.0
 10
131.0514322589038
 20
25.63392197709846
 30
0.0
 10
130.2025607313383
 20
25.63392197709846
 30
0.0
 10
129.5121635960942
 20
24.9449028800485
 30
0.0
 10
129.5121635960942
 20
24.09499782383736
 30
0.0
 10
129.5121635960942
 20
24.09499782383736
 30
0.0
 10
129.5121635960942
 20
21.75784504664387
 30
0.0
 10
129.5121635960942
 20
21.75784504664387
 30
0.0
 10
129.5121635960942
 20
20.90828449998126
 30
0.0
 10
130.2025607313383
 20
20.21960991247982
 30
0.0
 10
131.0514322589038
 20
20.21960991247982
 30
0.0
 10
131.0514322589038
 20
20.21960991247982
 30
0.0
 10
133.0633680222897
 20
20.21960991247982
 30
0.0
 10
133.0633680222897
 20
20.21960991247982
 30
0.0
 10
133.9129285689523
 20
20.21960991247982
 30
0.0
 10
134.6012586469053
 20
20.90828449998126
 30
0.0
 10
134.6012586469053
 20
21.75784504664387
 30
0.0
 10
134.6012586469053
 20
21.75784504664387
 30
0.0
 10
134.6012586469053
 20
24.09499782383736
 30
0.0
 10
134.6012586469053
 20
24.09499782383736
 30
0.0
 10
134.6012586469053
 20
24.9449028800485
 30
0.0
 10
133.9129285689523
 20
25.63392197709846
 30
0.0
 10
133.0633680222897
 20
25.63392197709846
 30
0.0
  0
SPLINE
  5
73
330
66
100
AcDbEntity
  8
\U+30EC\U+30A4\U+30E4\U+30FC 1
370
     0
100
AcDbSpline
210
0.0
220
0.0
230
1.0
 70
    11
 71
     3
 72
    29
 73
    25
 74
     0
 42
0.0000000001
 43
0.0000000001
 40
0.0
 40
0.0
 40
0.0
 40
0.0
 40
1.0
 40
1.0
 40
1.0
 40
2.0
 40
2.0
 40
2.0
 40
3.0
 40
3.0
 40
3.0
 40
4.0
 40
4.0
 40
4.0
 40
5.0
 40
5.0
 40
5.0
 40
6.0
 40
6.0
 40
6.0
 40
7.0
 40
7.0
 40
7.0
 40
8.0
 40
8.0
 40
8.0
 40
8.0
 10
133.0985079962393
 20
22.06066893979733
 30
0.0
 10
133.0985079962393
 20
21.75784504664387
 30
0.0
 10
132.8525281785924
 20
21.51220973854556
 30
0.0
 10
132.5500487949875
 20
21.51220973854556
 30
0.0
 10
132.5500487949875
 20
21.51220973854556
 30
0.0
 10
131.564751486206
 20
21.51220973854556
 30
0.0
 10
131.564751486206
 20
21.51220973854556
 30
0.0
 10
131.260894064407
 20
21.51220973854556
 30
0.0
 10
131.0156032658572
 20
21.75784504664387
 30
0.0
 10
131.0156032658572
 20
22.06066893979733
 30
0.0
 10
131.0156032658572
 20
22.06066893979733
 30
0.0
 10
131.0156032658572
 20
23.79251844023243
 30
0.0
 10
131.0156032658572
 20
23.79251844023243
 30
0.0
 10
131.0156032658572
 20
24.09499782383736
 30
0.0
 10
131.260894064407
 20
24.34028862238715
 30
0.0
 10
131.564751486206
 20
24.34028862238715
 30
0.0
 10
131.564751486206
 20
24.34028862238715
 30
0.0
 10
132.5500487949875
 20
24.34028862238715
 30
0.0
 10
132.5500487949875
 20
24.34028862238715
 30
0.0
 10
132.8525281785924
 20
24.34028862238715
 30
0.0
 10
133.0985079962393
 20
24.09499782383736
 30
0.0
 10
133.0985079962393
 20
23.79251844023243
 30
0.0
 10
133.0985079962393
 20
23.79251844023243
 30
0.0
 10
133.0985079962393
 20
22.06066893979733
 30
0.0
 10
133.0985079962393
 20
22.06066893979733
 30
0.0
  0
HATCH
  5
74
330
66
100
AcDbEntity
  8
\U+30EC\U+30A4\U+30E4\U+30FC 1
 62
    29
100
AcDbHatch
 10
0.0
 20
0.0
 30
0.0
210
0.0
220
0.0
230
1.0
  2
SOLID
 70
     1
 71
     0
 91
        2
 92
        1
 93
        1
 72
     4
 94
        3
 73
     0
 74
     1
 95
       29
 96
       25
 40
0.0
 40
0.0
 40
0.0
 40
0.0
 40
1.0
 40
1.0
 40
1.0
 40
2.0
 40
2.0
 40
2.0
 40
3.0
 40
3.0
 40
3.0
 40
4.0
 40
4.0
 40
4.0
 40
5.0
 40
5.0
 40
5.0
 40
6.0
 40
6.0
 40
6.0
 40
7.0
 40
7.0
 40
7.0
 40
8.0
 40
8.0
 40
8.0
 40
8.0
 10
133.0985079962393
 20
22.06066893979733
 10
133.0985079962393
 20
21.75784504664387
 10
132.8525281785924
 20
21.51220973854556
 10
132.5500487949875
 20
21.51220973854556
 10
132.5500487949875
 20
21.51220973854556
 10
131.564751486206
 20
21.51220973854556
 10
131.564751486206
 20
21.51220973854556
 10
131.260894064407
 20
21.51220973854556
 10
131.0156032658572
 20
21.75784504664387
 10
131.0156032658572
 20
22.06066893979733
 10
131.0156032658572
 20
22.06066893979733
 10
131.0156032658572
 20
23.79251844023243
 10
131.0156032658572
 20
23.79251844023243
 10
131.0156032658572
 20
24.09499782383736
 10
131.260894064407
 20
24.34028862238715
 10
131.564751486206
 20
24.34028862238715
 10
131.564751486206
 20
24.34028862238715
 10
132.5500487949875
 20
24.34028862238715
 10
132.5500487949875
 20
24.34028862238715
 10
132.8525281785924
 20
24.34028862238715
 10
133.0985079962393
 20
24.09499782383736
 10
133.0985079962393
 20
23.79251844023243
 10
133.0985079962393
 20
23.79251844023243
 10
133.0985079962393
 20
22.06066893979733
 10
133.0985079962393
 20
22.06066893979733
 97
        0
 92
        1
 93
        2
 72
     4
 94
        3
 73
     0
 74
     0
 95
       29
 96
       25
 40
0.0
 40
0.0
 40
0.0
 40
0.0
 40
0.3527777776895833
 40
0.3527777776895833
 40
0.3527777776895833
 40
0.7055555553791667
 40
0.7055555553791667
 40
0.7055555553791667
 40
1.05833333306875
 40
1.05833333306875
 40
1.05833333306875
 40
1.411111110758333
 40
1.411111110758333
 40
1.411111110758333
 40
1.763888888447917
 40
1.763888888447917
 40
1.763888888447917
 40
2.1166666661375
 40
2.1166666661375
 40
2.1166666661375
 40
2.469444443827083
 40
2.469444443827083
 40
2.469444443827083
 40
2.822222221516667
 40
2.822222221516667
 40
2.822222221516667
 40
2.822222221516667
 10
133.0633680222897
 20
25.63392197709846
 10
133.0633680222897
 20
25.63392197709846
 10
131.0514322589038
 20
25.63392197709846
 10
131.0514322589038
 20
25.63392197709846
 10
130.2025607313383
 20
25.63392197709846
 10
129.5121635960942
 20
24.9449028800485
 10
129.5121635960942
 20
24.09499782383736
 10
129.5121635960942
 20
24.09499782383736
 10
129.5121635960942
 20
21.75784504664387
 10
129.5121635960942
 20
21.75784504664387
 10
129.5121635960942
 20
20.90828449998126
 10
130.2025607313383
 20
20.21960991247982
 10
131.0514322589038
 20
20.21960991247982
 10
131.0514322589038
 20
20.21960991247982
 10
133.0633680222897
 20
20.21960991247982
 10
133.0633680222897
 20
20.21960991247982
 10
133.9129285689523
 20
20.21960991247982
 10
134.6012586469053
 20
20.90828449998126
 10
134.6012586469053
 20
21.75784504664387
 10
134.6012586469053
 20
21.75784504664387
 10
134.6012586469053
 20
24.09499782383736
 10
134.6012586469053
 20
24.09499782383736
 10
134.6012586469053
 20
24.9449028800485
 10
133.9129285689523
 20
25.63392197709846
 10
133.0633680222897
 20
25.63392197709846
 72
     1
 10
133.0633680222897
 20
25.63392197709846
 11
133.0633680222897
 21
25.63392197709846
 97
        0
 75
     2
 76
     1
 98
        0
  0
SPLINE
  5
75
330
66
100
AcDbEntity
  8
\U+30EC\U+30A4\U+30E4\U+30FC 1
370
     0
100
AcDbSpline
210
0.0
220
0.0
230
1.0
 70
    11
 71
     3
 72
    47
 73
    43
 74
     0
 42
0.0000000001
 43
0.0000000001
 40
0.0
 40
0.0
 40
0.0
 40
0.0
 40
1.0
 40
1.0
 40
1.0
 40
2.0
 40
2.0
 40
2.0
 40
3.0
 40
3.0
 40
3.0
 40
4.0
 40
4.0
 40
4.0
 40
5.0
 40
5.0
 40
5.0
 40
6.0
 40
6.0
 40
6.0
 40
7.0
 40
7.0
 40
7.0
 40
8.0
 40
8.0
 40
8.0
 40
9.0
 40
9.0
 40
9.0
 40
10.0
 40
10.0
 40
10.0
 40
11.0
 40
11.0
 40
11.0
 40
12.0
 40
12.0
 40
12.0
 40
13.0
 40
13.0
 40
13.0
 40
14.0
 40
14.0
 40
14.0
 40
14.0
 10
105.791992161052
 20
27.72061631251429
 30
0.0
 10
105.791992161052
 20
27.72061631251429
 30
0.0
 10
99.92775062605973
 20
27.72061631251429
 30
0.0
 10
99.92775062605973
 20
27.72061631251429
 30
0.0
 10
99.8741793912641
 20
27.72061631251429
 30
0.0
 10
99.8300821690529
 20
27.67651909030309
 30
0.0
 10
99.8300821690529
 20
27.62208658163615
 30
0.0
 10
99.8300821690529
 20
27.62208658163615
 30
0.0
 10
99.8300821690529
 20
26.32673067918221
 30
0.0
 10
99.8300821690529
 20
26.32673067918221
 30
0.0
 10
99.8300821690529
 20
26.27195366096673
 30
0.0
 10
99.8741793912641
 20
26.22785643875554
 30
0.0
 10
99.92775062605973
 20
26.22785643875554
 30
0.0
 10
99.92775062605973
 20
26.22785643875554
 30
0.0
 10
101.9922240955957
 20
26.22785643875554
 30
0.0
 10
101.9922240955957
 20
26.22785643875554
 30
0.0
 10
101.9922240955957
 20
26.22785643875554
 30
0.0
 10
101.9922240955957
 20
20.32399630568289
 30
0.0
 10
101.9922240955957
 20
20.32399630568289
 30
0.0
 10
101.9922240955957
 20
20.26198458694839
 30
0.0
 10
102.0402831776149
 20
20.21409775970342
 30
0.0
 10
102.1009168581553
 20
20.21409775970342
 30
0.0
 10
102.1009168581553
 20
20.21409775970342
 30
0.0
 10
103.6181369098594
 20
20.21409775970342
 30
0.0
 10
103.6181369098594
 20
20.21409775970342
 30
0.0
 10
103.6796318642711
 20
20.21409775970342
 30
0.0
 10
103.7264851628705
 20
20.26198458694839
 30
0.0
 10
103.7264851628705
 20
20.32399630568289
 30
0.0
 10
103.7264851628705
 20
20.32399630568289
 30
0.0
 10
103.7264851628705
 20
26.22785643875554
 30
0.0
 10
103.7264851628705
 20
26.22785643875554
 30
0.0
 10
103.7264851628705
 20
26.22785643875554
 30
0.0
 10
105.791992161052
 20
26.22785643875554
 30
0.0
 10
105.791992161052
 20
26.22785643875554
 30
0.0
 10
105.846424669719
 20
26.22785643875554
 30
0.0
 10
105.8891438537361
 20
26.27195366096673
 30
0.0
 10
105.8891438537361
 20
26.32673067918221
 30
0.0
 10
105.8891438537361
 20
26.32673067918221
 30
0.0
 10
105.8891438537361
 20
27.62208658163615
 30
0.0
 10
105.8891438537361
 20
27.62208658163615
 30
0.0
 10
105.8891438537361
 20
27.67651909030309
 30
0.0
 10
105.846424669719
 20
27.72061631251429
 30
0.0
 10
105.791992161052
 20
27.72061631251429
 30
0.0
  0
HATCH
  5
76
330
66
100
AcDbEntity
  8
\U+30EC\U+30A4\U+30E4\U+30FC 1
 62
    29
100
AcDbHatch
 10
0.0
 20
0.0
 30
0.0
210
0.0
220
0.0
230
1.0
  2
SOLID
 70
     1
 71
     0
 91
        1
 92
        1
 93
        2
 72
     4
 94
        3
 73
     0
 74
     0
 95
       47
 96
       43
 40
0.0
 40
0.0
 40
0.0
 40
0.0
 40
0.3527777776895833
 40
0.3527777776895833
 40
0.3527777776895833
 40
0.7055555553791667
 40
0.7055555553791667
 40
0.7055555553791667
 40
1.05833333306875
 40
1.05833333306875
 40
1.05833333306875
 40
1.411111110758333
 40
1.411111110758333
 40
1.411111110758333
 40
1.763888888447917
 40
1.763888888447917
 40
1.763888888447917
 40
2.1166666661375
 40
2.1166666661375
 40
2.1166666661375
 40
2.469444443827083
 40
2.469444443827083
 40
2.469444443827083
 40
2.822222221516667
 40
2.822222221516667
 40
2.822222221516667
 40
3.17499999920625
 40
3.17499999920625
 40
3.17499999920625
 40
3.527777776895833
 40
3.527777776895833
 40
3.527777776895833
 40
3.880555554585417
 40
3.880555554585417
 40
3.880555554585417
 40
4.233333332275
 40
4.233333332275
 40
4.233333332275
 40
4.586111109964584
 40
4.586111109964584
 40
4.586111109964584
 40
4.938888887654167
 40
4.938888887654167
 40
4.938888887654167
 40
4.938888887654167
 10
105.791992161052
 20
27.72061631251429
 10
105.791992161052
 20
27.72061631251429
 10
99.92775062605973
 20
27.72061631251429
 10
99.92775062605973
 20
27.72061631251429
 10
99.8741793912641
 20
27.72061631251429
 10
99.8300821690529
 20
27.67651909030309
 10
99.8300821690529
 20
27.62208658163615
 10
99.8300821690529
 20
27.62208658163615
 10
99.8300821690529
 20
26.32673067918221
 10
99.8300821690529
 20
26.32673067918221
 10
99.8300821690529
 20
26.27195366096673
 10
99.8741793912641
 20
26.22785643875554
 10
99.92775062605973
 20
26.22785643875554
 10
99.92775062605973
 20
26.22785643875554
 10
101.9922240955957
 20
26.22785643875554
 10
101.9922240955957
 20
26.22785643875554
 10
101.9922240955957
 20
26.22785643875554
 10
101.9922240955957
 20
20.32399630568289
 10
101.9922240955957
 20
20.32399630568289
 10
101.9922240955957
 20
20.26198458694839
 10
102.0402831776149
 20
20.21409775970342
 10
102.1009168581553
 20
20.21409775970342
 10
102.1009168581553
 20
20.21409775970342
 10
103.6181369098594
 20
20.21409775970342
 10
103.6181369098594
 20
20.21409775970342
 10
103.6796318642711
 20
20.21409775970342
 10
103.7264851628705
 20
20.26198458694839
 10
103.7264851628705
 20
20.32399630568289
 10
103.7264851628705
 20
20.32399630568289
 10
103.7264851628705
 20
26.22785643875554
 10
103.7264851628705
 20
26.22785643875554
 10
103.7264851628705
 20
26.22785643875554
 10
105.791992161052
 20
26.22785643875554
 10
105.791992161052
 20
26.22785643875554
 10
105.846424669719
 20
26.22785643875554
 10
105.8891438537361
 20
26.27195366096673
 10
105.8891438537361
 20
26.32673067918221
 10
105.8891438537361
 20
26.32673067918221
 10
105.8891438537361
 20
27.62208658163615
 10
105.8891438537361
 20
27.62208658163615
 10
105.8891438537361
 20
27.67651909030309
 10
105.846424669719
 20
27.72061631251429
 10
105.791992161052
 20
27.72061631251429
 72
     1
 10
105.791992161052
 20
27.72061631251429
 11
105.791992161052
 21
27.72061631251429
 97
        0
 75
     2
 76
     1
 98
        0
  0
SPLINE
  5
77
330
66
100
AcDbEntity
  8
\U+30EC\U+30A4\U+30E4\U+30FC 1
370
     0
100
AcDbSpline
210
0.0
220
0.0
230
1.0
 70
    11
 71
     3
 72
    29
 73
    25
 74
     0
 42
0.0000000001
 43
0.0000000001
 40
0.0
 40
0.0
 40
0.0
 40
0.0
 40
1.0
 40
1.0
 40
1.0
 40
2.0
 40
2.0
 40
2.0
 40
3.0
 40
3.0
 40
3.0
 40
4.0
 40
4.0
 40
4.0
 40
5.0
 40
5.0
 40
5.0
 40
6.0
 40
6.0
 40
6.0
 40
7.0
 40
7.0
 40
7.0
 40
8.0
 40
8.0
 40
8.0
 40
8.0
 10
110.949300102471
 20
20.21409775970342
 30
0.0
 10
111.0092447639144
 20
20.21409775970342
 30
0.0
 10
111.059543157999
 20
20.26198458694839
 30
0.0
 10
111.059543157999
 20
20.32502983432846
 30
0.0
 10
111.059543157999
 20
20.32502983432846
 30
0.0
 10
111.059543157999
 20
25.53229166028359
 30
0.0
 10
111.059543157999
 20
25.53229166028359
 30
0.0
 10
111.059543157999
 20
25.59258083127547
 30
0.0
 10
111.0092447639144
 20
25.64115667761749
 30
0.0
 10
110.949300102471
 20
25.64115667761749
 30
0.0
 10
110.949300102471
 20
25.64115667761749
 30
0.0
 10
109.6622124291817
 20
25.64115667761749
 30
0.0
 10
109.6622124291817
 20
25.64115667761749
 30
0.0
 10
109.6008897295442
 20
25.64115667761749
 30
0.0
 10
109.5519693736537
 20
25.59258083127547
 30
0.0
 10
109.5519693736537
 20
25.53229166028359
 30
0.0
 10
109.5519693736537
 20
25.53229166028359
 30
0.0
 10
109.5519693736537
 20
20.32502983432846
 30
0.0
 10
109.5519693736537
 20
20.32502983432846
 30
0.0
 10
109.5519693736537
 20
20.26198458694839
 30
0.0
 10
109.6008897295442
 20
20.21409775970342
 30
0.0
 10
109.6622124291817
 20
20.21409775970342
 30
0.0
 10
109.6622124291817
 20
20.21409775970342
 30
0.0
 10
110.949300102471
 20
20.21409775970342
 30
0.0
 10
110.949300102471
 20
20.21409775970342
 30
0.0
  0
HATCH
  5
78
330
66
100
AcDbEntity
  8
\U+30EC\U+30A4\U+30E4\U+30FC 1
 62
    29
100
AcDbHatch
 10
0.0
 20
0.0
 30
0.0
210
0.0
220
0.0
230
1.0
  2
SOLID
 70
     1
 71
     0
 91
        1
 92
        1
 93
        1
 72
     4
 94
        3
 73
     0
 74
     1
 95
       29
 96
       25
 40
0.0
 40
0.0
 40
0.0
 40
0.0
 40
1.0
 40
1.0
 40
1.0
 40
2.0
 40
2.0
 40
2.0
 40
3.0
 40
3.0
 40
3.0
 40
4.0
 40
4.0
 40
4.0
 40
5.0
 40
5.0
 40
5.0
 40
6.0
 40
6.0
 40
6.0
 40
7.0
 40
7.0
 40
7.0
 40
8.0
 40
8.0
 40
8.0
 40
8.0
 10
110.949300102471
 20
20.21409775970342
 10
111.0092447639144
 20
20.21409775970342
 10
111.059543157999
 20
20.26198458694839
 10
111.059543157999
 20
20.32502983432846
 10
111.059543157999
 20
20.32502983432846
 10
111.059543157999
 20
25.53229166028359
 10
111.059543157999
 20
25.53229166028359
 10
111.059543157999
 20
25.59258083127547
 10
111.0092447639144
 20
25.64115667761749
 10
110.949300102471
 20
25.64115667761749
 10
110.949300102471
 20
25.64115667761749
 10
109.6622124291817
 20
25.64115667761749
 10
109.6622124291817
 20
25.64115667761749
 10
109.6008897295442
 20
25.64115667761749
 10
109.5519693736537
 20
25.59258083127547
 10
109.5519693736537
 20
25.53229166028359
 10
109.5519693736537
 20
25.53229166028359
 10
109.5519693736537
 20
20.32502983432846
 10
109.5519693736537
 20
20.32502983432846
 10
109.5519693736537
 20
20.26198458694839
 10
109.6008897295442
 20
20.21409775970342
 10
109.6622124291817
 20
20.21409775970342
 10
109.6622124291817
 20
20.21409775970342
 10
110.949300102471
 20
20.21409775970342
 10
110.949300102471
 20
20.21409775970342
 97
        0
 75
     2
 76
     1
 98
        0
  0
SPLINE
  5
79
330
66
100
AcDbEntity
  8
\U+30EC\U+30A4\U+30E4\U+30FC 1
370
     0
100
AcDbSpline
210
0.0
220
0.0
230
1.0
 70
    11
 71
     3
 72
    29
 73
    25
 74
     0
 42
0.0000000001
 43
0.0000000001
 40
0.0
 40
0.0
 40
0.0
 40
0.0
 40
1.0
 40
1.0
 40
1.0
 40
2.0
 40
2.0
 40
2.0
 40
3.0
 40
3.0
 40
3.0
 40
4.0
 40
4.0
 40
4.0
 40
5.0
 40
5.0
 40
5.0
 40
6.0
 40
6.0
 40
6.0
 40
7.0
 40
7.0
 40
7.0
 40
8.0
 40
8.0
 40
8.0
 40
8.0
 10
113.0735459786761
 20
25.63771158213224
 30
0.0
 10
112.9708821332156
 20
25.63771158213224
 30
0.0
 10
112.879242593308
 20
25.58603514985349
 30
0.0
 10
112.824121065544
 20
25.50817599188685
 30
0.0
 10
112.824121065544
 20
25.50817599188685
 30
0.0
 10
111.059543157999
 20
22.92400986840094
 30
0.0
 10
111.059543157999
 20
22.92400986840094
 30
0.0
 10
111.059543157999
 20
22.92400986840094
 30
0.0
 10
112.8124077408941
 20
20.21960991247982
 30
0.0
 10
112.8124077408941
 20
20.21960991247982
 30
0.0
 10
112.8124077408941
 20
20.21960991247982
 30
0.0
 10
114.6562228445998
 20
20.21960991247982
 30
0.0
 10
114.6562228445998
 20
20.21960991247982
 30
0.0
 10
114.6562228445998
 20
20.21960991247982
 30
0.0
 10
112.6491102148933
 20
22.92400986840094
 30
0.0
 10
112.6491102148933
 20
22.92400986840094
 30
0.0
 10
112.6491102148933
 20
22.92400986840094
 30
0.0
 10
114.6548448064057
 20
25.63598903438961
 30
0.0
 10
114.6548448064057
 20
25.63598903438961
 30
0.0
 10
114.6548448064057
 20
25.63598903438961
 30
0.0
 10
113.072856959579
 20
25.63598903438961
 30
0.0
 10
113.072856959579
 20
25.63598903438961
 30
0.0
 10
113.072856959579
 20
25.63598903438961
 30
0.0
 10
113.0735459786761
 20
25.63771158213224
 30
0.0
 10
113.0735459786761
 20
25.63771158213224
 30
0.0
  0
HATCH
  5
7A
330
66
100
AcDbEntity
  8
\U+30EC\U+30A4\U+30E4\U+30FC 1
 62
    29
100
AcDbHatch
 10
0.0
 20
0.0
 30
0.0
210
0.0
220
0.0
230
1.0
  2
SOLID
 70
     1
 71
     0
 91
        1
 92
        1
 93
        1
 72
     4
 94
        3
 73
     0
 74
     1
 95
       29
 96
       25
 40
0.0
 40
0.0
 40
0.0
 40
0.0
 40
1.0
 40
1.0
 40
1.0
 40
2.0
 40
2.0
 40
2.0
 40
3.0
 40
3.0
 40
3.0
 40
4.0
 40
4.0
 40
4.0
 40
5.0
 40
5.0
 40
5.0
 40
6.0
 40
6.0
 40
6.0
 40
7.0
 40
7.0
 40
7.0
 40
8.0
 40
8.0
 40
8.0
 40
8.0
 10
113.0735459786761
 20
25.63771158213224
 10
112.9708821332156
 20
25.63771158213224
 10
112.879242593308
 20
25.58603514985349
 10
112.824121065544
 20
25.50817599188685
 10
112.824121065544
 20
25.50817599188685
 10
111.059543157999
 20
22.92400986840094
 10
111.059543157999
 20
22.92400986840094
 10
111.059543157999
 20
22.92400986840094
 10
112.8124077408941
 20
20.21960991247982
 10
112.8124077408941
 20
20.21960991247982
 10
112.8124077408941
 20
20.21960991247982
 10
114.6562228445998
 20
20.21960991247982
 10
114.6562228445998
 20
20.21960991247982
 10
114.6562228445998
 20
20.21960991247982
 10
112.6491102148933
 20
22.92400986840094
 10
112.6491102148933
 20
22.92400986840094
 10
112.6491102148933
 20
22.92400986840094
 10
114.6548448064057
 20
25.63598903438961
 10
114.6548448064057
 20
25.63598903438961
 10
114.6548448064057
 20
25.63598903438961
 10
113.072856959579
 20
25.63598903438961
 10
113.072856959579
 20
25.63598903438961
 10
113.072856959579
 20
25.63598903438961
 10
113.0735459786761
 20
25.63771158213224
 10
113.0735459786761
 20
25.63771158213224
 97
        0
 75
     2
 76
     1
 98
        0
  0
SPLINE
  5
7B
330
66
100
AcDbEntity
  8
\U+30EC\U+30A4\U+30E4\U+30FC 1
370
     0
100
AcDbSpline
210
0.0
220
0.0
230
1.0
 70
    11
 71
     3
 72
    29
 73
    25
 74
     0
 42
0.0000000001
 43
0.0000000001
 40
0.0
 40
0.0
 40
0.0
 40
0.0
 40
1.0
 40
1.0
 40
1.0
 40
2.0
 40
2.0
 40
2.0
 40
3.0
 40
3.0
 40
3.0
 40
4.0
 40
4.0
 40
4.0
 40
5.0
 40
5.0
 40
5.0
 40
6.0
 40
6.0
 40
6.0
 40
7.0
 40
7.0
 40
7.0
 40
8.0
 40
8.0
 40
8.0
 40
8.0
 10
90.0926920347685
 20
23.97028536727132
 30
0.0
 10
90.23066810895276
 20
23.97028536727132
 30
0.0
 10
90.34142792880354
 20
24.08259548009046
 30
0.0
 10
90.34142792880354
 20
24.21971028040341
 30
0.0
 10
90.34142792880354
 20
24.21971028040341
 30
0.0
 10
90.34142792880354
 20
27.468435322994
 30
0.0
 10
90.34142792880354
 20
27.468435322994
 30
0.0
 10
90.34142792880354
 20
27.60692816150105
 30
0.0
 10
90.23066810895276
 20
27.71786023612609
 30
0.0
 10
90.0926920347685
 20
27.71786023612609
 30
0.0
 10
90.0926920347685
 20
27.71786023612609
 30
0.0
 10
86.8439669921779
 20
27.71786023612609
 30
0.0
 10
86.8439669921779
 20
27.71786023612609
 30
0.0
 10
86.70461287979954
 20
27.71786023612609
 30
0.0
 10
86.59385305994876
 20
27.60692816150105
 30
0.0
 10
86.59385305994876
 20
27.468435322994
 30
0.0
 10
86.59385305994876
 20
27.468435322994
 30
0.0
 10
86.59385305994876
 20
24.21971028040341
 30
0.0
 10
86.59385305994876
 20
24.21971028040341
 30
0.0
 10
86.59385305994876
 20
24.08259548009046
 30
0.0
 10
86.70461287979954
 20
23.97028536727132
 30
0.0
 10
86.8439669921779
 20
23.97028536727132
 30
0.0
 10
86.8439669921779
 20
23.97028536727132
 30
0.0
 10
90.0926920347685
 20
23.97028536727132
 30
0.0
 10
90.0926920347685
 20
23.97028536727132
 30
0.0
  0
HATCH
  5
7C
330
66
100
AcDbEntity
  8
\U+30EC\U+30A4\U+30E4\U+30FC 1
 62
    29
100
AcDbHatch
 10
0.0
 20
0.0
 30
0.0
210
0.0
220
0.0
230
1.0
  2
SOLID
 70
     1
 71
     0
 91
        1
 92
        1
 93
        1
 72
     4
 94
        3
 73
     0
 74
     1
 95
       29
 96
       25
 40
0.0
 40
0.0
 40
0.0
 40
0.0
 40
1.0
 40
1.0
 40
1.0
 40
2.0
 40
2.0
 40
2.0
 40
3.0
 40
3.0
 40
3.0
 40
4.0
 40
4.0
 40
4.0
 40
5.0
 40
5.0
 40
5.0
 40
6.0
 40
6.0
 40
6.0
 40
7.0
 40
7.0
 40
7.0
 40
8.0
 40
8.0
 40
8.0
 40
8.0
 10
90.0926920347685
 20
23.97028536727132
 10
90.23066810895276
 20
23.97028536727132
 10
90.34142792880354
 20
24.08259548009046
 10
90.34142792880354
 20
24.21971028040341
 10
90.34142792880354
 20
24.21971028040341
 10
90.34142792880354
 20
27.468435322994
 10
90.34142792880354
 20
27.468435322994
 10
90.34142792880354
 20
27.60692816150105
 10
90.23066810895276
 20
27.71786023612609
 10
90.0926920347685
 20
27.71786023612609
 10
90.0926920347685
 20
27.71786023612609
 10
86.8439669921779
 20
27.71786023612609
 10
86.8439669921779
 20
27.71786023612609
 10
86.70461287979954
 20
27.71786023612609
 10
86.59385305994876
 20
27.60692816150105
 10
86.59385305994876
 20
27.468435322994
 10
86.59385305994876
 20
27.468435322994
 10
86.59385305994876
 20
24.21971028040341
 10
86.59385305994876
 20
24.21971028040341
 10
86.59385305994876
 20
24.08259548009046
 10
86.70461287979954
 20
23.97028536727132
 10
86.8439669921779
 20
23.97028536727132
 10
86.8439669921779
 20
23.97028536727132
 10
90.0926920347685
 20
23.97028536727132
 10
90.0926920347685
 20
23.97028536727132
 97
        0
 75
     2
 76
     1
 98
        0
  0
SPLINE
  5
7D
330
66
100
AcDbEntity
  8
\U+30EC\U+30A4\U+30E4\U+30FC 1
370
     0
100
AcDbSpline
210
0.0
220
0.0
230
1.0
 70
    11
 71
     3
 72
    29
 73
    25
 74
     0
 42
0.0000000001
 43
0.0000000001
 40
0.0
 40
0.0
 40
0.0
 40
0.0
 40
1.0
 40
1.0
 40
1.0
 40
2.0
 40
2.0
 40
2.0
 40
3.0
 40
3.0
 40
3.0
 40
4.0
 40
4.0
 40
4.0
 40
5.0
 40
5.0
 40
5.0
 40
6.0
 40
6.0
 40
6.0
 40
7.0
 40
7.0
 40
7.0
 40
8.0
 40
8.0
 40
8.0
 40
8.0
 10
93.84302298001147
 20
20.22098795067392
 30
0.0
 10
93.98031003509868
 20
20.22098795067392
 30
0.0
 10
94.09106985494945
 20
20.33260904439602
 30
0.0
 10
94.09106985494945
 20
20.47144639245158
 30
0.0
 10
94.09106985494945
 20
20.47144639245158
 30
0.0
 10
94.09106985494945
 20
23.7191379063966
 30
0.0
 10
94.09106985494945
 20
23.7191379063966
 30
0.0
 10
94.09106985494945
 20
23.85659721625807
 30
0.0
 10
93.98031003509868
 20
23.96787380043164
 30
0.0
 10
93.84302298001147
 20
23.96787380043164
 30
0.0
 10
93.84302298001147
 20
23.96787380043164
 30
0.0
 10
90.59360891832382
 20
23.96787380043164
 30
0.0
 10
90.59360891832382
 20
23.96787380043164
 30
0.0
 10
90.45563284413957
 20
23.96787380043164
 30
0.0
 10
90.34211694790059
 20
23.85659721625807
 30
0.0
 10
90.34211694790059
 20
23.7191379063966
 30
0.0
 10
90.34211694790059
 20
23.7191379063966
 30
0.0
 10
90.34211694790059
 20
20.47144639245158
 30
0.0
 10
90.34211694790059
 20
20.47144639245158
 30
0.0
 10
90.34211694790059
 20
20.33260904439602
 30
0.0
 10
90.45563284413957
 20
20.22098795067392
 30
0.0
 10
90.59360891832382
 20
20.22098795067392
 30
0.0
 10
90.59360891832382
 20
20.22098795067392
 30
0.0
 10
93.84302298001147
 20
20.22098795067392
 30
0.0
 10
93.84302298001147
 20
20.22098795067392
 30
0.0
  0
HATCH
  5
7E
330
66
100
AcDbEntity
  8
\U+30EC\U+30A4\U+30E4\U+30FC 1
 62
    29
100
AcDbHatch
 10
0.0
 20
0.0
 30
0.0
210
0.0
220
0.0
230
1.0
  2
SOLID
 70
     1
 71
     0
 91
        1
 92
        1
 93
        1
 72
     4
 94
        3
 73
     0
 74
     1
 95
       29
 96
       25
 40
0.0
 40
0.0
 40
0.0
 40
0.0
 40
1.0
 40
1.0
 40
1.0
 40
2.0
 40
2.0
 40
2.0
 40
3.0
 40
3.0
 40
3.0
 40
4.0
 40
4.0
 40
4.0
 40
5.0
 40
5.0
 40
5.0
 40
6.0
 40
6.0
 40
6.0
 40
7.0
 40
7.0
 40
7.0
 40
8.0
 40
8.0
 40
8.0
 40
8.0
 10
93.84302298001147
 20
20.22098795067392
 10
93.98031003509868
 20
20.22098795067392
 10
94.09106985494945
 20
20.33260904439602
 10
94.09106985494945
 20
20.47144639245158
 10
94.09106985494945
 20
20.47144639245158
 10
94.09106985494945
 20
23.7191379063966
 10
94.09106985494945
 20
23.7191379063966
 10
94.09106985494945
 20
23.85659721625807
 10
93.98031003509868
 20
23.96787380043164
 10
93.84302298001147
 20
23.96787380043164
 10
93.84302298001147
 20
23.96787380043164
 10
90.59360891832382
 20
23.96787380043164
 10
90.59360891832382
 20
23.96787380043164
 10
90.45563284413957
 20
23.96787380043164
 10
90.34211694790059
 20
23.85659721625807
 10
90.34211694790059
 20
23.7191379063966
 10
90.34211694790059
 20
23.7191379063966
 10
90.34211694790059
 20
20.47144639245158
 10
90.34211694790059
 20
20.47144639245158
 10
90.34211694790059
 20
20.33260904439602
 10
90.45563284413957
 20
20.22098795067392
 10
90.59360891832382
 20
20.22098795067392
 10
90.59360891832382
 20
20.22098795067392
 10
93.84302298001147
 20
20.22098795067392
 10
93.84302298001147
 20
20.22098795067392
 97
        0
 75
     2
 76
     1
 98
        0
  0
SPLINE
  5
7F
330
66
100
AcDbEntity
  8
\U+30EC\U+30A4\U+30E4\U+30FC 1
370
     0
100
AcDbSpline
210
0.0
220
0.0
230
1.0
 70
    11
 71
     3
 72
    29
 73
    25
 74
     0
 42
0.0000000001
 43
0.0000000001
 40
0.0
 40
0.0
 40
0.0
 40
0.0
 40
1.0
 40
1.0
 40
1.0
 40
2.0
 40
2.0
 40
2.0
 40
3.0
 40
3.0
 40
3.0
 40
4.0
 40
4.0
 40
4.0
 40
5.0
 40
5.0
 40
5.0
 40
6.0
 40
6.0
 40
6.0
 40
7.0
 40
7.0
 40
7.0
 40
8.0
 40
8.0
 40
8.0
 40
8.0
 10
97.5926649061574
 20
23.97028536727132
 30
0.0
 10
97.7299519612446
 20
23.97028536727132
 30
0.0
 10
97.84208981928948
 20
24.08259548009046
 30
0.0
 10
97.84208981928948
 20
24.21971028040341
 30
0.0
 10
97.84208981928948
 20
24.21971028040341
 30
0.0
 10
97.84208981928948
 20
27.468435322994
 30
0.0
 10
97.84208981928948
 20
27.468435322994
 30
0.0
 10
97.84208981928948
 20
27.60692816150105
 30
0.0
 10
97.7299519612446
 20
27.71786023612609
 30
0.0
 10
97.5926649061574
 20
27.71786023612609
 30
0.0
 10
97.5926649061574
 20
27.71786023612609
 30
0.0
 10
94.34325084446975
 20
27.71786023612609
 30
0.0
 10
94.34325084446975
 20
27.71786023612609
 30
0.0
 10
94.20527477028548
 20
27.71786023612609
 30
0.0
 10
94.09451495043471
 20
27.60692816150105
 30
0.0
 10
94.09451495043471
 20
27.468435322994
 30
0.0
 10
94.09451495043471
 20
27.468435322994
 30
0.0
 10
94.09451495043471
 20
24.21971028040341
 30
0.0
 10
94.09451495043471
 20
24.21971028040341
 30
0.0
 10
94.09451495043471
 20
24.08259548009046
 30
0.0
 10
94.20527477028548
 20
23.97028536727132
 30
0.0
 10
94.34325084446975
 20
23.97028536727132
 30
0.0
 10
94.34325084446975
 20
23.97028536727132
 30
0.0
 10
97.5926649061574
 20
23.97028536727132
 30
0.0
 10
97.5926649061574
 20
23.97028536727132
 30
0.0
  0
HATCH
  5
80
330
66
100
AcDbEntity
  8
\U+30EC\U+30A4\U+30E4\U+30FC 1
 62
    29
100
AcDbHatch
 10
0.0
 20
0.0
 30
0.0
210
0.0
220
0.0
230
1.0
  2
SOLID
 70
     1
 71
     0
 91
        1
 92
        1
 93
        1
 72
     4
 94
        3
 73
     0
 74
     1
 95
       29
 96
       25
 40
0.0
 40
0.0
 40
0.0
 40
0.0
 40
1.0
 40
1.0
 40
1.0
 40
2.0
 40
2.0
 40
2.0
 40
3.0
 40
3.0
 40
3.0
 40
4.0
 40
4.0
 40
4.0
 40
5.0
 40
5.0
 40
5.0
 40
6.0
 40
6.0
 40
6.0
 40
7.0
 40
7.0
 40
7.0
 40
8.0
 40
8.0
 40
8.0
 40
8.0
 10
97.5926649061574
 20
23.97028536727132
 10
97.7299519612446
 20
23.97028536727132
 10
97.84208981928948
 20
24.08259548009046
 10
97.84208981928948
 20
24.21971028040341
 10
97.84208981928948
 20
24.21971028040341
 10
97.84208981928948
 20
27.468435322994
 10
97.84208981928948
 20
27.468435322994
 10
97.84208981928948
 20
27.60692816150105
 10
97.7299519612446
 20
27.71786023612609
 10
97.5926649061574
 20
27.71786023612609
 10
97.5926649061574
 20
27.71786023612609
 10
94.34325084446975
 20
27.71786023612609
 10
94.34325084446975
 20
27.71786023612609
 10
94.20527477028548
 20
27.71786023612609
 10
94.09451495043471
 20
27.60692816150105
 10
94.09451495043471
 20
27.468435322994
 10
94.09451495043471
 20
27.468435322994
 10
94.09451495043471
 20
24.21971028040341
 10
94.09451495043471
 20
24.21971028040341
 10
94.09451495043471
 20
24.08259548009046
 10
94.20527477028548
 20
23.97028536727132
 10
94.34325084446975
 20
23.97028536727132
 10
94.34325084446975
 20
23.97028536727132
 10
97.5926649061574
 20
23.97028536727132
 10
97.5926649061574
 20
23.97028536727132
 97
        0
 75
     2
 76
     1
 98
        0
  0
SPLINE
  5
81
330
66
100
AcDbEntity
  8
\U+30EC\U+30A4\U+30E4\U+30FC 1
370
     0
100
AcDbSpline
210
0.0
220
0.0
230
1.0
 70
    11
 71
     3
 72
    29
 73
    25
 74
     0
 42
0.0000000001
 43
0.0000000001
 40
0.0
 40
0.0
 40
0.0
 40
0.0
 40
1.0
 40
1.0
 40
1.0
 40
2.0
 40
2.0
 40
2.0
 40
3.0
 40
3.0
 40
3.0
 40
4.0
 40
4.0
 40
4.0
 40
5.0
 40
5.0
 40
5.0
 40
6.0
 40
6.0
 40
6.0
 40
7.0
 40
7.0
 40
7.0
 40
8.0
 40
8.0
 40
8.0
 40
8.0
 10
90.0926920347685
 20
16.47100151497947
 30
0.0
 10
90.23066810895276
 20
16.47100151497947
 30
0.0
 10
90.34142792880354
 20
16.58296711825009
 30
0.0
 10
90.34142792880354
 20
16.72111544720861
 30
0.0
 10
90.34142792880354
 20
16.72111544720861
 30
0.0
 10
90.34142792880354
 20
19.96949598025068
 30
0.0
 10
90.34142792880354
 20
19.96949598025068
 30
0.0
 10
90.34142792880354
 20
20.10661078056362
 30
0.0
 10
90.23066810895276
 20
20.21857638383425
 30
0.0
 10
90.0926920347685
 20
20.21857638383425
 30
0.0
 10
90.0926920347685
 20
20.21857638383425
 30
0.0
 10
86.8439669921779
 20
20.21857638383425
 30
0.0
 10
86.8439669921779
 20
20.21857638383425
 30
0.0
 10
86.70461287979954
 20
20.21857638383425
 30
0.0
 10
86.59385305994876
 20
20.10661078056362
 30
0.0
 10
86.59385305994876
 20
19.96949598025068
 30
0.0
 10
86.59385305994876
 20
19.96949598025068
 30
0.0
 10
86.59385305994876
 20
16.72111544720861
 30
0.0
 10
86.59385305994876
 20
16.72111544720861
 30
0.0
 10
86.59385305994876
 20
16.58296711825009
 30
0.0
 10
86.70461287979954
 20
16.47100151497947
 30
0.0
 10
86.8439669921779
 20
16.47100151497947
 30
0.0
 10
86.8439669921779
 20
16.47100151497947
 30
0.0
 10
90.0926920347685
 20
16.47100151497947
 30
0.0
 10
90.0926920347685
 20
16.47100151497947
 30
0.0
  0
HATCH
  5
82
330
66
100
AcDbEntity
  8
\U+30EC\U+30A4\U+30E4\U+30FC 1
 62
    29
100
AcDbHatch
 10
0.0
 20
0.0
 30
0.0
210
0.0
220
0.0
230
1.0
  2
SOLID
 70
     1
 71
     0
 91
        1
 92
        1
 93
        1
 72
     4
 94
        3
 73
     0
 74
     1
 95
       29
 96
       25
 40
0.0
 40
0.0
 40
0.0
 40
0.0
 40
1.0
 40
1.0
 40
1.0
 40
2.0
 40
2.0
 40
2.0
 40
3.0
 40
3.0
 40
3.0
 40
4.0
 40
4.0
 40
4.0
 40
5.0
 40
5.0
 40
5.0
 40
6.0
 40
6.0
 40
6.0
 40
7.0
 40
7.0
 40
7.0
 40
8.0
 40
8.0
 40
8.0
 40
8.0
 10
90.0926920347685
 20
16.47100151497947
 10
90.23066810895276
 20
16.47100151497947
 10
90.34142792880354
 20
16.58296711825009
 10
90.34142792880354
 20
16.72111544720861
 10
90.34142792880354
 20
16.72111544720861
 10
90.34142792880354
 20
19.96949598025068
 10
90.34142792880354
 20
19.96949598025068
 10
90.34142792880354
 20
20.10661078056362
 10
90.23066810895276
 20
20.21857638383425
 10
90.0926920347685
 20
20.21857638383425
 10
90.0926920347685
 20
20.21857638383425
 10
86.8439669921779
 20
20.21857638383425
 10
86.8439669921779
 20
20.21857638383425
 10
86.70461287979954
 20
20.21857638383425
 10
86.59385305994876
 20
20.10661078056362
 10
86.59385305994876
 20
19.96949598025068
 10
86.59385305994876
 20
19.96949598025068
 10
86.59385305994876
 20
16.72111544720861
 10
86.59385305994876
 20
16.72111544720861
 10
86.59385305994876
 20
16.58296711825009
 10
86.70461287979954
 20
16.47100151497947
 10
86.8439669921779
 20
16.47100151497947
 10
86.8439669921779
 20
16.47100151497947
 10
90.0926920347685
 20
16.47100151497947
 10
90.0926920347685
 20
16.47100151497947
 97
        0
 75
     2
 76
     1
 98
        0
  0
POLYLINE
  5
83
330
66
100
AcDbEntity
  8
\U+30EC\U+30A4\U+30E4\U+30FC 1
370
     0
100
AcDb2dPolyline
 66
     1
 10
0.0
 20
0.0
 30
0.0
  0
VERTEX
  5
84
330
83
100
AcDbEntity
  8
\U+30EC\U+30A4\U+30E4\U+30FC 1
370
     0
100
AcDbVertex
100
AcDb2dVertex
 10
0.0
 20
297.0001314904201
 30
0.0
  0
VERTEX
  5
85
330
83
100
AcDbEntity
  8
\U+30EC\U+30A4\U+30E4\U+30FC 1
370
     0
100
AcDbVertex
100
AcDb2dVertex
 10
209.9999294179862
 20
297.0001314904201
 30
0.0
  0
VERTEX
  5
86
330
83
100
AcDbEntity
  8
\U+30EC\U+30A4\U+30E4\U+30FC 1
370
     0
100
AcDbVertex
100
AcDb2dVertex
 10
209.9999294179862
 20
0.0
 30
0.0
  0
VERTEX
  5
87
330
83
100
AcDbEntity
  8
\U+30EC\U+30A4\U+30E4\U+30FC 1
370
     0
100
AcDbVertex
100
AcDb2dVertex
 10
0.0
 20
0.0
 30
0.0
  0
VERTEX
  5
88
330
83
100
AcDbEntity
  8
\U+30EC\U+30A4\U+30E4\U+30FC 1
370
     0
100
AcDbVertex
100
AcDb2dVertex
 10
0.0
 20
297.0001314904201
 30
0.0
  0
SEQEND
  5
89
330
83
100
AcDbEntity
  8
\U+30EC\U+30A4\U+30E4\U+30FC 1
370
     0
  0
ENDBLK
  5
69
330
66
100
AcDbEntity
  8
0
100
AcDbBlockEnd
  0
BLOCK
  5
C3
330
C1
100
AcDbEntity
  8
0
100
AcDbBlockBegin
  2
block 4
 70
     0
 71
     0
 10
0.0
 20
0.0
 30
0.0
  3
block 4
  1

  0
SPLINE
  5
C5
330
C1
100
AcDbEntity
  8
\U+30EC\U+30A4\U+30E4\U+30FC 1
370
     0
100
AcDbSpline
210
0.0
220
0.0
230
1.0
 70
    11
 71
     3
 72
    23
 73
    19
 74
     0
 42
0.0000000001
 43
0.0000000001
 40
0.0
 40
0.0
 40
0.0
 40
0.0
 40
1.0
 40
1.0
 40
1.0
 40
2.0
 40
2.0
 40
2.0
 40
3.0
 40
3.0
 40
3.0
 40
4.0
 40
4.0
 40
4.0
 40
5.0
 40
5.0
 40
5.0
 40
6.0
 40
6.0
 40
6.0
 40
6.0
 10
145.1480739654491
 20
29.83418239271507
 30
0.0
 10
145.1480739654491
 20
29.83418239271507
 30
0.0
 10
145.1480739654491
 20
29.00873751444921
 30
0.0
 10
145.1480739654491
 20
29.00873751444921
 30
0.0
 10
145.0474771772798
 20
29.13896212379165
 30
0.0
 10
144.7381076027044
 20
29.54892848653638
 30
0.0
 10
144.5837673249652
 20
29.92857800901091
 30
0.0
 10
144.5837673249652
 20
29.92857800901091
 30
0.0
 10
144.5837673249652
 20
30.18971624679285
 30
0.0
 10
144.5837673249652
 20
30.18971624679285
 30
0.0
 10
144.5837673249652
 20
30.18971624679285
 30
0.0
 10
145.1294704498287
 20
30.18971624679285
 30
0.0
 10
145.1294704498287
 20
30.18971624679285
 30
0.0
 10
145.1294704498287
 20
30.18971624679285
 30
0.0
 10
145.5869791302699
 20
29.83418239271507
 30
0.0
 10
145.5869791302699
 20
29.83418239271507
 30
0.0
 10
145.5869791302699
 20
29.83418239271507
 30
0.0
 10
145.1480739654491
 20
29.83418239271507
 30
0.0
 10
145.1480739654491
 20
29.83418239271507
 30
0.0
  0
SPLINE
  5
C6
330
C1
100
AcDbEntity
  8
\U+30EC\U+30A4\U+30E4\U+30FC 1
370
     0
100
AcDbSpline
210
0.0
220
0.0
230
1.0
 70
    11
 71
     3
 72
   128
 73
   124
 74
     0
 42
0.0000000001
 43
0.0000000001
 40
0.0
 40
0.0
 40
0.0
 40
0.0
 40
1.0
 40
1.0
 40
1.0
 40
2.0
 40
2.0
 40
2.0
 40
3.0
 40
3.0
 40
3.0
 40
4.0
 40
4.0
 40
4.0
 40
5.0
 40
5.0
 40
5.0
 40
6.0
 40
6.0
 40
6.0
 40
7.0
 40
7.0
 40
7.0
 40
8.0
 40
8.0
 40
8.0
 40
9.0
 40
9.0
 40
9.0
 40
10.0
 40
10.0
 40
10.0
 40
11.0
 40
11.0
 40
11.0
 40
12.0
 40
12.0
 40
12.0
 40
13.0
 40
13.0
 40
13.0
 40
14.0
 40
14.0
 40
14.0
 40
15.0
 40
15.0
 40
15.0
 40
16.0
 40
16.0
 40
16.0
 40
17.0
 40
17.0
 40
17.0
 40
18.0
 40
18.0
 40
18.0
 40
19.0
 40
19.0
 40
19.0
 40
20.0
 40
20.0
 40
20.0
 40
21.0
 40
21.0
 40
21.0
 40
22.0
 40
22.0
 40
22.0
 40
23.0
 40
23.0
 40
23.0
 40
24.0
 40
24.0
 40
24.0
 40
25.0
 40
25.0
 40
25.0
 40
26.0
 40
26.0
 40
26.0
 40
27.0
 40
27.0
 40
27.0
 40
28.0
 40
28.0
 40
28.0
 40
29.0
 40
29.0
 40
29.0
 40
30.0
 40
30.0
 40
30.0
 40
31.0
 40
31.0
 40
31.0
 40
32.0
 40
32.0
 40
32.0
 40
33.0
 40
33.0
 40
33.0
 40
34.0
 40
34.0
 40
34.0
 40
35.0
 40
35.0
 40
35.0
 40
36.0
 40
36.0
 40
36.0
 40
37.0
 40
37.0
 40
37.0
 40
38.0
 40
38.0
 40
38.0
 40
39.0
 40
39.0
 40
39.0
 40
40.0
 40
40.0
 40
40.0
 40
41.0
 40
41.0
 40
41.0
 40
41.0
 10
146.2098523940031
 20
31.24047036979405
 30
0.0
 10
146.2704860745435
 20
31.50780977944944
 30
0.0
 10
146.2994248766196
 20
31.65525986621813
 30
0.0
 10
146.3290526977927
 20
31.80477701027797
 30
0.0
 10
146.3290526977927
 20
31.80477701027797
 30
0.0
 10
145.5277234879236
 20
31.87574597727412
 30
0.0
 10
145.5277234879236
 20
31.87574597727412
 30
0.0
 10
145.4450411962776
 20
31.26389701909375
 30
0.0
 10
145.2603840782682
 20
30.85461967544607
 30
0.0
 10
145.1480739654491
 20
30.64033473626353
 30
0.0
 10
145.1480739654491
 20
30.64033473626353
 30
0.0
 10
145.1480739654491
 20
31.00895995318526
 30
0.0
 10
145.1480739654491
 20
31.00895995318526
 30
0.0
 10
145.1480739654491
 20
31.00895995318526
 30
0.0
 10
144.5837673249652
 20
31.00895995318526
 30
0.0
 10
144.5837673249652
 20
31.00895995318526
 30
0.0
 10
144.5837673249652
 20
31.00895995318526
 30
0.0
 10
144.5837673249652
 20
31.98771158054474
 30
0.0
 10
144.5837673249652
 20
31.98771158054474
 30
0.0
 10
144.5837673249652
 20
31.98771158054474
 30
0.0
 10
143.7652126376698
 20
31.98771158054474
 30
0.0
 10
143.7652126376698
 20
31.98771158054474
 30
0.0
 10
143.7652126376698
 20
31.98771158054474
 30
0.0
 10
143.7652126376698
 20
31.00895995318526
 30
0.0
 10
143.7652126376698
 20
31.00895995318526
 30
0.0
 10
143.7652126376698
 20
31.00895995318526
 30
0.0
 10
143.0403645475733
 20
31.00895995318526
 30
0.0
 10
143.0403645475733
 20
31.00895995318526
 30
0.0
 10
143.0403645475733
 20
31.00895995318526
 30
0.0
 10
143.0403645475733
 20
30.18971624679285
 30
0.0
 10
143.0403645475733
 20
30.18971624679285
 30
0.0
 10
143.0403645475733
 20
30.18971624679285
 30
0.0
 10
143.6997558234501
 20
30.18971624679285
 30
0.0
 10
143.6997558234501
 20
30.18971624679285
 30
0.0
 10
143.4324164137947
 20
29.25816242758129
 30
0.0
 10
143.1712781760127
 20
28.86679958045691
 30
0.0
 10
142.9280544347541
 20
28.56363117775493
 30
0.0
 10
142.9280544347541
 20
28.56363117775493
 30
0.0
 10
143.2071071690593
 20
27.39505478915818
 30
0.0
 10
143.2071071690593
 20
27.39505478915818
 30
0.0
 10
143.3497341221487
 20
27.60176051827317
 30
0.0
 10
143.5688421950106
 20
27.94006889492471
 30
0.0
 10
143.7652126376698
 20
28.61668564822778
 30
0.0
 10
143.7652126376698
 20
28.61668564822778
 30
0.0
 10
143.7652126376698
 20
26.36703829635963
 30
0.0
 10
143.7652126376698
 20
26.36703829635963
 30
0.0
 10
143.7652126376698
 20
26.36703829635963
 30
0.0
 10
144.5837673249652
 20
26.36703829635963
 30
0.0
 10
144.5837673249652
 20
26.36703829635963
 30
0.0
 10
144.5837673249652
 20
26.36703829635963
 30
0.0
 10
144.5837673249652
 20
28.84268391206016
 30
0.0
 10
144.5837673249652
 20
28.84268391206016
 30
0.0
 10
144.6430229673115
 20
28.60014918989857
 30
0.0
 10
144.6733398075817
 20
28.47440320468696
 30
0.0
 10
144.9220757016167
 20
28.0117268810179
 30
0.0
 10
144.9220757016167
 20
28.0117268810179
 30
0.0
 10
145.4333278716278
 20
28.68834363432097
 30
0.0
 10
145.4333278716278
 20
28.68834363432097
 30
0.0
 10
145.3437553890113
 20
28.77102592596697
 30
0.0
 10
145.2789875938886
 20
28.83717175928376
 30
0.0
 10
145.159787290099
 20
28.98462184605246
 30
0.0
 10
145.159787290099
 20
28.98462184605246
 30
0.0
 10
146.2098523940031
 20
28.98462184605246
 30
0.0
 10
146.2098523940031
 20
28.98462184605246
 30
0.0
 10
145.7240939305829
 20
28.0999213254403
 30
0.0
 10
145.118446144276
 20
27.69064398179262
 30
0.0
 10
144.8745333839203
 20
27.53630370405342
 30
0.0
 10
144.8745333839203
 20
27.53630370405342
 30
0.0
 10
145.3968098594841
 20
26.69983452023477
 30
0.0
 10
145.3968098594841
 20
26.69983452023477
 30
0.0
 10
145.8715440173516
 20
27.13322753227919
 30
0.0
 10
146.2463704061468
 20
27.63758951131977
 30
0.0
 10
146.5185329494815
 20
28.22532280110339
 30
0.0
 10
146.5185329494815
 20
28.22532280110339
 30
0.0
 10
146.5185329494815
 20
26.36703829635963
 30
0.0
 10
146.5185329494815
 20
26.36703829635963
 30
0.0
 10
146.5185329494815
 20
26.36703829635963
 30
0.0
 10
147.367404477047
 20
26.36703829635963
 30
0.0
 10
147.367404477047
 20
26.36703829635963
 30
0.0
 10
147.367404477047
 20
26.36703829635963
 30
0.0
 10
147.367404477047
 20
28.08958603898455
 30
0.0
 10
147.367404477047
 20
28.08958603898455
 30
0.0
 10
147.6168293901791
 20
27.56110839154723
 30
0.0
 10
147.9558267859277
 20
27.07328287083585
 30
0.0
 10
148.4188476191453
 20
26.71051431623904
 30
0.0
 10
148.4188476191453
 20
26.71051431623904
 30
0.0
 10
148.7681803013496
 20
27.71475965018937
 30
0.0
 10
148.7681803013496
 20
27.71475965018937
 30
0.0
 10
148.5070420635677
 20
27.89252657722826
 30
0.0
 10
148.0440212303501
 20
28.22532280110339
 30
0.0
 10
147.6113172374027
 20
28.98462184605246
 30
0.0
 10
147.6113172374027
 20
28.98462184605246
 30
0.0
 10
148.6613823413069
 20
28.98462184605246
 30
0.0
 10
148.6613823413069
 20
28.98462184605246
 30
0.0
 10
148.6613823413069
 20
28.98462184605246
 30
0.0
 10
148.6613823413069
 20
29.83418239271507
 30
0.0
 10
148.6613823413069
 20
29.83418239271507
 30
0.0
 10
148.6613823413069
 20
29.83418239271507
 30
0.0
 10
147.367404477047
 20
29.83418239271507
 30
0.0
 10
147.367404477047
 20
29.83418239271507
 30
0.0
 10
147.367404477047
 20
29.83418239271507
 30
0.0
 10
147.367404477047
 20
30.39780001410194
 30
0.0
 10
147.367404477047
 20
30.39780001410194
 30
0.0
 10
147.367404477047
 20
30.39780001410194
 30
0.0
 10
148.5724988777874
 20
30.39780001410194
 30
0.0
 10
148.5724988777874
 20
30.39780001410194
 30
0.0
 10
148.5724988777874
 20
30.39780001410194
 30
0.0
 10
148.5724988777874
 20
31.24047036979405
 30
0.0
 10
148.5724988777874
 20
31.24047036979405
 30
0.0
 10
148.5724988777874
 20
31.24047036979405
 30
0.0
 10
147.367404477047
 20
31.24047036979405
 30
0.0
 10
147.367404477047
 20
31.24047036979405
 30
0.0
 10
147.367404477047
 20
31.24047036979405
 30
0.0
 10
147.367404477047
 20
31.98771158054474
 30
0.0
 10
147.367404477047
 20
31.98771158054474
 30
0.0
 10
147.367404477047
 20
31.98771158054474
 30
0.0
 10
146.5185329494815
 20
31.98771158054474
 30
0.0
 10
146.5185329494815
 20
31.98771158054474
 30
0.0
 10
146.5185329494815
 20
31.98771158054474
 30
0.0
 10
146.5185329494815
 20
31.24047036979405
 30
0.0
 10
146.5185329494815
 20
31.24047036979405
 30
0.0
 10
146.5185329494815
 20
31.24047036979405
 30
0.0
 10
146.2098523940031
 20
31.24047036979405
 30
0.0
 10
146.2098523940031
 20
31.24047036979405
 30
0.0
  0
SPLINE
  5
C7
330
C1
100
AcDbEntity
  8
\U+30EC\U+30A4\U+30E4\U+30FC 1
370
     0
100
AcDbSpline
210
0.0
220
0.0
230
1.0
 70
    11
 71
     3
 72
    17
 73
    13
 74
     0
 42
0.0000000001
 43
0.0000000001
 40
0.0
 40
0.0
 40
0.0
 40
0.0
 40
1.0
 40
1.0
 40
1.0
 40
2.0
 40
2.0
 40
2.0
 40
3.0
 40
3.0
 40
3.0
 40
4.0
 40
4.0
 40
4.0
 40
4.0
 10
145.6579480972661
 20
29.83418239271507
 30
0.0
 10
145.7475205798826
 20
29.96440700205751
 30
0.0
 10
145.8543185399253
 20
30.1545762728433
 30
0.0
 10
145.9556043471917
 20
30.39780001410194
 30
0.0
 10
145.9556043471917
 20
30.39780001410194
 30
0.0
 10
146.5185329494815
 20
30.39780001410194
 30
0.0
 10
146.5185329494815
 20
30.39780001410194
 30
0.0
 10
146.5185329494815
 20
30.39780001410194
 30
0.0
 10
146.5185329494815
 20
29.83418239271507
 30
0.0
 10
146.5185329494815
 20
29.83418239271507
 30
0.0
 10
146.5185329494815
 20
29.83418239271507
 30
0.0
 10
145.6579480972661
 20
29.83418239271507
 30
0.0
 10
145.6579480972661
 20
29.83418239271507
 30
0.0
  0
HATCH
  5
C8
330
C1
100
AcDbEntity
  8
\U+30EC\U+30A4\U+30E4\U+30FC 1
 62
    29
100
AcDbHatch
 10
0.0
 20
0.0
 30
0.0
210
0.0
220
0.0
230
1.0
  2
SOLID
 70
     1
 71
     0
 91
        3
 92
        1
 93
        1
 72
     4
 94
        3
 73
     0
 74
     1
 95
       17
 96
       13
 40
0.0
 40
0.0
 40
0.0
 40
0.0
 40
1.0
 40
1.0
 40
1.0
 40
2.0
 40
2.0
 40
2.0
 40
3.0
 40
3.0
 40
3.0
 40
4.0
 40
4.0
 40
4.0
 40
4.0
 10
145.6579480972661
 20
29.83418239271507
 10
145.7475205798826
 20
29.96440700205751
 10
145.8543185399253
 20
30.1545762728433
 10
145.9556043471917
 20
30.39780001410194
 10
145.9556043471917
 20
30.39780001410194
 10
146.5185329494815
 20
30.39780001410194
 10
146.5185329494815
 20
30.39780001410194
 10
146.5185329494815
 20
30.39780001410194
 10
146.5185329494815
 20
29.83418239271507
 10
146.5185329494815
 20
29.83418239271507
 10
146.5185329494815
 20
29.83418239271507
 10
145.6579480972661
 20
29.83418239271507
 10
145.6579480972661
 20
29.83418239271507
 97
        0
 92
        1
 93
        2
 72
     4
 94
        3
 73
     0
 74
     0
 95
       23
 96
       19
 40
0.0
 40
0.0
 40
0.0
 40
0.0
 40
0.3527777776895833
 40
0.3527777776895833
 40
0.3527777776895833
 40
0.7055555553791667
 40
0.7055555553791667
 40
0.7055555553791667
 40
1.05833333306875
 40
1.05833333306875
 40
1.05833333306875
 40
1.411111110758333
 40
1.411111110758333
 40
1.411111110758333
 40
1.763888888447917
 40
1.763888888447917
 40
1.763888888447917
 40
2.1166666661375
 40
2.1166666661375
 40
2.1166666661375
 40
2.1166666661375
 10
145.1480739654491
 20
29.83418239271507
 10
145.1480739654491
 20
29.83418239271507
 10
145.1480739654491
 20
29.00873751444921
 10
145.1480739654491
 20
29.00873751444921
 10
145.0474771772798
 20
29.13896212379165
 10
144.7381076027044
 20
29.54892848653638
 10
144.5837673249652
 20
29.92857800901091
 10
144.5837673249652
 20
29.92857800901091
 10
144.5837673249652
 20
30.18971624679285
 10
144.5837673249652
 20
30.18971624679285
 10
144.5837673249652
 20
30.18971624679285
 10
145.1294704498287
 20
30.18971624679285
 10
145.1294704498287
 20
30.18971624679285
 10
145.1294704498287
 20
30.18971624679285
 10
145.5869791302699
 20
29.83418239271507
 10
145.5869791302699
 20
29.83418239271507
 10
145.5869791302699
 20
29.83418239271507
 10
145.1480739654491
 20
29.83418239271507
 10
145.1480739654491
 20
29.83418239271507
 72
     1
 10
145.1480739654491
 20
29.83418239271507
 11
145.1480739654491
 21
29.83418239271507
 97
        0
 92
        1
 93
        2
 72
     4
 94
        3
 73
     0
 74
     0
 95
      128
 96
      124
 40
0.0
 40
0.0
 40
0.0
 40
0.0
 40
0.3527777776895833
 40
0.3527777776895833
 40
0.3527777776895833
 40
0.7055555553791667
 40
0.7055555553791667
 40
0.7055555553791667
 40
1.05833333306875
 40
1.05833333306875
 40
1.05833333306875
 40
1.411111110758333
 40
1.411111110758333
 40
1.411111110758333
 40
1.763888888447917
 40
1.763888888447917
 40
1.763888888447917
 40
2.1166666661375
 40
2.1166666661375
 40
2.1166666661375
 40
2.469444443827083
 40
2.469444443827083
 40
2.469444443827083
 40
2.822222221516667
 40
2.822222221516667
 40
2.822222221516667
 40
3.17499999920625
 40
3.17499999920625
 40
3.17499999920625
 40
3.527777776895833
 40
3.527777776895833
 40
3.527777776895833
 40
3.880555554585417
 40
3.880555554585417
 40
3.880555554585417
 40
4.233333332275
 40
4.233333332275
 40
4.233333332275
 40
4.586111109964584
 40
4.586111109964584
 40
4.586111109964584
 40
4.938888887654167
 40
4.938888887654167
 40
4.938888887654167
 40
5.29166666534375
 40
5.29166666534375
 40
5.29166666534375
 40
5.644444443033334
 40
5.644444443033334
 40
5.644444443033334
 40
5.997222220722917
 40
5.997222220722917
 40
5.997222220722917
 40
6.349999998412501
 40
6.349999998412501
 40
6.349999998412501
 40
6.702777776102083
 40
6.702777776102083
 40
6.702777776102083
 40
7.055555553791667
 40
7.055555553791667
 40
7.055555553791667
 40
7.40833333148125
 40
7.40833333148125
 40
7.40833333148125
 40
7.761111109170834
 40
7.761111109170834
 40
7.761111109170834
 40
8.113888886860417
 40
8.113888886860417
 40
8.113888886860417
 40
8.46666666455
 40
8.46666666455
 40
8.46666666455
 40
8.819444442239584
 40
8.819444442239584
 40
8.819444442239584
 40
9.172222219929168
 40
9.172222219929168
 40
9.172222219929168
 40
9.52499999761875
 40
9.52499999761875
 40
9.52499999761875
 40
9.877777775308333
 40
9.877777775308333
 40
9.877777775308333
 40
10.23055555299792
 40
10.23055555299792
 40
10.23055555299792
 40
10.5833333306875
 40
10.5833333306875
 40
10.5833333306875
 40
10.93611110837708
 40
10.93611110837708
 40
10.93611110837708
 40
11.28888888606667
 40
11.28888888606667
 40
11.28888888606667
 40
11.64166666375625
 40
11.64166666375625
 40
11.64166666375625
 40
11.99444444144583
 40
11.99444444144583
 40
11.99444444144583
 40
12.34722221913542
 40
12.34722221913542
 40
12.34722221913542
 40
12.699999996825
 40
12.699999996825
 40
12.699999996825
 40
13.05277777451458
 40
13.05277777451458
 40
13.05277777451458
 40
13.40555555220417
 40
13.40555555220417
 40
13.40555555220417
 40
13.75833332989375
 40
13.75833332989375
 40
13.75833332989375
 40
14.11111110758333
 40
14.11111110758333
 40
14.11111110758333
 40
14.46388888527292
 40
14.46388888527292
 40
14.46388888527292
 40
14.46388888527292
 10
146.2098523940031
 20
31.24047036979405
 10
146.2704860745435
 20
31.50780977944944
 10
146.2994248766196
 20
31.65525986621813
 10
146.3290526977927
 20
31.80477701027797
 10
146.3290526977927
 20
31.80477701027797
 10
145.5277234879236
 20
31.87574597727412
 10
145.5277234879236
 20
31.87574597727412
 10
145.4450411962776
 20
31.26389701909375
 10
145.2603840782682
 20
30.85461967544607
 10
145.1480739654491
 20
30.64033473626353
 10
145.1480739654491
 20
30.64033473626353
 10
145.1480739654491
 20
31.00895995318526
 10
145.1480739654491
 20
31.00895995318526
 10
145.1480739654491
 20
31.00895995318526
 10
144.5837673249652
 20
31.00895995318526
 10
144.5837673249652
 20
31.00895995318526
 10
144.5837673249652
 20
31.00895995318526
 10
144.5837673249652
 20
31.98771158054474
 10
144.5837673249652
 20
31.98771158054474
 10
144.5837673249652
 20
31.98771158054474
 10
143.7652126376698
 20
31.98771158054474
 10
143.7652126376698
 20
31.98771158054474
 10
143.7652126376698
 20
31.98771158054474
 10
143.7652126376698
 20
31.00895995318526
 10
143.7652126376698
 20
31.00895995318526
 10
143.7652126376698
 20
31.00895995318526
 10
143.0403645475733
 20
31.00895995318526
 10
143.0403645475733
 20
31.00895995318526
 10
143.0403645475733
 20
31.00895995318526
 10
143.0403645475733
 20
30.18971624679285
 10
143.0403645475733
 20
30.18971624679285
 10
143.0403645475733
 20
30.18971624679285
 10
143.6997558234501
 20
30.18971624679285
 10
143.6997558234501
 20
30.18971624679285
 10
143.4324164137947
 20
29.25816242758129
 10
143.1712781760127
 20
28.86679958045691
 10
142.9280544347541
 20
28.56363117775493
 10
142.9280544347541
 20
28.56363117775493
 10
143.2071071690593
 20
27.39505478915818
 10
143.2071071690593
 20
27.39505478915818
 10
143.3497341221487
 20
27.60176051827317
 10
143.5688421950106
 20
27.94006889492471
 10
143.7652126376698
 20
28.61668564822778
 10
143.7652126376698
 20
28.61668564822778
 10
143.7652126376698
 20
26.36703829635963
 10
143.7652126376698
 20
26.36703829635963
 10
143.7652126376698
 20
26.36703829635963
 10
144.5837673249652
 20
26.36703829635963
 10
144.5837673249652
 20
26.36703829635963
 10
144.5837673249652
 20
26.36703829635963
 10
144.5837673249652
 20
28.84268391206016
 10
144.5837673249652
 20
28.84268391206016
 10
144.6430229673115
 20
28.60014918989857
 10
144.6733398075817
 20
28.47440320468696
 10
144.9220757016167
 20
28.0117268810179
 10
144.9220757016167
 20
28.0117268810179
 10
145.4333278716278
 20
28.68834363432097
 10
145.4333278716278
 20
28.68834363432097
 10
145.3437553890113
 20
28.77102592596697
 10
145.2789875938886
 20
28.83717175928376
 10
145.159787290099
 20
28.98462184605246
 10
145.159787290099
 20
28.98462184605246
 10
146.2098523940031
 20
28.98462184605246
 10
146.2098523940031
 20
28.98462184605246
 10
145.7240939305829
 20
28.0999213254403
 10
145.118446144276
 20
27.69064398179262
 10
144.8745333839203
 20
27.53630370405342
 10
144.8745333839203
 20
27.53630370405342
 10
145.3968098594841
 20
26.69983452023477
 10
145.3968098594841
 20
26.69983452023477
 10
145.8715440173516
 20
27.13322753227919
 10
146.2463704061468
 20
27.63758951131977
 10
146.5185329494815
 20
28.22532280110339
 10
146.5185329494815
 20
28.22532280110339
 10
146.5185329494815
 20
26.36703829635963
 10
146.5185329494815
 20
26.36703829635963
 10
146.5185329494815
 20
26.36703829635963
 10
147.367404477047
 20
26.36703829635963
 10
147.367404477047
 20
26.36703829635963
 10
147.367404477047
 20
26.36703829635963
 10
147.367404477047
 20
28.08958603898455
 10
147.367404477047
 20
28.08958603898455
 10
147.6168293901791
 20
27.56110839154723
 10
147.9558267859277
 20
27.07328287083585
 10
148.4188476191453
 20
26.71051431623904
 10
148.4188476191453
 20
26.71051431623904
 10
148.7681803013496
 20
27.71475965018937
 10
148.7681803013496
 20
27.71475965018937
 10
148.5070420635677
 20
27.89252657722826
 10
148.0440212303501
 20
28.22532280110339
 10
147.6113172374027
 20
28.98462184605246
 10
147.6113172374027
 20
28.98462184605246
 10
148.6613823413069
 20
28.98462184605246
 10
148.6613823413069
 20
28.98462184605246
 10
148.6613823413069
 20
28.98462184605246
 10
148.6613823413069
 20
29.83418239271507
 10
148.6613823413069
 20
29.83418239271507
 10
148.6613823413069
 20
29.83418239271507
 10
147.367404477047
 20
29.83418239271507
 10
147.367404477047
 20
29.83418239271507
 10
147.367404477047
 20
29.83418239271507
 10
147.367404477047
 20
30.39780001410194
 10
147.367404477047
 20
30.39780001410194
 10
147.367404477047
 20
30.39780001410194
 10
148.5724988777874
 20
30.39780001410194
 10
148.5724988777874
 20
30.39780001410194
 10
148.5724988777874
 20
30.39780001410194
 10
148.5724988777874
 20
31.24047036979405
 10
148.5724988777874
 20
31.24047036979405
 10
148.5724988777874
 20
31.24047036979405
 10
147.367404477047
 20
31.24047036979405
 10
147.367404477047
 20
31.24047036979405
 10
147.367404477047
 20
31.24047036979405
 10
147.367404477047
 20
31.98771158054474
 10
147.367404477047
 20
31.98771158054474
 10
147.367404477047
 20
31.98771158054474
 10
146.5185329494815
 20
31.98771158054474
 10
146.5185329494815
 20
31.98771158054474
 10
146.5185329494815
 20
31.98771158054474
 10
146.5185329494815
 20
31.24047036979405
 10
146.5185329494815
 20
31.24047036979405
 10
146.5185329494815
 20
31.24047036979405
 10
146.2098523940031
 20
31.24047036979405
 10
146.2098523940031
 20
31.24047036979405
 72
     1
 10
146.2098523940031
 20
31.24047036979405
 11
146.2098523940031
 21
31.24047036979405
 97
        0
 75
     2
 76
     1
 98
        0
  0
SPLINE
  5
C9
330
C1
100
AcDbEntity
  8
\U+30EC\U+30A4\U+30E4\U+30FC 1
370
     0
100
AcDbSpline
210
0.0
220
0.0
230
1.0
 70
    11
 71
     3
 72
    71
 73
    67
 74
     0
 42
0.0000000001
 43
0.0000000001
 40
0.0
 40
0.0
 40
0.0
 40
0.0
 40
1.0
 40
1.0
 40
1.0
 40
2.0
 40
2.0
 40
2.0
 40
3.0
 40
3.0
 40
3.0
 40
4.0
 40
4.0
 40
4.0
 40
5.0
 40
5.0
 40
5.0
 40
6.0
 40
6.0
 40
6.0
 40
7.0
 40
7.0
 40
7.0
 40
8.0
 40
8.0
 40
8.0
 40
9.0
 40
9.0
 40
9.0
 40
10.0
 40
10.0
 40
10.0
 40
11.0
 40
11.0
 40
11.0
 40
12.0
 40
12.0
 40
12.0
 40
13.0
 40
13.0
 40
13.0
 40
14.0
 40
14.0
 40
14.0
 40
15.0
 40
15.0
 40
15.0
 40
16.0
 40
16.0
 40
16.0
 40
17.0
 40
17.0
 40
17.0
 40
18.0
 40
18.0
 40
18.0
 40
19.0
 40
19.0
 40
19.0
 40
20.0
 40
20.0
 40
20.0
 40
21.0
 40
21.0
 40
21.0
 40
22.0
 40
22.0
 40
22.0
 40
22.0
 10
154.0336642410055
 20
31.17570257467136
 30
0.0
 10
154.0336642410055
 20
31.17570257467136
 30
0.0
 10
154.5910806905189
 20
31.17570257467136
 30
0.0
 10
154.5910806905189
 20
31.17570257467136
 30
0.0
 10
154.5910806905189
 20
31.17570257467136
 30
0.0
 10
154.5910806905189
 20
30.3144287033589
 30
0.0
 10
154.5910806905189
 20
30.3144287033589
 30
0.0
 10
154.5910806905189
 20
30.3144287033589
 30
0.0
 10
152.9408799530842
 20
30.3144287033589
 30
0.0
 10
152.9408799530842
 20
30.3144287033589
 30
0.0
 10
152.9773979652279
 20
29.56615396396263
 30
0.0
 10
153.0600802568739
 20
28.81856824366341
 30
0.0
 10
153.2971028262591
 20
28.1068115164108
 30
0.0
 10
153.3570474877024
 20
27.92904458937191
 30
0.0
 10
153.5162108991209
 20
27.50736490197733
 30
0.0
 10
153.6891546924805
 20
27.50736490197733
 30
0.0
 10
153.8552082948695
 20
27.50736490197733
 30
0.0
 10
154.1749131559007
 20
27.91664224562501
 30
0.0
 10
154.3127169753107
 20
28.31420626462284
 30
0.0
 10
154.3127169753107
 20
28.31420626462284
 30
0.0
 10
154.6923664977853
 20
27.36473794888798
 30
0.0
 10
154.6923664977853
 20
27.36473794888798
 30
0.0
 10
154.5676540412192
 20
27.020228400363
 30
0.0
 10
154.2644856385172
 20
26.35601399080683
 30
0.0
 10
153.7132703608772
 20
26.35601399080683
 30
0.0
 10
153.434217626572
 20
26.35601399080683
 30
0.0
 10
153.1489637203933
 20
26.50966524944898
 30
0.0
 10
152.9884222707807
 20
26.68881021468196
 30
0.0
 10
152.1278374185653
 20
27.63758951131977
 30
0.0
 10
152.068581776219
 20
29.35944823484764
 30
0.0
 10
152.0334418022694
 20
30.3144287033589
 30
0.0
 10
152.0334418022694
 20
30.3144287033589
 30
0.0
 10
148.994178565182
 20
30.3144287033589
 30
0.0
 10
148.994178565182
 20
30.3144287033589
 30
0.0
 10
148.994178565182
 20
30.3144287033589
 30
0.0
 10
148.994178565182
 20
31.17570257467136
 30
0.0
 10
148.994178565182
 20
31.17570257467136
 30
0.0
 10
148.994178565182
 20
31.17570257467136
 30
0.0
 10
152.0038139810963
 20
31.17570257467136
 30
0.0
 10
152.0038139810963
 20
31.17570257467136
 30
0.0
 10
151.9976128092228
 20
31.26389701909375
 30
0.0
 10
151.985899484573
 20
31.69797905023523
 30
0.0
 10
151.9796983126995
 20
31.79237466653107
 30
0.0
 10
151.9796983126995
 20
31.84611815610097
 30
0.0
 10
151.9796983126995
 20
31.89297145470037
 30
0.0
 10
151.9734971408261
 20
31.99976941474311
 30
0.0
 10
151.9734971408261
 20
31.99976941474311
 30
0.0
 10
152.923654475658
 20
31.99976941474311
 30
0.0
 10
152.923654475658
 20
31.99976941474311
 30
0.0
 10
152.9174533037845
 20
31.53192544784619
 30
0.0
 10
152.9174533037845
 20
31.39481064753324
 30
0.0
 10
152.923654475658
 20
31.17570257467136
 30
0.0
 10
152.923654475658
 20
31.17570257467136
 30
0.0
 10
153.5051865935682
 20
31.17570257467136
 30
0.0
 10
153.5051865935682
 20
31.17570257467136
 30
0.0
 10
153.350846315829
 20
31.40101181940669
 30
0.0
 10
153.2199326873895
 20
31.59118109019249
 30
0.0
 10
153.0717935815237
 20
31.72691785231133
 30
0.0
 10
153.0717935815237
 20
31.72691785231133
 30
0.0
 10
153.8379828174433
 20
32.03628742688677
 30
0.0
 10
153.8379828174433
 20
32.03628742688677
 30
0.0
 10
153.9261772618657
 20
31.97014159356997
 30
0.0
 10
154.0033474007353
 20
31.91639810400007
 30
0.0
 10
154.4140027825771
 20
31.3417561770604
 30
0.0
 10
154.4140027825771
 20
31.3417561770604
 30
0.0
 10
154.0336642410055
 20
31.17570257467136
 30
0.0
 10
154.0336642410055
 20
31.17570257467136
 30
0.0
  0
SPLINE
  5
CA
330
C1
100
AcDbEntity
  8
\U+30EC\U+30A4\U+30E4\U+30FC 1
370
     0
100
AcDbSpline
210
0.0
220
0.0
230
1.0
 70
    11
 71
     3
 72
    44
 73
    40
 74
     0
 42
0.0000000001
 43
0.0000000001
 40
0.0
 40
0.0
 40
0.0
 40
0.0
 40
1.0
 40
1.0
 40
1.0
 40
2.0
 40
2.0
 40
2.0
 40
3.0
 40
3.0
 40
3.0
 40
4.0
 40
4.0
 40
4.0
 40
5.0
 40
5.0
 40
5.0
 40
6.0
 40
6.0
 40
6.0
 40
7.0
 40
7.0
 40
7.0
 40
8.0
 40
8.0
 40
8.0
 40
9.0
 40
9.0
 40
9.0
 40
10.0
 40
10.0
 40
10.0
 40
11.0
 40
11.0
 40
11.0
 40
12.0
 40
12.0
 40
12.0
 40
13.0
 40
13.0
 40
13.0
 40
13.0
 10
148.9411240947092
 20
27.42950574401068
 30
0.0
 10
149.0534342075283
 20
27.43570691588413
 30
0.0
 10
149.1126898498746
 20
27.43570691588413
 30
0.0
 10
149.1898599887442
 20
27.44190808775758
 30
0.0
 10
149.3145724453103
 20
27.44810925963103
 30
0.0
 10
149.9140190597437
 20
27.50116373010388
 30
0.0
 10
150.0511338600567
 20
27.50736490197733
 30
0.0
 10
150.0511338600567
 20
27.50736490197733
 30
0.0
 10
150.0511338600567
 20
28.93707952835601
 30
0.0
 10
150.0511338600567
 20
28.93707952835601
 30
0.0
 10
150.0511338600567
 20
28.93707952835601
 30
0.0
 10
149.1064886780012
 20
28.93707952835601
 30
0.0
 10
149.1064886780012
 20
28.93707952835601
 30
0.0
 10
149.1064886780012
 20
28.93707952835601
 30
0.0
 10
149.1064886780012
 20
29.79766438057142
 30
0.0
 10
149.1064886780012
 20
29.79766438057142
 30
0.0
 10
149.1064886780012
 20
29.79766438057142
 30
0.0
 10
151.8846136773066
 20
29.79766438057142
 30
0.0
 10
151.8846136773066
 20
29.79766438057142
 30
0.0
 10
151.8846136773066
 20
29.79766438057142
 30
0.0
 10
151.8846136773066
 20
28.93707952835601
 30
0.0
 10
151.8846136773066
 20
28.93707952835601
 30
0.0
 10
151.8846136773066
 20
28.93707952835601
 30
0.0
 10
150.9585720108715
 20
28.93707952835601
 30
0.0
 10
150.9585720108715
 20
28.93707952835601
 30
0.0
 10
150.9585720108715
 20
28.93707952835601
 30
0.0
 10
150.9585720108715
 20
27.58453504084692
 30
0.0
 10
150.9585720108715
 20
27.58453504084692
 30
0.0
 10
151.6289875923011
 20
27.64930283596962
 30
0.0
 10
151.8729003526568
 20
27.69684515366607
 30
0.0
 10
152.0926974446157
 20
27.73818629948907
 30
0.0
 10
152.0926974446157
 20
27.73818629948907
 30
0.0
 10
152.1037217501685
 20
26.89551594379695
 30
0.0
 10
152.1037217501685
 20
26.89551594379695
 30
0.0
 10
151.4277940159625
 20
26.75288899070761
 30
0.0
 10
151.0536566462644
 20
26.71085882578756
 30
0.0
 10
149.0417208828785
 20
26.49795192479912
 30
0.0
 10
149.0417208828785
 20
26.49795192479912
 30
0.0
 10
148.9411240947092
 20
27.42950574401068
 30
0.0
 10
148.9411240947092
 20
27.42950574401068
 30
0.0
  0
HATCH
  5
CB
330
C1
100
AcDbEntity
  8
\U+30EC\U+30A4\U+30E4\U+30FC 1
 62
    29
100
AcDbHatch
 10
0.0
 20
0.0
 30
0.0
210
0.0
220
0.0
230
1.0
  2
SOLID
 70
     1
 71
     0
 91
        2
 92
        1
 93
        1
 72
     4
 94
        3
 73
     0
 74
     1
 95
       44
 96
       40
 40
0.0
 40
0.0
 40
0.0
 40
0.0
 40
1.0
 40
1.0
 40
1.0
 40
2.0
 40
2.0
 40
2.0
 40
3.0
 40
3.0
 40
3.0
 40
4.0
 40
4.0
 40
4.0
 40
5.0
 40
5.0
 40
5.0
 40
6.0
 40
6.0
 40
6.0
 40
7.0
 40
7.0
 40
7.0
 40
8.0
 40
8.0
 40
8.0
 40
9.0
 40
9.0
 40
9.0
 40
10.0
 40
10.0
 40
10.0
 40
11.0
 40
11.0
 40
11.0
 40
12.0
 40
12.0
 40
12.0
 40
13.0
 40
13.0
 40
13.0
 40
13.0
 10
148.9411240947092
 20
27.42950574401068
 10
149.0534342075283
 20
27.43570691588413
 10
149.1126898498746
 20
27.43570691588413
 10
149.1898599887442
 20
27.44190808775758
 10
149.3145724453103
 20
27.44810925963103
 10
149.9140190597437
 20
27.50116373010388
 10
150.0511338600567
 20
27.50736490197733
 10
150.0511338600567
 20
27.50736490197733
 10
150.0511338600567
 20
28.93707952835601
 10
150.0511338600567
 20
28.93707952835601
 10
150.0511338600567
 20
28.93707952835601
 10
149.1064886780012
 20
28.93707952835601
 10
149.1064886780012
 20
28.93707952835601
 10
149.1064886780012
 20
28.93707952835601
 10
149.1064886780012
 20
29.79766438057142
 10
149.1064886780012
 20
29.79766438057142
 10
149.1064886780012
 20
29.79766438057142
 10
151.8846136773066
 20
29.79766438057142
 10
151.8846136773066
 20
29.79766438057142
 10
151.8846136773066
 20
29.79766438057142
 10
151.8846136773066
 20
28.93707952835601
 10
151.8846136773066
 20
28.93707952835601
 10
151.8846136773066
 20
28.93707952835601
 10
150.9585720108715
 20
28.93707952835601
 10
150.9585720108715
 20
28.93707952835601
 10
150.9585720108715
 20
28.93707952835601
 10
150.9585720108715
 20
27.58453504084692
 10
150.9585720108715
 20
27.58453504084692
 10
151.6289875923011
 20
27.64930283596962
 10
151.8729003526568
 20
27.69684515366607
 10
152.0926974446157
 20
27.73818629948907
 10
152.0926974446157
 20
27.73818629948907
 10
152.1037217501685
 20
26.89551594379695
 10
152.1037217501685
 20
26.89551594379695
 10
151.4277940159625
 20
26.75288899070761
 10
151.0536566462644
 20
26.71085882578756
 10
149.0417208828785
 20
26.49795192479912
 10
149.0417208828785
 20
26.49795192479912
 10
148.9411240947092
 20
27.42950574401068
 10
148.9411240947092
 20
27.42950574401068
 97
        0
 92
        1
 93
        2
 72
     4
 94
        3
 73
     0
 74
     0
 95
       71
 96
       67
 40
0.0
 40
0.0
 40
0.0
 40
0.0
 40
0.3527777776895833
 40
0.3527777776895833
 40
0.3527777776895833
 40
0.7055555553791667
 40
0.7055555553791667
 40
0.7055555553791667
 40
1.05833333306875
 40
1.05833333306875
 40
1.05833333306875
 40
1.411111110758333
 40
1.411111110758333
 40
1.411111110758333
 40
1.763888888447917
 40
1.763888888447917
 40
1.763888888447917
 40
2.1166666661375
 40
2.1166666661375
 40
2.1166666661375
 40
2.469444443827083
 40
2.469444443827083
 40
2.469444443827083
 40
2.822222221516667
 40
2.822222221516667
 40
2.822222221516667
 40
3.17499999920625
 40
3.17499999920625
 40
3.17499999920625
 40
3.527777776895833
 40
3.527777776895833
 40
3.527777776895833
 40
3.880555554585417
 40
3.880555554585417
 40
3.880555554585417
 40
4.233333332275
 40
4.233333332275
 40
4.233333332275
 40
4.586111109964584
 40
4.586111109964584
 40
4.586111109964584
 40
4.938888887654167
 40
4.938888887654167
 40
4.938888887654167
 40
5.29166666534375
 40
5.29166666534375
 40
5.29166666534375
 40
5.644444443033334
 40
5.644444443033334
 40
5.644444443033334
 40
5.997222220722917
 40
5.997222220722917
 40
5.997222220722917
 40
6.349999998412501
 40
6.349999998412501
 40
6.349999998412501
 40
6.702777776102083
 40
6.702777776102083
 40
6.702777776102083
 40
7.055555553791667
 40
7.055555553791667
 40
7.055555553791667
 40
7.40833333148125
 40
7.40833333148125
 40
7.40833333148125
 40
7.761111109170834
 40
7.761111109170834
 40
7.761111109170834
 40
7.761111109170834
 10
154.0336642410055
 20
31.17570257467136
 10
154.0336642410055
 20
31.17570257467136
 10
154.5910806905189
 20
31.17570257467136
 10
154.5910806905189
 20
31.17570257467136
 10
154.5910806905189
 20
31.17570257467136
 10
154.5910806905189
 20
30.3144287033589
 10
154.5910806905189
 20
30.3144287033589
 10
154.5910806905189
 20
30.3144287033589
 10
152.9408799530842
 20
30.3144287033589
 10
152.9408799530842
 20
30.3144287033589
 10
152.9773979652279
 20
29.56615396396263
 10
153.0600802568739
 20
28.81856824366341
 10
153.2971028262591
 20
28.1068115164108
 10
153.3570474877024
 20
27.92904458937191
 10
153.5162108991209
 20
27.50736490197733
 10
153.6891546924805
 20
27.50736490197733
 10
153.8552082948695
 20
27.50736490197733
 10
154.1749131559007
 20
27.91664224562501
 10
154.3127169753107
 20
28.31420626462284
 10
154.3127169753107
 20
28.31420626462284
 10
154.6923664977853
 20
27.36473794888798
 10
154.6923664977853
 20
27.36473794888798
 10
154.5676540412192
 20
27.020228400363
 10
154.2644856385172
 20
26.35601399080683
 10
153.7132703608772
 20
26.35601399080683
 10
153.434217626572
 20
26.35601399080683
 10
153.1489637203933
 20
26.50966524944898
 10
152.9884222707807
 20
26.68881021468196
 10
152.1278374185653
 20
27.63758951131977
 10
152.068581776219
 20
29.35944823484764
 10
152.0334418022694
 20
30.3144287033589
 10
152.0334418022694
 20
30.3144287033589
 10
148.994178565182
 20
30.3144287033589
 10
148.994178565182
 20
30.3144287033589
 10
148.994178565182
 20
30.3144287033589
 10
148.994178565182
 20
31.17570257467136
 10
148.994178565182
 20
31.17570257467136
 10
148.994178565182
 20
31.17570257467136
 10
152.0038139810963
 20
31.17570257467136
 10
152.0038139810963
 20
31.17570257467136
 10
151.9976128092228
 20
31.26389701909375
 10
151.985899484573
 20
31.69797905023523
 10
151.9796983126995
 20
31.79237466653107
 10
151.9796983126995
 20
31.84611815610097
 10
151.9796983126995
 20
31.89297145470037
 10
151.9734971408261
 20
31.99976941474311
 10
151.9734971408261
 20
31.99976941474311
 10
152.923654475658
 20
31.99976941474311
 10
152.923654475658
 20
31.99976941474311
 10
152.9174533037845
 20
31.53192544784619
 10
152.9174533037845
 20
31.39481064753324
 10
152.923654475658
 20
31.17570257467136
 10
152.923654475658
 20
31.17570257467136
 10
153.5051865935682
 20
31.17570257467136
 10
153.5051865935682
 20
31.17570257467136
 10
153.350846315829
 20
31.40101181940669
 10
153.2199326873895
 20
31.59118109019249
 10
153.0717935815237
 20
31.72691785231133
 10
153.0717935815237
 20
31.72691785231133
 10
153.8379828174433
 20
32.03628742688677
 10
153.8379828174433
 20
32.03628742688677
 10
153.9261772618657
 20
31.97014159356997
 10
154.0033474007353
 20
31.91639810400007
 10
154.4140027825771
 20
31.3417561770604
 10
154.4140027825771
 20
31.3417561770604
 10
154.0336642410055
 20
31.17570257467136
 10
154.0336642410055
 20
31.17570257467136
 72
     1
 10
154.0336642410055
 20
31.17570257467136
 11
154.0336642410055
 21
31.17570257467136
 97
        0
 75
     2
 76
     1
 98
        0
  0
SPLINE
  5
CC
330
C1
100
AcDbEntity
  8
\U+30EC\U+30A4\U+30E4\U+30FC 1
370
     0
100
AcDbSpline
210
0.0
220
0.0
230
1.0
 70
    11
 71
     3
 72
    23
 73
    19
 74
     0
 42
0.0000000001
 43
0.0000000001
 40
0.0
 40
0.0
 40
0.0
 40
0.0
 40
1.0
 40
1.0
 40
1.0
 40
2.0
 40
2.0
 40
2.0
 40
3.0
 40
3.0
 40
3.0
 40
4.0
 40
4.0
 40
4.0
 40
5.0
 40
5.0
 40
5.0
 40
6.0
 40
6.0
 40
6.0
 40
6.0
 10
158.3303873302091
 20
28.0833848671111
 30
0.0
 10
158.4730142832984
 20
27.91044107375156
 30
0.0
 10
158.5805012624382
 20
27.78021646440911
 30
0.0
 10
158.8175238318234
 20
27.46533473705728
 30
0.0
 10
158.6266655419406
 20
27.45982258428088
 30
0.0
 10
157.6902885890497
 20
27.41779241936083
 30
0.0
 10
157.4815158026435
 20
27.40607909471098
 30
0.0
 10
157.3754068616978
 20
27.40091145148311
 30
0.0
 10
157.3278645440014
 20
27.40091145148311
 30
0.0
 10
156.8999836847333
 20
27.40091145148311
 30
0.0
 10
157.0777506117722
 20
27.75610079601237
 30
0.0
 10
157.1969509155619
 20
28.0241292247648
 30
0.0
 10
157.3630045179509
 20
28.41514756234066
 30
0.0
 10
157.3630045179509
 20
28.41514756234066
 30
0.0
 10
159.0311197519089
 20
28.41514756234066
 30
0.0
 10
159.0311197519089
 20
28.41514756234066
 30
0.0
 10
159.0311197519089
 20
28.41514756234066
 30
0.0
 10
158.3303873302091
 20
28.0833848671111
 30
0.0
 10
158.3303873302091
 20
28.0833848671111
 30
0.0
  0
SPLINE
  5
CD
330
C1
100
AcDbEntity
  8
\U+30EC\U+30A4\U+30E4\U+30FC 1
370
     0
100
AcDbSpline
210
0.0
220
0.0
230
1.0
 70
    11
 71
     3
 72
    44
 73
    40
 74
     0
 42
0.0000000001
 43
0.0000000001
 40
0.0
 40
0.0
 40
0.0
 40
0.0
 40
1.0
 40
1.0
 40
1.0
 40
2.0
 40
2.0
 40
2.0
 40
3.0
 40
3.0
 40
3.0
 40
4.0
 40
4.0
 40
4.0
 40
5.0
 40
5.0
 40
5.0
 40
6.0
 40
6.0
 40
6.0
 40
7.0
 40
7.0
 40
7.0
 40
8.0
 40
8.0
 40
8.0
 40
9.0
 40
9.0
 40
9.0
 40
10.0
 40
10.0
 40
10.0
 40
11.0
 40
11.0
 40
11.0
 40
12.0
 40
12.0
 40
12.0
 40
13.0
 40
13.0
 40
13.0
 40
13.0
 10
160.4201822515616
 20
26.76460231535746
 30
0.0
 10
160.0639593783868
 20
27.32890895584138
 30
0.0
 10
159.6898220086887
 20
27.85738660327871
 30
0.0
 10
159.1730576859012
 20
28.41514756234066
 30
0.0
 10
159.1730576859012
 20
28.41514756234066
 30
0.0
 10
160.4015787359413
 20
28.41514756234066
 30
0.0
 10
160.4015787359413
 20
28.41514756234066
 30
0.0
 10
160.4015787359413
 20
28.41514756234066
 30
0.0
 10
160.4015787359413
 20
29.26987575223114
 30
0.0
 10
160.4015787359413
 20
29.26987575223114
 30
0.0
 10
160.4015787359413
 20
29.26987575223114
 30
0.0
 10
155.0485893709601
 20
29.26987575223114
 30
0.0
 10
155.0485893709601
 20
29.26987575223114
 30
0.0
 10
155.0485893709601
 20
29.26987575223114
 30
0.0
 10
155.0485893709601
 20
28.41514756234066
 30
0.0
 10
155.0485893709601
 20
28.41514756234066
 30
0.0
 10
155.0485893709601
 20
28.41514756234066
 30
0.0
 10
156.371506037296
 20
28.41514756234066
 30
0.0
 10
156.371506037296
 20
28.41514756234066
 30
0.0
 10
156.247482599827
 20
28.0296413775412
 30
0.0
 10
156.1103677995141
 20
27.70959200696149
 30
0.0
 10
155.9629177127454
 20
27.39505478915818
 30
0.0
 10
155.8561197527027
 20
27.39505478915818
 30
0.0
 10
155.392409900388
 20
27.38816459818768
 30
0.0
 10
155.2973252649951
 20
27.38816459818768
 30
0.0
 10
155.2504719663957
 20
27.38816459818768
 30
0.0
 10
155.2084418014757
 20
27.38816459818768
 30
0.0
 10
155.089241497686
 20
27.39505478915818
 30
0.0
 10
155.089241497686
 20
27.39505478915818
 30
0.0
 10
155.2325574698724
 20
26.47486978504795
 30
0.0
 10
155.2325574698724
 20
26.47486978504795
 30
0.0
 10
156.5795898046051
 20
26.51586642132242
 30
0.0
 10
156.7876735719142
 20
26.53378091784572
 30
0.0
 10
159.321885810864
 20
26.73566351328136
 30
0.0
 10
159.4341959236831
 20
26.55100639527197
 30
0.0
 10
159.487939413253
 20
26.46212293175252
 30
0.0
 10
159.5651095521226
 20
26.31398382588678
 30
0.0
 10
159.5651095521226
 20
26.31398382588678
 30
0.0
 10
160.4201822515616
 20
26.76460231535746
 30
0.0
 10
160.4201822515616
 20
26.76460231535746
 30
0.0
  0
SPLINE
  5
CE
330
C1
100
AcDbEntity
  8
\U+30EC\U+30A4\U+30E4\U+30FC 1
370
     0
100
AcDbSpline
210
0.0
220
0.0
230
1.0
 70
    11
 71
     3
 72
    35
 73
    31
 74
     0
 42
0.0000000001
 43
0.0000000001
 40
0.0
 40
0.0
 40
0.0
 40
0.0
 40
1.0
 40
1.0
 40
1.0
 40
2.0
 40
2.0
 40
2.0
 40
3.0
 40
3.0
 40
3.0
 40
4.0
 40
4.0
 40
4.0
 40
5.0
 40
5.0
 40
5.0
 40
6.0
 40
6.0
 40
6.0
 40
7.0
 40
7.0
 40
7.0
 40
8.0
 40
8.0
 40
8.0
 40
9.0
 40
9.0
 40
9.0
 40
10.0
 40
10.0
 40
10.0
 40
10.0
 10
156.1523979644341
 20
29.68604328684932
 30
0.0
 10
156.1523979644341
 20
29.68604328684932
 30
0.0
 10
159.3101724862141
 20
29.68604328684932
 30
0.0
 10
159.3101724862141
 20
29.68604328684932
 30
0.0
 10
159.3101724862141
 20
29.68604328684932
 30
0.0
 10
159.3101724862141
 20
30.04777831280056
 30
0.0
 10
159.3101724862141
 20
30.04777831280056
 30
0.0
 10
159.7318521736087
 20
29.79284124689207
 30
0.0
 10
159.9867892395172
 20
29.67984211497587
 30
0.0
 10
160.1941839877292
 20
29.58958061326233
 30
0.0
 10
160.1941839877292
 20
29.58958061326233
 30
0.0
 10
160.6578938400439
 20
30.48668347762139
 30
0.0
 10
160.6578938400439
 20
30.48668347762139
 30
0.0
 10
159.7559678420054
 20
30.82602538291849
 30
0.0
 10
158.9008951425664
 20
31.30523816491675
 30
0.0
 10
158.2718207069598
 20
32.03628742688677
 30
0.0
 10
158.2718207069598
 20
32.03628742688677
 30
0.0
 10
157.2148654120852
 20
32.03628742688677
 30
0.0
 10
157.2148654120852
 20
32.03628742688677
 30
0.0
 10
156.8352158896107
 20
31.50091958847894
 30
0.0
 10
156.1765136328309
 20
31.01516112505871
 30
0.0
 10
154.799164457828
 20
30.47428113387449
 30
0.0
 10
154.799164457828
 20
30.47428113387449
 30
0.0
 10
155.2504719663957
 20
29.57304415493313
 30
0.0
 10
155.2504719663957
 20
29.57304415493313
 30
0.0
 10
155.4282388934346
 20
29.64332410283222
 30
0.0
 10
155.6886881121195
 20
29.74460991009857
 30
0.0
 10
156.1523979644341
 20
30.02366264440381
 30
0.0
 10
156.1523979644341
 20
30.02366264440381
 30
0.0
 10
156.1523979644341
 20
29.68604328684932
 30
0.0
 10
156.1523979644341
 20
29.68604328684932
 30
0.0
  0
SPLINE
  5
CF
330
C1
100
AcDbEntity
  8
\U+30EC\U+30A4\U+30E4\U+30FC 1
370
     0
100
AcDbSpline
210
0.0
220
0.0
230
1.0
 70
    11
 71
     3
 72
    14
 73
    10
 74
     0
 42
0.0000000001
 43
0.0000000001
 40
0.0
 40
0.0
 40
0.0
 40
0.0
 40
1.0
 40
1.0
 40
1.0
 40
2.0
 40
2.0
 40
2.0
 40
3.0
 40
3.0
 40
3.0
 40
3.0
 10
156.8228135458637
 20
30.48048230574794
 30
0.0
 10
157.3864311672506
 20
30.90836316501597
 30
0.0
 10
157.5890027817833
 20
31.13367240975131
 30
0.0
 10
157.7378309067461
 20
31.3169514895666
 30
0.0
 10
157.9149088146879
 20
31.12195908510146
 30
0.0
 10
158.1464192312967
 20
30.87253417196937
 30
0.0
 10
158.6631835540842
 20
30.48048230574794
 30
0.0
 10
158.6631835540842
 20
30.48048230574794
 30
0.0
 10
156.8228135458637
 20
30.48048230574794
 30
0.0
 10
156.8228135458637
 20
30.48048230574794
 30
0.0
  0
HATCH
  5
D0
330
C1
100
AcDbEntity
  8
\U+30EC\U+30A4\U+30E4\U+30FC 1
 62
    29
100
AcDbHatch
 10
0.0
 20
0.0
 30
0.0
210
0.0
220
0.0
230
1.0
  2
SOLID
 70
     1
 71
     0
 91
        4
 92
        1
 93
        1
 72
     4
 94
        3
 73
     0
 74
     1
 95
       14
 96
       10
 40
0.0
 40
0.0
 40
0.0
 40
0.0
 40
1.0
 40
1.0
 40
1.0
 40
2.0
 40
2.0
 40
2.0
 40
3.0
 40
3.0
 40
3.0
 40
3.0
 10
156.8228135458637
 20
30.48048230574794
 10
157.3864311672506
 20
30.90836316501597
 10
157.5890027817833
 20
31.13367240975131
 10
157.7378309067461
 20
31.3169514895666
 10
157.9149088146879
 20
31.12195908510146
 10
158.1464192312967
 20
30.87253417196937
 10
158.6631835540842
 20
30.48048230574794
 10
158.6631835540842
 20
30.48048230574794
 10
156.8228135458637
 20
30.48048230574794
 10
156.8228135458637
 20
30.48048230574794
 97
        0
 92
        1
 93
        2
 72
     4
 94
        3
 73
     0
 74
     0
 95
       23
 96
       19
 40
0.0
 40
0.0
 40
0.0
 40
0.0
 40
0.3527777776895833
 40
0.3527777776895833
 40
0.3527777776895833
 40
0.7055555553791667
 40
0.7055555553791667
 40
0.7055555553791667
 40
1.05833333306875
 40
1.05833333306875
 40
1.05833333306875
 40
1.411111110758333
 40
1.411111110758333
 40
1.411111110758333
 40
1.763888888447917
 40
1.763888888447917
 40
1.763888888447917
 40
2.1166666661375
 40
2.1166666661375
 40
2.1166666661375
 40
2.1166666661375
 10
158.3303873302091
 20
28.0833848671111
 10
158.4730142832984
 20
27.91044107375156
 10
158.5805012624382
 20
27.78021646440911
 10
158.8175238318234
 20
27.46533473705728
 10
158.6266655419406
 20
27.45982258428088
 10
157.6902885890497
 20
27.41779241936083
 10
157.4815158026435
 20
27.40607909471098
 10
157.3754068616978
 20
27.40091145148311
 10
157.3278645440014
 20
27.40091145148311
 10
156.8999836847333
 20
27.40091145148311
 10
157.0777506117722
 20
27.75610079601237
 10
157.1969509155619
 20
28.0241292247648
 10
157.3630045179509
 20
28.41514756234066
 10
157.3630045179509
 20
28.41514756234066
 10
159.0311197519089
 20
28.41514756234066
 10
159.0311197519089
 20
28.41514756234066
 10
159.0311197519089
 20
28.41514756234066
 10
158.3303873302091
 20
28.0833848671111
 10
158.3303873302091
 20
28.0833848671111
 72
     1
 10
158.3303873302091
 20
28.0833848671111
 11
158.3303873302091
 21
28.0833848671111
 97
        0
 92
        1
 93
        2
 72
     4
 94
        3
 73
     0
 74
     0
 95
       44
 96
       40
 40
0.0
 40
0.0
 40
0.0
 40
0.0
 40
0.3527777776895833
 40
0.3527777776895833
 40
0.3527777776895833
 40
0.7055555553791667
 40
0.7055555553791667
 40
0.7055555553791667
 40
1.05833333306875
 40
1.05833333306875
 40
1.05833333306875
 40
1.411111110758333
 40
1.411111110758333
 40
1.411111110758333
 40
1.763888888447917
 40
1.763888888447917
 40
1.763888888447917
 40
2.1166666661375
 40
2.1166666661375
 40
2.1166666661375
 40
2.469444443827083
 40
2.469444443827083
 40
2.469444443827083
 40
2.822222221516667
 40
2.822222221516667
 40
2.822222221516667
 40
3.17499999920625
 40
3.17499999920625
 40
3.17499999920625
 40
3.527777776895833
 40
3.527777776895833
 40
3.527777776895833
 40
3.880555554585417
 40
3.880555554585417
 40
3.880555554585417
 40
4.233333332275
 40
4.233333332275
 40
4.233333332275
 40
4.586111109964584
 40
4.586111109964584
 40
4.586111109964584
 40
4.586111109964584
 10
160.4201822515616
 20
26.76460231535746
 10
160.0639593783868
 20
27.32890895584138
 10
159.6898220086887
 20
27.85738660327871
 10
159.1730576859012
 20
28.41514756234066
 10
159.1730576859012
 20
28.41514756234066
 10
160.4015787359413
 20
28.41514756234066
 10
160.4015787359413
 20
28.41514756234066
 10
160.4015787359413
 20
28.41514756234066
 10
160.4015787359413
 20
29.26987575223114
 10
160.4015787359413
 20
29.26987575223114
 10
160.4015787359413
 20
29.26987575223114
 10
155.0485893709601
 20
29.26987575223114
 10
155.0485893709601
 20
29.26987575223114
 10
155.0485893709601
 20
29.26987575223114
 10
155.0485893709601
 20
28.41514756234066
 10
155.0485893709601
 20
28.41514756234066
 10
155.0485893709601
 20
28.41514756234066
 10
156.371506037296
 20
28.41514756234066
 10
156.371506037296
 20
28.41514756234066
 10
156.247482599827
 20
28.0296413775412
 10
156.1103677995141
 20
27.70959200696149
 10
155.9629177127454
 20
27.39505478915818
 10
155.8561197527027
 20
27.39505478915818
 10
155.392409900388
 20
27.38816459818768
 10
155.2973252649951
 20
27.38816459818768
 10
155.2504719663957
 20
27.38816459818768
 10
155.2084418014757
 20
27.38816459818768
 10
155.089241497686
 20
27.39505478915818
 10
155.089241497686
 20
27.39505478915818
 10
155.2325574698724
 20
26.47486978504795
 10
155.2325574698724
 20
26.47486978504795
 10
156.5795898046051
 20
26.51586642132242
 10
156.7876735719142
 20
26.53378091784572
 10
159.321885810864
 20
26.73566351328136
 10
159.4341959236831
 20
26.55100639527197
 10
159.487939413253
 20
26.46212293175252
 10
159.5651095521226
 20
26.31398382588678
 10
159.5651095521226
 20
26.31398382588678
 10
160.4201822515616
 20
26.76460231535746
 10
160.4201822515616
 20
26.76460231535746
 72
     1
 10
160.4201822515616
 20
26.76460231535746
 11
160.4201822515616
 21
26.76460231535746
 97
        0
 92
        1
 93
        2
 72
     4
 94
        3
 73
     0
 74
     0
 95
       35
 96
       31
 40
0.0
 40
0.0
 40
0.0
 40
0.0
 40
0.3527777776895833
 40
0.3527777776895833
 40
0.3527777776895833
 40
0.7055555553791667
 40
0.7055555553791667
 40
0.7055555553791667
 40
1.05833333306875
 40
1.05833333306875
 40
1.05833333306875
 40
1.411111110758333
 40
1.411111110758333
 40
1.411111110758333
 40
1.763888888447917
 40
1.763888888447917
 40
1.763888888447917
 40
2.1166666661375
 40
2.1166666661375
 40
2.1166666661375
 40
2.469444443827083
 40
2.469444443827083
 40
2.469444443827083
 40
2.822222221516667
 40
2.822222221516667
 40
2.822222221516667
 40
3.17499999920625
 40
3.17499999920625
 40
3.17499999920625
 40
3.527777776895833
 40
3.527777776895833
 40
3.527777776895833
 40
3.527777776895833
 10
156.1523979644341
 20
29.68604328684932
 10
156.1523979644341
 20
29.68604328684932
 10
159.3101724862141
 20
29.68604328684932
 10
159.3101724862141
 20
29.68604328684932
 10
159.3101724862141
 20
29.68604328684932
 10
159.3101724862141
 20
30.04777831280056
 10
159.3101724862141
 20
30.04777831280056
 10
159.7318521736087
 20
29.79284124689207
 10
159.9867892395172
 20
29.67984211497587
 10
160.1941839877292
 20
29.58958061326233
 10
160.1941839877292
 20
29.58958061326233
 10
160.6578938400439
 20
30.48668347762139
 10
160.6578938400439
 20
30.48668347762139
 10
159.7559678420054
 20
30.82602538291849
 10
158.9008951425664
 20
31.30523816491675
 10
158.2718207069598
 20
32.03628742688677
 10
158.2718207069598
 20
32.03628742688677
 10
157.2148654120852
 20
32.03628742688677
 10
157.2148654120852
 20
32.03628742688677
 10
156.8352158896107
 20
31.50091958847894
 10
156.1765136328309
 20
31.01516112505871
 10
154.799164457828
 20
30.47428113387449
 10
154.799164457828
 20
30.47428113387449
 10
155.2504719663957
 20
29.57304415493313
 10
155.2504719663957
 20
29.57304415493313
 10
155.4282388934346
 20
29.64332410283222
 10
155.6886881121195
 20
29.74460991009857
 10
156.1523979644341
 20
30.02366264440381
 10
156.1523979644341
 20
30.02366264440381
 10
156.1523979644341
 20
29.68604328684932
 10
156.1523979644341
 20
29.68604328684932
 72
     1
 10
156.1523979644341
 20
29.68604328684932
 11
156.1523979644341
 21
29.68604328684932
 97
        0
 75
     2
 76
     1
 98
        0
  0
SPLINE
  5
D1
330
C1
100
AcDbEntity
  8
\U+30EC\U+30A4\U+30E4\U+30FC 1
370
     0
100
AcDbSpline
210
0.0
220
0.0
230
1.0
 70
    11
 71
     3
 72
    59
 73
    55
 74
     0
 42
0.0000000001
 43
0.0000000001
 40
0.0
 40
0.0
 40
0.0
 40
0.0
 40
1.0
 40
1.0
 40
1.0
 40
2.0
 40
2.0
 40
2.0
 40
3.0
 40
3.0
 40
3.0
 40
4.0
 40
4.0
 40
4.0
 40
5.0
 40
5.0
 40
5.0
 40
6.0
 40
6.0
 40
6.0
 40
7.0
 40
7.0
 40
7.0
 40
8.0
 40
8.0
 40
8.0
 40
9.0
 40
9.0
 40
9.0
 40
10.0
 40
10.0
 40
10.0
 40
11.0
 40
11.0
 40
11.0
 40
12.0
 40
12.0
 40
12.0
 40
13.0
 40
13.0
 40
13.0
 40
14.0
 40
14.0
 40
14.0
 40
15.0
 40
15.0
 40
15.0
 40
16.0
 40
16.0
 40
16.0
 40
17.0
 40
17.0
 40
17.0
 40
18.0
 40
18.0
 40
18.0
 40
18.0
 10
162.5148003065935
 20
26.36152614358323
 30
0.0
 10
162.5148003065935
 20
26.36152614358323
 30
0.0
 10
161.6135633276522
 20
26.36152614358323
 30
0.0
 10
161.6135633276522
 20
26.36152614358323
 30
0.0
 10
161.6135633276522
 20
26.36152614358323
 30
0.0
 10
161.6135633276522
 20
28.34452310489304
 30
0.0
 10
161.6135633276522
 20
28.34452310489304
 30
0.0
 10
161.3696505672965
 20
28.13643933758395
 30
0.0
 10
161.2035969649074
 20
28.0172390337943
 30
0.0
 10
160.9831108538515
 20
27.86978894702561
 30
0.0
 10
160.9831108538515
 20
27.86978894702561
 30
0.0
 10
160.7584906282132
 20
28.91985405092976
 30
0.0
 10
160.7584906282132
 20
28.91985405092976
 30
0.0
 10
161.4227050377693
 20
29.31741806992759
 30
0.0
 10
161.9690971817299
 20
29.95200465831061
 30
0.0
 10
162.1647786052922
 20
30.34405652453204
 30
0.0
 10
162.1647786052922
 20
30.34405652453204
 30
0.0
 10
160.8652885882559
 20
30.34405652453204
 30
0.0
 10
160.8652885882559
 20
30.34405652453204
 30
0.0
 10
160.8652885882559
 20
30.34405652453204
 30
0.0
 10
160.8652885882559
 20
31.17570257467136
 30
0.0
 10
160.8652885882559
 20
31.17570257467136
 30
0.0
 10
160.8652885882559
 20
31.17570257467136
 30
0.0
 10
161.6135633276522
 20
31.17570257467136
 30
0.0
 10
161.6135633276522
 20
31.17570257467136
 30
0.0
 10
161.6135633276522
 20
31.17570257467136
 30
0.0
 10
161.6135633276522
 20
31.99425726196672
 30
0.0
 10
161.6135633276522
 20
31.99425726196672
 30
0.0
 10
161.6135633276522
 20
31.99425726196672
 30
0.0
 10
162.5148003065935
 20
31.99425726196672
 30
0.0
 10
162.5148003065935
 20
31.99425726196672
 30
0.0
 10
162.5148003065935
 20
31.99425726196672
 30
0.0
 10
162.5148003065935
 20
31.17570257467136
 30
0.0
 10
162.5148003065935
 20
31.17570257467136
 30
0.0
 10
162.5148003065935
 20
31.17570257467136
 30
0.0
 10
163.1204480929005
 20
31.17570257467136
 30
0.0
 10
163.1204480929005
 20
31.17570257467136
 30
0.0
 10
163.1204480929005
 20
31.17570257467136
 30
0.0
 10
163.1204480929005
 20
30.33854437175564
 30
0.0
 10
163.1204480929005
 20
30.33854437175564
 30
0.0
 10
163.032253648478
 20
30.12494845167015
 30
0.0
 10
162.9182209879163
 20
29.86932236666462
 30
0.0
 10
162.6519151069065
 20
29.48347167231663
 30
0.0
 10
162.9785101589082
 20
29.1217366463654
 30
0.0
 10
163.2692762178633
 20
28.94948187210291
 30
0.0
 10
163.458756469552
 20
28.84268391206016
 30
0.0
 10
163.458756469552
 20
28.84268391206016
 30
0.0
 10
163.0136501328577
 20
28.00001355636805
 30
0.0
 10
163.0136501328577
 20
28.00001355636805
 30
0.0
 10
162.8413953585952
 20
28.15986598688364
 30
0.0
 10
162.7049695773793
 20
28.30249293997299
 30
0.0
 10
162.5148003065935
 20
28.56914333053133
 30
0.0
 10
162.5148003065935
 20
28.56914333053133
 30
0.0
 10
162.5148003065935
 20
26.36152614358323
 30
0.0
 10
162.5148003065935
 20
26.36152614358323
 30
0.0
  0
POLYLINE
  5
D2
330
C1
100
AcDbEntity
  8
\U+30EC\U+30A4\U+30E4\U+30FC 1
370
     0
100
AcDb2dPolyline
 66
     1
 10
0.0
 20
0.0
 30
0.0
  0
VERTEX
  5
D3
330
D2
100
AcDbEntity
  8
\U+30EC\U+30A4\U+30E4\U+30FC 1
370
     0
100
AcDbVertex
100
AcDb2dVertex
 10
164.2780001759444
 20
31.98805609009327
 30
0.0
  0
VERTEX
  5
D4
330
D2
100
AcDbEntity
  8
\U+30EC\U+30A4\U+30E4\U+30FC 1
370
     0
100
AcDbVertex
100
AcDb2dVertex
 10
165.2047308614766
 20
31.98805609009327
 30
0.0
  0
VERTEX
  5
D5
330
D2
100
AcDbEntity
  8
\U+30EC\U+30A4\U+30E4\U+30FC 1
370
     0
100
AcDbVertex
100
AcDb2dVertex
 10
165.2047308614766
 20
30.51700031789159
 30
0.0
  0
VERTEX
  5
D6
330
D2
100
AcDbEntity
  8
\U+30EC\U+30A4\U+30E4\U+30FC 1
370
     0
100
AcDbVertex
100
AcDb2dVertex
 10
166.35539275355
 20
30.51700031789159
 30
0.0
  0
VERTEX
  5
D7
330
D2
100
AcDbEntity
  8
\U+30EC\U+30A4\U+30E4\U+30FC 1
370
     0
100
AcDbVertex
100
AcDb2dVertex
 10
166.35539275355
 20
29.60198295700923
 30
0.0
  0
VERTEX
  5
D8
330
D2
100
AcDbEntity
  8
\U+30EC\U+30A4\U+30E4\U+30FC 1
370
     0
100
AcDbVertex
100
AcDb2dVertex
 10
165.2047308614766
 20
29.60198295700923
 30
0.0
  0
VERTEX
  5
D9
330
D2
100
AcDbEntity
  8
\U+30EC\U+30A4\U+30E4\U+30FC 1
370
     0
100
AcDbVertex
100
AcDb2dVertex
 10
165.2047308614766
 20
27.42950574401068
 30
0.0
  0
VERTEX
  5
DA
330
D2
100
AcDbEntity
  8
\U+30EC\U+30A4\U+30E4\U+30FC 1
370
     0
100
AcDbVertex
100
AcDb2dVertex
 10
166.4442762170695
 20
27.42950574401068
 30
0.0
  0
VERTEX
  5
DB
330
D2
100
AcDbEntity
  8
\U+30EC\U+30A4\U+30E4\U+30FC 1
370
     0
100
AcDbVertex
100
AcDb2dVertex
 10
166.4442762170695
 20
26.52757974597227
 30
0.0
  0
VERTEX
  5
DC
330
D2
100
AcDbEntity
  8
\U+30EC\U+30A4\U+30E4\U+30FC 1
370
     0
100
AcDbVertex
100
AcDb2dVertex
 10
162.9182209879163
 20
26.52757974597227
 30
0.0
  0
VERTEX
  5
DD
330
D2
100
AcDbEntity
  8
\U+30EC\U+30A4\U+30E4\U+30FC 1
370
     0
100
AcDbVertex
100
AcDb2dVertex
 10
162.9182209879163
 20
27.42950574401068
 30
0.0
  0
VERTEX
  5
DE
330
D2
100
AcDbEntity
  8
\U+30EC\U+30A4\U+30E4\U+30FC 1
370
     0
100
AcDbVertex
100
AcDb2dVertex
 10
164.2780001759444
 20
27.42950574401068
 30
0.0
  0
VERTEX
  5
DF
330
D2
100
AcDbEntity
  8
\U+30EC\U+30A4\U+30E4\U+30FC 1
370
     0
100
AcDbVertex
100
AcDb2dVertex
 10
164.2780001759444
 20
29.60198295700923
 30
0.0
  0
VERTEX
  5
E0
330
D2
100
AcDbEntity
  8
\U+30EC\U+30A4\U+30E4\U+30FC 1
370
     0
100
AcDbVertex
100
AcDb2dVertex
 10
163.2086425373228
 20
29.60198295700923
 30
0.0
  0
VERTEX
  5
E1
330
D2
100
AcDbEntity
  8
\U+30EC\U+30A4\U+30E4\U+30FC 1
370
     0
100
AcDbVertex
100
AcDb2dVertex
 10
163.2086425373228
 20
30.51700031789159
 30
0.0
  0
VERTEX
  5
E2
330
D2
100
AcDbEntity
  8
\U+30EC\U+30A4\U+30E4\U+30FC 1
370
     0
100
AcDbVertex
100
AcDb2dVertex
 10
164.2780001759444
 20
30.51700031789159
 30
0.0
  0
VERTEX
  5
E3
330
D2
100
AcDbEntity
  8
\U+30EC\U+30A4\U+30E4\U+30FC 1
370
     0
100
AcDbVertex
100
AcDb2dVertex
 10
164.2780001759444
 20
31.98805609009327
 30
0.0
  0
SEQEND
  5
E4
330
D2
100
AcDbEntity
  8
\U+30EC\U+30A4\U+30E4\U+30FC 1
370
     0
  0
HATCH
  5
E5
330
C1
100
AcDbEntity
  8
\U+30EC\U+30A4\U+30E4\U+30FC 1
 62
    29
100
AcDbHatch
 10
0.0
 20
0.0
 30
0.0
210
0.0
220
0.0
230
1.0
  2
SOLID
 70
     1
 71
     0
 91
        2
 92
        1
 93
       16
 72
     1
 10
164.2780001759444
 20
31.98805609009327
 11
165.2047308614766
 21
31.98805609009327
 72
     1
 10
165.2047308614766
 20
31.98805609009327
 11
165.2047308614766
 21
30.51700031789159
 72
     1
 10
165.2047308614766
 20
30.51700031789159
 11
166.35539275355
 21
30.51700031789159
 72
     1
 10
166.35539275355
 20
30.51700031789159
 11
166.35539275355
 21
29.60198295700923
 72
     1
 10
166.35539275355
 20
29.60198295700923
 11
165.2047308614766
 21
29.60198295700923
 72
     1
 10
165.2047308614766
 20
29.60198295700923
 11
165.2047308614766
 21
27.42950574401068
 72
     1
 10
165.2047308614766
 20
27.42950574401068
 11
166.4442762170695
 21
27.42950574401068
 72
     1
 10
166.4442762170695
 20
27.42950574401068
 11
166.4442762170695
 21
26.52757974597227
 72
     1
 10
166.4442762170695
 20
26.52757974597227
 11
162.9182209879163
 21
26.52757974597227
 72
     1
 10
162.9182209879163
 20
26.52757974597227
 11
162.9182209879163
 21
27.42950574401068
 72
     1
 10
162.9182209879163
 20
27.42950574401068
 11
164.2780001759444
 21
27.42950574401068
 72
     1
 10
164.2780001759444
 20
27.42950574401068
 11
164.2780001759444
 21
29.60198295700923
 72
     1
 10
164.2780001759444
 20
29.60198295700923
 11
163.2086425373228
 21
29.60198295700923
 72
     1
 10
163.2086425373228
 20
29.60198295700923
 11
163.2086425373228
 21
30.51700031789159
 72
     1
 10
163.2086425373228
 20
30.51700031789159
 11
164.2780001759444
 21
30.51700031789159
 72
     1
 10
164.2780001759444
 20
30.51700031789159
 11
164.2780001759444
 21
31.98805609009327
 97
        0
 92
        1
 93
        2
 72
     4
 94
        3
 73
     0
 74
     0
 95
       59
 96
       55
 40
0.0
 40
0.0
 40
0.0
 40
0.0
 40
0.3527777776895833
 40
0.3527777776895833
 40
0.3527777776895833
 40
0.7055555553791667
 40
0.7055555553791667
 40
0.7055555553791667
 40
1.05833333306875
 40
1.05833333306875
 40
1.05833333306875
 40
1.411111110758333
 40
1.411111110758333
 40
1.411111110758333
 40
1.763888888447917
 40
1.763888888447917
 40
1.763888888447917
 40
2.1166666661375
 40
2.1166666661375
 40
2.1166666661375
 40
2.469444443827083
 40
2.469444443827083
 40
2.469444443827083
 40
2.822222221516667
 40
2.822222221516667
 40
2.822222221516667
 40
3.17499999920625
 40
3.17499999920625
 40
3.17499999920625
 40
3.527777776895833
 40
3.527777776895833
 40
3.527777776895833
 40
3.880555554585417
 40
3.880555554585417
 40
3.880555554585417
 40
4.233333332275
 40
4.233333332275
 40
4.233333332275
 40
4.586111109964584
 40
4.586111109964584
 40
4.586111109964584
 40
4.938888887654167
 40
4.938888887654167
 40
4.938888887654167
 40
5.29166666534375
 40
5.29166666534375
 40
5.29166666534375
 40
5.644444443033334
 40
5.644444443033334
 40
5.644444443033334
 40
5.997222220722917
 40
5.997222220722917
 40
5.997222220722917
 40
6.349999998412501
 40
6.349999998412501
 40
6.349999998412501
 40
6.349999998412501
 10
162.5148003065935
 20
26.36152614358323
 10
162.5148003065935
 20
26.36152614358323
 10
161.6135633276522
 20
26.36152614358323
 10
161.6135633276522
 20
26.36152614358323
 10
161.6135633276522
 20
26.36152614358323
 10
161.6135633276522
 20
28.34452310489304
 10
161.6135633276522
 20
28.34452310489304
 10
161.3696505672965
 20
28.13643933758395
 10
161.2035969649074
 20
28.0172390337943
 10
160.9831108538515
 20
27.86978894702561
 10
160.9831108538515
 20
27.86978894702561
 10
160.7584906282132
 20
28.91985405092976
 10
160.7584906282132
 20
28.91985405092976
 10
161.4227050377693
 20
29.31741806992759
 10
161.9690971817299
 20
29.95200465831061
 10
162.1647786052922
 20
30.34405652453204
 10
162.1647786052922
 20
30.34405652453204
 10
160.8652885882559
 20
30.34405652453204
 10
160.8652885882559
 20
30.34405652453204
 10
160.8652885882559
 20
30.34405652453204
 10
160.8652885882559
 20
31.17570257467136
 10
160.8652885882559
 20
31.17570257467136
 10
160.8652885882559
 20
31.17570257467136
 10
161.6135633276522
 20
31.17570257467136
 10
161.6135633276522
 20
31.17570257467136
 10
161.6135633276522
 20
31.17570257467136
 10
161.6135633276522
 20
31.99425726196672
 10
161.6135633276522
 20
31.99425726196672
 10
161.6135633276522
 20
31.99425726196672
 10
162.5148003065935
 20
31.99425726196672
 10
162.5148003065935
 20
31.99425726196672
 10
162.5148003065935
 20
31.99425726196672
 10
162.5148003065935
 20
31.17570257467136
 10
162.5148003065935
 20
31.17570257467136
 10
162.5148003065935
 20
31.17570257467136
 10
163.1204480929005
 20
31.17570257467136
 10
163.1204480929005
 20
31.17570257467136
 10
163.1204480929005
 20
31.17570257467136
 10
163.1204480929005
 20
30.33854437175564
 10
163.1204480929005
 20
30.33854437175564
 10
163.032253648478
 20
30.12494845167015
 10
162.9182209879163
 20
29.86932236666462
 10
162.6519151069065
 20
29.48347167231663
 10
162.9785101589082
 20
29.1217366463654
 10
163.2692762178633
 20
28.94948187210291
 10
163.458756469552
 20
28.84268391206016
 10
163.458756469552
 20
28.84268391206016
 10
163.0136501328577
 20
28.00001355636805
 10
163.0136501328577
 20
28.00001355636805
 10
162.8413953585952
 20
28.15986598688364
 10
162.7049695773793
 20
28.30249293997299
 10
162.5148003065935
 20
28.56914333053133
 10
162.5148003065935
 20
28.56914333053133
 10
162.5148003065935
 20
26.36152614358323
 10
162.5148003065935
 20
26.36152614358323
 72
     1
 10
162.5148003065935
 20
26.36152614358323
 11
162.5148003065935
 21
26.36152614358323
 97
        0
 75
     2
 76
     1
 98
        0
  0
SPLINE
  5
E6
330
C1
100
AcDbEntity
  8
\U+30EC\U+30A4\U+30E4\U+30FC 1
370
     0
100
AcDbSpline
210
0.0
220
0.0
230
1.0
 70
    11
 71
     3
 72
    47
 73
    43
 74
     0
 42
0.0000000001
 43
0.0000000001
 40
0.0
 40
0.0
 40
0.0
 40
0.0
 40
1.0
 40
1.0
 40
1.0
 40
2.0
 40
2.0
 40
2.0
 40
3.0
 40
3.0
 40
3.0
 40
4.0
 40
4.0
 40
4.0
 40
5.0
 40
5.0
 40
5.0
 40
6.0
 40
6.0
 40
6.0
 40
7.0
 40
7.0
 40
7.0
 40
8.0
 40
8.0
 40
8.0
 40
9.0
 40
9.0
 40
9.0
 40
10.0
 40
10.0
 40
10.0
 40
11.0
 40
11.0
 40
11.0
 40
12.0
 40
12.0
 40
12.0
 40
13.0
 40
13.0
 40
13.0
 40
14.0
 40
14.0
 40
14.0
 40
14.0
 10
168.9550618067196
 20
29.77423773127172
 30
0.0
 10
169.4187716590342
 20
29.58475747958298
 30
0.0
 10
169.7625921884622
 20
29.41250270532049
 30
0.0
 10
170.1890950095361
 20
29.0914198060952
 30
0.0
 10
170.4392089417652
 20
29.44213052649364
 30
0.0
 10
170.5997503913779
 20
29.78043890314517
 30
0.0
 10
170.7472004781465
 20
30.30271537870905
 30
0.0
 10
170.7472004781465
 20
30.30271537870905
 30
0.0
 10
169.0322319455892
 20
30.30271537870905
 30
0.0
 10
169.0322319455892
 20
30.30271537870905
 30
0.0
 10
168.5581868068188
 20
29.70326876427557
 30
0.0
 10
168.0407334649343
 20
29.25196125570784
 30
0.0
 10
167.430262544948
 20
28.90193955440646
 30
0.0
 10
167.430262544948
 20
28.90193955440646
 30
0.0
 10
166.8246147586411
 20
29.58958061326233
 30
0.0
 10
166.8246147586411
 20
29.58958061326233
 30
0.0
 10
167.9229111993387
 20
30.178002922143
 30
0.0
 10
168.451388846776
 20
30.90147297404546
 30
0.0
 10
168.836550522027
 20
31.89297145470037
 30
0.0
 10
168.836550522027
 20
31.89297145470037
 30
0.0
 10
169.8514756519816
 20
31.76205782626088
 30
0.0
 10
169.8514756519816
 20
31.76205782626088
 30
0.0
 10
169.7798176658884
 20
31.54915092527244
 30
0.0
 10
169.732964367289
 20
31.43615179335624
 30
0.0
 10
169.6020507388495
 20
31.16950140279791
 30
0.0
 10
169.6020507388495
 20
31.16950140279791
 30
0.0
 10
171.9168103953889
 20
31.16950140279791
 30
0.0
 10
171.9168103953889
 20
31.16950140279791
 30
0.0
 10
171.5133897140661
 20
28.61048447635433
 30
0.0
 10
170.1718695321098
 20
27.12702636040574
 30
0.0
 10
167.6969129355063
 20
26.54480522339852
 30
0.0
 10
167.6969129355063
 20
26.54480522339852
 30
0.0
 10
167.1925509564658
 20
27.39505478915818
 30
0.0
 10
167.1925509564658
 20
27.39505478915818
 30
0.0
 10
167.5722004789403
 20
27.45982258428088
 30
0.0
 10
168.5044433172489
 20
27.61416286202007
 30
0.0
 10
169.5014539506802
 20
28.38483072207046
 30
0.0
 10
168.9846896278927
 20
28.80134276623717
 30
0.0
 10
168.5692111123716
 20
29.00873751444921
 30
0.0
 10
168.3259873711129
 20
29.1327609519182
 30
0.0
 10
168.3259873711129
 20
29.1327609519182
 30
0.0
 10
168.9550618067196
 20
29.77423773127172
 30
0.0
 10
168.9550618067196
 20
29.77423773127172
 30
0.0
  0
HATCH
  5
E7
330
C1
100
AcDbEntity
  8
\U+30EC\U+30A4\U+30E4\U+30FC 1
 62
    29
100
AcDbHatch
 10
0.0
 20
0.0
 30
0.0
210
0.0
220
0.0
230
1.0
  2
SOLID
 70
     1
 71
     0
 91
        1
 92
        1
 93
        1
 72
     4
 94
        3
 73
     0
 74
     1
 95
       47
 96
       43
 40
0.0
 40
0.0
 40
0.0
 40
0.0
 40
1.0
 40
1.0
 40
1.0
 40
2.0
 40
2.0
 40
2.0
 40
3.0
 40
3.0
 40
3.0
 40
4.0
 40
4.0
 40
4.0
 40
5.0
 40
5.0
 40
5.0
 40
6.0
 40
6.0
 40
6.0
 40
7.0
 40
7.0
 40
7.0
 40
8.0
 40
8.0
 40
8.0
 40
9.0
 40
9.0
 40
9.0
 40
10.0
 40
10.0
 40
10.0
 40
11.0
 40
11.0
 40
11.0
 40
12.0
 40
12.0
 40
12.0
 40
13.0
 40
13.0
 40
13.0
 40
14.0
 40
14.0
 40
14.0
 40
14.0
 10
168.9550618067196
 20
29.77423773127172
 10
169.4187716590342
 20
29.58475747958298
 10
169.7625921884622
 20
29.41250270532049
 10
170.1890950095361
 20
29.0914198060952
 10
170.4392089417652
 20
29.44213052649364
 10
170.5997503913779
 20
29.78043890314517
 10
170.7472004781465
 20
30.30271537870905
 10
170.7472004781465
 20
30.30271537870905
 10
169.0322319455892
 20
30.30271537870905
 10
169.0322319455892
 20
30.30271537870905
 10
168.5581868068188
 20
29.70326876427557
 10
168.0407334649343
 20
29.25196125570784
 10
167.430262544948
 20
28.90193955440646
 10
167.430262544948
 20
28.90193955440646
 10
166.8246147586411
 20
29.58958061326233
 10
166.8246147586411
 20
29.58958061326233
 10
167.9229111993387
 20
30.178002922143
 10
168.451388846776
 20
30.90147297404546
 10
168.836550522027
 20
31.89297145470037
 10
168.836550522027
 20
31.89297145470037
 10
169.8514756519816
 20
31.76205782626088
 10
169.8514756519816
 20
31.76205782626088
 10
169.7798176658884
 20
31.54915092527244
 10
169.732964367289
 20
31.43615179335624
 10
169.6020507388495
 20
31.16950140279791
 10
169.6020507388495
 20
31.16950140279791
 10
171.9168103953889
 20
31.16950140279791
 10
171.9168103953889
 20
31.16950140279791
 10
171.5133897140661
 20
28.61048447635433
 10
170.1718695321098
 20
27.12702636040574
 10
167.6969129355063
 20
26.54480522339852
 10
167.6969129355063
 20
26.54480522339852
 10
167.1925509564658
 20
27.39505478915818
 10
167.1925509564658
 20
27.39505478915818
 10
167.5722004789403
 20
27.45982258428088
 10
168.5044433172489
 20
27.61416286202007
 10
169.5014539506802
 20
28.38483072207046
 10
168.9846896278927
 20
28.80134276623717
 10
168.5692111123716
 20
29.00873751444921
 10
168.3259873711129
 20
29.1327609519182
 10
168.3259873711129
 20
29.1327609519182
 10
168.9550618067196
 20
29.77423773127172
 10
168.9550618067196
 20
29.77423773127172
 97
        0
 75
     2
 76
     1
 98
        0
  0
SPLINE
  5
E8
330
C1
100
AcDbEntity
  8
\U+30EC\U+30A4\U+30E4\U+30FC 1
370
     0
100
AcDbSpline
210
0.0
220
0.0
230
1.0
 70
    11
 71
     3
 72
    68
 73
    64
 74
     0
 42
0.0000000001
 43
0.0000000001
 40
0.0
 40
0.0
 40
0.0
 40
0.0
 40
1.0
 40
1.0
 40
1.0
 40
2.0
 40
2.0
 40
2.0
 40
3.0
 40
3.0
 40
3.0
 40
4.0
 40
4.0
 40
4.0
 40
5.0
 40
5.0
 40
5.0
 40
6.0
 40
6.0
 40
6.0
 40
7.0
 40
7.0
 40
7.0
 40
8.0
 40
8.0
 40
8.0
 40
9.0
 40
9.0
 40
9.0
 40
10.0
 40
10.0
 40
10.0
 40
11.0
 40
11.0
 40
11.0
 40
12.0
 40
12.0
 40
12.0
 40
13.0
 40
13.0
 40
13.0
 40
14.0
 40
14.0
 40
14.0
 40
15.0
 40
15.0
 40
15.0
 40
16.0
 40
16.0
 40
16.0
 40
17.0
 40
17.0
 40
17.0
 40
18.0
 40
18.0
 40
18.0
 40
19.0
 40
19.0
 40
19.0
 40
20.0
 40
20.0
 40
20.0
 40
21.0
 40
21.0
 40
21.0
 40
21.0
 10
177.455490407025
 20
30.77813855567352
 30
0.0
 10
177.455490407025
 20
30.77813855567352
 30
0.0
 10
177.455490407025
 20
29.86932236666462
 30
0.0
 10
177.455490407025
 20
29.86932236666462
 30
0.0
 10
177.455490407025
 20
29.24024793105799
 30
0.0
 10
177.4017469174551
 20
28.0296413775412
 30
0.0
 10
177.2942599383153
 20
27.55490721967378
 30
0.0
 10
177.0992675338502
 20
26.69432236745837
 30
0.0
 10
176.600417707586
 20
26.61715222858877
 30
0.0
 10
176.0719400601487
 20
26.61715222858877
 30
0.0
 10
175.4904079422385
 20
26.61715222858877
 30
0.0
 10
175.1989528641864
 20
26.68192002371147
 30
0.0
 10
175.0453016055442
 20
26.71774901675806
 30
0.0
 10
175.0453016055442
 20
26.71774901675806
 30
0.0
 10
174.9922471350714
 20
27.64930283596962
 30
0.0
 10
174.9922471350714
 20
27.64930283596962
 30
0.0
 10
175.2113552079333
 20
27.60865070924367
 30
0.0
 10
175.5441514318084
 20
27.54870604780033
 30
0.0
 10
175.8996852858862
 20
27.54870604780033
 30
0.0
 10
176.1839056634193
 20
27.54870604780033
 30
0.0
 10
176.297249304884
 20
27.61416286202007
 30
0.0
 10
176.3571939663274
 20
27.77401529253567
 30
0.0
 10
176.4571017353996
 20
28.0944091726639
 30
0.0
 10
176.5046440530961
 20
29.43524033552314
 30
0.0
 10
176.5046440530961
 20
29.57855630770953
 30
0.0
 10
176.5046440530961
 20
29.57855630770953
 30
0.0
 10
176.5046440530961
 20
29.88792588228496
 30
0.0
 10
176.5046440530961
 20
29.88792588228496
 30
0.0
 10
176.5046440530961
 20
29.88792588228496
 30
0.0
 10
175.2113552079333
 20
29.88792588228496
 30
0.0
 10
175.2113552079333
 20
29.88792588228496
 30
0.0
 10
175.0866427513672
 20
29.1630777921884
 30
0.0
 10
174.8909613278051
 20
28.64080131662452
 30
0.0
 10
174.6649630639727
 20
28.22532280110339
 30
0.0
 10
174.1192599391091
 20
27.21590982392519
 30
0.0
 10
173.3951008681096
 20
26.76460231535746
 30
0.0
 10
173.098133637281
 20
26.58063421644512
 30
0.0
 10
173.098133637281
 20
26.58063421644512
 30
0.0
 10
172.4449435332777
 20
27.29928113466824
 30
0.0
 10
172.4449435332777
 20
27.29928113466824
 30
0.0
 10
173.6445257812416
 20
27.96315103467588
 30
0.0
 10
174.0117729599693
 20
28.71245930271772
 30
0.0
 10
174.2253688800548
 20
29.88792588228496
 30
0.0
 10
174.2253688800548
 20
29.88792588228496
 30
0.0
 10
172.7239962675829
 20
29.88792588228496
 30
0.0
 10
172.7239962675829
 20
29.88792588228496
 30
0.0
 10
172.7239962675829
 20
29.88792588228496
 30
0.0
 10
172.7239962675829
 20
30.77813855567352
 30
0.0
 10
172.7239962675829
 20
30.77813855567352
 30
0.0
 10
172.7239962675829
 20
30.77813855567352
 30
0.0
 10
174.3328558591946
 20
30.77813855567352
 30
0.0
 10
174.3328558591946
 20
30.77813855567352
 30
0.0
 10
174.3617946612707
 20
31.17570257467136
 30
0.0
 10
174.3686848522412
 20
31.42443846870639
 30
0.0
 10
174.3686848522412
 20
31.80477701027797
 30
0.0
 10
174.3686848522412
 20
31.80477701027797
 30
0.0
 10
175.3712076384489
 20
31.79237466653107
 30
0.0
 10
175.3712076384489
 20
31.79237466653107
 30
0.0
 10
175.3532931419256
 20
31.28181151561705
 30
0.0
 10
175.3360676644993
 20
31.07441676740501
 30
0.0
 10
175.3126410151996
 20
30.77813855567352
 30
0.0
 10
175.3126410151996
 20
30.77813855567352
 30
0.0
 10
177.455490407025
 20
30.77813855567352
 30
0.0
 10
177.455490407025
 20
30.77813855567352
 30
0.0
  0
HATCH
  5
E9
330
C1
100
AcDbEntity
  8
\U+30EC\U+30A4\U+30E4\U+30FC 1
 62
    29
100
AcDbHatch
 10
0.0
 20
0.0
 30
0.0
210
0.0
220
0.0
230
1.0
  2
SOLID
 70
     1
 71
     0
 91
        1
 92
        1
 93
        1
 72
     4
 94
        3
 73
     0
 74
     1
 95
       68
 96
       64
 40
0.0
 40
0.0
 40
0.0
 40
0.0
 40
1.0
 40
1.0
 40
1.0
 40
2.0
 40
2.0
 40
2.0
 40
3.0
 40
3.0
 40
3.0
 40
4.0
 40
4.0
 40
4.0
 40
5.0
 40
5.0
 40
5.0
 40
6.0
 40
6.0
 40
6.0
 40
7.0
 40
7.0
 40
7.0
 40
8.0
 40
8.0
 40
8.0
 40
9.0
 40
9.0
 40
9.0
 40
10.0
 40
10.0
 40
10.0
 40
11.0
 40
11.0
 40
11.0
 40
12.0
 40
12.0
 40
12.0
 40
13.0
 40
13.0
 40
13.0
 40
14.0
 40
14.0
 40
14.0
 40
15.0
 40
15.0
 40
15.0
 40
16.0
 40
16.0
 40
16.0
 40
17.0
 40
17.0
 40
17.0
 40
18.0
 40
18.0
 40
18.0
 40
19.0
 40
19.0
 40
19.0
 40
20.0
 40
20.0
 40
20.0
 40
21.0
 40
21.0
 40
21.0
 40
21.0
 10
177.455490407025
 20
30.77813855567352
 10
177.455490407025
 20
30.77813855567352
 10
177.455490407025
 20
29.86932236666462
 10
177.455490407025
 20
29.86932236666462
 10
177.455490407025
 20
29.24024793105799
 10
177.4017469174551
 20
28.0296413775412
 10
177.2942599383153
 20
27.55490721967378
 10
177.0992675338502
 20
26.69432236745837
 10
176.600417707586
 20
26.61715222858877
 10
176.0719400601487
 20
26.61715222858877
 10
175.4904079422385
 20
26.61715222858877
 10
175.1989528641864
 20
26.68192002371147
 10
175.0453016055442
 20
26.71774901675806
 10
175.0453016055442
 20
26.71774901675806
 10
174.9922471350714
 20
27.64930283596962
 10
174.9922471350714
 20
27.64930283596962
 10
175.2113552079333
 20
27.60865070924367
 10
175.5441514318084
 20
27.54870604780033
 10
175.8996852858862
 20
27.54870604780033
 10
176.1839056634193
 20
27.54870604780033
 10
176.297249304884
 20
27.61416286202007
 10
176.3571939663274
 20
27.77401529253567
 10
176.4571017353996
 20
28.0944091726639
 10
176.5046440530961
 20
29.43524033552314
 10
176.5046440530961
 20
29.57855630770953
 10
176.5046440530961
 20
29.57855630770953
 10
176.5046440530961
 20
29.88792588228496
 10
176.5046440530961
 20
29.88792588228496
 10
176.5046440530961
 20
29.88792588228496
 10
175.2113552079333
 20
29.88792588228496
 10
175.2113552079333
 20
29.88792588228496
 10
175.0866427513672
 20
29.1630777921884
 10
174.8909613278051
 20
28.64080131662452
 10
174.6649630639727
 20
28.22532280110339
 10
174.1192599391091
 20
27.21590982392519
 10
173.3951008681096
 20
26.76460231535746
 10
173.098133637281
 20
26.58063421644512
 10
173.098133637281
 20
26.58063421644512
 10
172.4449435332777
 20
27.29928113466824
 10
172.4449435332777
 20
27.29928113466824
 10
173.6445257812416
 20
27.96315103467588
 10
174.0117729599693
 20
28.71245930271772
 10
174.2253688800548
 20
29.88792588228496
 10
174.2253688800548
 20
29.88792588228496
 10
172.7239962675829
 20
29.88792588228496
 10
172.7239962675829
 20
29.88792588228496
 10
172.7239962675829
 20
29.88792588228496
 10
172.7239962675829
 20
30.77813855567352
 10
172.7239962675829
 20
30.77813855567352
 10
172.7239962675829
 20
30.77813855567352
 10
174.3328558591946
 20
30.77813855567352
 10
174.3328558591946
 20
30.77813855567352
 10
174.3617946612707
 20
31.17570257467136
 10
174.3686848522412
 20
31.42443846870639
 10
174.3686848522412
 20
31.80477701027797
 10
174.3686848522412
 20
31.80477701027797
 10
175.3712076384489
 20
31.79237466653107
 10
175.3712076384489
 20
31.79237466653107
 10
175.3532931419256
 20
31.28181151561705
 10
175.3360676644993
 20
31.07441676740501
 10
175.3126410151996
 20
30.77813855567352
 10
175.3126410151996
 20
30.77813855567352
 10
177.455490407025
 20
30.77813855567352
 10
177.455490407025
 20
30.77813855567352
 97
        0
 75
     2
 76
     1
 98
        0
  0
SPLINE
  5
EA
330
C1
100
AcDbEntity
  8
\U+30EC\U+30A4\U+30E4\U+30FC 1
370
     0
100
AcDbSpline
210
0.0
220
0.0
230
1.0
 70
    11
 71
     3
 72
    17
 73
    13
 74
     0
 42
0.0000000001
 43
0.0000000001
 40
0.0
 40
0.0
 40
0.0
 40
0.0
 40
1.0
 40
1.0
 40
1.0
 40
2.0
 40
2.0
 40
2.0
 40
3.0
 40
3.0
 40
3.0
 40
4.0
 40
4.0
 40
4.0
 40
4.0
 10
180.5354057708384
 20
30.21314289609255
 30
0.0
 10
179.9593858057046
 20
30.51079914601814
 30
0.0
 10
179.3427137138449
 20
30.71199272235673
 30
0.0
 10
178.7191514310147
 20
30.86633300009592
 30
0.0
 10
178.7191514310147
 20
30.86633300009592
 30
0.0
 10
179.0574598076662
 20
31.65525986621813
 30
0.0
 10
179.0574598076662
 20
31.65525986621813
 30
0.0
 10
179.6210774290531
 20
31.54915092527244
 30
0.0
 10
180.3335231754027
 20
31.33555500518695
 30
0.0
 10
180.9095431405365
 20
31.05650227088171
 30
0.0
 10
180.9095431405365
 20
31.05650227088171
 30
0.0
 10
180.5354057708384
 20
30.21314289609255
 30
0.0
 10
180.5354057708384
 20
30.21314289609255
 30
0.0
  0
SPLINE
  5
EB
330
C1
100
AcDbEntity
  8
\U+30EC\U+30A4\U+30E4\U+30FC 1
370
     0
100
AcDbSpline
210
0.0
220
0.0
230
1.0
 70
    11
 71
     3
 72
    17
 73
    13
 74
     0
 42
0.0000000001
 43
0.0000000001
 40
0.0
 40
0.0
 40
0.0
 40
0.0
 40
1.0
 40
1.0
 40
1.0
 40
2.0
 40
2.0
 40
2.0
 40
3.0
 40
3.0
 40
3.0
 40
4.0
 40
4.0
 40
4.0
 40
4.0
 10
180.0131292952745
 20
28.78342826971387
 30
0.0
 10
179.5025661443605
 20
29.0679931567955
 30
0.0
 10
178.8907171861801
 20
29.30501572618069
 30
0.0
 10
178.2623317696705
 20
29.47795951954024
 30
0.0
 10
178.2623317696705
 20
29.47795951954024
 30
0.0
 10
178.5944389744486
 20
30.27239853843885
 30
0.0
 10
178.5944389744486
 20
30.27239853843885
 30
0.0
 10
179.0574598076662
 20
30.178002922143
 30
0.0
 10
179.8112466998389
 20
29.94098035275781
 30
0.0
 10
180.3755533403228
 20
29.63229979727943
 30
0.0
 10
180.3755533403228
 20
29.63229979727943
 30
0.0
 10
180.0131292952745
 20
28.78342826971387
 30
0.0
 10
180.0131292952745
 20
28.78342826971387
 30
0.0
  0
SPLINE
  5
EC
330
C1
100
AcDbEntity
  8
\U+30EC\U+30A4\U+30E4\U+30FC 1
370
     0
100
AcDbSpline
210
0.0
220
0.0
230
1.0
 70
    11
 71
     3
 72
    17
 73
    13
 74
     0
 42
0.0000000001
 43
0.0000000001
 40
0.0
 40
0.0
 40
0.0
 40
0.0
 40
1.0
 40
1.0
 40
1.0
 40
2.0
 40
2.0
 40
2.0
 40
3.0
 40
3.0
 40
3.0
 40
4.0
 40
4.0
 40
4.0
 40
4.0
 10
178.5765244779253
 20
27.65481498874602
 30
0.0
 10
180.4458332882219
 20
27.82224662932916
 30
0.0
 10
181.7522134962286
 20
28.16537813966005
 30
0.0
 10
182.5597438779712
 20
30.87253417196937
 30
0.0
 10
182.5597438779712
 20
30.87253417196937
 30
0.0
 10
183.4554687041361
 20
30.44534233179839
 30
0.0
 10
183.4554687041361
 20
30.44534233179839
 30
0.0
 10
182.4942870637514
 20
27.59004719362332
 30
0.0
 10
181.0335665780055
 20
26.9017171156704
 30
0.0
 10
178.8369736966102
 20
26.63437770601502
 30
0.0
 10
178.8369736966102
 20
26.63437770601502
 30
0.0
 10
178.5765244779253
 20
27.65481498874602
 30
0.0
 10
178.5765244779253
 20
27.65481498874602
 30
0.0
  0
HATCH
  5
ED
330
C1
100
AcDbEntity
  8
\U+30EC\U+30A4\U+30E4\U+30FC 1
 62
    29
100
AcDbHatch
 10
0.0
 20
0.0
 30
0.0
210
0.0
220
0.0
230
1.0
  2
SOLID
 70
     1
 71
     0
 91
        3
 92
        1
 93
        1
 72
     4
 94
        3
 73
     0
 74
     1
 95
       17
 96
       13
 40
0.0
 40
0.0
 40
0.0
 40
0.0
 40
1.0
 40
1.0
 40
1.0
 40
2.0
 40
2.0
 40
2.0
 40
3.0
 40
3.0
 40
3.0
 40
4.0
 40
4.0
 40
4.0
 40
4.0
 10
178.5765244779253
 20
27.65481498874602
 10
180.4458332882219
 20
27.82224662932916
 10
181.7522134962286
 20
28.16537813966005
 10
182.5597438779712
 20
30.87253417196937
 10
182.5597438779712
 20
30.87253417196937
 10
183.4554687041361
 20
30.44534233179839
 10
183.4554687041361
 20
30.44534233179839
 10
182.4942870637514
 20
27.59004719362332
 10
181.0335665780055
 20
26.9017171156704
 10
178.8369736966102
 20
26.63437770601502
 10
178.8369736966102
 20
26.63437770601502
 10
178.5765244779253
 20
27.65481498874602
 10
178.5765244779253
 20
27.65481498874602
 97
        0
 92
        1
 93
        2
 72
     4
 94
        3
 73
     0
 74
     0
 95
       17
 96
       13
 40
0.0
 40
0.0
 40
0.0
 40
0.0
 40
0.3527777776895833
 40
0.3527777776895833
 40
0.3527777776895833
 40
0.7055555553791667
 40
0.7055555553791667
 40
0.7055555553791667
 40
1.05833333306875
 40
1.05833333306875
 40
1.05833333306875
 40
1.411111110758333
 40
1.411111110758333
 40
1.411111110758333
 40
1.411111110758333
 10
180.5354057708384
 20
30.21314289609255
 10
179.9593858057046
 20
30.51079914601814
 10
179.3427137138449
 20
30.71199272235673
 10
178.7191514310147
 20
30.86633300009592
 10
178.7191514310147
 20
30.86633300009592
 10
179.0574598076662
 20
31.65525986621813
 10
179.0574598076662
 20
31.65525986621813
 10
179.6210774290531
 20
31.54915092527244
 10
180.3335231754027
 20
31.33555500518695
 10
180.9095431405365
 20
31.05650227088171
 10
180.9095431405365
 20
31.05650227088171
 10
180.5354057708384
 20
30.21314289609255
 10
180.5354057708384
 20
30.21314289609255
 72
     1
 10
180.5354057708384
 20
30.21314289609255
 11
180.5354057708384
 21
30.21314289609255
 97
        0
 92
        1
 93
        2
 72
     4
 94
        3
 73
     0
 74
     0
 95
       17
 96
       13
 40
0.0
 40
0.0
 40
0.0
 40
0.0
 40
0.3527777776895833
 40
0.3527777776895833
 40
0.3527777776895833
 40
0.7055555553791667
 40
0.7055555553791667
 40
0.7055555553791667
 40
1.05833333306875
 40
1.05833333306875
 40
1.05833333306875
 40
1.411111110758333
 40
1.411111110758333
 40
1.411111110758333
 40
1.411111110758333
 10
180.0131292952745
 20
28.78342826971387
 10
179.5025661443605
 20
29.0679931567955
 10
178.8907171861801
 20
29.30501572618069
 10
178.2623317696705
 20
29.47795951954024
 10
178.2623317696705
 20
29.47795951954024
 10
178.5944389744486
 20
30.27239853843885
 10
178.5944389744486
 20
30.27239853843885
 10
179.0574598076662
 20
30.178002922143
 10
179.8112466998389
 20
29.94098035275781
 10
180.3755533403228
 20
29.63229979727943
 10
180.3755533403228
 20
29.63229979727943
 10
180.0131292952745
 20
28.78342826971387
 10
180.0131292952745
 20
28.78342826971387
 72
     1
 10
180.0131292952745
 20
28.78342826971387
 11
180.0131292952745
 21
28.78342826971387
 97
        0
 75
     2
 76
     1
 98
        0
  0
POLYLINE
  5
EE
330
C1
100
AcDbEntity
  8
\U+30EC\U+30A4\U+30E4\U+30FC 1
370
     0
100
AcDb2dPolyline
 66
     1
 10
0.0
 20
0.0
 30
0.0
  0
VERTEX
  5
EF
330
EE
100
AcDbEntity
  8
\U+30EC\U+30A4\U+30E4\U+30FC 1
370
     0
100
AcDbVertex
100
AcDb2dVertex
 10
187.6943141891875
 20
30.59348143766413
 30
0.0
  0
VERTEX
  5
F0
330
EE
100
AcDbEntity
  8
\U+30EC\U+30A4\U+30E4\U+30FC 1
370
     0
100
AcDbVertex
100
AcDb2dVertex
 10
187.6943141891875
 20
26.73566351328136
 30
0.0
  0
VERTEX
  5
F1
330
EE
100
AcDbEntity
  8
\U+30EC\U+30A4\U+30E4\U+30FC 1
370
     0
100
AcDbVertex
100
AcDb2dVertex
 10
184.0611164904431
 20
26.73566351328136
 30
0.0
  0
VERTEX
  5
F2
330
EE
100
AcDbEntity
  8
\U+30EC\U+30A4\U+30E4\U+30FC 1
370
     0
100
AcDbVertex
100
AcDb2dVertex
 10
184.0611164904431
 20
27.55490721967378
 30
0.0
  0
VERTEX
  5
F3
330
EE
100
AcDbEntity
  8
\U+30EC\U+30A4\U+30E4\U+30FC 1
370
     0
100
AcDbVertex
100
AcDb2dVertex
 10
186.791010152955
 20
27.55490721967378
 30
0.0
  0
VERTEX
  5
F4
330
EE
100
AcDbEntity
  8
\U+30EC\U+30A4\U+30E4\U+30FC 1
370
     0
100
AcDbVertex
100
AcDb2dVertex
 10
186.791010152955
 20
28.30249293997299
 30
0.0
  0
VERTEX
  5
F5
330
EE
100
AcDbEntity
  8
\U+30EC\U+30A4\U+30E4\U+30FC 1
370
     0
100
AcDbVertex
100
AcDb2dVertex
 10
184.2154567681823
 20
28.30249293997299
 30
0.0
  0
VERTEX
  5
F6
330
EE
100
AcDbEntity
  8
\U+30EC\U+30A4\U+30E4\U+30FC 1
370
     0
100
AcDbVertex
100
AcDb2dVertex
 10
184.2154567681823
 20
29.0859076533188
 30
0.0
  0
VERTEX
  5
F7
330
EE
100
AcDbEntity
  8
\U+30EC\U+30A4\U+30E4\U+30FC 1
370
     0
100
AcDbVertex
100
AcDb2dVertex
 10
186.791010152955
 20
29.0859076533188
 30
0.0
  0
VERTEX
  5
F8
330
EE
100
AcDbEntity
  8
\U+30EC\U+30A4\U+30E4\U+30FC 1
370
     0
100
AcDbVertex
100
AcDb2dVertex
 10
186.791010152955
 20
29.79284124689207
 30
0.0
  0
VERTEX
  5
F9
330
EE
100
AcDbEntity
  8
\U+30EC\U+30A4\U+30E4\U+30FC 1
370
     0
100
AcDbVertex
100
AcDb2dVertex
 10
184.1203721327894
 20
29.79284124689207
 30
0.0
  0
VERTEX
  5
FA
330
EE
100
AcDbEntity
  8
\U+30EC\U+30A4\U+30E4\U+30FC 1
370
     0
100
AcDbVertex
100
AcDb2dVertex
 10
184.1203721327894
 20
30.59348143766413
 30
0.0
  0
VERTEX
  5
FB
330
EE
100
AcDbEntity
  8
\U+30EC\U+30A4\U+30E4\U+30FC 1
370
     0
100
AcDbVertex
100
AcDb2dVertex
 10
187.6943141891875
 20
30.59348143766413
 30
0.0
  0
SEQEND
  5
FC
330
EE
100
AcDbEntity
  8
\U+30EC\U+30A4\U+30E4\U+30FC 1
370
     0
  0
HATCH
  5
FD
330
C1
100
AcDbEntity
  8
\U+30EC\U+30A4\U+30E4\U+30FC 1
 62
    29
100
AcDbHatch
 10
0.0
 20
0.0
 30
0.0
210
0.0
220
0.0
230
1.0
  2
SOLID
 70
     1
 71
     0
 91
        1
 92
        1
 93
       12
 72
     1
 10
187.6943141891875
 20
30.59348143766413
 11
187.6943141891875
 21
26.73566351328136
 72
     1
 10
187.6943141891875
 20
26.73566351328136
 11
184.0611164904431
 21
26.73566351328136
 72
     1
 10
184.0611164904431
 20
26.73566351328136
 11
184.0611164904431
 21
27.55490721967378
 72
     1
 10
184.0611164904431
 20
27.55490721967378
 11
186.791010152955
 21
27.55490721967378
 72
     1
 10
186.791010152955
 20
27.55490721967378
 11
186.791010152955
 21
28.30249293997299
 72
     1
 10
186.791010152955
 20
28.30249293997299
 11
184.2154567681823
 21
28.30249293997299
 72
     1
 10
184.2154567681823
 20
28.30249293997299
 11
184.2154567681823
 21
29.0859076533188
 72
     1
 10
184.2154567681823
 20
29.0859076533188
 11
186.791010152955
 21
29.0859076533188
 72
     1
 10
186.791010152955
 20
29.0859076533188
 11
186.791010152955
 21
29.79284124689207
 72
     1
 10
186.791010152955
 20
29.79284124689207
 11
184.1203721327894
 21
29.79284124689207
 72
     1
 10
184.1203721327894
 20
29.79284124689207
 11
184.1203721327894
 21
30.59348143766413
 72
     1
 10
184.1203721327894
 20
30.59348143766413
 11
187.6943141891875
 21
30.59348143766413
 97
        0
 75
     2
 76
     1
 98
        0
  0
POLYLINE
  5
FE
330
C1
100
AcDbEntity
  8
\U+30EC\U+30A4\U+30E4\U+30FC 1
 62
    29
370
    70
100
AcDb2dPolyline
 66
     1
 10
0.0
 20
0.0
 30
0.0
  0
VERTEX
  5
FF
330
FE
100
AcDbEntity
  8
\U+30EC\U+30A4\U+30E4\U+30FC 1
 62
    29
370
    70
100
AcDbVertex
100
AcDb2dVertex
 10
188.5421521881075
 20
29.18684895103662
 30
0.0
  0
VERTEX
  5
100
330
FE
100
AcDbEntity
  8
\U+30EC\U+30A4\U+30E4\U+30FC 1
 62
    29
370
    70
100
AcDbVertex
100
AcDb2dVertex
 10
192.9460177469024
 20
29.18684895103662
 30
0.0
  0
SEQEND
  5
101
330
FE
100
AcDbEntity
  8
\U+30EC\U+30A4\U+30E4\U+30FC 1
370
    70
  0
POLYLINE
  5
102
330
C1
100
AcDbEntity
  8
\U+30EC\U+30A4\U+30E4\U+30FC 1
370
     0
100
AcDb2dPolyline
 66
     1
 10
0.0
 20
0.0
 30
0.0
  0
VERTEX
  5
103
330
102
100
AcDbEntity
  8
\U+30EC\U+30A4\U+30E4\U+30FC 1
370
     0
100
AcDbVertex
100
AcDb2dVertex
 10
0.0
 20
297.0001314904201
 30
0.0
  0
VERTEX
  5
104
330
102
100
AcDbEntity
  8
\U+30EC\U+30A4\U+30E4\U+30FC 1
370
     0
100
AcDbVertex
100
AcDb2dVertex
 10
209.9999294179862
 20
297.0001314904201
 30
0.0
  0
VERTEX
  5
105
330
102
100
AcDbEntity
  8
\U+30EC\U+30A4\U+30E4\U+30FC 1
370
     0
100
AcDbVertex
100
AcDb2dVertex
 10
209.9999294179862
 20
0.0
 30
0.0
  0
VERTEX
  5
106
330
102
100
AcDbEntity
  8
\U+30EC\U+30A4\U+30E4\U+30FC 1
370
     0
100
AcDbVertex
100
AcDb2dVertex
 10
0.0
 20
0.0
 30
0.0
  0
VERTEX
  5
107
330
102
100
AcDbEntity
  8
\U+30EC\U+30A4\U+30E4\U+30FC 1
370
     0
100
AcDbVertex
100
AcDb2dVertex
 10
0.0
 20
297.0001314904201
 30
0.0
  0
SEQEND
  5
108
330
102
100
AcDbEntity
  8
\U+30EC\U+30A4\U+30E4\U+30FC 1
370
     0
  0
ENDBLK
  5
C4
330
C1
100
AcDbEntity
  8
0
100
AcDbBlockEnd
  0
BLOCK
  5
10E
330
10C
100
AcDbEntity
  8
0
100
AcDbBlockBegin
  2
block 5
 70
     0
 71
     0
 10
0.0
 20
0.0
 30
0.0
  3
block 5
  1

  0
INSERT
  5
111
330
10C
100
AcDbEntity
  8
\U+30EC\U+30A4\U+30E4\U+30FC 1
100
AcDbBlockReference
  2
block 6
 10
0.0
 20
0.0
 30
0.0
  0
INSERT
  5
119
330
10C
100
AcDbEntity
  8
\U+30EC\U+30A4\U+30E4\U+30FC 1
100
AcDbBlockReference
  2
block 7
 10
0.0
 20
0.0
 30
0.0
  0
INSERT
  5
173
330
10C
100
AcDbEntity
  8
\U+30EC\U+30A4\U+30E4\U+30FC 1
100
AcDbBlockReference
  2
block 10
 10
0.0
 20
0.0
 30
0.0
  0
SPLINE
  5
17F
330
10C
100
AcDbEntity
  8
\U+30EC\U+30A4\U+30E4\U+30FC 1
 62
    29
370
    35
100
AcDbSpline
210
0.0
220
0.0
230
1.0
 70
     8
 71
     3
 72
    11
 73
     7
 74
     0
 42
0.0000000001
 43
0.0000000001
 40
0.0
 40
0.0
 40
0.0
 40
0.0
 40
1.0
 40
1.0
 40
1.0
 40
2.0
 40
2.0
 40
2.0
 40
2.0
 10
136.0065130953386
 20
96.37068953753928
 30
0.0
 10
133.2755859041811
 20
93.8819525589948
 30
0.0
 10
121.4668321093902
 20
92.0095431627615
 30
0.0
 10
107.3130018177898
 20
92.0095431627615
 30
0.0
 10
92.51149357496242
 20
92.0095431627615
 30
0.0
 10
80.27451441135499
 20
94.05696340964549
 30
0.0
 10
78.30185273650093
 20
96.71554359561279
 30
0.0
  0
SPLINE
  5
180
330
10C
100
AcDbEntity
  8
\U+30EC\U+30A4\U+30E4\U+30FC 1
 62
    29
370
    35
100
AcDbSpline
210
0.0
220
0.0
230
1.0
 70
     8
 71
     3
 72
    11
 73
     7
 74
     0
 42
0.0000000001
 43
0.0000000001
 40
0.0
 40
0.0
 40
0.0
 40
0.0
 40
1.0
 40
1.0
 40
1.0
 40
2.0
 40
2.0
 40
2.0
 40
2.0
 10
137.7249267233813
 20
97.84002276199833
 30
0.0
 10
135.4887152439056
 20
95.13872339201393
 30
0.0
 10
122.6719265101306
 20
93.06787649583026
 30
0.0
 10
107.1951795521943
 20
93.06787649583026
 30
0.0
 10
91.51723901791931
 20
93.06787649583026
 30
0.0
 10
78.56850312705927
 20
95.19281139113235
 30
0.0
 10
76.58343910845831
 20
97.94613170294403
 30
0.0
  0
SPLINE
  5
181
330
10C
100
AcDbEntity
  8
\U+30EC\U+30A4\U+30E4\U+30FC 1
 62
    29
370
    35
100
AcDbSpline
210
0.0
220
0.0
230
1.0
 70
     8
 71
     3
 72
    11
 73
     7
 74
     0
 42
0.0000000001
 43
0.0000000001
 40
0.0
 40
0.0
 40
0.0
 40
0.0
 40
1.0
 40
1.0
 40
1.0
 40
2.0
 40
2.0
 40
2.0
 40
2.0
 10
138.8714545008724
 20
99.16293942833427
 30
0.0
 10
136.5515272011052
 20
96.46164005834987
 30
0.0
 10
123.2538031375893
 20
94.39079316216619
 30
0.0
 10
107.1969020999369
 20
94.39079316216619
 30
0.0
 10
90.93053925678126
 20
94.39079316216619
 30
0.0
 10
77.49638941204952
 20
96.5157280574683
 30
0.0
 10
75.43691133096716
 20
99.26904836927997
 30
0.0
  0
SPLINE
  5
182
330
10C
100
AcDbEntity
  8
\U+30EC\U+30A4\U+30E4\U+30FC 1
 62
    29
370
    35
100
AcDbSpline
210
0.0
220
0.0
230
1.0
 70
     8
 71
     3
 72
    11
 73
     7
 74
     0
 42
0.0000000001
 43
0.0000000001
 40
0.0
 40
0.0
 40
0.0
 40
0.0
 40
1.0
 40
1.0
 40
1.0
 40
2.0
 40
2.0
 40
2.0
 40
2.0
 10
139.7533989450964
 20
100.5740505390926
 30
0.0
 10
137.369048359755
 20
97.8727511691082
 30
0.0
 10
123.7013210411233
 20
95.80190427292453
 30
0.0
 10
107.1979356285825
 20
95.80190427292453
 30
0.0
 10
90.47957625776205
 20
95.80190427292453
 30
0.0
 10
76.6716335528807
 20
97.92683916822662
 30
0.0
 10
74.5549668867432
 20
100.6801594800383
 30
0.0
  0
SPLINE
  5
183
330
10C
100
AcDbEntity
  8
\U+30EC\U+30A4\U+30E4\U+30FC 1
 62
    29
370
    35
100
AcDbSpline
210
0.0
220
0.0
230
1.0
 70
     8
 71
     3
 72
    11
 73
     7
 74
     0
 42
0.0000000001
 43
0.0000000001
 40
0.0
 40
0.0
 40
0.0
 40
0.0
 40
1.0
 40
1.0
 40
1.0
 40
2.0
 40
2.0
 40
2.0
 40
2.0
 10
140.9584933458368
 20
102.0733560942733
 30
0.0
 10
138.4859483160729
 20
99.37205672428894
 30
0.0
 10
124.3131699993037
 20
97.30120982810526
 30
0.0
 10
107.2000026858736
 20
97.30120982810526
 30
0.0
 10
89.86290416590234
 20
97.30120982810526
 30
0.0
 10
75.54474281965548
 20
99.42614472340736
 30
0.0
 10
73.34987248600281
 20
102.179465035219
 30
0.0
  0
SPLINE
  5
184
330
10C
100
AcDbEntity
  8
\U+30EC\U+30A4\U+30E4\U+30FC 1
 62
    29
370
    35
100
AcDbSpline
210
0.0
220
0.0
230
1.0
 70
     8
 71
     3
 72
    11
 73
     7
 74
     0
 42
0.0000000001
 43
0.0000000001
 40
0.0
 40
0.0
 40
0.0
 40
0.0
 40
1.0
 40
1.0
 40
1.0
 40
2.0
 40
2.0
 40
2.0
 40
2.0
 10
141.6936767223891
 20
103.5726616494541
 30
0.0
 10
139.1673882030554
 20
100.8713622794697
 30
0.0
 10
124.6862738403562
 20
98.80051538328598
 30
0.0
 10
107.2006917049707
 20
98.80051538328598
 30
0.0
 10
89.48704424846157
 20
98.80051538328598
 30
0.0
 10
74.85744627034815
 20
100.9254502785881
 30
0.0
 10
72.6146891094505
 20
103.6787705903998
 30
0.0
  0
SPLINE
  5
185
330
10C
100
AcDbEntity
  8
\U+30EC\U+30A4\U+30E4\U+30FC 1
 62
    29
370
    35
100
AcDbSpline
210
0.0
220
0.0
230
1.0
 70
     8
 71
     3
 72
    11
 73
     7
 74
     0
 42
0.0000000001
 43
0.0000000001
 40
0.0
 40
0.0
 40
0.0
 40
0.0
 40
1.0
 40
1.0
 40
1.0
 40
2.0
 40
2.0
 40
2.0
 40
2.0
 10
142.3554795651056
 20
105.0278699824236
 30
0.0
 10
139.7802706898813
 20
102.3265706124392
 30
0.0
 10
125.0225151597166
 20
100.2557237162555
 30
0.0
 10
107.2013807240677
 20
100.2557237162555
 30
0.0
 10
89.14839136226152
 20
100.2557237162555
 30
0.0
 10
74.23870712119727
 20
102.3806586115576
 30
0.0
 10
71.95323077628252
 20
105.1339789233693
 30
0.0
  0
SPLINE
  5
186
330
10C
100
AcDbEntity
  8
\U+30EC\U+30A4\U+30E4\U+30FC 1
 62
    29
370
    35
100
AcDbSpline
210
0.0
220
0.0
230
1.0
 70
     8
 71
     3
 72
    11
 73
     7
 74
     0
 42
0.0000000001
 43
0.0000000001
 40
0.0
 40
0.0
 40
0.0
 40
0.0
 40
1.0
 40
1.0
 40
1.0
 40
2.0
 40
2.0
 40
2.0
 40
2.0
 10
143.0482882671893
 20
106.4682644048065
 30
0.0
 10
140.4227809978804
 20
103.7669650348221
 30
0.0
 10
125.3742594087606
 20
101.6961181386385
 30
0.0
 10
107.2024142527133
 20
101.6961181386385
 30
0.0
 10
88.79389103682931
 20
101.6961181386385
 30
0.0
 10
73.59034015087325
 20
103.8210530339406
 30
0.0
 10
71.26007756465026
 20
106.5743733457522
 30
0.0
  0
SPLINE
  5
187
330
10C
100
AcDbEntity
  8
\U+30EC\U+30A4\U+30E4\U+30FC 1
 62
    29
370
    35
100
AcDbSpline
210
0.0
220
0.0
230
1.0
 70
     8
 71
     3
 72
    11
 73
     7
 74
     0
 42
0.0000000001
 43
0.0000000001
 40
0.0
 40
0.0
 40
0.0
 40
0.0
 40
1.0
 40
1.0
 40
1.0
 40
2.0
 40
2.0
 40
2.0
 40
2.0
 10
143.5864121819853
 20
108.026481092785
 30
0.0
 10
140.9216308241446
 20
105.3251817228007
 30
0.0
 10
125.6467664616439
 20
103.254334826617
 30
0.0
 10
107.2034477813589
 20
103.254334826617
 30
0.0
 10
88.51862790755784
 20
103.254334826617
 30
0.0
 10
73.08735621002677
 20
105.3792697219191
 30
0.0
 10
70.72195364985424
 20
108.1325900337308
 30
0.0
  0
SPLINE
  5
188
330
10C
100
AcDbEntity
  8
\U+30EC\U+30A4\U+30E4\U+30FC 1
 62
    29
370
    35
100
AcDbSpline
210
0.0
220
0.0
230
1.0
 70
     8
 71
     3
 72
    11
 73
     7
 74
     0
 42
0.0000000001
 43
0.0000000001
 40
0.0
 40
0.0
 40
0.0
 40
0.0
 40
1.0
 40
1.0
 40
1.0
 40
2.0
 40
2.0
 40
2.0
 40
2.0
 10
144.1841362486762
 20
109.6728922251859
 30
0.0
 10
141.4756021781728
 20
106.9715928552015
 30
0.0
 10
125.9502793738944
 20
104.9007459590179
 30
0.0
 10
107.2041368004559
 20
104.9007459590179
 30
0.0
 10
88.21304793801619
 20
104.9007459590179
 30
0.0
 10
72.52856172231925
 20
107.02568085432
 30
0.0
 10
70.12457409271191
 20
109.7790011661316
 30
0.0
  0
SPLINE
  5
189
330
10C
100
AcDbEntity
  8
\U+30EC\U+30A4\U+30E4\U+30FC 1
 62
    29
370
    35
100
AcDbSpline
210
0.0
220
0.0
230
1.0
 70
     8
 71
     3
 72
    11
 73
     7
 74
     0
 42
0.0000000001
 43
0.0000000001
 40
0.0
 40
0.0
 40
0.0
 40
0.0
 40
1.0
 40
1.0
 40
1.0
 40
2.0
 40
2.0
 40
2.0
 40
2.0
 10
144.6333766999528
 20
111.2603922247891
 30
0.0
 10
141.891769712791
 20
108.5590928548047
 30
0.0
 10
126.1783446950179
 20
106.488245958621
 30
0.0
 10
107.204825819553
 20
106.488245958621
 30
0.0
 10
87.98326006915002
 20
106.488245958621
 30
0.0
 10
72.10826007311877
 20
108.6131808539231
 30
0.0
 10
69.67498913188682
 20
111.3665011657348
 30
0.0
  0
SPLINE
  5
18A
330
10C
100
AcDbEntity
  8
\U+30EC\U+30A4\U+30E4\U+30FC 1
 62
    29
370
    35
100
AcDbSpline
210
0.0
220
0.0
230
1.0
 70
     8
 71
     3
 72
    11
 73
     7
 74
     0
 42
0.0000000001
 43
0.0000000001
 40
0.0
 40
0.0
 40
0.0
 40
0.0
 40
1.0
 40
1.0
 40
1.0
 40
2.0
 40
2.0
 40
2.0
 40
2.0
 10
145.1332600548625
 20
112.921272758228
 30
0.0
 10
142.3554795651056
 20
110.2199733882436
 30
0.0
 10
126.4322482322808
 20
108.1491264920599
 30
0.0
 10
107.20551483865
 20
108.1491264920599
 30
0.0
 10
87.72763398414449
 20
108.1491264920599
 30
0.0
 10
71.64110512531889
 20
110.274061387362
 30
0.0
 10
69.17510577697706
 20
113.0273816991737
 30
0.0
  0
SPLINE
  5
18B
330
10C
100
AcDbEntity
  8
\U+30EC\U+30A4\U+30E4\U+30FC 1
 62
    29
370
    35
100
AcDbSpline
210
0.0
220
0.0
230
1.0
 70
     8
 71
     3
 72
    11
 73
     7
 74
     0
 42
0.0000000001
 43
0.0000000001
 40
0.0
 40
0.0
 40
0.0
 40
0.0
 40
1.0
 40
1.0
 40
1.0
 40
2.0
 40
2.0
 40
2.0
 40
2.0
 10
145.4784586224846
 20
114.4205783134088
 30
0.0
 10
142.6751844261368
 20
111.7192789434244
 30
0.0
 10
126.60760359248
 20
109.6484320472407
 30
0.0
 10
107.2058593481985
 20
109.6484320472407
 30
0.0
 10
87.55124509529969
 20
109.6484320472407
 30
0.0
 10
71.31829967835098
 20
111.7733669425428
 30
0.0
 10
68.82990720935503
 20
114.5266872543544
 30
0.0
  0
SPLINE
  5
18C
330
10C
100
AcDbEntity
  8
\U+30EC\U+30A4\U+30E4\U+30FC 1
 62
    29
370
    35
100
AcDbSpline
210
0.0
220
0.0
230
1.0
 70
     8
 71
     3
 72
    11
 73
     7
 74
     0
 42
0.0000000001
 43
0.0000000001
 40
0.0
 40
0.0
 40
0.0
 40
0.0
 40
1.0
 40
1.0
 40
1.0
 40
2.0
 40
2.0
 40
2.0
 40
2.0
 10
145.8167669991361
 20
115.9198838685895
 30
0.0
 10
142.989032624843
 20
113.2185844986051
 30
0.0
 10
126.7791693476455
 20
111.1477376024214
 30
0.0
 10
107.2062038577471
 20
111.1477376024214
 30
0.0
 10
87.37830130194016
 20
111.1477376024214
 30
0.0
 10
71.00169540325652
 20
113.2726724977235
 30
0.0
 10
68.49159883270349
 20
116.0259928095352
 30
0.0
  0
SPLINE
  5
18D
330
10C
100
AcDbEntity
  8
\U+30EC\U+30A4\U+30E4\U+30FC 1
 62
    29
370
    35
100
AcDbSpline
210
0.0
220
0.0
230
1.0
 70
     8
 71
     3
 72
    11
 73
     7
 74
     0
 42
0.0000000001
 43
0.0000000001
 40
0.0
 40
0.0
 40
0.0
 40
0.0
 40
1.0
 40
1.0
 40
1.0
 40
2.0
 40
2.0
 40
2.0
 40
2.0
 10
146.1919378974798
 20
117.375092201559
 30
0.0
 10
143.3362982497562
 20
114.6737928315746
 30
0.0
 10
126.9696831279798
 20
112.6029459353909
 30
0.0
 10
107.2068928768441
 20
112.6029459353909
 30
0.0
 10
87.18606497386321
 20
112.6029459353909
 30
0.0
 10
70.6509846828581
 20
114.727880830693
 30
0.0
 10
68.1167724439083
 20
117.4812011425047
 30
0.0
  0
SPLINE
  5
18E
330
10C
100
AcDbEntity
  8
\U+30EC\U+30A4\U+30E4\U+30FC 1
 62
    29
370
    35
100
AcDbSpline
210
0.0
220
0.0
230
1.0
 70
     8
 71
     3
 72
    11
 73
     7
 74
     0
 42
0.0000000001
 43
0.0000000001
 40
0.0
 40
0.0
 40
0.0
 40
0.0
 40
1.0
 40
1.0
 40
1.0
 40
2.0
 40
2.0
 40
2.0
 40
2.0
 10
146.3996771552404
 20
118.815486623942
 30
0.0
 10
143.5292235969302
 20
116.1141872539576
 30
0.0
 10
127.075447559377
 20
114.0433403577739
 30
0.0
 10
107.2068928768441
 20
114.0433403577739
 30
0.0
 10
87.079611523369
 20
114.0433403577739
 30
0.0
 10
70.45668129749
 20
116.168275253076
 30
0.0
 10
67.90868867659923
 20
118.9215955648877
 30
0.0
  0
SPLINE
  5
18F
330
10C
100
AcDbEntity
  8
\U+30EC\U+30A4\U+30E4\U+30FC 1
 62
    29
370
    35
100
AcDbSpline
210
0.0
220
0.0
230
1.0
 70
     8
 71
     3
 72
    11
 73
     7
 74
     0
 42
0.0000000001
 43
0.0000000001
 40
0.0
 40
0.0
 40
0.0
 40
0.0
 40
1.0
 40
1.0
 40
1.0
 40
2.0
 40
2.0
 40
2.0
 40
2.0
 10
146.6070719034524
 20
120.3737033119205
 30
0.0
 10
143.7214599250071
 20
117.6724039419361
 30
0.0
 10
127.1801784621286
 20
115.6015570457524
 30
0.0
 10
107.2075818959412
 20
115.6015570457524
 30
0.0
 10
86.9735025824233
 20
115.6015570457524
 30
0.0
 10
70.26272242167043
 20
117.7264919410545
 30
0.0
 10
67.70129392838717
 20
120.4798122528662
 30
0.0
  0
SPLINE
  5
190
330
10C
100
AcDbEntity
  8
\U+30EC\U+30A4\U+30E4\U+30FC 1
 62
    29
370
    35
100
AcDbSpline
210
0.0
220
0.0
230
1.0
 70
     8
 71
     3
 72
    11
 73
     7
 74
     0
 42
0.0000000001
 43
0.0000000001
 40
0.0
 40
0.0
 40
0.0
 40
0.0
 40
1.0
 40
1.0
 40
1.0
 40
2.0
 40
2.0
 40
2.0
 40
2.0
 10
146.7638237480313
 20
122.0201144443214
 30
0.0
 10
143.8668429544847
 20
119.318815074337
 30
0.0
 10
127.2597601678378
 20
117.2479681781533
 30
0.0
 10
107.2075818959412
 20
117.2479681781533
 30
0.0
 10
86.8935763671655
 20
117.2479681781533
 30
0.0
 10
70.11630586354731
 20
119.3729030734554
 30
0.0
 10
67.54488659335684
 20
122.1262233852671
 30
0.0
  0
SPLINE
  5
191
330
10C
100
AcDbEntity
  8
\U+30EC\U+30A4\U+30E4\U+30FC 1
 62
    29
370
    35
100
AcDbSpline
210
0.0
220
0.0
230
1.0
 70
     8
 71
     3
 72
    11
 73
     7
 74
     0
 42
0.0000000001
 43
0.0000000001
 40
0.0
 40
0.0
 40
0.0
 40
0.0
 40
1.0
 40
1.0
 40
1.0
 40
2.0
 40
2.0
 40
2.0
 40
2.0
 10
146.8602864216183
 20
123.6076144439245
 30
0.0
 10
143.9557264180041
 20
120.9063150739401
 30
0.0
 10
127.3086805237284
 20
118.8354681777564
 30
0.0
 10
107.2075818959412
 20
118.8354681777564
 30
0.0
 10
86.84431150172642
 20
118.8354681777564
 30
0.0
 10
70.02604436183377
 20
120.9604030730585
 30
0.0
 10
67.44807941022131
 20
123.7137233848702
 30
0.0
  0
SPLINE
  5
192
330
10C
100
AcDbEntity
  8
\U+30EC\U+30A4\U+30E4\U+30FC 1
 62
    29
370
    35
100
AcDbSpline
210
0.0
220
0.0
230
1.0
 70
     8
 71
     3
 72
    11
 73
     7
 74
     0
 42
0.0000000001
 43
0.0000000001
 40
0.0
 40
0.0
 40
0.0
 40
0.0
 40
1.0
 40
1.0
 40
1.0
 40
2.0
 40
2.0
 40
2.0
 40
2.0
 10
146.919197554416
 20
125.0921060885186
 30
0.0
 10
144.0108479457681
 20
122.3908067185343
 30
0.0
 10
127.3386528544501
 20
120.3199598223506
 30
0.0
 10
107.2075818959412
 20
120.3199598223506
 30
0.0
 10
86.81399466145622
 20
120.3199598223506
 30
0.0
 10
69.97092283406977
 20
122.4448947176527
 30
0.0
 10
67.38916827742355
 20
125.1982150294643
 30
0.0
  0
SPLINE
  5
193
330
10C
100
AcDbEntity
  8
\U+30EC\U+30A4\U+30E4\U+30FC 1
 62
    29
370
    35
100
AcDbSpline
210
0.0
220
0.0
230
1.0
 70
     8
 71
     3
 72
    11
 73
     7
 74
     0
 42
0.0000000001
 43
0.0000000001
 40
0.0
 40
0.0
 40
0.0
 40
0.0
 40
1.0
 40
1.0
 40
1.0
 40
2.0
 40
2.0
 40
2.0
 40
2.0
 10
146.9777641776653
 20
126.5914116436994
 30
0.0
 10
144.0649359448865
 20
123.890112273715
 30
0.0
 10
127.3686251851717
 20
121.8192653775313
 30
0.0
 10
107.2079264054897
 20
121.8192653775313
 30
0.0
 10
86.78436684028308
 20
121.8192653775313
 30
0.0
 10
69.91649032540282
 20
123.9442002728334
 30
0.0
 10
67.3306016541743
 20
126.6975205846451
 30
0.0
  0
SPLINE
  5
194
330
10C
100
AcDbEntity
  8
\U+30EC\U+30A4\U+30E4\U+30FC 1
 62
    29
370
    35
100
AcDbSpline
210
0.0
220
0.0
230
1.0
 70
     8
 71
     3
 72
    11
 73
     7
 74
     0
 42
0.0000000001
 43
0.0000000001
 40
0.0
 40
0.0
 40
0.0
 40
0.0
 40
1.0
 40
1.0
 40
1.0
 40
2.0
 40
2.0
 40
2.0
 40
2.0
 10
146.9853433877328
 20
128.0907171988801
 30
0.0
 10
144.0721706454056
 20
125.3894178288957
 30
0.0
 10
127.3724147902055
 20
123.318570932712
 30
0.0
 10
107.2075818959412
 20
123.318570932712
 30
0.0
 10
86.78023272570078
 20
123.318570932712
 30
0.0
 10
69.90891111533527
 20
125.4435058280141
 30
0.0
 10
67.32302244410674
 20
128.1968261398258
 30
0.0
  0
SPLINE
  5
195
330
10C
100
AcDbEntity
  8
\U+30EC\U+30A4\U+30E4\U+30FC 1
 62
    29
370
    35
100
AcDbSpline
210
0.0
220
0.0
230
1.0
 70
     8
 71
     3
 72
    11
 73
     7
 74
     0
 42
0.0000000001
 43
0.0000000001
 40
0.0
 40
0.0
 40
0.0
 40
0.0
 40
1.0
 40
1.0
 40
1.0
 40
2.0
 40
2.0
 40
2.0
 40
2.0
 10
146.9415906750702
 20
129.5459255318496
 30
0.0
 10
144.0308294995826
 20
126.8446261618652
 30
0.0
 10
127.3503661790999
 20
124.7737792656816
 30
0.0
 10
107.2075818959412
 20
124.7737792656816
 30
0.0
 10
86.8026258463549
 20
124.7737792656816
 30
0.0
 10
69.95025226115827
 20
126.8987141609837
 30
0.0
 10
67.36711966631795
 20
129.6520344727953
 30
0.0
  0
SPLINE
  5
196
330
10C
100
AcDbEntity
  8
\U+30EC\U+30A4\U+30E4\U+30FC 1
 62
    29
370
    35
100
AcDbSpline
210
0.0
220
0.0
230
1.0
 70
     8
 71
     3
 72
    11
 73
     7
 74
     0
 42
0.0000000001
 43
0.0000000001
 40
0.0
 40
0.0
 40
0.0
 40
0.0
 40
1.0
 40
1.0
 40
1.0
 40
2.0
 40
2.0
 40
2.0
 40
2.0
 10
146.8626979884579
 20
130.9863199542326
 30
0.0
 10
143.9584824943923
 20
128.2850205842482
 30
0.0
 10
127.310403071471
 20
126.2141736880645
 30
0.0
 10
107.2075818959412
 20
126.2141736880645
 30
0.0
 10
86.84293346353233
 20
126.2141736880645
 30
0.0
 10
70.0236327949941
 20
128.3391085833666
 30
0.0
 10
67.44566784338164
 20
131.0924288951783
 30
0.0
  0
SPLINE
  5
197
330
10C
100
AcDbEntity
  8
\U+30EC\U+30A4\U+30E4\U+30FC 1
 62
    29
370
    35
100
AcDbSpline
210
0.0
220
0.0
230
1.0
 70
     8
 71
     3
 72
    11
 73
     7
 74
     0
 42
0.0000000001
 43
0.0000000001
 40
0.0
 40
0.0
 40
0.0
 40
0.0
 40
1.0
 40
1.0
 40
1.0
 40
2.0
 40
2.0
 40
2.0
 40
2.0
 10
146.7834607922972
 20
132.5445366422111
 30
0.0
 10
143.8851019605565
 20
129.8432372722267
 30
0.0
 10
127.2697509447451
 20
127.772390376043
 30
0.0
 10
107.2075818959412
 20
127.772390376043
 30
0.0
 10
86.88358559025828
 20
127.772390376043
 30
0.0
 10
70.09770234792697
 20
129.8973252713451
 30
0.0
 10
67.52490503954239
 20
132.6506455831568
 30
0.0
  0
SPLINE
  5
198
330
10C
100
AcDbEntity
  8
\U+30EC\U+30A4\U+30E4\U+30FC 1
 62
    29
370
    35
100
AcDbSpline
210
0.0
220
0.0
230
1.0
 70
     8
 71
     3
 72
    11
 73
     7
 74
     0
 42
0.0000000001
 43
0.0000000001
 40
0.0
 40
0.0
 40
0.0
 40
0.0
 40
1.0
 40
1.0
 40
1.0
 40
2.0
 40
2.0
 40
2.0
 40
2.0
 10
146.6094834702921
 20
134.190947774612
 30
0.0
 10
143.7235269822983
 20
131.4896484046276
 30
0.0
 10
127.1812119907741
 20
129.4188015084439
 30
0.0
 10
107.2075818959412
 20
129.4188015084439
 30
0.0
 10
86.97246905377771
 20
129.4188015084439
 30
0.0
 10
70.26031085483076
 20
131.543736403746
 30
0.0
 10
67.69922687109603
 20
134.2970567155577
 30
0.0
  0
SPLINE
  5
199
330
10C
100
AcDbEntity
  8
\U+30EC\U+30A4\U+30E4\U+30FC 1
 62
    29
370
    35
100
AcDbSpline
210
0.0
220
0.0
230
1.0
 70
     8
 71
     3
 72
    11
 73
     7
 74
     0
 42
0.0000000001
 43
0.0000000001
 40
0.0
 40
0.0
 40
0.0
 40
0.0
 40
1.0
 40
1.0
 40
1.0
 40
2.0
 40
2.0
 40
2.0
 40
2.0
 10
146.4193141995063
 20
135.7784477742151
 30
0.0
 10
143.5471380934535
 20
133.0771484042307
 30
0.0
 10
127.0847493171871
 20
131.006301508047
 30
0.0
 10
107.2068928768441
 20
131.006301508047
 30
0.0
 10
87.06962074646177
 20
131.006301508047
 30
0.0
 10
70.43807778186965
 20
133.1312364033491
 30
0.0
 10
67.88905163233329
 20
135.8845567151608
 30
0.0
  0
SPLINE
  5
19A
330
10C
100
AcDbEntity
  8
\U+30EC\U+30A4\U+30E4\U+30FC 1
 62
    29
370
    35
100
AcDbSpline
210
0.0
220
0.0
230
1.0
 70
     8
 71
     3
 72
    11
 73
     7
 74
     0
 42
0.0000000001
 43
0.0000000001
 40
0.0
 40
0.0
 40
0.0
 40
0.0
 40
1.0
 40
1.0
 40
1.0
 40
2.0
 40
2.0
 40
2.0
 40
2.0
 10
146.2136419990369
 20
137.4393283076541
 30
0.0
 10
143.3566243131192
 20
134.7380289376697
 30
0.0
 10
126.9803629239841
 20
132.667182041486
 30
0.0
 10
107.2068928768441
 20
132.667182041486
 30
0.0
 10
87.17504066831042
 20
132.667182041486
 30
0.0
 10
70.63065861949512
 20
134.7921169367881
 30
0.0
 10
68.09472383280271
 20
137.5454372485998
 30
0.0
  0
SPLINE
  5
19B
330
10C
100
AcDbEntity
  8
\U+30EC\U+30A4\U+30E4\U+30FC 1
 62
    29
370
    35
100
AcDbSpline
210
0.0
220
0.0
230
1.0
 70
     8
 71
     3
 72
    11
 73
     7
 74
     0
 42
0.0000000001
 43
0.0000000001
 40
0.0
 40
0.0
 40
0.0
 40
0.0
 40
1.0
 40
1.0
 40
1.0
 40
2.0
 40
2.0
 40
2.0
 40
2.0
 10
145.9521592517064
 20
138.9386338628348
 30
0.0
 10
143.1144341005061
 20
136.2373344928504
 30
0.0
 10
126.8480712573505
 20
134.1664875966667
 30
0.0
 10
107.2065483672956
 20
134.1664875966667
 30
0.0
 10
87.3087103731381
 20
134.1664875966667
 30
0.0
 10
70.87526039894786
 20
136.2914224919688
 30
0.0
 10
68.3565510896817
 20
139.0447428037805
 30
0.0
  0
SPLINE
  5
19C
330
10C
100
AcDbEntity
  8
\U+30EC\U+30A4\U+30E4\U+30FC 1
 62
    29
370
    35
100
AcDbSpline
210
0.0
220
0.0
230
1.0
 70
     8
 71
     3
 72
    11
 73
     7
 74
     0
 42
0.0000000001
 43
0.0000000001
 40
0.0
 40
0.0
 40
0.0
 40
0.0
 40
1.0
 40
1.0
 40
1.0
 40
2.0
 40
2.0
 40
2.0
 40
2.0
 10
145.7375298029754
 20
140.4379394180155
 30
0.0
 10
142.9156520910072
 20
137.7366400480311
 30
0.0
 10
126.7392062400166
 20
135.6657931518475
 30
0.0
 10
107.2062038577471
 20
135.6657931518475
 30
0.0
 10
87.41860891911757
 20
135.6657931518475
 30
0.0
 10
71.07610946573791
 20
137.7907280471495
 30
0.0
 10
68.57083602886424
 20
140.5440483589612
 30
0.0
  0
SPLINE
  5
19D
330
10C
100
AcDbEntity
  8
\U+30EC\U+30A4\U+30E4\U+30FC 1
 62
    29
370
    35
100
AcDbSpline
210
0.0
220
0.0
230
1.0
 70
     8
 71
     3
 72
    11
 73
     7
 74
     0
 42
0.0000000001
 43
0.0000000001
 40
0.0
 40
0.0
 40
0.0
 40
0.0
 40
1.0
 40
1.0
 40
1.0
 40
2.0
 40
2.0
 40
2.0
 40
2.0
 10
145.5359917170882
 20
141.8931477509851
 30
0.0
 10
142.7282388966096
 20
139.1918483810007
 30
0.0
 10
126.6368869041047
 20
137.121001484817
 30
0.0
 10
107.20551483865
 20
137.121001484817
 30
0.0
 10
87.52161727412654
 20
137.121001484817
 30
0.0
 10
71.26421167923256
 20
139.2459363801191
 30
0.0
 10
68.77271862429988
 20
141.9992566919308
 30
0.0
  0
SPLINE
  5
19E
330
10C
100
AcDbEntity
  8
\U+30EC\U+30A4\U+30E4\U+30FC 1
 62
    29
370
    35
100
AcDbSpline
210
0.0
220
0.0
230
1.0
 70
     8
 71
     3
 72
    11
 73
     7
 74
     0
 42
0.0000000001
 43
0.0000000001
 40
0.0
 40
0.0
 40
0.0
 40
0.0
 40
1.0
 40
1.0
 40
1.0
 40
2.0
 40
2.0
 40
2.0
 40
2.0
 10
145.2658962310446
 20
143.333542173368
 30
0.0
 10
142.4781249643805
 20
140.6322428033836
 30
0.0
 10
126.4994275942432
 20
138.5613959071999
 30
0.0
 10
107.20551483865
 20
138.5613959071999
 30
0.0
 10
87.65942109353654
 20
138.5613959071999
 30
0.0
 10
71.51639266875284
 20
140.686330802502
 30
0.0
 10
69.04246960079494
 20
143.4396511143137
 30
0.0
  0
SPLINE
  5
19F
330
10C
100
AcDbEntity
  8
\U+30EC\U+30A4\U+30E4\U+30FC 1
 62
    29
370
    35
100
AcDbSpline
210
0.0
220
0.0
230
1.0
 70
     8
 71
     3
 72
    11
 73
     7
 74
     0
 42
0.0000000001
 43
0.0000000001
 40
0.0
 40
0.0
 40
0.0
 40
0.0
 40
1.0
 40
1.0
 40
1.0
 40
2.0
 40
2.0
 40
2.0
 40
2.0
 10
144.9754746816381
 20
144.8917588613465
 30
0.0
 10
142.209407516531
 20
142.1904594913621
 30
0.0
 10
126.3519775074745
 20
140.1196125951784
 30
0.0
 10
107.2051703291015
 20
140.1196125951784
 30
0.0
 10
87.80824921849933
 20
140.1196125951784
 30
0.0
 10
71.78855521208759
 20
142.2445474904805
 30
0.0
 10
69.3328911502015
 20
144.9978678022922
 30
0.0
  0
SPLINE
  5
1A0
330
10C
100
AcDbEntity
  8
\U+30EC\U+30A4\U+30E4\U+30FC 1
 62
    29
370
    35
100
AcDbSpline
210
0.0
220
0.0
230
1.0
 70
     8
 71
     3
 72
    11
 73
     7
 74
     0
 42
0.0000000001
 43
0.0000000001
 40
0.0
 40
0.0
 40
0.0
 40
0.0
 40
1.0
 40
1.0
 40
1.0
 40
2.0
 40
2.0
 40
2.0
 40
2.0
 10
144.6471570818938
 20
146.5381699937474
 30
0.0
 10
141.9048610756349
 20
143.836870623763
 30
0.0
 10
126.1852348859884
 20
141.7660237275793
 30
0.0
 10
107.204825819553
 20
141.7660237275793
 30
0.0
 10
87.97636987817953
 20
141.7660237275793
 30
0.0
 10
72.09551321982335
 20
143.8909586228814
 30
0.0
 10
69.66155325949434
 20
146.6442789346931
 30
0.0
  0
SPLINE
  5
1A1
330
10C
100
AcDbEntity
  8
\U+30EC\U+30A4\U+30E4\U+30FC 1
 62
    29
370
    35
100
AcDbSpline
210
0.0
220
0.0
230
1.0
 70
     8
 71
     3
 72
    11
 73
     7
 74
     0
 42
0.0000000001
 43
0.0000000001
 40
0.0
 40
0.0
 40
0.0
 40
0.0
 40
1.0
 40
1.0
 40
1.0
 40
2.0
 40
2.0
 40
2.0
 40
2.0
 10
144.34674475558
 20
148.1256699933505
 30
0.0
 10
141.6261528508782
 20
145.4243706233661
 30
0.0
 10
126.0329616655404
 20
143.3535237271824
 30
0.0
 10
107.2041368004559
 20
143.3535237271824
 30
0.0
 10
88.13002113682167
 20
143.3535237271824
 30
0.0
 10
72.37628850187122
 20
145.4784586224846
 30
0.0
 10
69.9616210762596
 20
148.2317789342962
 30
0.0
  0
SPLINE
  5
1A2
330
10C
100
AcDbEntity
  8
\U+30EC\U+30A4\U+30E4\U+30FC 1
 62
    29
370
    35
100
AcDbSpline
210
0.0
220
0.0
230
1.0
 70
     8
 71
     3
 72
    11
 73
     7
 74
     0
 42
0.0000000001
 43
0.0000000001
 40
0.0
 40
0.0
 40
0.0
 40
0.0
 40
1.0
 40
1.0
 40
1.0
 40
2.0
 40
2.0
 40
2.0
 40
2.0
 10
143.9391899596749
 20
149.6101616379447
 30
0.0
 10
141.2485703856948
 20
146.9088622679603
 30
0.0
 10
125.8259114268769
 20
144.8380153717766
 30
0.0
 10
107.2037922909074
 20
144.8380153717766
 30
0.0
 10
88.33810490413076
 20
144.8380153717766
 30
0.0
 10
72.75731606253984
 20
146.9629502670787
 30
0.0
 10
70.36917587216466
 20
149.7162705788904
 30
0.0
  0
SPLINE
  5
1A3
330
10C
100
AcDbEntity
  8
\U+30EC\U+30A4\U+30E4\U+30FC 1
 62
    29
370
    35
100
AcDbSpline
210
0.0
220
0.0
230
1.0
 70
     8
 71
     3
 72
    11
 73
     7
 74
     0
 42
0.0000000001
 43
0.0000000001
 40
0.0
 40
0.0
 40
0.0
 40
0.0
 40
1.0
 40
1.0
 40
1.0
 40
2.0
 40
2.0
 40
2.0
 40
2.0
 10
143.6012260925719
 20
151.1094671931254
 30
0.0
 10
140.9350666965371
 20
148.408167823141
 30
0.0
 10
125.6546901812599
 20
146.3373209269573
 30
0.0
 10
107.2034477813589
 20
146.3373209269573
 30
0.0
 10
88.5110486974903
 20
146.3373209269573
 30
0.0
 10
73.07357582808578
 20
148.4622558222594
 30
0.0
 10
70.70748424881619
 20
151.2155761340711
 30
0.0
  0
SPLINE
  5
1A4
330
10C
100
AcDbEntity
  8
\U+30EC\U+30A4\U+30E4\U+30FC 1
 62
    29
370
    35
100
AcDbSpline
210
0.0
220
0.0
230
1.0
 70
     8
 71
     3
 72
    11
 73
     7
 74
     0
 42
0.0000000001
 43
0.0000000001
 40
0.0
 40
0.0
 40
0.0
 40
0.0
 40
1.0
 40
1.0
 40
1.0
 40
2.0
 40
2.0
 40
2.0
 40
2.0
 10
143.2622286968233
 20
152.6087727483061
 30
0.0
 10
140.6212184978308
 20
149.9074733783218
 30
0.0
 10
125.4824354069975
 20
147.8366264821381
 30
0.0
 10
107.2027587622618
 20
147.8366264821381
 30
0.0
 10
88.68468150994688
 20
147.8366264821381
 30
0.0
 10
73.39052461272875
 20
149.9615613774402
 30
0.0
 10
71.04648164456478
 20
152.7148816892519
 30
0.0
  0
SPLINE
  5
1A5
330
10C
100
AcDbEntity
  8
\U+30EC\U+30A4\U+30E4\U+30FC 1
 62
    29
370
    35
100
AcDbSpline
210
0.0
220
0.0
230
1.0
 70
     8
 71
     3
 72
    11
 73
     7
 74
     0
 42
0.0000000001
 43
0.0000000001
 40
0.0
 40
0.0
 40
0.0
 40
0.0
 40
1.0
 40
1.0
 40
1.0
 40
2.0
 40
2.0
 40
2.0
 40
2.0
 10
142.8663872255681
 20
154.0639810812757
 30
0.0
 10
140.2536268095546
 20
151.3626817112913
 30
0.0
 10
125.2815863402074
 20
149.2918348151076
 30
0.0
 10
107.2020697431648
 20
149.2918348151076
 30
0.0
 10
88.88725312447959
 20
149.2918348151076
 30
0.0
 10
73.76052786784459
 20
151.4167697104097
 30
0.0
 10
71.44197860627145
 20
154.1700900222214
 30
0.0
  0
SPLINE
  5
1A6
330
10C
100
AcDbEntity
  8
\U+30EC\U+30A4\U+30E4\U+30FC 1
 62
    29
370
    35
100
AcDbSpline
210
0.0
220
0.0
230
1.0
 70
     8
 71
     3
 72
    11
 73
     7
 74
     0
 42
0.0000000001
 43
0.0000000001
 40
0.0
 40
0.0
 40
0.0
 40
0.0
 40
1.0
 40
1.0
 40
1.0
 40
2.0
 40
2.0
 40
2.0
 40
2.0
 10
142.4843261362539
 20
155.5043755036586
 30
0.0
 10
139.900160012768
 20
152.8030761336742
 30
0.0
 10
125.0879719739363
 20
150.7322292374906
 30
0.0
 10
107.2020697431648
 20
150.7322292374906
 30
0.0
 10
89.08224552894472
 20
150.7322292374906
 30
0.0
 10
74.11812877921352
 20
152.8571641327927
 30
0.0
 10
71.82438420513418
 20
155.6104844446043
 30
0.0
  0
SPLINE
  5
1A7
330
10C
100
AcDbEntity
  8
\U+30EC\U+30A4\U+30E4\U+30FC 1
 62
    29
370
    35
100
AcDbSpline
210
0.0
220
0.0
230
1.0
 70
     8
 71
     3
 72
    11
 73
     7
 74
     0
 42
0.0000000001
 43
0.0000000001
 40
0.0
 40
0.0
 40
0.0
 40
0.0
 40
1.0
 40
1.0
 40
1.0
 40
2.0
 40
2.0
 40
2.0
 40
2.0
 10
142.0430094045934
 20
157.0625921916372
 30
0.0
 10
139.4912271786689
 20
154.3612928216527
 30
0.0
 10
124.8633517482981
 20
152.2904459254691
 30
0.0
 10
107.2013807240677
 20
152.2904459254691
 30
0.0
 10
89.3082437927771
 20
152.2904459254691
 30
0.0
 10
74.53050670879793
 20
154.4153808207712
 30
0.0
 10
72.26535642724616
 20
157.1687011325828
 30
0.0
  0
SPLINE
  5
1A8
330
10C
100
AcDbEntity
  8
\U+30EC\U+30A4\U+30E4\U+30FC 1
 62
    29
370
    35
100
AcDbSpline
210
0.0
220
0.0
230
1.0
 70
     8
 71
     3
 72
    11
 73
     7
 74
     0
 42
0.0000000001
 43
0.0000000001
 40
0.0
 40
0.0
 40
0.0
 40
0.0
 40
1.0
 40
1.0
 40
1.0
 40
2.0
 40
2.0
 40
2.0
 40
2.0
 10
141.5383029160043
 20
158.709003324038
 30
0.0
 10
139.0233832117719
 20
156.0077039540536
 30
0.0
 10
124.607381153744
 20
153.93685705787
 30
0.0
 10
107.2006917049707
 20
153.93685705787
 30
0.0
 10
89.56662595417085
 20
153.93685705787
 30
0.0
 10
75.00248479027717
 20
156.061791953172
 30
0.0
 10
72.7704074253838
 20
158.8151122649837
 30
0.0
  0
SPLINE
  5
1A9
330
10C
100
AcDbEntity
  8
\U+30EC\U+30A4\U+30E4\U+30FC 1
 62
    29
370
    35
100
AcDbSpline
210
0.0
220
0.0
230
1.0
 70
     8
 71
     3
 72
    11
 73
     7
 74
     0
 42
0.0000000001
 43
0.0000000001
 40
0.0
 40
0.0
 40
0.0
 40
0.0
 40
1.0
 40
1.0
 40
1.0
 40
2.0
 40
2.0
 40
2.0
 40
2.0
 10
141.0394530897401
 20
160.2965033236412
 30
0.0
 10
138.5607068881029
 20
157.5952039536567
 30
0.0
 10
124.3541666355781
 20
155.5243570574731
 30
0.0
 10
107.2000026858736
 20
155.5243570574731
 30
0.0
 10
89.82156302007934
 20
155.5243570574731
 30
0.0
 10
75.46860620943146
 20
157.6492919527752
 30
0.0
 10
73.26891274209945
 20
160.4026122645868
 30
0.0
  0
SPLINE
  5
1AA
330
10C
100
AcDbEntity
  8
\U+30EC\U+30A4\U+30E4\U+30FC 1
 62
    29
370
    35
100
AcDbSpline
210
0.0
220
0.0
230
1.0
 70
     8
 71
     3
 72
    11
 73
     7
 74
     0
 42
0.0000000001
 43
0.0000000001
 40
0.0
 40
0.0
 40
0.0
 40
0.0
 40
1.0
 40
1.0
 40
1.0
 40
2.0
 40
2.0
 40
2.0
 40
2.0
 10
140.5030517226867
 20
161.9573838570801
 30
0.0
 10
138.0639241191299
 20
159.2560844870957
 30
0.0
 10
124.0820040922434
 20
157.185237590912
 30
0.0
 10
107.1993136667766
 20
157.185237590912
 30
0.0
 10
90.09579262070523
 20
157.185237590912
 30
0.0
 10
75.97055662163237
 20
159.3101724862141
 30
0.0
 10
73.80531410915285
 20
162.0634927980258
 30
0.0
  0
SPLINE
  5
1AB
330
10C
100
AcDbEntity
  8
\U+30EC\U+30A4\U+30E4\U+30FC 1
 62
    29
370
    35
100
AcDbSpline
210
0.0
220
0.0
230
1.0
 70
     8
 71
     3
 72
    11
 73
     7
 74
     0
 42
0.0000000001
 43
0.0000000001
 40
0.0
 40
0.0
 40
0.0
 40
0.0
 40
1.0
 40
1.0
 40
1.0
 40
2.0
 40
2.0
 40
2.0
 40
2.0
 10
139.9663058460848
 20
163.4566894122608
 30
0.0
 10
137.5664523310598
 20
160.7553900422764
 30
0.0
 10
123.8094970393601
 20
158.6845431460928
 30
0.0
 10
107.1986246476795
 20
158.6845431460928
 30
0.0
 10
90.37071124042816
 20
158.6845431460928
 30
0.0
 10
76.47250703383327
 20
160.8094780413949
 30
0.0
 10
74.34205998575477
 20
163.5627983532065
 30
0.0
  0
SPLINE
  5
1AC
330
10C
100
AcDbEntity
  8
\U+30EC\U+30A4\U+30E4\U+30FC 1
 62
    29
370
    35
100
AcDbSpline
210
0.0
220
0.0
230
1.0
 70
     8
 71
     3
 72
    11
 73
     7
 74
     0
 42
0.0000000001
 43
0.0000000001
 40
0.0
 40
0.0
 40
0.0
 40
0.0
 40
1.0
 40
1.0
 40
1.0
 40
2.0
 40
2.0
 40
2.0
 40
2.0
 10
139.4667670007236
 20
164.9559949674416
 30
0.0
 10
137.1034314978422
 20
162.2546955974572
 30
0.0
 10
123.5559380116458
 20
160.1838487012735
 30
0.0
 10
107.1979356285825
 20
160.1838487012735
 30
0.0
 10
90.6263373254337
 20
160.1838487012735
 30
0.0
 10
76.93966198163314
 20
162.3087835965756
 30
0.0
 10
74.84159883111599
 20
165.0621039083873
 30
0.0
  0
SPLINE
  5
1AD
330
10C
100
AcDbEntity
  8
\U+30EC\U+30A4\U+30E4\U+30FC 1
 62
    29
370
    35
100
AcDbSpline
210
0.0
220
0.0
230
1.0
 70
     8
 71
     3
 72
    11
 73
     7
 74
     0
 42
0.0000000001
 43
0.0000000001
 40
0.0
 40
0.0
 40
0.0
 40
0.0
 40
1.0
 40
1.0
 40
1.0
 40
2.0
 40
2.0
 40
2.0
 40
2.0
 10
138.8938476215265
 20
166.4112033004111
 30
0.0
 10
136.5718532644682
 20
163.7099039304267
 30
0.0
 10
123.2651719526907
 20
161.639057034243
 30
0.0
 10
107.1969020999369
 20
161.639057034243
 30
0.0
 10
90.91917044167994
 20
161.639057034243
 30
0.0
 10
77.4753743295895
 20
163.7639919295451
 30
0.0
 10
75.41486271986156
 20
166.5173122413568
 30
0.0
  0
SPLINE
  5
1AE
330
10C
100
AcDbEntity
  8
\U+30EC\U+30A4\U+30E4\U+30FC 1
 62
    29
370
    35
100
AcDbSpline
210
0.0
220
0.0
230
1.0
 70
     8
 71
     3
 72
    11
 73
     7
 74
     0
 42
0.0000000001
 43
0.0000000001
 40
0.0
 40
0.0
 40
0.0
 40
0.0
 40
1.0
 40
1.0
 40
1.0
 40
2.0
 40
2.0
 40
2.0
 40
2.0
 10
138.3298854905912
 20
167.8515977227941
 30
0.0
 10
136.0495767889043
 20
165.1502983528096
 30
0.0
 10
122.9792290274149
 20
163.079451456626
 30
0.0
 10
107.1962130808398
 20
163.079451456626
 30
0.0
 10
91.20752493379534
 20
163.079451456626
 30
0.0
 10
78.00247393883272
 20
165.2043863519281
 30
0.0
 10
75.97848034124844
 20
167.9577066637397
 30
0.0
  0
SPLINE
  5
1AF
330
10C
100
AcDbEntity
  8
\U+30EC\U+30A4\U+30E4\U+30FC 1
 62
    29
370
    35
100
AcDbSpline
210
0.0
220
0.0
230
1.0
 70
     8
 71
     3
 72
    11
 73
     7
 74
     0
 42
0.0000000001
 43
0.0000000001
 40
0.0
 40
0.0
 40
0.0
 40
0.0
 40
1.0
 40
1.0
 40
1.0
 40
2.0
 40
2.0
 40
2.0
 40
2.0
 10
137.720792608799
 20
169.4098144107726
 30
0.0
 10
135.4849256388718
 20
166.7085150407881
 30
0.0
 10
122.6691704337424
 20
164.6376681446045
 30
0.0
 10
107.1951795521943
 20
164.6376681446045
 30
0.0
 10
91.51896156566193
 20
164.6376681446045
 30
0.0
 10
78.57194822254452
 20
166.7626030399066
 30
0.0
 10
76.58757322304061
 20
169.5159233517182
 30
0.0
  0
SPLINE
  5
1B0
330
10C
100
AcDbEntity
  8
\U+30EC\U+30A4\U+30E4\U+30FC 1
 62
    29
370
    35
100
AcDbSpline
210
0.0
220
0.0
230
1.0
 70
     8
 71
     3
 72
    11
 73
     7
 74
     0
 42
0.0000000001
 43
0.0000000001
 40
0.0
 40
0.0
 40
0.0
 40
0.0
 40
1.0
 40
1.0
 40
1.0
 40
2.0
 40
2.0
 40
2.0
 40
2.0
 10
137.0651909379559
 20
171.0562255431734
 30
0.0
 10
134.8775553048223
 20
168.3549261731891
 30
0.0
 10
122.3367187194158
 20
166.2840792770054
 30
0.0
 10
107.1944905330972
 20
166.2840792770054
 30
0.0
 10
91.85451386592527
 20
166.2840792770054
 30
0.0
 10
79.18517521891899
 20
168.4090141723075
 30
0.0
 10
77.24351940343217
 20
171.1623344841192
 30
0.0
  0
SPLINE
  5
1B1
330
10C
100
AcDbEntity
  8
\U+30EC\U+30A4\U+30E4\U+30FC 1
 62
    29
370
    35
100
AcDbSpline
210
0.0
220
0.0
230
1.0
 70
     8
 71
     3
 72
    11
 73
     7
 74
     0
 42
0.0000000001
 43
0.0000000001
 40
0.0
 40
0.0
 40
0.0
 40
0.0
 40
1.0
 40
1.0
 40
1.0
 40
2.0
 40
2.0
 40
2.0
 40
2.0
 10
136.315193650817
 20
172.6437255427766
 30
0.0
 10
134.1819905263503
 20
169.9424261727922
 30
0.0
 10
121.9563801778442
 20
167.8715792766085
 30
0.0
 10
107.1934570044516
 20
167.8715792766085
 30
0.0
 10
92.23795299343357
 20
167.8715792766085
 30
0.0
 10
79.88659665971585
 20
169.9965141719106
 30
0.0
 10
77.99317218102254
 20
172.7498344837223
 30
0.0
  0
SPLINE
  5
1B2
330
10C
100
AcDbEntity
  8
\U+30EC\U+30A4\U+30E4\U+30FC 1
 62
    29
370
    35
100
AcDbSpline
210
0.0
220
0.0
230
1.0
 70
     8
 71
     3
 72
    11
 73
     7
 74
     0
 42
0.0000000001
 43
0.0000000001
 40
0.0
 40
0.0
 40
0.0
 40
0.0
 40
1.0
 40
1.0
 40
1.0
 40
2.0
 40
2.0
 40
2.0
 40
2.0
 10
135.6485676744212
 20
174.1282171873707
 30
0.0
 10
133.5646294153936
 20
171.4269178173863
 30
0.0
 10
121.6177272916442
 20
169.3560709212026
 30
0.0
 10
107.1927679853546
 20
169.3560709212026
 30
0.0
 10
92.5790174464733
 20
169.3560709212026
 30
0.0
 10
80.51015894254607
 20
171.4810058165048
 30
0.0
 10
78.6601426669669
 20
174.2343261283164
 30
0.0
  0
SPLINE
  5
1B3
330
10C
100
AcDbEntity
  8
\U+30EC\U+30A4\U+30E4\U+30FC 1
 62
    29
370
    35
100
AcDbSpline
210
0.0
220
0.0
230
1.0
 70
     8
 71
     3
 72
    11
 73
     7
 74
     0
 42
0.0000000001
 43
0.0000000001
 40
0.0
 40
0.0
 40
0.0
 40
0.0
 40
1.0
 40
1.0
 40
1.0
 40
2.0
 40
2.0
 40
2.0
 40
2.0
 10
134.9144178265145
 20
175.6275227425515
 30
0.0
 10
132.8838785475082
 20
172.9262233725671
 30
0.0
 10
121.2449679601402
 20
170.8553764763834
 30
0.0
 10
107.191734456709
 20
170.8553764763834
 30
0.0
 10
92.95453285436554
 20
170.8553764763834
 30
0.0
 10
81.19642196320784
 20
172.9803113716855
 30
0.0
 10
79.39394800532513
 20
175.7336316834972
 30
0.0
  0
SPLINE
  5
1B4
330
10C
100
AcDbEntity
  8
\U+30EC\U+30A4\U+30E4\U+30FC 1
 62
    29
370
    35
100
AcDbSpline
210
0.0
220
0.0
230
1.0
 70
     8
 71
     3
 72
    11
 73
     7
 74
     0
 42
0.0000000001
 43
0.0000000001
 40
0.0
 40
0.0
 40
0.0
 40
0.0
 40
1.0
 40
1.0
 40
1.0
 40
2.0
 40
2.0
 40
2.0
 40
2.0
 10
134.1999050228737
 20
177.1268282977322
 30
0.0
 10
132.2217311952432
 20
174.4255289277478
 30
0.0
 10
120.8825439150919
 20
172.3546820315641
 30
0.0
 10
107.1907009280634
 20
172.3546820315641
 30
0.0
 10
93.32040199489907
 20
172.3546820315641
 30
0.0
 10
81.8647704873463
 20
174.4796169268662
 30
0.0
 10
80.10846080896594
 20
177.2329372386779
 30
0.0
  0
SPLINE
  5
1B5
330
10C
100
AcDbEntity
  8
\U+30EC\U+30A4\U+30E4\U+30FC 1
 62
    29
370
    35
100
AcDbSpline
210
0.0
220
0.0
230
1.0
 70
     8
 71
     3
 72
    11
 73
     7
 74
     0
 42
0.0000000001
 43
0.0000000001
 40
0.0
 40
0.0
 40
0.0
 40
0.0
 40
1.0
 40
1.0
 40
1.0
 40
2.0
 40
2.0
 40
2.0
 40
2.0
 10
133.4571424362538
 20
178.5820366307017
 30
0.0
 10
131.5330566077417
 20
175.8807372607173
 30
0.0
 10
120.505305959457
 20
173.8098903645337
 30
0.0
 10
107.1896673994179
 20
173.8098903645337
 30
0.0
 10
93.70005151737361
 20
173.8098903645337
 30
0.0
 10
82.55861271807562
 20
175.9348252598357
 30
0.0
 10
80.8512233955858
 20
178.6881455716474
 30
0.0
  0
SPLINE
  5
1B6
330
10C
100
AcDbEntity
  8
\U+30EC\U+30A4\U+30E4\U+30FC 1
 62
    29
370
    35
100
AcDbSpline
210
0.0
220
0.0
230
1.0
 70
     8
 71
     3
 72
    11
 73
     7
 74
     0
 42
0.0000000001
 43
0.0000000001
 40
0.0
 40
0.0
 40
0.0
 40
0.0
 40
1.0
 40
1.0
 40
1.0
 40
2.0
 40
2.0
 40
2.0
 40
2.0
 10
132.6788953661358
 20
180.0243258556016
 30
0.0
 10
130.8119981226789
 20
177.3719468415077
 30
0.0
 10
120.1104980168474
 20
175.338479231339
 30
0.0
 10
107.1889783803208
 20
175.338479231339
 30
0.0
 10
94.09830455546849
 20
175.338479231339
 30
0.0
 10
83.28690590365744
 20
177.4250013119806
 30
0.0
 10
81.62981497525227
 20
180.1285399940304
 30
0.0
  0
SPLINE
  5
1B7
330
10C
100
AcDbEntity
  8
\U+30EC\U+30A4\U+30E4\U+30FC 1
 62
    29
370
    35
100
AcDbSpline
210
0.0
220
0.0
230
1.0
 70
     8
 71
     3
 72
    11
 73
     7
 74
     0
 42
0.0000000001
 43
0.0000000001
 40
0.0
 40
0.0
 40
0.0
 40
0.0
 40
1.0
 40
1.0
 40
1.0
 40
2.0
 40
2.0
 40
2.0
 40
2.0
 10
131.7807589731312
 20
181.5878824415822
 30
0.0
 10
129.9796630534426
 20
179.0710679348329
 30
0.0
 10
119.6540228650518
 20
177.1416422083188
 30
0.0
 10
107.1872558325782
 20
177.1416422083188
 30
0.0
 10
94.55719127410376
 20
177.1416422083188
 30
0.0
 10
84.1261311638643
 20
179.1215385836919
 30
0.0
 10
82.52760685870838
 20
181.6867566820089
 30
0.0
  0
SPLINE
  5
1B8
330
10C
100
AcDbEntity
  8
\U+30EC\U+30A4\U+30E4\U+30FC 1
 62
    29
370
    35
100
AcDbSpline
210
0.0
220
0.0
230
1.0
 70
     8
 71
     3
 72
    11
 73
     7
 74
     0
 42
0.0000000001
 43
0.0000000001
 40
0.0
 40
0.0
 40
0.0
 40
0.0
 40
1.0
 40
1.0
 40
1.0
 40
2.0
 40
2.0
 40
2.0
 40
2.0
 10
130.8461045679829
 20
183.2327432810147
 30
0.0
 10
129.1132215389023
 20
180.6780327239277
 30
0.0
 10
119.1799777262814
 20
178.7194959405632
 30
0.0
 10
107.1862223039326
 20
178.7194959405632
 30
0.0
 10
95.03571503700496
 20
178.7194959405632
 30
0.0
 10
85.00049639802072
 20
180.7291923918837
 30
0.0
 10
83.46260577340519
 20
183.3331678144098
 30
0.0
  0
SPLINE
  5
1B9
330
10C
100
AcDbEntity
  8
\U+30EC\U+30A4\U+30E4\U+30FC 1
 62
    29
370
    35
100
AcDbSpline
210
0.0
220
0.0
230
1.0
 70
     8
 71
     3
 72
    11
 73
     7
 74
     0
 42
0.0000000001
 43
0.0000000001
 40
0.0
 40
0.0
 40
0.0
 40
0.0
 40
1.0
 40
1.0
 40
1.0
 40
2.0
 40
2.0
 40
2.0
 40
2.0
 10
129.9200629015478
 20
184.8185207328752
 30
0.0
 10
128.254703743978
 20
182.2204019726741
 30
0.0
 10
118.7100667020933
 20
180.2284477631026
 30
0.0
 10
107.1848442657385
 20
180.2284477631026
 30
0.0
 10
95.50941566622681
 20
180.2284477631026
 30
0.0
 10
85.866248893464
 20
182.2724229145013
 30
0.0
 10
84.38830293029181
 20
184.9206678140129
 30
0.0
  0
SPLINE
  5
1BA
330
10C
100
AcDbEntity
  8
\U+30EC\U+30A4\U+30E4\U+30FC 1
 62
    29
370
    35
100
AcDbSpline
210
0.0
220
0.0
230
1.0
 70
     8
 71
     3
 72
    11
 73
     7
 74
     0
 42
0.0000000001
 43
0.0000000001
 40
0.0
 40
0.0
 40
0.0
 40
0.0
 40
1.0
 40
1.0
 40
1.0
 40
2.0
 40
2.0
 40
2.0
 40
2.0
 10
128.8338242950485
 20
186.4816405783796
 30
0.0
 10
127.248046843188
 20
183.9405381484593
 30
0.0
 10
118.1588514244533
 20
181.9923366515505
 30
0.0
 10
107.1834662275444
 20
181.9923366515505
 30
0.0
 10
96.0647650584491
 20
181.9923366515505
 30
0.0
 10
86.88220755206417
 20
183.9913533068668
 30
0.0
 10
85.4745415367911
 20
186.5815483474518
 30
0.0
  0
SPLINE
  5
1BB
330
10C
100
AcDbEntity
  8
\U+30EC\U+30A4\U+30E4\U+30FC 1
 62
    29
370
    35
100
AcDbSpline
210
0.0
220
0.0
230
1.0
 70
     8
 71
     3
 72
    11
 73
     7
 74
     0
 42
0.0000000001
 43
0.0000000001
 40
0.0
 40
0.0
 40
0.0
 40
0.0
 40
1.0
 40
1.0
 40
1.0
 40
2.0
 40
2.0
 40
2.0
 40
2.0
 10
127.7816921338532
 20
187.9809461335603
 30
0.0
 10
126.2727403113138
 20
185.43984370364
 30
0.0
 10
117.6245171146911
 20
183.4916422067313
 30
0.0
 10
107.1820881893503
 20
183.4916422067313
 30
0.0
 10
96.60323348279364
 20
183.4916422067313
 30
0.0
 10
87.86612682265152
 20
185.4906588620475
 30
0.0
 10
86.5266736979864
 20
188.0808539026326
 30
0.0
  0
SPLINE
  5
1BC
330
10C
100
AcDbEntity
  8
\U+30EC\U+30A4\U+30E4\U+30FC 1
 62
    29
370
    35
100
AcDbSpline
210
0.0
220
0.0
230
1.0
 70
     8
 71
     3
 72
    11
 73
     7
 74
     0
 42
0.0000000001
 43
0.0000000001
 40
0.0
 40
0.0
 40
0.0
 40
0.0
 40
1.0
 40
1.0
 40
1.0
 40
2.0
 40
2.0
 40
2.0
 40
2.0
 10
126.5683295039482
 20
189.0547823963127
 30
0.0
 10
125.1417154635062
 20
186.9041815396455
 30
0.0
 10
116.9654703483628
 20
185.2555310951792
 30
0.0
 10
107.0921711971853
 20
185.2555310951792
 30
0.0
 10
97.0907144939565
 20
185.2555310951792
 30
0.0
 10
88.83006453942443
 20
186.9472452332111
 30
0.0
 10
87.56364743904659
 20
189.1391872357013
 30
0.0
  0
INSERT
  5
1BE
330
10C
100
AcDbEntity
  8
\U+30EC\U+30A4\U+30E4\U+30FC 1
100
AcDbBlockReference
  2
block 11
 10
0.0
 20
0.0
 30
0.0
  0
ENDBLK
  5
10F
330
10C
100
AcDbEntity
  8
0
100
AcDbBlockEnd
  0
BLOCK
  5
112
330
110
100
AcDbEntity
  8
0
100
AcDbBlockBegin
  2
block 6
 70
     0
 71
     0
 10
0.0
 20
0.0
 30
0.0
  3
block 6
  1

  0
SPLINE
  5
114
330
110
100
AcDbEntity
  8
\U+30EC\U+30A4\U+30E4\U+30FC 1
 62
    18
370
   140
100
AcDbSpline
210
0.0
220
0.0
230
1.0
 70
     8
 71
     3
 72
    14
 73
    10
 74
     0
 42
0.0000000001
 43
0.0000000001
 40
0.0
 40
0.0
 40
0.0
 40
0.0
 40
1.0
 40
1.0
 40
1.0
 40
2.0
 40
2.0
 40
2.0
 40
3.0
 40
3.0
 40
3.0
 40
3.0
 10
120.2665608423292
 20
122.2791856248122
 30
0.0
 10
120.2665608423292
 20
122.2791856248122
 30
0.0
 10
123.7915825428368
 20
117.216273299689
 30
0.0
 10
123.7915825428368
 20
110.0153347164198
 30
0.0
 10
123.7915825428368
 20
102.737915013378
 30
0.0
 10
124.5095404419629
 20
93.59463159552496
 30
0.0
 10
131.0776149845917
 20
90.40447317618361
 30
0.0
 10
136.5597954302698
 20
87.74141436608548
 30
0.0
 10
144.6805745081007
 20
87.32317977417615
 30
0.0
 10
149.3979437560533
 20
87.32317977417615
 30
0.0
  0
SPLINE
  5
115
330
110
100
AcDbEntity
  8
\U+30EC\U+30A4\U+30E4\U+30FC 1
 62
    29
370
   106
100
AcDbSpline
210
0.0
220
0.0
230
1.0
 70
     8
 71
     3
 72
    17
 73
    13
 74
     0
 42
0.0000000001
 43
0.0000000001
 40
0.0
 40
0.0
 40
0.0
 40
0.0
 40
1.0
 40
1.0
 40
1.0
 40
2.0
 40
2.0
 40
2.0
 40
3.0
 40
3.0
 40
3.0
 40
4.0
 40
4.0
 40
4.0
 40
4.0
 10
150.4521429745398
 20
83.08709036551295
 30
0.0
 10
150.7363633520729
 20
83.60040959281518
 30
0.0
 10
150.9906113988843
 20
84.2336181430041
 30
0.0
 10
150.9906113988843
 20
85.24923229205575
 30
0.0
 10
150.9906113988843
 20
86.5308078125687
 30
0.0
 10
150.5713432783294
 20
87.20673554677471
 30
0.0
 10
150.2027180614077
 20
87.80273706572294
 30
0.0
 10
149.8499402837181
 20
88.37255585898325
 30
0.0
 10
149.5140434739062
 20
88.90999075468223
 30
0.0
 10
149.5140434739062
 20
90.00966523357398
 30
0.0
 10
149.5140434739062
 20
91.10589461698048
 30
0.0
 10
149.849251264621
 20
91.63919539809714
 30
0.0
 10
150.1999619850195
 20
92.20419105767812
 30
0.0
  0
SPLINE
  5
116
330
110
100
AcDbEntity
  8
\U+30EC\U+30A4\U+30E4\U+30FC 1
 62
    29
370
   106
100
AcDbSpline
210
0.0
220
0.0
230
1.0
 70
     8
 71
     3
 72
    17
 73
    13
 74
     0
 42
0.0000000001
 43
0.0000000001
 40
0.0
 40
0.0
 40
0.0
 40
0.0
 40
1.0
 40
1.0
 40
1.0
 40
2.0
 40
2.0
 40
2.0
 40
3.0
 40
3.0
 40
3.0
 40
4.0
 40
4.0
 40
4.0
 40
4.0
 10
148.5545843812641
 20
92.18627656115483
 30
0.0
 10
148.2658853796002
 20
91.6715792956585
 30
0.0
 10
148.0099147850461
 20
91.03285859269317
 30
0.0
 10
148.0099147850461
 20
90.00966523357398
 30
0.0
 10
148.0099147850461
 20
88.69088268182034
 30
0.0
 10
148.4336615297319
 20
88.00668671844971
 30
0.0
 10
148.8088324280756
 20
87.4010389321428
 30
0.0
 10
149.1729790208665
 20
86.81743975694148
 30
0.0
 10
149.4868272195727
 20
86.3103217015127
 30
0.0
 10
149.4868272195727
 20
85.24923229205575
 30
0.0
 10
149.4868272195727
 20
84.17229544336665
 30
0.0
 10
149.1605766771196
 20
83.64106171954113
 30
0.0
 10
148.8160671285946
 20
83.08157821273656
 30
0.0
  0
SPLINE
  5
117
330
110
100
AcDbEntity
  8
\U+30EC\U+30A4\U+30E4\U+30FC 1
370
     0
100
AcDbSpline
210
0.0
220
0.0
230
1.0
 70
    11
 71
     3
 72
    35
 73
    31
 74
     0
 42
0.0000000001
 43
0.0000000001
 40
0.0
 40
0.0
 40
0.0
 40
0.0
 40
1.0
 40
1.0
 40
1.0
 40
2.0
 40
2.0
 40
2.0
 40
3.0
 40
3.0
 40
3.0
 40
4.0
 40
4.0
 40
4.0
 40
5.0
 40
5.0
 40
5.0
 40
6.0
 40
6.0
 40
6.0
 40
7.0
 40
7.0
 40
7.0
 40
8.0
 40
8.0
 40
8.0
 40
9.0
 40
9.0
 40
9.0
 40
10.0
 40
10.0
 40
10.0
 40
10.0
 10
150.2450927358762
 20
82.87969561730091
 30
0.0
 10
150.7363633520729
 20
83.60040959281518
 30
0.0
 10
150.9906113988843
 20
84.2336181430041
 30
0.0
 10
150.9906113988843
 20
85.24923229205575
 30
0.0
 10
150.9906113988843
 20
86.5308078125687
 30
0.0
 10
150.5713432783294
 20
87.20673554677471
 30
0.0
 10
150.2027180614077
 20
87.80273706572294
 30
0.0
 10
149.8499402837181
 20
88.37255585898325
 30
0.0
 10
149.5140434739062
 20
88.90999075468223
 30
0.0
 10
149.5140434739062
 20
90.00966523357398
 30
0.0
 10
149.5140434739062
 20
91.10589461698048
 30
0.0
 10
149.849251264621
 20
91.63919539809714
 30
0.0
 10
150.4108018287168
 20
92.41571992047247
 30
0.0
 10
150.4108018287168
 20
92.41571992047247
 30
0.0
 10
148.7654242249614
 20
92.39780542394917
 30
0.0
 10
148.7654242249614
 20
92.39780542394917
 30
0.0
 10
148.2658853796002
 20
91.6715792956585
 30
0.0
 10
148.0099147850461
 20
91.03285859269317
 30
0.0
 10
148.0099147850461
 20
90.00966523357398
 30
0.0
 10
148.0099147850461
 20
88.69088268182034
 30
0.0
 10
148.4336615297319
 20
88.00668671844971
 30
0.0
 10
148.8088324280756
 20
87.4010389321428
 30
0.0
 10
149.1729790208665
 20
86.81743975694148
 30
0.0
 10
149.4868272195727
 20
86.3103217015127
 30
0.0
 10
149.4868272195727
 20
85.24923229205575
 30
0.0
 10
149.4868272195727
 20
84.17229544336665
 30
0.0
 10
149.1605766771196
 20
83.64106171954113
 30
0.0
 10
148.6086723803826
 20
82.87418346452452
 30
0.0
 10
148.6086723803826
 20
82.87418346452452
 30
0.0
 10
150.2450927358762
 20
82.87969561730091
 30
0.0
 10
150.2450927358762
 20
82.87969561730091
 30
0.0
  0
ENDBLK
  5
113
330
110
100
AcDbEntity
  8
0
100
AcDbBlockEnd
  0
BLOCK
  5
11A
330
118
100
AcDbEntity
  8
0
100
AcDbBlockBegin
  2
block 7
 70
     0
 71
     0
 10
0.0
 20
0.0
 30
0.0
  3
block 7
  1

  0
SPLINE
  5
11C
330
118
100
AcDbEntity
  8
\U+30EC\U+30A4\U+30E4\U+30FC 1
 62
    29
370
    35
100
AcDbSpline
210
0.0
220
0.0
230
1.0
 70
     8
 71
     3
 72
    23
 73
    19
 74
     0
 42
0.0000000001
 43
0.0000000001
 40
0.0
 40
0.0
 40
0.0
 40
0.0
 40
1.0
 40
1.0
 40
1.0
 40
2.0
 40
2.0
 40
2.0
 40
3.0
 40
3.0
 40
3.0
 40
4.0
 40
4.0
 40
4.0
 40
5.0
 40
5.0
 40
5.0
 40
6.0
 40
6.0
 40
6.0
 40
6.0
 10
135.2771863811113
 20
95.82601994132128
 30
0.0
 10
135.3991427612891
 20
95.63791772782663
 30
0.0
 10
135.438416849821
 20
95.47117510634054
 30
0.0
 10
135.438416849821
 20
95.24793291889635
 30
0.0
 10
135.438416849821
 20
94.68569333570358
 30
0.0
 10
134.9271646798099
 20
93.90227862235777
 30
0.0
 10
134.2650173275449
 20
93.59153100958824
 30
0.0
 10
130.3162488823515
 20
91.73944767671792
 30
0.0
 10
121.9377766622239
 20
89.83982202615115
 30
0.0
 10
107.0325710452905
 20
89.83982202615115
 30
0.0
 10
90.33488224738156
 20
89.83982202615115
 30
0.0
 10
81.72076549606287
 20
92.38643660884784
 30
0.0
 10
79.51590438550298
 20
93.73829207725987
 30
0.0
 10
78.91542424242392
 20
94.10622827508456
 30
0.0
 10
78.30047469830683
 20
94.59129771940773
 30
0.0
 10
78.30047469830683
 20
95.25482310986685
 30
0.0
 10
78.30047469830683
 20
95.53938799694849
 30
0.0
 10
78.39280325731153
 20
95.80190427292453
 30
0.0
 10
78.55127764963302
 20
96.00792098294247
 30
0.0
  0
INSERT
  5
11E
330
118
100
AcDbEntity
  8
\U+30EC\U+30A4\U+30E4\U+30FC 1
100
AcDbBlockReference
  2
block 8
 10
0.0
 20
0.0
 30
0.0
  0
INSERT
  5
13B
330
118
100
AcDbEntity
  8
\U+30EC\U+30A4\U+30E4\U+30FC 1
100
AcDbBlockReference
  2
block 9
 10
0.0
 20
0.0
 30
0.0
  0
SPLINE
  5
157
330
118
100
AcDbEntity
  8
\U+30EC\U+30A4\U+30E4\U+30FC 1
 62
    29
370
    35
100
AcDbSpline
210
0.0
220
0.0
230
1.0
 70
     8
 71
     3
 72
    11
 73
     7
 74
     0
 42
0.0000000001
 43
0.0000000001
 40
0.0
 40
0.0
 40
0.0
 40
0.0
 40
1.0
 40
1.0
 40
1.0
 40
2.0
 40
2.0
 40
2.0
 40
2.0
 10
108.8129963920676
 20
75.22986109230365
 30
0.0
 10
108.8129963920676
 20
75.08447806282611
 30
0.0
 10
107.9723930936666
 20
74.96803383542466
 30
0.0
 10
106.9354193526064
 20
74.96803383542466
 30
0.0
 10
105.8984456115462
 20
74.96803383542466
 30
0.0
 10
105.0585313322423
 20
75.08447806282611
 30
0.0
 10
105.0585313322423
 20
75.22986109230365
 30
0.0
  0
SPLINE
  5
158
330
118
100
AcDbEntity
  8
\U+30EC\U+30A4\U+30E4\U+30FC 1
 62
    29
370
    35
100
AcDbSpline
210
0.0
220
0.0
230
1.0
 70
     8
 71
     3
 72
    17
 73
    13
 74
     0
 42
0.0000000001
 43
0.0000000001
 40
0.0
 40
0.0
 40
0.0
 40
0.0
 40
1.0
 40
1.0
 40
1.0
 40
2.0
 40
2.0
 40
2.0
 40
3.0
 40
3.0
 40
3.0
 40
4.0
 40
4.0
 40
4.0
 40
4.0
 10
108.5236083713066
 20
76.0966471163925
 30
0.0
 10
108.7282470431304
 20
76.05461695147245
 30
0.0
 10
108.8129963920676
 20
76.01947697752291
 30
0.0
 10
108.8129963920676
 20
75.96435544975891
 30
0.0
 10
108.8129963920676
 20
75.81897242028137
 30
0.0
 10
107.9723930936666
 20
75.70321721197698
 30
0.0
 10
106.9354193526064
 20
75.70321721197698
 30
0.0
 10
105.8984456115462
 20
75.70321721197698
 30
0.0
 10
105.0585313322423
 20
75.81897242028137
 30
0.0
 10
105.0585313322423
 20
75.96435544975891
 30
0.0
 10
105.0585313322423
 20
76.01878795842586
 30
0.0
 10
105.1329453947237
 20
76.06219616154002
 30
0.0
 10
105.3348279901594
 20
76.10353730736301
 30
0.0
  0
SPLINE
  5
159
330
118
100
AcDbEntity
  8
\U+30EC\U+30A4\U+30E4\U+30FC 1
 62
    29
370
    35
100
AcDbSpline
210
0.0
220
0.0
230
1.0
 70
     8
 71
     3
 72
    17
 73
    13
 74
     0
 42
0.0000000001
 43
0.0000000001
 40
0.0
 40
0.0
 40
0.0
 40
0.0
 40
1.0
 40
1.0
 40
1.0
 40
2.0
 40
2.0
 40
2.0
 40
3.0
 40
3.0
 40
3.0
 40
4.0
 40
4.0
 40
4.0
 40
4.0
 10
108.1639404026465
 20
78.2326063172474
 30
0.0
 10
108.3889051378333
 20
78.18782007593916
 30
0.0
 10
108.5236083713066
 20
78.12994247178696
 30
0.0
 10
108.5236083713066
 20
78.06655271485836
 30
0.0
 10
108.5236083713066
 20
77.92116968538082
 30
0.0
 10
107.8128851726996
 20
77.76820744583573
 30
0.0
 10
106.9354193526064
 20
77.76820744583573
 30
0.0
 10
106.0579535325133
 20
77.76820744583573
 30
0.0
 10
105.3472303339063
 20
77.92116968538082
 30
0.0
 10
105.3472303339063
 20
78.06655271485836
 30
0.0
 10
105.3472303339063
 20
78.11960718533122
 30
0.0
 10
105.4430039883962
 20
78.16921656031882
 30
0.0
 10
105.6076795525911
 20
78.21055770614181
 30
0.0
  0
SPLINE
  5
15A
330
118
100
AcDbEntity
  8
\U+30EC\U+30A4\U+30E4\U+30FC 1
 62
    29
370
    35
100
AcDbSpline
210
0.0
220
0.0
230
1.0
 70
     8
 71
     3
 72
    14
 73
    10
 74
     0
 42
0.0000000001
 43
0.0000000001
 40
0.0
 40
0.0
 40
0.0
 40
0.0
 40
1.0
 40
1.0
 40
1.0
 40
2.0
 40
2.0
 40
2.0
 40
3.0
 40
3.0
 40
3.0
 40
3.0
 10
108.5098279893656
 20
76.11662867020696
 30
0.0
 10
108.5353216959565
 20
76.09802515458661
 30
0.0
 10
108.5236083713066
 20
76.11662867020696
 30
0.0
 10
108.5236083713066
 20
76.0966471163925
 30
0.0
 10
108.5236083713066
 20
75.95126408691496
 30
0.0
 10
107.8128851726996
 20
75.83481985951352
 30
0.0
 10
106.9354193526064
 20
75.83481985951352
 30
0.0
 10
106.0579535325133
 20
75.83481985951352
 30
0.0
 10
105.3472303339063
 20
75.95126408691496
 30
0.0
 10
105.3472303339063
 20
76.0966471163925
 30
0.0
  0
POLYLINE
  5
15B
330
118
100
AcDbEntity
  8
\U+30EC\U+30A4\U+30E4\U+30FC 1
 62
    29
370
    35
100
AcDb2dPolyline
 66
     1
 10
0.0
 20
0.0
 30
0.0
  0
VERTEX
  5
15C
330
15B
100
AcDbEntity
  8
\U+30EC\U+30A4\U+30E4\U+30FC 1
 62
    29
370
    35
100
AcDbVertex
100
AcDb2dVertex
 10
105.0585313322423
 20
75.91612411296542
 30
0.0
  0
VERTEX
  5
15D
330
15B
100
AcDbEntity
  8
\U+30EC\U+30A4\U+30E4\U+30FC 1
 62
    29
370
    35
100
AcDbVertex
100
AcDb2dVertex
 10
105.0585313322423
 20
75.24777558882695
 30
0.0
  0
SEQEND
  5
15E
330
15B
100
AcDbEntity
  8
\U+30EC\U+30A4\U+30E4\U+30FC 1
370
    35
  0
POLYLINE
  5
15F
330
118
100
AcDbEntity
  8
\U+30EC\U+30A4\U+30E4\U+30FC 1
 62
    29
370
    35
100
AcDb2dPolyline
 66
     1
 10
0.0
 20
0.0
 30
0.0
  0
VERTEX
  5
160
330
15F
100
AcDbEntity
  8
\U+30EC\U+30A4\U+30E4\U+30FC 1
 62
    29
370
    35
100
AcDbVertex
100
AcDb2dVertex
 10
105.0585313322423
 20
75.94299585775036
 30
0.0
  0
VERTEX
  5
161
330
15F
100
AcDbEntity
  8
\U+30EC\U+30A4\U+30E4\U+30FC 1
 62
    29
370
    35
100
AcDbVertex
100
AcDb2dVertex
 10
105.0585313322423
 20
75.91612411296542
 30
0.0
  0
SEQEND
  5
162
330
15F
100
AcDbEntity
  8
\U+30EC\U+30A4\U+30E4\U+30FC 1
370
    35
  0
POLYLINE
  5
163
330
118
100
AcDbEntity
  8
\U+30EC\U+30A4\U+30E4\U+30FC 1
 62
    29
370
    35
100
AcDb2dPolyline
 66
     1
 10
0.0
 20
0.0
 30
0.0
  0
VERTEX
  5
164
330
163
100
AcDbEntity
  8
\U+30EC\U+30A4\U+30E4\U+30FC 1
 62
    29
370
    35
100
AcDbVertex
100
AcDb2dVertex
 10
108.8129963920676
 20
75.94299585775036
 30
0.0
  0
VERTEX
  5
165
330
163
100
AcDbEntity
  8
\U+30EC\U+30A4\U+30E4\U+30FC 1
 62
    29
370
    35
100
AcDbVertex
100
AcDb2dVertex
 10
108.8129963920676
 20
75.24777558882695
 30
0.0
  0
SEQEND
  5
166
330
163
100
AcDbEntity
  8
\U+30EC\U+30A4\U+30E4\U+30FC 1
370
    35
  0
POLYLINE
  5
167
330
118
100
AcDbEntity
  8
\U+30EC\U+30A4\U+30E4\U+30FC 1
 62
    29
370
    35
100
AcDb2dPolyline
 66
     1
 10
0.0
 20
0.0
 30
0.0
  0
VERTEX
  5
168
330
167
100
AcDbEntity
  8
\U+30EC\U+30A4\U+30E4\U+30FC 1
 62
    29
370
    35
100
AcDbVertex
100
AcDb2dVertex
 10
108.515340142142
 20
76.07873261986921
 30
0.0
  0
VERTEX
  5
169
330
167
100
AcDbEntity
  8
\U+30EC\U+30A4\U+30E4\U+30FC 1
 62
    29
370
    35
100
AcDbVertex
100
AcDb2dVertex
 10
108.515340142142
 20
78.03623587458817
 30
0.0
  0
SEQEND
  5
16A
330
167
100
AcDbEntity
  8
\U+30EC\U+30A4\U+30E4\U+30FC 1
370
    35
  0
POLYLINE
  5
16B
330
118
100
AcDbEntity
  8
\U+30EC\U+30A4\U+30E4\U+30FC 1
 62
    29
370
    35
100
AcDb2dPolyline
 66
     1
 10
0.0
 20
0.0
 30
0.0
  0
VERTEX
  5
16C
330
16B
100
AcDbEntity
  8
\U+30EC\U+30A4\U+30E4\U+30FC 1
 62
    29
370
    35
100
AcDbVertex
100
AcDb2dVertex
 10
105.3472303339063
 20
78.02796764542357
 30
0.0
  0
VERTEX
  5
16D
330
16B
100
AcDbEntity
  8
\U+30EC\U+30A4\U+30E4\U+30FC 1
 62
    29
370
    35
100
AcDbVertex
100
AcDb2dVertex
 10
105.3472303339063
 20
76.06495223792821
 30
0.0
  0
SEQEND
  5
16E
330
16B
100
AcDbEntity
  8
\U+30EC\U+30A4\U+30E4\U+30FC 1
370
    35
  0
SPLINE
  5
16F
330
118
100
AcDbEntity
  8
\U+30EC\U+30A4\U+30E4\U+30FC 1
 62
    29
370
    35
100
AcDbSpline
210
0.0
220
0.0
230
1.0
 70
    11
 71
     3
 72
    23
 73
    19
 74
     0
 42
0.0000000001
 43
0.0000000001
 40
0.0
 40
0.0
 40
0.0
 40
0.0
 40
1.0
 40
1.0
 40
1.0
 40
2.0
 40
2.0
 40
2.0
 40
3.0
 40
3.0
 40
3.0
 40
4.0
 40
4.0
 40
4.0
 40
5.0
 40
5.0
 40
5.0
 40
6.0
 40
6.0
 40
6.0
 40
6.0
 10
105.5773627123209
 20
78.14303383463091
 30
0.0
 10
105.5773627123209
 20
78.14303383463091
 30
0.0
 10
105.5773627123209
 20
77.97215709856252
 30
0.0
 10
106.9002793786569
 20
77.97215709856252
 30
0.0
 10
108.21217173944
 20
77.97215709856252
 30
0.0
 10
108.184610975558
 20
78.16508244573652
 30
0.0
 10
108.184610975558
 20
78.16508244573652
 30
0.0
 10
108.184610975558
 20
78.16508244573652
 30
0.0
 10
108.2011474338872
 20
89.07156573294044
 30
0.0
 10
108.2011474338872
 20
89.64482962168601
 30
0.0
 10
108.2011474338872
 20
90.21809351043159
 30
0.0
 10
107.7105658367876
 20
91.13311087131395
 30
0.0
 10
106.8506700036693
 20
91.13311087131395
 30
0.0
 10
105.9907741705509
 20
91.13311087131395
 30
0.0
 10
105.5994113234265
 20
90.15194767711479
 30
0.0
 10
105.5994113234265
 20
89.66687823279162
 30
0.0
 10
105.5994113234265
 20
89.18180878846844
 30
0.0
 10
105.5773627123209
 20
78.14303383463091
 30
0.0
 10
105.5773627123209
 20
78.14303383463091
 30
0.0
  0
SPLINE
  5
170
330
118
100
AcDbEntity
  8
\U+30EC\U+30A4\U+30E4\U+30FC 1
 62
    29
370
    35
100
AcDbSpline
210
0.0
220
0.0
230
1.0
 70
    11
 71
     3
 72
    41
 73
    37
 74
     0
 42
0.0000000001
 43
0.0000000001
 40
0.0
 40
0.0
 40
0.0
 40
0.0
 40
1.0
 40
1.0
 40
1.0
 40
2.0
 40
2.0
 40
2.0
 40
3.0
 40
3.0
 40
3.0
 40
4.0
 40
4.0
 40
4.0
 40
5.0
 40
5.0
 40
5.0
 40
6.0
 40
6.0
 40
6.0
 40
7.0
 40
7.0
 40
7.0
 40
8.0
 40
8.0
 40
8.0
 40
9.0
 40
9.0
 40
9.0
 40
10.0
 40
10.0
 40
10.0
 40
11.0
 40
11.0
 40
11.0
 40
12.0
 40
12.0
 40
12.0
 40
12.0
 10
87.69318302929199
 20
189.7891044989937
 30
0.0
 10
87.69318302929199
 20
189.7891044989937
 30
0.0
 10
72.28395994286652
 20
171.5450845925304
 30
0.0
 10
67.71094019574588
 20
135.6358208211258
 30
0.0
 10
65.36000703661139
 20
117.1776882302542
 30
0.0
 10
71.22424857160367
 20
102.462307374558
 30
0.0
 10
77.31311033223423
 20
96.95049910770682
 30
0.0
 10
77.84296601786565
 20
96.47094181616005
 30
0.0
 10
78.55368921647269
 20
95.88596460276463
 30
0.0
 10
79.76877439412031
 20
95.2968532747869
 30
0.0
 10
85.13830021743071
 20
92.69511716432622
 30
0.0
 10
96.44923771460297
 20
91.61060110556957
 30
0.0
 10
107.032915554839
 20
91.61060110556957
 30
0.0
 10
118.7627766630176
 20
91.61060110556957
 30
0.0
 10
129.9634711046619
 20
93.1360893864382
 30
0.0
 10
133.8502278311208
 20
95.07636716373091
 30
0.0
 10
134.6736056520955
 20
95.48771156466974
 30
0.0
 10
135.7181586032232
 20
96.13470049679967
 30
0.0
 10
136.4237141586024
 20
96.77411021886203
 30
0.0
 10
142.5201551293005
 20
102.2990098485572
 30
0.0
 10
148.7240830791384
 20
113.5410454360245
 30
0.0
 10
146.3421440606367
 20
135.4911268107453
 30
0.0
 10
142.5098198428448
 20
170.7906086812607
 30
0.0
 10
126.6658257061808
 20
189.7532755059471
 30
0.0
 10
126.6658257061808
 20
189.7532755059471
 30
0.0
 10
126.6658257061808
 20
189.7532755059471
 30
0.0
 10
125.8183322168093
 20
190.6793171723823
 30
0.0
 10
124.8247666788633
 20
191.1643866167054
 30
0.0
 10
123.8194878162674
 20
191.6553127233535
 30
0.0
 10
119.3801377739744
 20
193.7220255049549
 30
0.0
 10
107.0770127770502
 20
193.7220255049549
 30
0.0
 10
94.02389049298709
 20
193.7220255049549
 30
0.0
 10
90.05307343668812
 20
191.5311170311103
 30
0.0
 10
89.20006779454026
 20
191.1202893944943
 30
0.0
 10
88.46764049437616
 20
190.7675116168047
 30
0.0
 10
87.69318302929199
 20
189.7891044989937
 30
0.0
 10
87.69318302929199
 20
189.7891044989937
 30
0.0
  0
SPLINE
  5
171
330
118
100
AcDbEntity
  8
\U+30EC\U+30A4\U+30E4\U+30FC 1
 62
    29
370
    35
100
AcDbSpline
210
0.0
220
0.0
230
1.0
 70
    11
 71
     3
 72
    23
 73
    19
 74
     0
 42
0.0000000001
 43
0.0000000001
 40
0.0
 40
0.0
 40
0.0
 40
0.0
 40
1.0
 40
1.0
 40
1.0
 40
2.0
 40
2.0
 40
2.0
 40
3.0
 40
3.0
 40
3.0
 40
4.0
 40
4.0
 40
4.0
 40
5.0
 40
5.0
 40
5.0
 40
6.0
 40
6.0
 40
6.0
 40
6.0
 10
107.0435953508433
 20
192.7794473801906
 30
0.0
 10
100.0872585470268
 20
192.7794473801906
 30
0.0
 10
92.27516002467426
 20
191.8845838278969
 30
0.0
 10
89.87323945235808
 20
190.1281018947423
 30
0.0
 10
89.3082437927771
 20
189.7148626912866
 30
0.0
 10
89.16217174420251
 20
189.2626939088475
 30
0.0
 10
89.3826578552585
 20
188.8382581450647
 30
0.0
 10
93.6600884097447
 20
186.500933113097
 30
0.0
 10
103.978838407165
 20
186.2990505176614
 30
0.0
 10
107.047384955877
 20
186.2990505176614
 30
0.0
 10
109.936097520259
 20
186.2990505176614
 30
0.0
 10
120.2400336070928
 20
186.4568358908858
 30
0.0
 10
124.7234808715969
 20
188.8492824506176
 30
0.0
 10
124.8922905503742
 20
189.3233275893879
 30
0.0
 10
124.7841145521373
 20
189.7083170098646
 30
0.0
 10
124.2804415921938
 20
190.0840046725311
 30
0.0
 10
121.9742946743675
 20
191.8037963387678
 30
0.0
 10
114.4632974974258
 20
192.7794473801906
 30
0.0
 10
107.0435953508433
 20
192.7794473801906
 30
0.0
  0
ENDBLK
  5
11B
330
118
100
AcDbEntity
  8
0
100
AcDbBlockEnd
  0
BLOCK
  5
11F
330
11D
100
AcDbEntity
  8
0
100
AcDbBlockBegin
  2
block 8
 70
     0
 71
     0
 10
0.0
 20
0.0
 30
0.0
  3
block 8
  1

  0
SPLINE
  5
121
330
11D
100
AcDbEntity
  8
\U+30EC\U+30A4\U+30E4\U+30FC 1
 62
    29
370
    35
100
AcDbSpline
210
0.0
220
0.0
230
1.0
 70
     8
 71
     3
 72
    11
 73
     7
 74
     0
 42
0.0000000001
 43
0.0000000001
 40
0.0
 40
0.0
 40
0.0
 40
0.0
 40
1.0
 40
1.0
 40
1.0
 40
2.0
 40
2.0
 40
2.0
 40
2.0
 10
78.15750323566895
 20
80.87223847804583
 30
0.0
 10
78.12408580946203
 20
80.73098956315059
 30
0.0
 10
77.27969290602731
 20
80.81229381660249
 30
0.0
 10
76.27062443839762
 20
81.05207246237588
 30
0.0
 10
75.26155597076794
 20
81.29185110814926
 30
0.0
 10
74.47159557600015
 20
81.59915362543354
 30
0.0
 10
74.50466849265855
 20
81.74109155942584
 30
0.0
  0
SPLINE
  5
122
330
11D
100
AcDbEntity
  8
\U+30EC\U+30A4\U+30E4\U+30FC 1
 62
    29
370
    35
100
AcDbSpline
210
0.0
220
0.0
230
1.0
 70
     8
 71
     3
 72
    17
 73
    13
 74
     0
 42
0.0000000001
 43
0.0000000001
 40
0.0
 40
0.0
 40
0.0
 40
0.0
 40
1.0
 40
1.0
 40
1.0
 40
2.0
 40
2.0
 40
2.0
 40
3.0
 40
3.0
 40
3.0
 40
4.0
 40
4.0
 40
4.0
 40
4.0
 10
78.07723251086264
 20
81.78312172434589
 30
0.0
 10
78.26602374345433
 20
81.69423826082644
 30
0.0
 10
78.34043780593572
 20
81.64049477125654
 30
0.0
 10
78.32734644309178
 20
81.5874403007837
 30
0.0
 10
78.29392901688486
 20
81.4455023667914
 30
0.0
 10
77.44953611345012
 20
81.52749563934036
 30
0.0
 10
76.44081215536897
 20
81.76727428511374
 30
0.0
 10
75.43139917819076
 20
82.00705293088713
 30
0.0
 10
74.64109427387446
 20
82.31435544817141
 30
0.0
 10
74.6748562096299
 20
82.45560436306666
 30
0.0
 10
74.6872585533768
 20
82.5086588335395
 30
0.0
 10
74.77028535457131
 20
82.5334635210333
 30
0.0
 10
74.97630206458926
 20
82.52726234915986
 30
0.0
  0
SPLINE
  5
123
330
11D
100
AcDbEntity
  8
\U+30EC\U+30A4\U+30E4\U+30FC 1
 62
    29
370
    35
100
AcDbSpline
210
0.0
220
0.0
230
1.0
 70
     8
 71
     3
 72
    17
 73
    13
 74
     0
 42
0.0000000001
 43
0.0000000001
 40
0.0
 40
0.0
 40
0.0
 40
0.0
 40
1.0
 40
1.0
 40
1.0
 40
2.0
 40
2.0
 40
2.0
 40
3.0
 40
3.0
 40
3.0
 40
4.0
 40
4.0
 40
4.0
 40
4.0
 10
78.22089299259756
 20
83.94388561269459
 30
0.0
 10
78.42932126945517
 20
83.84811195820464
 30
0.0
 10
78.54714353505072
 20
83.76129555197635
 30
0.0
 10
78.53267413401267
 20
83.69928383324185
 30
0.0
 10
78.49891219825722
 20
83.55734589924955
 30
0.0
 10
77.7719970508695
 20
83.5731933384817
 30
0.0
 10
76.9183023896246
 20
83.77645397211144
 30
0.0
 10
76.06460772837968
 20
83.97902558664414
 30
0.0
 10
75.40866154798812
 20
84.29184025670482
 30
0.0
 10
75.44242348374357
 20
84.43377819069711
 30
0.0
 10
75.45482582749047
 20
84.48545462297587
 30
0.0
 10
75.55921222069354
 20
84.5123263677608
 30
0.0
 10
75.72871091856783
 20
84.51439342505196
 30
0.0
  0
SPLINE
  5
124
330
11D
100
AcDbEntity
  8
\U+30EC\U+30A4\U+30E4\U+30FC 1
 62
    29
370
    35
100
AcDbSpline
210
0.0
220
0.0
230
1.0
 70
     8
 71
     3
 72
    14
 73
    10
 74
     0
 42
0.0000000001
 43
0.0000000001
 40
0.0
 40
0.0
 40
0.0
 40
0.0
 40
1.0
 40
1.0
 40
1.0
 40
2.0
 40
2.0
 40
2.0
 40
3.0
 40
3.0
 40
3.0
 40
3.0
 10
78.06827526260099
 20
81.80517033545149
 30
0.0
 10
78.08825681641544
 20
81.78105466705475
 30
0.0
 10
78.08136662544494
 20
81.80172523996625
 30
0.0
 10
78.07723251086264
 20
81.78312172434589
 30
0.0
 10
78.0434705751072
 20
81.6411837903536
 30
0.0
 10
77.32482365688408
 20
81.69286022263235
 30
0.0
 10
76.47112899563916
 20
81.89543183716503
 30
0.0
 10
75.61743433439426
 20
82.09869247079477
 30
0.0
 10
74.95321992483808
 20
82.37567814780886
 30
0.0
 10
74.986637351045
 20
82.5169270627041
 30
0.0
  0
POLYLINE
  5
125
330
11D
100
AcDbEntity
  8
\U+30EC\U+30A4\U+30E4\U+30FC 1
 62
    29
370
    35
100
AcDb2dPolyline
 66
     1
 10
0.0
 20
0.0
 30
0.0
  0
VERTEX
  5
126
330
125
100
AcDbEntity
  8
\U+30EC\U+30A4\U+30E4\U+30FC 1
 62
    29
370
    35
100
AcDbVertex
100
AcDb2dVertex
 10
74.6638319040771
 20
82.40875106446725
 30
0.0
  0
VERTEX
  5
127
330
125
100
AcDbEntity
  8
\U+30EC\U+30A4\U+30E4\U+30FC 1
 62
    29
370
    35
100
AcDbVertex
100
AcDb2dVertex
 10
74.50880260724085
 20
81.75831703685209
 30
0.0
  0
SEQEND
  5
128
330
125
100
AcDbEntity
  8
\U+30EC\U+30A4\U+30E4\U+30FC 1
370
    35
  0
POLYLINE
  5
129
330
11D
100
AcDbEntity
  8
\U+30EC\U+30A4\U+30E4\U+30FC 1
 62
    29
370
    35
100
AcDb2dPolyline
 66
     1
 10
0.0
 20
0.0
 30
0.0
  0
VERTEX
  5
12A
330
129
100
AcDbEntity
  8
\U+30EC\U+30A4\U+30E4\U+30FC 1
 62
    29
370
    35
100
AcDbVertex
100
AcDb2dVertex
 10
74.67003307595056
 20
82.43493379015516
 30
0.0
  0
VERTEX
  5
12B
330
129
100
AcDbEntity
  8
\U+30EC\U+30A4\U+30E4\U+30FC 1
 62
    29
370
    35
100
AcDbVertex
100
AcDb2dVertex
 10
74.6638319040771
 20
82.40875106446725
 30
0.0
  0
SEQEND
  5
12C
330
129
100
AcDbEntity
  8
\U+30EC\U+30A4\U+30E4\U+30FC 1
370
    35
  0
POLYLINE
  5
12D
330
11D
100
AcDbEntity
  8
\U+30EC\U+30A4\U+30E4\U+30FC 1
 62
    29
370
    35
100
AcDb2dPolyline
 66
     1
 10
0.0
 20
0.0
 30
0.0
  0
VERTEX
  5
12E
330
12D
100
AcDbEntity
  8
\U+30EC\U+30A4\U+30E4\U+30FC 1
 62
    29
370
    35
100
AcDbVertex
100
AcDb2dVertex
 10
78.32252330941243
 20
81.5667697278722
 30
0.0
  0
VERTEX
  5
12F
330
12D
100
AcDbEntity
  8
\U+30EC\U+30A4\U+30E4\U+30FC 1
 62
    29
370
    35
100
AcDbVertex
100
AcDb2dVertex
 10
78.16198185979978
 20
80.88946395547208
 30
0.0
  0
SEQEND
  5
130
330
12D
100
AcDbEntity
  8
\U+30EC\U+30A4\U+30E4\U+30FC 1
370
    35
  0
POLYLINE
  5
131
330
11D
100
AcDbEntity
  8
\U+30EC\U+30A4\U+30E4\U+30FC 1
 62
    29
370
    35
100
AcDb2dPolyline
 66
     1
 10
0.0
 20
0.0
 30
0.0
  0
VERTEX
  5
132
330
131
100
AcDbEntity
  8
\U+30EC\U+30A4\U+30E4\U+30FC 1
 62
    29
370
    35
100
AcDbVertex
100
AcDb2dVertex
 10
78.06448565756722
 20
81.76727428511374
 30
0.0
  0
VERTEX
  5
133
330
131
100
AcDbEntity
  8
\U+30EC\U+30A4\U+30E4\U+30FC 1
 62
    29
370
    35
100
AcDbVertex
100
AcDb2dVertex
 10
78.51682669478052
 20
83.67172306935986
 30
0.0
  0
SEQEND
  5
134
330
131
100
AcDbEntity
  8
\U+30EC\U+30A4\U+30E4\U+30FC 1
370
    35
  0
POLYLINE
  5
135
330
11D
100
AcDbEntity
  8
\U+30EC\U+30A4\U+30E4\U+30FC 1
 62
    29
370
    35
100
AcDb2dPolyline
 66
     1
 10
0.0
 20
0.0
 30
0.0
  0
VERTEX
  5
136
330
135
100
AcDbEntity
  8
\U+30EC\U+30A4\U+30E4\U+30FC 1
 62
    29
370
    35
100
AcDbVertex
100
AcDb2dVertex
 10
75.43312172593339
 20
84.39588214035936
 30
0.0
  0
VERTEX
  5
137
330
135
100
AcDbEntity
  8
\U+30EC\U+30A4\U+30E4\U+30FC 1
 62
    29
370
    35
100
AcDbVertex
100
AcDb2dVertex
 10
74.97940265052598
 20
82.48661022243391
 30
0.0
  0
SEQEND
  5
138
330
135
100
AcDbEntity
  8
\U+30EC\U+30A4\U+30E4\U+30FC 1
370
    35
  0
SPLINE
  5
139
330
11D
100
AcDbEntity
  8
\U+30EC\U+30A4\U+30E4\U+30FC 1
 62
    29
370
    35
100
AcDbSpline
210
0.0
220
0.0
230
1.0
 70
    11
 71
     3
 72
    23
 73
    19
 74
     0
 42
0.0000000001
 43
0.0000000001
 40
0.0
 40
0.0
 40
0.0
 40
0.0
 40
1.0
 40
1.0
 40
1.0
 40
2.0
 40
2.0
 40
2.0
 40
3.0
 40
3.0
 40
3.0
 40
4.0
 40
4.0
 40
4.0
 40
5.0
 40
5.0
 40
5.0
 40
6.0
 40
6.0
 40
6.0
 40
6.0
 10
75.68358016771106
 20
84.45513778270566
 30
0.0
 10
75.68358016771106
 20
84.45513778270566
 30
0.0
 10
75.6443060791792
 20
84.28908418031662
 30
0.0
 10
76.93139375246854
 20
83.98315970122644
 30
0.0
 10
78.20814613930213
 20
83.67999129852446
 30
0.0
 10
78.22537161672838
 20
83.87360566479549
 30
0.0
 10
78.22537161672838
 20
83.87360566479549
 30
0.0
 10
78.22537161672838
 20
83.87360566479549
 30
0.0
 10
80.35375160751573
 20
92.69373912613213
 30
0.0
 10
80.48604327414932
 20
93.2518445947426
 30
0.0
 10
79.89073077429815
 20
93.52745223356258
 30
0.0
 10
79.59789765805192
 20
93.64389646096403
 30
0.0
 10
78.8985432745462
 20
94.17788626117776
 30
0.0
 10
78.59537487184421
 20
94.40939667778655
 30
0.0
 10
78.24810924693104
 20
94.83383244156933
 30
0.0
 10
78.30874292747143
 20
95.42914494142049
 30
0.0
 10
78.19677732420081
 20
94.95716685994127
 30
0.0
 10
75.68358016771106
 20
84.45513778270566
 30
0.0
 10
75.68358016771106
 20
84.45513778270566
 30
0.0
  0
ENDBLK
  5
120
330
11D
100
AcDbEntity
  8
0
100
AcDbBlockEnd
  0
BLOCK
  5
13C
330
13A
100
AcDbEntity
  8
0
100
AcDbBlockBegin
  2
block 9
 70
     0
 71
     0
 10
0.0
 20
0.0
 30
0.0
  3
block 9
  1

  0
SPLINE
  5
13E
330
13A
100
AcDbEntity
  8
\U+30EC\U+30A4\U+30E4\U+30FC 1
 62
    29
370
    35
100
AcDbSpline
210
0.0
220
0.0
230
1.0
 70
     8
 71
     3
 72
    11
 73
     7
 74
     0
 42
0.0000000001
 43
0.0000000001
 40
0.0
 40
0.0
 40
0.0
 40
0.0
 40
1.0
 40
1.0
 40
1.0
 40
2.0
 40
2.0
 40
2.0
 40
2.0
 10
135.5700194973575
 20
80.87223847804583
 30
0.0
 10
135.6037814331129
 20
80.73098956315059
 30
0.0
 10
136.4478298269992
 20
80.81229381660249
 30
0.0
 10
137.4565537850803
 20
81.05207246237588
 30
0.0
 10
138.4659667622585
 20
81.29185110814926
 30
0.0
 10
139.2562716665748
 20
81.59915362543354
 30
0.0
 10
139.2225097308194
 20
81.74109155942584
 30
0.0
  0
SPLINE
  5
13F
330
13A
100
AcDbEntity
  8
\U+30EC\U+30A4\U+30E4\U+30FC 1
 62
    29
370
    35
100
AcDbSpline
210
0.0
220
0.0
230
1.0
 70
     8
 71
     3
 72
    17
 73
    13
 74
     0
 42
0.0000000001
 43
0.0000000001
 40
0.0
 40
0.0
 40
0.0
 40
0.0
 40
1.0
 40
1.0
 40
1.0
 40
2.0
 40
2.0
 40
2.0
 40
3.0
 40
3.0
 40
3.0
 40
4.0
 40
4.0
 40
4.0
 40
4.0
 10
135.6506347317124
 20
81.78312172434589
 30
0.0
 10
135.4611544800236
 20
81.69423826082644
 30
0.0
 10
135.3874294366393
 20
81.64049477125654
 30
0.0
 10
135.3998317803862
 20
81.5874403007837
 30
0.0
 10
135.4335937161416
 20
81.4455023667914
 30
0.0
 10
136.2783311291249
 20
81.52749563934036
 30
0.0
 10
137.287055087206
 20
81.76727428511374
 30
0.0
 10
138.2957790452872
 20
82.00705293088713
 30
0.0
 10
139.0860839496035
 20
82.31435544817141
 30
0.0
 10
139.0530110329451
 20
82.45560436306666
 30
0.0
 10
139.0399196701011
 20
82.5086588335395
 30
0.0
 10
138.9572373784551
 20
82.5334635210333
 30
0.0
 10
138.7512206684372
 20
82.52726234915986
 30
0.0
  0
SPLINE
  5
140
330
13A
100
AcDbEntity
  8
\U+30EC\U+30A4\U+30E4\U+30FC 1
 62
    29
370
    35
100
AcDbSpline
210
0.0
220
0.0
230
1.0
 70
     8
 71
     3
 72
    17
 73
    13
 74
     0
 42
0.0000000001
 43
0.0000000001
 40
0.0
 40
0.0
 40
0.0
 40
0.0
 40
1.0
 40
1.0
 40
1.0
 40
2.0
 40
2.0
 40
2.0
 40
3.0
 40
3.0
 40
3.0
 40
4.0
 40
4.0
 40
4.0
 40
4.0
 10
135.5066297404289
 20
83.94388561269459
 30
0.0
 10
135.2985459731198
 20
83.84811195820464
 30
0.0
 10
135.1807237075243
 20
83.76129555197635
 30
0.0
 10
135.1951931085623
 20
83.69928383324185
 30
0.0
 10
135.2289550443178
 20
83.55734589924955
 30
0.0
 10
135.9558701917055
 20
83.5731933384817
 30
0.0
 10
136.8088758338533
 20
83.77645397211144
 30
0.0
 10
137.6632595141953
 20
83.97902558664414
 30
0.0
 10
138.3185166754898
 20
84.29184025670482
 30
0.0
 10
138.2854437588314
 20
84.43377819069711
 30
0.0
 10
138.2730414150845
 20
84.48545462297587
 30
0.0
 10
138.1683105123329
 20
84.5123263677608
 30
0.0
 10
137.9988118144586
 20
84.51439342505196
 30
0.0
  0
SPLINE
  5
141
330
13A
100
AcDbEntity
  8
\U+30EC\U+30A4\U+30E4\U+30FC 1
 62
    29
370
    35
100
AcDbSpline
210
0.0
220
0.0
230
1.0
 70
     8
 71
     3
 72
    14
 73
    10
 74
     0
 42
0.0000000001
 43
0.0000000001
 40
0.0
 40
0.0
 40
0.0
 40
0.0
 40
1.0
 40
1.0
 40
1.0
 40
2.0
 40
2.0
 40
2.0
 40
3.0
 40
3.0
 40
3.0
 40
3.0
 10
135.659591979974
 20
81.80517033545149
 30
0.0
 10
135.6396104261595
 20
81.78105466705475
 30
0.0
 10
135.645811598033
 20
81.80172523996625
 30
0.0
 10
135.6506347317124
 20
81.78312172434589
 30
0.0
 10
135.6843966674678
 20
81.6411837903536
 30
0.0
 10
136.4030435856909
 20
81.69286022263235
 30
0.0
 10
137.2560492278388
 20
81.89543183716503
 30
0.0
 10
138.1097438890837
 20
82.09869247079477
 30
0.0
 10
138.7746473177369
 20
82.37567814780886
 30
0.0
 10
138.7408853819815
 20
82.5169270627041
 30
0.0
  0
POLYLINE
  5
142
330
13A
100
AcDbEntity
  8
\U+30EC\U+30A4\U+30E4\U+30FC 1
 62
    29
370
    35
100
AcDb2dPolyline
 66
     1
 10
0.0
 20
0.0
 30
0.0
  0
VERTEX
  5
143
330
142
100
AcDbEntity
  8
\U+30EC\U+30A4\U+30E4\U+30FC 1
 62
    29
370
    35
100
AcDbVertex
100
AcDb2dVertex
 10
139.0640353384979
 20
82.40875106446725
 30
0.0
  0
VERTEX
  5
144
330
142
100
AcDbEntity
  8
\U+30EC\U+30A4\U+30E4\U+30FC 1
 62
    29
370
    35
100
AcDbVertex
100
AcDb2dVertex
 10
139.2183756162371
 20
81.75831703685209
 30
0.0
  0
SEQEND
  5
145
330
142
100
AcDbEntity
  8
\U+30EC\U+30A4\U+30E4\U+30FC 1
370
    35
  0
POLYLINE
  5
146
330
13A
100
AcDbEntity
  8
\U+30EC\U+30A4\U+30E4\U+30FC 1
 62
    29
370
    35
100
AcDb2dPolyline
 66
     1
 10
0.0
 20
0.0
 30
0.0
  0
VERTEX
  5
147
330
146
100
AcDbEntity
  8
\U+30EC\U+30A4\U+30E4\U+30FC 1
 62
    29
370
    35
100
AcDbVertex
100
AcDb2dVertex
 10
139.0578341666244
 20
82.43493379015516
 30
0.0
  0
VERTEX
  5
148
330
146
100
AcDbEntity
  8
\U+30EC\U+30A4\U+30E4\U+30FC 1
 62
    29
370
    35
100
AcDbVertex
100
AcDb2dVertex
 10
139.0640353384979
 20
82.40875106446725
 30
0.0
  0
SEQEND
  5
149
330
146
100
AcDbEntity
  8
\U+30EC\U+30A4\U+30E4\U+30FC 1
370
    35
  0
POLYLINE
  5
14A
330
13A
100
AcDbEntity
  8
\U+30EC\U+30A4\U+30E4\U+30FC 1
 62
    29
370
    35
100
AcDb2dPolyline
 66
     1
 10
0.0
 20
0.0
 30
0.0
  0
VERTEX
  5
14B
330
14A
100
AcDbEntity
  8
\U+30EC\U+30A4\U+30E4\U+30FC 1
 62
    29
370
    35
100
AcDbVertex
100
AcDb2dVertex
 10
135.4046549140655
 20
81.5667697278722
 30
0.0
  0
VERTEX
  5
14C
330
14A
100
AcDbEntity
  8
\U+30EC\U+30A4\U+30E4\U+30FC 1
 62
    29
370
    35
100
AcDbVertex
100
AcDb2dVertex
 10
135.5658853827752
 20
80.88946395547208
 30
0.0
  0
SEQEND
  5
14D
330
14A
100
AcDbEntity
  8
\U+30EC\U+30A4\U+30E4\U+30FC 1
370
    35
  0
POLYLINE
  5
14E
330
13A
100
AcDbEntity
  8
\U+30EC\U+30A4\U+30E4\U+30FC 1
 62
    29
370
    35
100
AcDb2dPolyline
 66
     1
 10
0.0
 20
0.0
 30
0.0
  0
VERTEX
  5
14F
330
14E
100
AcDbEntity
  8
\U+30EC\U+30A4\U+30E4\U+30FC 1
 62
    29
370
    35
100
AcDbVertex
100
AcDb2dVertex
 10
135.6630370754592
 20
81.76727428511374
 30
0.0
  0
VERTEX
  5
150
330
14E
100
AcDbEntity
  8
\U+30EC\U+30A4\U+30E4\U+30FC 1
 62
    29
370
    35
100
AcDbVertex
100
AcDb2dVertex
 10
135.2103515286974
 20
83.67172306935986
 30
0.0
  0
SEQEND
  5
151
330
14E
100
AcDbEntity
  8
\U+30EC\U+30A4\U+30E4\U+30FC 1
370
    35
  0
POLYLINE
  5
152
330
13A
100
AcDbEntity
  8
\U+30EC\U+30A4\U+30E4\U+30FC 1
 62
    29
370
    35
100
AcDb2dPolyline
 66
     1
 10
0.0
 20
0.0
 30
0.0
  0
VERTEX
  5
153
330
152
100
AcDbEntity
  8
\U+30EC\U+30A4\U+30E4\U+30FC 1
 62
    29
370
    35
100
AcDbVertex
100
AcDb2dVertex
 10
138.2944010070931
 20
84.39588214035936
 30
0.0
  0
VERTEX
  5
154
330
152
100
AcDbEntity
  8
\U+30EC\U+30A4\U+30E4\U+30FC 1
 62
    29
370
    35
100
AcDbVertex
100
AcDb2dVertex
 10
138.748464592049
 20
82.48661022243391
 30
0.0
  0
SEQEND
  5
155
330
152
100
AcDbEntity
  8
\U+30EC\U+30A4\U+30E4\U+30FC 1
370
    35
  0
SPLINE
  5
156
330
13A
100
AcDbEntity
  8
\U+30EC\U+30A4\U+30E4\U+30FC 1
 62
    29
370
    35
100
AcDbSpline
210
0.0
220
0.0
230
1.0
 70
    11
 71
     3
 72
    23
 73
    19
 74
     0
 42
0.0000000001
 43
0.0000000001
 40
0.0
 40
0.0
 40
0.0
 40
0.0
 40
1.0
 40
1.0
 40
1.0
 40
2.0
 40
2.0
 40
2.0
 40
3.0
 40
3.0
 40
3.0
 40
4.0
 40
4.0
 40
4.0
 40
5.0
 40
5.0
 40
5.0
 40
6.0
 40
6.0
 40
6.0
 40
6.0
 10
138.0435980557669
 20
84.45513778270566
 30
0.0
 10
138.0435980557669
 20
84.45513778270566
 30
0.0
 10
138.0835611633958
 20
84.28908418031662
 30
0.0
 10
136.7964734901065
 20
83.98315970122644
 30
0.0
 10
135.5197211032728
 20
83.67999129852446
 30
0.0
 10
135.5018066067496
 20
83.87360566479549
 30
0.0
 10
135.5018066067496
 20
83.87360566479549
 30
0.0
 10
135.5018066067496
 20
83.87360566479549
 30
0.0
 10
133.3920301315825
 20
92.60003252893333
 30
0.0
 10
133.259738464949
 20
93.1581379975438
 30
0.0
 10
133.8550509648001
 20
93.4337456363638
 30
0.0
 10
134.5716308257321
 20
93.66525605297258
 30
0.0
 10
134.8692870756577
 20
94.02905813621496
 30
0.0
 10
135.1373155044101
 20
94.35703122641074
 30
0.0
 10
135.4976724921673
 20
94.80075952491093
 30
0.0
 10
135.4184352960065
 20
95.42914494142049
 30
0.0
 10
135.5307454088257
 20
94.95716685994127
 30
0.0
 10
138.0435980557669
 20
84.45513778270566
 30
0.0
 10
138.0435980557669
 20
84.45513778270566
 30
0.0
  0
ENDBLK
  5
13D
330
13A
100
AcDbEntity
  8
0
100
AcDbBlockEnd
  0
BLOCK
  5
174
330
172
100
AcDbEntity
  8
0
100
AcDbBlockBegin
  2
block 10
 70
     0
 71
     0
 10
0.0
 20
0.0
 30
0.0
  3
block 10
  1

  0
SPLINE
  5
176
330
172
100
AcDbEntity
  8
\U+30EC\U+30A4\U+30E4\U+30FC 1
 62
    29
370
    35
100
AcDbSpline
210
0.0
220
0.0
230
1.0
 70
     8
 71
     3
 72
    29
 73
    25
 74
     0
 42
0.0000000001
 43
0.0000000001
 40
0.0
 40
0.0
 40
0.0
 40
0.0
 40
1.0
 40
1.0
 40
1.0
 40
2.0
 40
2.0
 40
2.0
 40
3.0
 40
3.0
 40
3.0
 40
4.0
 40
4.0
 40
4.0
 40
5.0
 40
5.0
 40
5.0
 40
6.0
 40
6.0
 40
6.0
 40
7.0
 40
7.0
 40
7.0
 40
8.0
 40
8.0
 40
8.0
 40
8.0
 10
87.76001788170583
 20
188.6453327978907
 30
0.0
 10
84.57399357694678
 20
184.1405259413781
 30
0.0
 10
73.29406193914177
 20
166.3500528555479
 30
0.0
 10
69.56715764319848
 20
135.6358208211258
 30
0.0
 10
67.32750106823757
 20
117.1776882302542
 30
0.0
 10
72.91441241666723
 20
102.462307374558
 30
0.0
 10
78.71595321382796
 20
96.95049910770682
 30
0.0
 10
79.22100421196559
 20
96.47094181616005
 30
0.0
 10
79.89796547481718
 20
95.88596460276463
 30
0.0
 10
81.05551755786112
 20
95.2968532747869
 30
0.0
 10
86.17182886300566
 20
92.69511716432622
 30
0.0
 10
96.9487765599642
 20
91.61060110556957
 30
0.0
 10
107.0325710452905
 20
91.61060110556957
 30
0.0
 10
118.2084607994409
 20
91.61060110556957
 30
0.0
 10
128.8799885745509
 20
93.1360893864382
 30
0.0
 10
132.5834662211944
 20
95.07636716373091
 30
0.0
 10
133.3679144631858
 20
95.48771156466974
 30
0.0
 10
134.3632025488745
 20
96.13470049679967
 30
0.0
 10
135.0353406780467
 20
96.77411021886203
 30
0.0
 10
140.843771666178
 20
102.2990098485572
 30
0.0
 10
146.7548664997696
 20
113.5410454360245
 30
0.0
 10
144.485237594087
 20
135.4911268107453
 30
0.0
 10
141.3832736191681
 20
165.4820610480392
 30
0.0
 10
130.0196261610715
 20
183.680433439323
 30
0.0
 10
126.6720268780542
 20
188.4754895904679
 30
0.0
  0
SPLINE
  5
177
330
172
100
AcDbEntity
  8
\U+30EC\U+30A4\U+30E4\U+30FC 1
 62
    29
370
    35
100
AcDbSpline
210
0.0
220
0.0
230
1.0
 70
     8
 71
     3
 72
    29
 73
    25
 74
     0
 42
0.0000000001
 43
0.0000000001
 40
0.0
 40
0.0
 40
0.0
 40
0.0
 40
1.0
 40
1.0
 40
1.0
 40
2.0
 40
2.0
 40
2.0
 40
3.0
 40
3.0
 40
3.0
 40
4.0
 40
4.0
 40
4.0
 40
5.0
 40
5.0
 40
5.0
 40
6.0
 40
6.0
 40
6.0
 40
7.0
 40
7.0
 40
7.0
 40
8.0
 40
8.0
 40
8.0
 40
8.0
 10
88.66332191793833
 20
188.1557847294368
 30
0.0
 10
85.30986597259614
 20
182.9516234894184
 30
0.0
 10
75.32046710356572
 20
165.3359889994646
 30
0.0
 10
71.94565156621498
 20
135.6358208211258
 30
0.0
 10
69.84827743479488
 20
117.1776882302542
 30
0.0
 10
75.08068845779233
 20
102.462307374558
 30
0.0
 10
80.51360403803133
 20
96.95049910770682
 30
0.0
 10
80.9862711386076
 20
96.47094181616005
 30
0.0
 10
81.6205132174421
 20
95.88596460276463
 30
0.0
 10
82.70468476665022
 20
95.2968532747869
 30
0.0
 10
87.49612356753569
 20
92.69511716432622
 30
0.0
 10
97.5885307915751
 20
91.61060110556957
 30
0.0
 10
107.0318820261934
 20
91.61060110556957
 30
0.0
 10
117.4980821103824
 20
91.61060110556957
 30
0.0
 10
127.4919596035437
 20
93.1360893864382
 30
0.0
 10
130.9601372285447
 20
95.07636716373091
 30
0.0
 10
131.6949760955485
 20
95.48771156466974
 30
0.0
 10
132.6268744243086
 20
96.13470049679967
 30
0.0
 10
133.2562933694637
 20
96.77411021886203
 30
0.0
 10
138.6960991406732
 20
102.2990098485572
 30
0.0
 10
144.2316785663726
 20
113.5410454360245
 30
0.0
 10
142.106399161522
 20
135.4911268107453
 30
0.0
 10
139.2872775259421
 20
164.5920206294249
 30
0.0
 10
129.1845350154469
 20
182.5897162086929
 30
0.0
 10
125.7229030718679
 20
188.0133300311217
 30
0.0
  0
SPLINE
  5
178
330
172
100
AcDbEntity
  8
\U+30EC\U+30A4\U+30E4\U+30FC 1
 62
    29
370
    35
100
AcDbSpline
210
0.0
220
0.0
230
1.0
 70
     8
 71
     3
 72
    29
 73
    25
 74
     0
 42
0.0000000001
 43
0.0000000001
 40
0.0
 40
0.0
 40
0.0
 40
0.0
 40
1.0
 40
1.0
 40
1.0
 40
2.0
 40
2.0
 40
2.0
 40
3.0
 40
3.0
 40
3.0
 40
4.0
 40
4.0
 40
4.0
 40
5.0
 40
5.0
 40
5.0
 40
6.0
 40
6.0
 40
6.0
 40
7.0
 40
7.0
 40
7.0
 40
8.0
 40
8.0
 40
8.0
 40
8.0
 10
90.05031736029993
 20
187.5590941913915
 30
0.0
 10
86.72580021703384
 20
181.6945081468507
 30
0.0
 10
78.20125594833164
 20
164.2888522267229
 30
0.0
 10
75.25225421295778
 20
135.6358208211258
 30
0.0
 10
73.35262856239102
 20
117.1776882302542
 30
0.0
 10
78.09170191190069
 20
102.462307374558
 30
0.0
 10
83.01267630303155
 20
96.95049910770682
 30
0.0
 10
83.44055716229958
 20
96.47094181616005
 30
0.0
 10
84.01519908923926
 20
95.88596460276463
 30
0.0
 10
84.99705130253547
 20
95.2968532747869
 30
0.0
 10
89.33649357575617
 20
92.69511716432622
 30
0.0
 10
98.47770993631808
 20
91.61060110556957
 30
0.0
 10
107.0305039879993
 20
91.61060110556957
 30
0.0
 10
116.5103732347613
 20
91.61060110556957
 30
0.0
 10
125.5620171127067
 20
93.1360893864382
 30
0.0
 10
128.7032551761575
 20
95.07636716373091
 30
0.0
 10
129.3688476239078
 20
95.48771156466974
 30
0.0
 10
130.212896017794
 20
96.13470049679967
 30
0.0
 10
130.7830593206029
 20
96.77411021886203
 30
0.0
 10
135.7102348836072
 20
102.2990098485572
 30
0.0
 10
140.7238823432913
 20
113.5410454360245
 30
0.0
 10
138.7987629861337
 20
135.4911268107453
 30
0.0
 10
136.3262179563698
 20
163.6732136635088
 30
0.0
 10
127.6662814350973
 20
181.4421549025561
 30
0.0
 10
124.2745849298689
 20
187.4621147534817
 30
0.0
  0
SPLINE
  5
179
330
172
100
AcDbEntity
  8
\U+30EC\U+30A4\U+30E4\U+30FC 1
 62
    29
370
    35
100
AcDbSpline
210
0.0
220
0.0
230
1.0
 70
     8
 71
     3
 72
    29
 73
    25
 74
     0
 42
0.0000000001
 43
0.0000000001
 40
0.0
 40
0.0
 40
0.0
 40
0.0
 40
1.0
 40
1.0
 40
1.0
 40
2.0
 40
2.0
 40
2.0
 40
3.0
 40
3.0
 40
3.0
 40
4.0
 40
4.0
 40
4.0
 40
5.0
 40
5.0
 40
5.0
 40
6.0
 40
6.0
 40
6.0
 40
7.0
 40
7.0
 40
7.0
 40
8.0
 40
8.0
 40
8.0
 40
8.0
 10
91.87828502477349
 20
187.0207980218212
 30
0.0
 10
88.79905868005719
 20
180.6773437048307
 30
0.0
 10
81.67907984069134
 20
163.459445488649
 30
0.0
 10
79.16829425104126
 20
135.6358208211258
 30
0.0
 10
77.50259058392297
 20
117.1776882302542
 30
0.0
 10
81.65737573913427
 20
102.462307374558
 30
0.0
 10
85.97201332486117
 20
96.95049910770682
 30
0.0
 10
86.3475287327534
 20
96.47094181616005
 30
0.0
 10
86.85120169269693
 20
95.88596460276463
 30
0.0
 10
87.71178654491233
 20
95.2968532747869
 30
0.0
 10
91.51654999882226
 20
92.69511716432622
 30
0.0
 10
99.53087562615896
 20
91.61060110556957
 30
0.0
 10
107.0298149689023
 20
91.61060110556957
 30
0.0
 10
115.340763317519
 20
91.61060110556957
 30
0.0
 10
123.2768852773405
 20
93.1360893864382
 30
0.0
 10
126.0308946082492
 20
95.07636716373091
 30
0.0
 10
126.6144937834506
 20
95.48771156466974
 30
0.0
 10
127.3545002936822
 20
96.13470049679967
 30
0.0
 10
127.854383648592
 20
96.77411021886203
 30
0.0
 10
132.1738443679982
 20
102.2990098485572
 30
0.0
 10
136.569786207177
 20
113.5410454360245
 30
0.0
 10
134.8820339289531
 20
135.4911268107453
 30
0.0
 10
132.778114116111
 20
162.8398450656269
 30
0.0
 10
125.566151227289
 20
180.3824435312933
 30
0.0
 10
122.4235351256441
 20
186.8974636034493
 30
0.0
  0
SPLINE
  5
17A
330
172
100
AcDbEntity
  8
\U+30EC\U+30A4\U+30E4\U+30FC 1
 62
    29
370
    35
100
AcDbSpline
210
0.0
220
0.0
230
1.0
 70
     8
 71
     3
 72
    29
 73
    25
 74
     0
 42
0.0000000001
 43
0.0000000001
 40
0.0
 40
0.0
 40
0.0
 40
0.0
 40
1.0
 40
1.0
 40
1.0
 40
2.0
 40
2.0
 40
2.0
 40
3.0
 40
3.0
 40
3.0
 40
4.0
 40
4.0
 40
4.0
 40
5.0
 40
5.0
 40
5.0
 40
6.0
 40
6.0
 40
6.0
 40
7.0
 40
7.0
 40
7.0
 40
8.0
 40
8.0
 40
8.0
 40
8.0
 10
94.17823077072627
 20
186.5031724251624
 30
0.0
 10
91.50965980785176
 20
179.7733506495011
 30
0.0
 10
85.82077363305869
 20
162.7347696533267
 30
0.0
 10
83.78024357714521
 20
135.6358208211258
 30
0.0
 10
82.39049205839544
 20
117.1776882302542
 30
0.0
 10
85.85763615475088
 20
102.462307374558
 30
0.0
 10
89.45776093683695
 20
96.95049910770682
 30
0.0
 10
89.77057560689764
 20
96.47094181616005
 30
0.0
 10
90.19087725609812
 20
95.88596460276463
 30
0.0
 10
90.90917966477271
 20
95.2968532747869
 30
0.0
 10
94.08383515443043
 20
92.69511716432622
 30
0.0
 10
100.7714545103974
 20
91.61060110556957
 30
0.0
 10
107.0284369307082
 20
91.61060110556957
 30
0.0
 10
113.9634141425161
 20
91.61060110556957
 30
0.0
 10
120.5852321747148
 20
93.1360893864382
 30
0.0
 10
122.8831108633764
 20
95.07636716373091
 30
0.0
 10
123.3702473649908
 20
95.48771156466974
 30
0.0
 10
123.9876084759476
 20
96.13470049679967
 30
0.0
 10
124.4048095392113
 20
96.77411021886203
 30
0.0
 10
128.0090684358797
 20
102.2990098485572
 30
0.0
 10
131.6774061085737
 20
113.5410454360245
 30
0.0
 10
130.268706564655
 20
135.4911268107453
 30
0.0
 10
128.5544270511947
 20
162.2061197511152
 30
0.0
 10
122.7721787887514
 20
179.5638888439979
 30
0.0
 10
120.0612331514083
 20
186.4266913053899
 30
0.0
  0
SPLINE
  5
17B
330
172
100
AcDbEntity
  8
\U+30EC\U+30A4\U+30E4\U+30FC 1
 62
    29
370
    35
100
AcDbSpline
210
0.0
220
0.0
230
1.0
 70
     8
 71
     3
 72
    29
 73
    25
 74
     0
 42
0.0000000001
 43
0.0000000001
 40
0.0
 40
0.0
 40
0.0
 40
0.0
 40
1.0
 40
1.0
 40
1.0
 40
2.0
 40
2.0
 40
2.0
 40
3.0
 40
3.0
 40
3.0
 40
4.0
 40
4.0
 40
4.0
 40
5.0
 40
5.0
 40
5.0
 40
6.0
 40
6.0
 40
6.0
 40
7.0
 40
7.0
 40
7.0
 40
8.0
 40
8.0
 40
8.0
 40
8.0
 10
96.67937009301767
 20
186.1207668262997
 30
0.0
 10
94.50895993731027
 20
179.1423814113776
 30
0.0
 10
90.11715221271378
 20
162.2357475722883
 30
0.0
 10
88.52276202214014
 20
135.6358208211258
 30
0.0
 10
87.41688637137494
 20
117.1776882302542
 30
0.0
 10
90.17606334551154
 20
102.462307374558
 30
0.0
 10
93.04134926059383
 20
96.95049910770682
 30
0.0
 10
93.29077417372592
 20
96.47094181616005
 30
0.0
 10
93.6256374548922
 20
95.88596460276463
 30
0.0
 10
94.19683428634663
 20
95.2968532747869
 30
0.0
 10
96.72415633432591
 20
92.69511716432622
 30
0.0
 10
102.0468288590369
 20
91.61060110556957
 30
0.0
 10
107.0274034020626
 20
91.61060110556957
 30
0.0
 10
112.5467908789814
 20
91.61060110556957
 30
0.0
 10
117.8174424618651
 20
93.1360893864382
 30
0.0
 10
119.6471326740813
 20
95.07636716373091
 30
0.0
 10
120.0347059161719
 20
95.48771156466974
 30
0.0
 10
120.5259765323685
 20
96.13470049679967
 30
0.0
 10
120.8577392275981
 20
96.77411021886203
 30
0.0
 10
123.7264702381656
 20
102.2990098485572
 30
0.0
 10
126.6465331714634
 20
113.5410454360245
 30
0.0
 10
125.5251545910146
 20
135.4911268107453
 30
0.0
 10
124.1857014663494
 20
161.70399708414
 30
0.0
 10
119.7301594752758
 20
178.9081149183806
 30
0.0
 10
117.5249538551674
 20
186.028438267295
 30
0.0
  0
SPLINE
  5
17C
330
172
100
AcDbEntity
  8
\U+30EC\U+30A4\U+30E4\U+30FC 1
 62
    29
370
    35
100
AcDbSpline
210
0.0
220
0.0
230
1.0
 70
     8
 71
     3
 72
    29
 73
    25
 74
     0
 42
0.0000000001
 43
0.0000000001
 40
0.0
 40
0.0
 40
0.0
 40
0.0
 40
1.0
 40
1.0
 40
1.0
 40
2.0
 40
2.0
 40
2.0
 40
3.0
 40
3.0
 40
3.0
 40
4.0
 40
4.0
 40
4.0
 40
5.0
 40
5.0
 40
5.0
 40
6.0
 40
6.0
 40
6.0
 40
7.0
 40
7.0
 40
7.0
 40
8.0
 40
8.0
 40
8.0
 40
8.0
 10
99.2638807260521
 20
185.8281059648277
 30
0.0
 10
97.62814938965546
 20
178.6771212660946
 30
0.0
 10
94.43454587482887
 20
161.8710842151746
 30
0.0
 10
93.26528046713507
 20
135.6358208211258
 30
0.0
 10
92.44293617480594
 20
117.1776882302542
 30
0.0
 10
94.49483504582074
 20
102.462307374558
 30
0.0
 10
96.62562660344777
 20
96.95049910770682
 30
0.0
 10
96.8109727405542
 20
96.47094181616005
 30
0.0
 10
97.05970863458924
 20
95.88596460276463
 30
0.0
 10
97.48483341746908
 20
95.2968532747869
 30
0.0
 10
99.36413300467287
 20
92.69511716432622
 30
0.0
 10
103.3222032076764
 20
91.61060110556957
 30
0.0
 10
107.0260253638685
 20
91.61060110556957
 30
0.0
 10
111.1305121249951
 20
91.61060110556957
 30
0.0
 10
115.0496527490154
 20
93.1360893864382
 30
0.0
 10
116.4104654656891
 20
95.07636716373091
 30
0.0
 10
116.6988199578045
 20
95.48771156466974
 30
0.0
 10
117.064000079241
 20
96.13470049679967
 30
0.0
 10
117.3103244064363
 20
96.77411021886203
 30
0.0
 10
119.4442165500001
 20
102.2990098485572
 30
0.0
 10
121.615660234353
 20
113.5410454360245
 30
0.0
 10
120.7819471269226
 20
135.4911268107453
 30
0.0
 10
119.7980278563352
 20
161.3851534969801
 30
0.0
 10
116.5524033996814
 20
178.4885022882772
 30
0.0
 10
114.8929009044365
 20
185.7643716983506
 30
0.0
  0
SPLINE
  5
17D
330
172
100
AcDbEntity
  8
\U+30EC\U+30A4\U+30E4\U+30FC 1
 62
    29
370
    35
100
AcDbSpline
210
0.0
220
0.0
230
1.0
 70
     8
 71
     3
 72
    29
 73
    25
 74
     0
 42
0.0000000001
 43
0.0000000001
 40
0.0
 40
0.0
 40
0.0
 40
0.0
 40
1.0
 40
1.0
 40
1.0
 40
2.0
 40
2.0
 40
2.0
 40
3.0
 40
3.0
 40
3.0
 40
4.0
 40
4.0
 40
4.0
 40
5.0
 40
5.0
 40
5.0
 40
6.0
 40
6.0
 40
6.0
 40
7.0
 40
7.0
 40
7.0
 40
8.0
 40
8.0
 40
8.0
 40
8.0
 10
102.1508707426915
 20
185.5959065291219
 30
0.0
 10
101.1214762116988
 20
178.3172810426603
 30
0.0
 10
99.1646619760769
 20
161.591170206998
 30
0.0
 10
98.44325898146558
 20
135.6358208211258
 30
0.0
 10
97.92993975416336
 20
117.1776882302542
 30
0.0
 10
99.20944821738514
 20
102.462307374558
 30
0.0
 10
100.5385660555945
 20
96.95049910770682
 30
0.0
 10
100.6543212638989
 20
96.47094181616005
 30
0.0
 10
100.8093505607352
 20
95.88596460276463
 30
0.0
 10
101.0746229130994
 20
95.2968532747869
 30
0.0
 10
102.2466443971814
 20
92.69511716432622
 30
0.0
 10
104.7150553123629
 20
91.61060110556957
 30
0.0
 10
107.0249918352229
 20
91.61060110556957
 30
0.0
 10
109.5840087616665
 20
91.61060110556957
 30
0.0
 10
112.0283040084513
 20
93.1360893864382
 30
0.0
 10
112.8768310264683
 20
95.07636716373091
 30
0.0
 10
113.0566650107983
 20
95.48771156466974
 30
0.0
 10
113.2843858223734
 20
96.13470049679967
 30
0.0
 10
113.437692571467
 20
96.77411021886203
 30
0.0
 10
114.768532957419
 20
102.2990098485572
 30
0.0
 10
116.1231445022192
 20
113.5410454360245
 30
0.0
 10
115.6029350839465
 20
135.4911268107453
 30
0.0
 10
114.9955647498969
 20
161.1359008386223
 30
0.0
 10
113.0042995594225
 20
178.158289886016
 30
0.0
 10
111.9611246464889
 20
185.5514647973621
 30
0.0
  0
SPLINE
  5
17E
330
172
100
AcDbEntity
  8
\U+30EC\U+30A4\U+30E4\U+30FC 1
 62
    29
370
    35
100
AcDbSpline
210
0.0
220
0.0
230
1.0
 70
     8
 71
     3
 72
    29
 73
    25
 74
     0
 42
0.0000000001
 43
0.0000000001
 40
0.0
 40
0.0
 40
0.0
 40
0.0
 40
1.0
 40
1.0
 40
1.0
 40
2.0
 40
2.0
 40
2.0
 40
3.0
 40
3.0
 40
3.0
 40
4.0
 40
4.0
 40
4.0
 40
5.0
 40
5.0
 40
5.0
 40
6.0
 40
6.0
 40
6.0
 40
7.0
 40
7.0
 40
7.0
 40
8.0
 40
8.0
 40
8.0
 40
8.0
 10
105.3809922696617
 20
185.4613755504229
 30
0.0
 10
105.0337266447485
 20
178.1124701160622
 30
0.0
 10
104.3836371266819
 20
161.4325235599023
 30
0.0
 10
104.1428249522629
 20
135.6358208211258
 30
0.0
 10
103.9705701780004
 20
117.1776882302542
 30
0.0
 10
104.4001735850111
 20
102.462307374558
 30
0.0
 10
104.8463134503509
 20
96.95049910770682
 30
0.0
 10
104.8848985197857
 20
96.47094181616005
 30
0.0
 10
104.9372639711615
 20
95.88596460276463
 30
0.0
 10
105.026147434681
 20
95.2968532747869
 30
0.0
 10
105.4195773390965
 20
92.69511716432622
 30
0.0
 10
106.2477782937506
 20
91.61060110556957
 30
0.0
 10
107.0229247779318
 20
91.61060110556957
 30
0.0
 10
107.8821315919531
 20
91.61060110556957
 30
0.0
 10
108.7024088269911
 20
93.1360893864382
 30
0.0
 10
108.9873182236212
 20
95.07636716373091
 30
0.0
 10
109.0472628850646
 20
95.48771156466974
 30
0.0
 10
109.1237440048371
 20
96.13470049679967
 30
0.0
 10
109.1754204371159
 20
96.77411021886203
 30
0.0
 10
109.6219048120042
 20
102.2990098485572
 30
0.0
 10
110.0766574160572
 20
113.5410454360245
 30
0.0
 10
109.9019910749551
 20
135.4911268107453
 30
0.0
 10
109.6990749508739
 20
161.0167005348326
 30
0.0
 10
109.0362385795118
 20
177.9996432389202
 30
0.0
 10
108.6848388400163
 20
185.4475951684819
 30
0.0
  0
ENDBLK
  5
175
330
172
100
AcDbEntity
  8
0
100
AcDbBlockEnd
  0
BLOCK
  5
1BF
330
1BD
100
AcDbEntity
  8
0
100
AcDbBlockBegin
  2
block 11
 70
     0
 71
     0
 10
0.0
 20
0.0
 30
0.0
  3
block 11
  1

  0
SPLINE
  5
1C1
330
1BD
100
AcDbEntity
  8
\U+30EC\U+30A4\U+30E4\U+30FC 1
 62
    29
370
    50
100
AcDbSpline
210
0.0
220
0.0
230
1.0
 70
     8
 71
     3
 72
    17
 73
    13
 74
     0
 42
0.0000000001
 43
0.0000000001
 40
0.0
 40
0.0
 40
0.0
 40
0.0
 40
1.0
 40
1.0
 40
1.0
 40
2.0
 40
2.0
 40
2.0
 40
3.0
 40
3.0
 40
3.0
 40
4.0
 40
4.0
 40
4.0
 40
4.0
 10
124.7255479288881
 20
188.8027736615667
 30
0.0
 10
124.641487599048
 20
188.9502237483354
 30
0.0
 10
124.5085069133173
 20
189.0925061918762
 30
0.0
 10
124.3193711711771
 20
189.2334105972229
 30
0.0
 10
122.0132242533509
 20
190.9532022634596
 30
0.0
 10
114.5022270764092
 20
191.9288533048824
 30
0.0
 10
107.0825249298266
 20
191.9288533048824
 30
0.0
 10
100.1261881260101
 20
191.9288533048824
 30
0.0
 10
92.31408960365759
 20
191.0338174978145
 30
0.0
 10
89.9121690313414
 20
189.2775078194341
 30
0.0
 10
89.70029565899854
 20
189.1224785225979
 30
0.0
 10
89.54733341945345
 20
188.9619370729852
 30
0.0
 10
89.45052623631793
 20
188.7993285660814
 30
0.0
  0
SPLINE
  5
1C2
330
1BD
100
AcDbEntity
  8
\U+30EC\U+30A4\U+30E4\U+30FC 1
 62
    29
370
    50
100
AcDbSpline
210
0.0
220
0.0
230
1.0
 70
     8
 71
     3
 72
    11
 73
     7
 74
     0
 42
0.0000000001
 43
0.0000000001
 40
0.0
 40
0.0
 40
0.0
 40
0.0
 40
1.0
 40
1.0
 40
1.0
 40
2.0
 40
2.0
 40
2.0
 40
2.0
 10
123.9572916356774
 20
188.4586086225902
 30
0.0
 10
121.3018120356468
 20
190.0292276543156
 30
0.0
 10
114.1508273369137
 20
190.9146171940248
 30
0.0
 10
107.0825249298266
 20
190.9146171940248
 30
0.0
 10
100.372856962754
 20
190.9146171940248
 30
0.0
 10
92.86702742904019
 20
190.08193761524
 30
0.0
 10
90.1877766701614
 20
188.4468952979404
 30
0.0
  0
SPLINE
  5
1C3
330
1BD
100
AcDbEntity
  8
\U+30EC\U+30A4\U+30E4\U+30FC 1
 62
    29
370
    50
100
AcDbSpline
210
0.0
220
0.0
230
1.0
 70
     8
 71
     3
 72
    11
 73
     7
 74
     0
 42
0.0000000001
 43
0.0000000001
 40
0.0
 40
0.0
 40
0.0
 40
0.0
 40
1.0
 40
1.0
 40
1.0
 40
2.0
 40
2.0
 40
2.0
 40
2.0
 10
122.6292073261135
 20
188.0048895471828
 30
0.0
 10
119.3498209337042
 20
189.1962035659822
 30
0.0
 10
113.1851670723982
 20
189.8562838609561
 30
0.0
 10
107.0825249298266
 20
189.8562838609561
 30
0.0
 10
101.2258626049019
 20
189.8562838609561
 30
0.0
 10
94.76251896502465
 20
189.2220417821216
 30
0.0
 10
91.43214515943363
 20
187.9731946687185
 30
0.0
  0
SPLINE
  5
1C4
330
1BD
100
AcDbEntity
  8
\U+30EC\U+30A4\U+30E4\U+30FC 1
 62
    29
370
    50
100
AcDbSpline
210
0.0
220
0.0
230
1.0
 70
     8
 71
     3
 72
    11
 73
     7
 74
     0
 42
0.0000000001
 43
0.0000000001
 40
0.0
 40
0.0
 40
0.0
 40
0.0
 40
1.0
 40
1.0
 40
1.0
 40
2.0
 40
2.0
 40
2.0
 40
2.0
 10
120.7943494706695
 20
187.4895032625894
 30
0.0
 10
117.3278943934111
 20
188.3366522424124
 30
0.0
 10
112.183677814836
 20
188.7979505278873
 30
0.0
 10
107.0825249298266
 20
188.7979505278873
 30
0.0
 10
102.1977240412909
 20
188.7979505278873
 30
0.0
 10
96.890898955812
 20
188.3566337962268
 30
0.0
 10
93.33177081000039
 20
187.4857136575557
 30
0.0
  0
SPLINE
  5
1C5
330
1BD
100
AcDbEntity
  8
\U+30EC\U+30A4\U+30E4\U+30FC 1
 62
    29
370
    50
100
AcDbSpline
210
0.0
220
0.0
230
1.0
 70
     8
 71
     3
 72
    11
 73
     7
 74
     0
 42
0.0000000001
 43
0.0000000001
 40
0.0
 40
0.0
 40
0.0
 40
0.0
 40
1.0
 40
1.0
 40
1.0
 40
2.0
 40
2.0
 40
2.0
 40
2.0
 10
118.0134683949758
 20
186.9765285448357
 30
0.0
 10
114.8457030962886
 20
187.4743448424543
 30
0.0
 10
110.9517116693107
 20
187.7396171948186
 30
0.0
 10
107.0825249298266
 20
187.7396171948186
 30
0.0
 10
103.3759466972463
 20
187.7396171948186
 30
0.0
 10
99.42648923295589
 20
187.4857136575557
 30
0.0
 10
96.18189830494758
 20
186.9823852071607
 30
0.0
  0
SPLINE
  5
1C6
330
1BD
100
AcDbEntity
  8
\U+30EC\U+30A4\U+30E4\U+30FC 1
 62
    29
370
    50
100
AcDbSpline
210
0.0
220
0.0
230
1.0
 70
     8
 71
     3
 72
    11
 73
     7
 74
     0
 42
0.0000000001
 43
0.0000000001
 40
0.0
 40
0.0
 40
0.0
 40
0.0
 40
1.0
 40
1.0
 40
1.0
 40
2.0
 40
2.0
 40
2.0
 40
2.0
 10
113.0149793554268
 20
186.4718220562466
 30
0.0
 10
111.1005397942735
 20
186.6099703852051
 30
0.0
 10
109.0882595213391
 20
186.6812838617498
 30
0.0
 10
107.0825249298266
 20
186.6812838617498
 30
0.0
 10
105.1367349997575
 20
186.6812838617498
 30
0.0
 10
103.123765707726
 20
186.6113484233992
 30
0.0
 10
101.1810763635936
 20
186.4721665657952
 30
0.0
  0
SPLINE
  5
1C7
330
1BD
100
AcDbEntity
  8
\U+30EC\U+30A4\U+30E4\U+30FC 1
 62
    29
370
    50
100
AcDbSpline
210
0.0
220
0.0
230
1.0
 70
     8
 71
     3
 72
     8
 73
     4
 74
     0
 42
0.0000000001
 43
0.0000000001
 40
0.0
 40
0.0
 40
0.0
 40
0.0
 40
1.0
 40
1.0
 40
1.0
 40
1.0
 10
124.7823920043947
 20
188.8458373551323
 30
0.0
 10
124.6011799818705
 20
189.2943887873118
 30
0.0
 10
124.4234130548317
 20
189.7246812134195
 30
0.0
 10
124.2501247519236
 20
190.1367146334554
 30
0.0
  0
SPLINE
  5
1C8
330
1BD
100
AcDbEntity
  8
\U+30EC\U+30A4\U+30E4\U+30FC 1
 62
    29
370
    50
100
AcDbSpline
210
0.0
220
0.0
230
1.0
 70
     8
 71
     3
 72
     8
 73
     4
 74
     0
 42
0.0000000001
 43
0.0000000001
 40
0.0
 40
0.0
 40
0.0
 40
0.0
 40
1.0
 40
1.0
 40
1.0
 40
1.0
 10
90.12645397052394
 20
190.2710733573801
 30
0.0
 10
89.93008352786471
 20
189.8052964477744
 30
0.0
 10
89.72785642288054
 20
189.3157483793204
 30
0.0
 10
89.52080618421702
 20
188.8020846424696
 30
0.0
  0
SPLINE
  5
1C9
330
1BD
100
AcDbEntity
  8
\U+30EC\U+30A4\U+30E4\U+30FC 1
 62
    29
370
    50
100
AcDbSpline
210
0.0
220
0.0
230
1.0
 70
     8
 71
     3
 72
     8
 73
     4
 74
     0
 42
0.0000000001
 43
0.0000000001
 40
0.0
 40
0.0
 40
0.0
 40
0.0
 40
1.0
 40
1.0
 40
1.0
 40
1.0
 10
122.1720431552209
 20
187.8715643519037
 30
0.0
 10
121.7358940667882
 20
189.2017157187586
 30
0.0
 10
121.3214490799127
 20
190.3892401325242
 30
0.0
 10
120.9407660287926
 20
191.4317260263608
 30
0.0
  0
SPLINE
  5
1CA
330
1BD
100
AcDbEntity
  8
\U+30EC\U+30A4\U+30E4\U+30FC 1
 62
    29
370
    50
100
AcDbSpline
210
0.0
220
0.0
230
1.0
 70
     8
 71
     3
 72
     8
 73
     4
 74
     0
 42
0.0000000001
 43
0.0000000001
 40
0.0
 40
0.0
 40
0.0
 40
0.0
 40
1.0
 40
1.0
 40
1.0
 40
1.0
 10
93.35692000704272
 20
191.4610093379854
 30
0.0
 10
92.97072480314621
 20
190.4043985526593
 30
0.0
 10
92.54973413484868
 20
189.1972370946278
 30
0.0
 10
92.1060058363485
 20
187.8402139829879
 30
0.0
  0
SPLINE
  5
1CB
330
1BD
100
AcDbEntity
  8
\U+30EC\U+30A4\U+30E4\U+30FC 1
 62
    29
370
    50
100
AcDbSpline
210
0.0
220
0.0
230
1.0
 70
     8
 71
     3
 72
     8
 73
     4
 74
     0
 42
0.0000000001
 43
0.0000000001
 40
0.0
 40
0.0
 40
0.0
 40
0.0
 40
1.0
 40
1.0
 40
1.0
 40
1.0
 10
119.249913164632
 20
187.2473130499764
 30
0.0
 10
118.774145478119
 20
189.103530497429
 30
0.0
 10
118.3273165936821
 20
190.6996432357452
 30
0.0
 10
117.9325086510724
 20
192.0304836216972
 30
0.0
  0
SPLINE
  5
1CC
330
1BD
100
AcDbEntity
  8
\U+30EC\U+30A4\U+30E4\U+30FC 1
 62
    29
370
    50
100
AcDbSpline
210
0.0
220
0.0
230
1.0
 70
     8
 71
     3
 72
     8
 73
     4
 74
     0
 42
0.0000000001
 43
0.0000000001
 40
0.0
 40
0.0
 40
0.0
 40
0.0
 40
1.0
 40
1.0
 40
1.0
 40
1.0
 10
96.31729055751791
 20
192.0187702970474
 30
0.0
 10
95.92041555761712
 20
190.6803507010278
 30
0.0
 10
95.47151961588906
 20
189.0735581667073
 30
0.0
 10
94.99265134343935
 20
187.1997707322799
 30
0.0
  0
SPLINE
  5
1CD
330
1BD
100
AcDbEntity
  8
\U+30EC\U+30A4\U+30E4\U+30FC 1
 62
    29
370
    50
100
AcDbSpline
210
0.0
220
0.0
230
1.0
 70
     8
 71
     3
 72
     8
 73
     4
 74
     0
 42
0.0000000001
 43
0.0000000001
 40
0.0
 40
0.0
 40
0.0
 40
0.0
 40
1.0
 40
1.0
 40
1.0
 40
1.0
 10
116.2206407044518
 20
186.7415730327417
 30
0.0
 10
115.7965494502175
 20
188.9991441042259
 30
0.0
 10
115.4007079789623
 20
190.8911905447251
 30
0.0
 10
115.0613660736652
 20
192.4090996155262
 30
0.0
  0
SPLINE
  5
1CE
330
1BD
100
AcDbEntity
  8
\U+30EC\U+30A4\U+30E4\U+30FC 1
 62
    29
370
    50
100
AcDbSpline
210
0.0
220
0.0
230
1.0
 70
     8
 71
     3
 72
     8
 73
     4
 74
     0
 42
0.0000000001
 43
0.0000000001
 40
0.0
 40
0.0
 40
0.0
 40
0.0
 40
1.0
 40
1.0
 40
1.0
 40
1.0
 10
99.15846080420344
 20
192.4094441250747
 30
0.0
 10
98.82118595619748
 20
190.9008368120838
 30
0.0
 10
98.42810056133048
 20
189.0218817344286
 30
0.0
 10
98.00607636438737
 20
186.7743014398516
 30
0.0
  0
SPLINE
  5
1CF
330
1BD
100
AcDbEntity
  8
\U+30EC\U+30A4\U+30E4\U+30FC 1
 62
    29
370
    50
100
AcDbSpline
210
0.0
220
0.0
230
1.0
 70
     8
 71
     3
 72
     8
 73
     4
 74
     0
 42
0.0000000001
 43
0.0000000001
 40
0.0
 40
0.0
 40
0.0
 40
0.0
 40
1.0
 40
1.0
 40
1.0
 40
1.0
 10
112.8075846072148
 20
186.449084426044
 30
0.0
 10
112.5164740387112
 20
188.9553913915632
 30
0.0
 10
112.2456895335705
 20
191.0231377018102
 30
0.0
 10
112.017624212447
 20
192.6433661085232
 30
0.0
  0
SPLINE
  5
1D0
330
1BD
100
AcDbEntity
  8
\U+30EC\U+30A4\U+30E4\U+30FC 1
 62
    29
370
    50
100
AcDbSpline
210
0.0
220
0.0
230
1.0
 70
     8
 71
     3
 72
     8
 73
     4
 74
     0
 42
0.0000000001
 43
0.0000000001
 40
0.0
 40
0.0
 40
0.0
 40
0.0
 40
1.0
 40
1.0
 40
1.0
 40
1.0
 10
102.164995634181
 20
192.6402655225865
 30
0.0
 10
101.9389973703486
 20
191.0310614214263
 30
0.0
 10
101.6699354129506
 20
188.9781290217659
 30
0.0
 10
101.3805473921896
 20
186.4842243999935
 30
0.0
  0
SPLINE
  5
1D1
330
1BD
100
AcDbEntity
  8
\U+30EC\U+30A4\U+30E4\U+30FC 1
 62
    29
370
    50
100
AcDbSpline
210
0.0
220
0.0
230
1.0
 70
     8
 71
     3
 72
     8
 73
     4
 74
     0
 42
0.0000000001
 43
0.0000000001
 40
0.0
 40
0.0
 40
0.0
 40
0.0
 40
1.0
 40
1.0
 40
1.0
 40
1.0
 10
108.9955864527858
 20
186.29818924379
 30
0.0
 10
108.8953341741651
 20
188.8847669341156
 30
0.0
 10
108.8019720865148
 20
191.0114243771604
 30
0.0
 10
108.7237684189996
 20
192.6667927578229
 30
0.0
  0
SPLINE
  5
1D2
330
1BD
100
AcDbEntity
  8
\U+30EC\U+30A4\U+30E4\U+30FC 1
 62
    29
370
    50
100
AcDbSpline
210
0.0
220
0.0
230
1.0
 70
     8
 71
     3
 72
     8
 73
     4
 74
     0
 42
0.0000000001
 43
0.0000000001
 40
0.0
 40
0.0
 40
0.0
 40
0.0
 40
1.0
 40
1.0
 40
1.0
 40
1.0
 10
105.419921848645
 20
192.6805731397639
 30
0.0
 10
105.3413736715813
 20
191.0200371158735
 30
0.0
 10
105.247322564834
 20
188.883044386373
 30
0.0
 10
105.1460367575677
 20
186.2723510276507
 30
0.0
  0
ENDBLK
  5
1C0
330
1BD
100
AcDbEntity
  8
0
100
AcDbBlockEnd
  0
BLOCK
  5
1D6
330
1D4
100
AcDbEntity
  8
0
100
AcDbBlockBegin
  2
block 12
 70
     0
 71
     0
 10
0.0
 20
0.0
 30
0.0
  3
block 12
  1

  0
SPLINE
  5
1D8
330
1D4
100
AcDbEntity
  8
\U+30EC\U+30A4\U+30E4\U+30FC 1
 62
    29
370
    18
100
AcDbSpline
210
0.0
220
0.0
230
1.0
 70
     8
 71
     3
 72
    29
 73
    25
 74
     0
 42
0.0000000001
 43
0.0000000001
 40
0.0
 40
0.0
 40
0.0
 40
0.0
 40
1.0
 40
1.0
 40
1.0
 40
2.0
 40
2.0
 40
2.0
 40
3.0
 40
3.0
 40
3.0
 40
4.0
 40
4.0
 40
4.0
 40
5.0
 40
5.0
 40
5.0
 40
6.0
 40
6.0
 40
6.0
 40
7.0
 40
7.0
 40
7.0
 40
8.0
 40
8.0
 40
8.0
 40
8.0
 10
94.18339841395415
 20
186.5031724251624
 30
0.0
 10
91.51482745107963
 20
179.7733506495011
 30
0.0
 10
85.82594127628657
 20
162.7347696533267
 30
0.0
 10
83.78541122037309
 20
135.6358208211258
 30
0.0
 10
82.39565970162332
 20
117.1776882302542
 30
0.0
 10
85.86280379797874
 20
102.462307374558
 30
0.0
 10
89.46292858006483
 20
96.95049910770682
 30
0.0
 10
89.77574325012552
 20
96.47094181616005
 30
0.0
 10
90.196044899326
 20
95.88596460276463
 30
0.0
 10
90.91434730800059
 20
95.2968532747869
 30
0.0
 10
94.08900279765831
 20
92.69511716432622
 30
0.0
 10
100.7766221536253
 20
91.61060110556957
 30
0.0
 10
107.033604573936
 20
91.61060110556957
 30
0.0
 10
113.968581785744
 20
91.61060110556957
 30
0.0
 10
120.5903998179427
 20
93.1360893864382
 30
0.0
 10
122.8882785066043
 20
95.07636716373091
 30
0.0
 10
123.3754150082187
 20
95.48771156466974
 30
0.0
 10
123.9927761191754
 20
96.13470049679967
 30
0.0
 10
124.4099771824392
 20
96.77411021886203
 30
0.0
 10
128.0142360791075
 20
102.2990098485572
 30
0.0
 10
131.6825737518016
 20
113.5410454360245
 30
0.0
 10
130.2738742078829
 20
135.4911268107453
 30
0.0
 10
128.5595946944226
 20
162.2061197511152
 30
0.0
 10
122.7773464319793
 20
179.5638888439979
 30
0.0
 10
120.0664007946362
 20
186.4266913053899
 30
0.0
  0
SPLINE
  5
1D9
330
1D4
100
AcDbEntity
  8
\U+30EC\U+30A4\U+30E4\U+30FC 1
 62
    29
370
    18
100
AcDbSpline
210
0.0
220
0.0
230
1.0
 70
     8
 71
     3
 72
    29
 73
    25
 74
     0
 42
0.0000000001
 43
0.0000000001
 40
0.0
 40
0.0
 40
0.0
 40
0.0
 40
1.0
 40
1.0
 40
1.0
 40
2.0
 40
2.0
 40
2.0
 40
3.0
 40
3.0
 40
3.0
 40
4.0
 40
4.0
 40
4.0
 40
5.0
 40
5.0
 40
5.0
 40
6.0
 40
6.0
 40
6.0
 40
7.0
 40
7.0
 40
7.0
 40
8.0
 40
8.0
 40
8.0
 40
8.0
 10
96.68453773624553
 20
186.1207668262997
 30
0.0
 10
94.51412758053814
 20
179.1423814113776
 30
0.0
 10
90.12231985594164
 20
162.2357475722883
 30
0.0
 10
88.52792966536802
 20
135.6358208211258
 30
0.0
 10
87.42205401460282
 20
117.1776882302542
 30
0.0
 10
90.18123098873942
 20
102.462307374558
 30
0.0
 10
93.04651690382171
 20
96.95049910770682
 30
0.0
 10
93.2959418169538
 20
96.47094181616005
 30
0.0
 10
93.63080509812008
 20
95.88596460276463
 30
0.0
 10
94.20200192957451
 20
95.2968532747869
 30
0.0
 10
96.72932397755379
 20
92.69511716432622
 30
0.0
 10
102.0519965022648
 20
91.61060110556957
 30
0.0
 10
107.0325710452905
 20
91.61060110556957
 30
0.0
 10
112.5519585222092
 20
91.61060110556957
 30
0.0
 10
117.822610105093
 20
93.1360893864382
 30
0.0
 10
119.6523003173092
 20
95.07636716373091
 30
0.0
 10
120.0398735593998
 20
95.48771156466974
 30
0.0
 10
120.5311441755964
 20
96.13470049679967
 30
0.0
 10
120.862906870826
 20
96.77411021886203
 30
0.0
 10
123.7316378813935
 20
102.2990098485572
 30
0.0
 10
126.6517008146913
 20
113.5410454360245
 30
0.0
 10
125.5303222342424
 20
135.4911268107453
 30
0.0
 10
124.1908691095773
 20
161.70399708414
 30
0.0
 10
119.7353271185037
 20
178.9081149183806
 30
0.0
 10
117.5301214983952
 20
186.028438267295
 30
0.0
  0
SPLINE
  5
1DA
330
1D4
100
AcDbEntity
  8
\U+30EC\U+30A4\U+30E4\U+30FC 1
 62
    29
370
    18
100
AcDbSpline
210
0.0
220
0.0
230
1.0
 70
     8
 71
     3
 72
    29
 73
    25
 74
     0
 42
0.0000000001
 43
0.0000000001
 40
0.0
 40
0.0
 40
0.0
 40
0.0
 40
1.0
 40
1.0
 40
1.0
 40
2.0
 40
2.0
 40
2.0
 40
3.0
 40
3.0
 40
3.0
 40
4.0
 40
4.0
 40
4.0
 40
5.0
 40
5.0
 40
5.0
 40
6.0
 40
6.0
 40
6.0
 40
7.0
 40
7.0
 40
7.0
 40
8.0
 40
8.0
 40
8.0
 40
8.0
 10
99.26904836927997
 20
185.8281059648277
 30
0.0
 10
97.63331703288334
 20
178.6771212660946
 30
0.0
 10
94.43971351805675
 20
161.8710842151746
 30
0.0
 10
93.27044811036295
 20
135.6358208211258
 30
0.0
 10
92.44810381803381
 20
117.1776882302542
 30
0.0
 10
94.50000268904861
 20
102.462307374558
 30
0.0
 10
96.63079424667563
 20
96.95049910770682
 30
0.0
 10
96.81614038378208
 20
96.47094181616005
 30
0.0
 10
97.06487627781712
 20
95.88596460276463
 30
0.0
 10
97.49000106069695
 20
95.2968532747869
 30
0.0
 10
99.36930064790073
 20
92.69511716432622
 30
0.0
 10
103.3273708509043
 20
91.61060110556957
 30
0.0
 10
107.0311930070964
 20
91.61060110556957
 30
0.0
 10
111.135679768223
 20
91.61060110556957
 30
0.0
 10
115.0548203922432
 20
93.1360893864382
 30
0.0
 10
116.4156331089169
 20
95.07636716373091
 30
0.0
 10
116.7039876010323
 20
95.48771156466974
 30
0.0
 10
117.0691677224688
 20
96.13470049679967
 30
0.0
 10
117.3154920496642
 20
96.77411021886203
 30
0.0
 10
119.4493841932279
 20
102.2990098485572
 30
0.0
 10
121.6208278775809
 20
113.5410454360245
 30
0.0
 10
120.7871147701505
 20
135.4911268107453
 30
0.0
 10
119.8031954995631
 20
161.3851534969801
 30
0.0
 10
116.5575710429092
 20
178.4885022882772
 30
0.0
 10
114.8980685476644
 20
185.7643716983506
 30
0.0
  0
SPLINE
  5
1DB
330
1D4
100
AcDbEntity
  8
\U+30EC\U+30A4\U+30E4\U+30FC 1
 62
    29
370
    18
100
AcDbSpline
210
0.0
220
0.0
230
1.0
 70
     8
 71
     3
 72
    29
 73
    25
 74
     0
 42
0.0000000001
 43
0.0000000001
 40
0.0
 40
0.0
 40
0.0
 40
0.0
 40
1.0
 40
1.0
 40
1.0
 40
2.0
 40
2.0
 40
2.0
 40
3.0
 40
3.0
 40
3.0
 40
4.0
 40
4.0
 40
4.0
 40
5.0
 40
5.0
 40
5.0
 40
6.0
 40
6.0
 40
6.0
 40
7.0
 40
7.0
 40
7.0
 40
8.0
 40
8.0
 40
8.0
 40
8.0
 10
102.1560383859193
 20
185.5959065291219
 30
0.0
 10
101.1266438549267
 20
178.3172810426603
 30
0.0
 10
99.16982961930476
 20
161.591170206998
 30
0.0
 10
98.44842662469345
 20
135.6358208211258
 30
0.0
 10
97.93510739739122
 20
117.1776882302542
 30
0.0
 10
99.21461586061302
 20
102.462307374558
 30
0.0
 10
100.5437336988224
 20
96.95049910770682
 30
0.0
 10
100.6594889071268
 20
96.47094181616005
 30
0.0
 10
100.814518203963
 20
95.88596460276463
 30
0.0
 10
101.0797905563273
 20
95.2968532747869
 30
0.0
 10
102.2518120404093
 20
92.69511716432622
 30
0.0
 10
104.7202229555908
 20
91.61060110556957
 30
0.0
 10
107.0301594784508
 20
91.61060110556957
 30
0.0
 10
109.5891764048944
 20
91.61060110556957
 30
0.0
 10
112.0334716516791
 20
93.1360893864382
 30
0.0
 10
112.8819986696962
 20
95.07636716373091
 30
0.0
 10
113.0618326540262
 20
95.48771156466974
 30
0.0
 10
113.2895534656012
 20
96.13470049679967
 30
0.0
 10
113.4428602146948
 20
96.77411021886203
 30
0.0
 10
114.7737006006469
 20
102.2990098485572
 30
0.0
 10
116.1283121454471
 20
113.5410454360245
 30
0.0
 10
115.6081027271744
 20
135.4911268107453
 30
0.0
 10
115.0007323931248
 20
161.1359008386223
 30
0.0
 10
113.0094672026504
 20
178.158289886016
 30
0.0
 10
111.9662922897168
 20
185.5514647973621
 30
0.0
  0
SPLINE
  5
1DC
330
1D4
100
AcDbEntity
  8
\U+30EC\U+30A4\U+30E4\U+30FC 1
 62
    29
370
    18
100
AcDbSpline
210
0.0
220
0.0
230
1.0
 70
     8
 71
     3
 72
    29
 73
    25
 74
     0
 42
0.0000000001
 43
0.0000000001
 40
0.0
 40
0.0
 40
0.0
 40
0.0
 40
1.0
 40
1.0
 40
1.0
 40
2.0
 40
2.0
 40
2.0
 40
3.0
 40
3.0
 40
3.0
 40
4.0
 40
4.0
 40
4.0
 40
5.0
 40
5.0
 40
5.0
 40
6.0
 40
6.0
 40
6.0
 40
7.0
 40
7.0
 40
7.0
 40
8.0
 40
8.0
 40
8.0
 40
8.0
 10
105.3861599128896
 20
185.4613755504229
 30
0.0
 10
105.0388942879764
 20
178.1124701160622
 30
0.0
 10
104.3888047699098
 20
161.4325235599023
 30
0.0
 10
104.1479925954908
 20
135.6358208211258
 30
0.0
 10
103.9757378212283
 20
117.1776882302542
 30
0.0
 10
104.405341228239
 20
102.462307374558
 30
0.0
 10
104.8514810935788
 20
96.95049910770682
 30
0.0
 10
104.8900661630136
 20
96.47094181616005
 30
0.0
 10
104.9424316143894
 20
95.88596460276463
 30
0.0
 10
105.0313150779088
 20
95.2968532747869
 30
0.0
 10
105.4247449823244
 20
92.69511716432622
 30
0.0
 10
106.2529459369784
 20
91.61060110556957
 30
0.0
 10
107.0280924211596
 20
91.61060110556957
 30
0.0
 10
107.887299235181
 20
91.61060110556957
 30
0.0
 10
108.7075764702189
 20
93.1360893864382
 30
0.0
 10
108.9924858668491
 20
95.07636716373091
 30
0.0
 10
109.0524305282924
 20
95.48771156466974
 30
0.0
 10
109.128911648065
 20
96.13470049679967
 30
0.0
 10
109.1805880803438
 20
96.77411021886203
 30
0.0
 10
109.6270724552321
 20
102.2990098485572
 30
0.0
 10
110.0818250592851
 20
113.5410454360245
 30
0.0
 10
109.9071587181829
 20
135.4911268107453
 30
0.0
 10
109.7042425941017
 20
161.0167005348326
 30
0.0
 10
109.0414062227397
 20
177.9996432389202
 30
0.0
 10
108.6900064832442
 20
185.4475951684819
 30
0.0
  0
SPLINE
  5
1DD
330
1D4
100
AcDbEntity
  8
\U+30EC\U+30A4\U+30E4\U+30FC 1
 62
    29
370
    18
100
AcDbSpline
210
0.0
220
0.0
230
1.0
 70
     8
 71
     3
 72
    11
 73
     7
 74
     0
 42
0.0000000001
 43
0.0000000001
 40
0.0
 40
0.0
 40
0.0
 40
0.0
 40
1.0
 40
1.0
 40
1.0
 40
2.0
 40
2.0
 40
2.0
 40
2.0
 10
140.9636609890646
 20
102.0733560942733
 30
0.0
 10
138.4911159593008
 20
99.37205672428894
 30
0.0
 10
124.3183376425315
 20
97.30120982810526
 30
0.0
 10
107.2051703291015
 20
97.30120982810526
 30
0.0
 10
89.86807180913021
 20
97.30120982810526
 30
0.0
 10
75.54991046288336
 20
99.42614472340736
 30
0.0
 10
73.35504012923069
 20
102.179465035219
 30
0.0
  0
SPLINE
  5
1DE
330
1D4
100
AcDbEntity
  8
\U+30EC\U+30A4\U+30E4\U+30FC 1
 62
    29
370
    18
100
AcDbSpline
210
0.0
220
0.0
230
1.0
 70
     8
 71
     3
 72
    11
 73
     7
 74
     0
 42
0.0000000001
 43
0.0000000001
 40
0.0
 40
0.0
 40
0.0
 40
0.0
 40
1.0
 40
1.0
 40
1.0
 40
2.0
 40
2.0
 40
2.0
 40
2.0
 10
141.698844365617
 20
103.5726616494541
 30
0.0
 10
139.1725558462832
 20
100.8713622794697
 30
0.0
 10
124.6914414835841
 20
98.80051538328598
 30
0.0
 10
107.2058593481985
 20
98.80051538328598
 30
0.0
 10
89.49221189168945
 20
98.80051538328598
 30
0.0
 10
74.86261391357601
 20
100.9254502785881
 30
0.0
 10
72.61985675267837
 20
103.6787705903998
 30
0.0
  0
SPLINE
  5
1DF
330
1D4
100
AcDbEntity
  8
\U+30EC\U+30A4\U+30E4\U+30FC 1
 62
    29
370
    18
100
AcDbSpline
210
0.0
220
0.0
230
1.0
 70
     8
 71
     3
 72
    11
 73
     7
 74
     0
 42
0.0000000001
 43
0.0000000001
 40
0.0
 40
0.0
 40
0.0
 40
0.0
 40
1.0
 40
1.0
 40
1.0
 40
2.0
 40
2.0
 40
2.0
 40
2.0
 10
142.3606472083335
 20
105.0278699824236
 30
0.0
 10
139.7854383331092
 20
102.3265706124392
 30
0.0
 10
125.0276828029445
 20
100.2557237162555
 30
0.0
 10
107.2065483672956
 20
100.2557237162555
 30
0.0
 10
89.1535590054894
 20
100.2557237162555
 30
0.0
 10
74.24387476442514
 20
102.3806586115576
 30
0.0
 10
71.9583984195104
 20
105.1339789233693
 30
0.0
  0
SPLINE
  5
1E0
330
1D4
100
AcDbEntity
  8
\U+30EC\U+30A4\U+30E4\U+30FC 1
 62
    29
370
    18
100
AcDbSpline
210
0.0
220
0.0
230
1.0
 70
     8
 71
     3
 72
    11
 73
     7
 74
     0
 42
0.0000000001
 43
0.0000000001
 40
0.0
 40
0.0
 40
0.0
 40
0.0
 40
1.0
 40
1.0
 40
1.0
 40
2.0
 40
2.0
 40
2.0
 40
2.0
 10
143.0534559104172
 20
106.4682644048065
 30
0.0
 10
140.4279486411083
 20
103.7669650348221
 30
0.0
 10
125.3794270519885
 20
101.6961181386385
 30
0.0
 10
107.2075818959412
 20
101.6961181386385
 30
0.0
 10
88.79905868005719
 20
101.6961181386385
 30
0.0
 10
73.59550779410112
 20
103.8210530339406
 30
0.0
 10
71.26524520787814
 20
106.5743733457522
 30
0.0
  0
SPLINE
  5
1E1
330
1D4
100
AcDbEntity
  8
\U+30EC\U+30A4\U+30E4\U+30FC 1
 62
    29
370
    18
100
AcDbSpline
210
0.0
220
0.0
230
1.0
 70
     8
 71
     3
 72
    11
 73
     7
 74
     0
 42
0.0000000001
 43
0.0000000001
 40
0.0
 40
0.0
 40
0.0
 40
0.0
 40
1.0
 40
1.0
 40
1.0
 40
2.0
 40
2.0
 40
2.0
 40
2.0
 10
143.5915798252132
 20
108.026481092785
 30
0.0
 10
140.9267984673725
 20
105.3251817228007
 30
0.0
 10
125.6519341048717
 20
103.254334826617
 30
0.0
 10
107.2086154245867
 20
103.254334826617
 30
0.0
 10
88.52379555078572
 20
103.254334826617
 30
0.0
 10
73.09252385325465
 20
105.3792697219191
 30
0.0
 10
70.7271212930821
 20
108.1325900337308
 30
0.0
  0
SPLINE
  5
1E2
330
1D4
100
AcDbEntity
  8
\U+30EC\U+30A4\U+30E4\U+30FC 1
 62
    29
370
    18
100
AcDbSpline
210
0.0
220
0.0
230
1.0
 70
     8
 71
     3
 72
    11
 73
     7
 74
     0
 42
0.0000000001
 43
0.0000000001
 40
0.0
 40
0.0
 40
0.0
 40
0.0
 40
1.0
 40
1.0
 40
1.0
 40
2.0
 40
2.0
 40
2.0
 40
2.0
 10
144.1893038919041
 20
109.6728922251859
 30
0.0
 10
141.4807698214007
 20
106.9715928552015
 30
0.0
 10
125.9554470171223
 20
104.9007459590179
 30
0.0
 10
107.2093044436838
 20
104.9007459590179
 30
0.0
 10
88.21821558124407
 20
104.9007459590179
 30
0.0
 10
72.53372936554713
 20
107.02568085432
 30
0.0
 10
70.12974173593979
 20
109.7790011661316
 30
0.0
  0
SPLINE
  5
1E3
330
1D4
100
AcDbEntity
  8
\U+30EC\U+30A4\U+30E4\U+30FC 1
 62
    29
370
    18
100
AcDbSpline
210
0.0
220
0.0
230
1.0
 70
     8
 71
     3
 72
    11
 73
     7
 74
     0
 42
0.0000000001
 43
0.0000000001
 40
0.0
 40
0.0
 40
0.0
 40
0.0
 40
1.0
 40
1.0
 40
1.0
 40
2.0
 40
2.0
 40
2.0
 40
2.0
 10
144.6385443431807
 20
111.2603922247891
 30
0.0
 10
141.8969373560188
 20
108.5590928548047
 30
0.0
 10
126.1835123382458
 20
106.488245958621
 30
0.0
 10
107.2099934627808
 20
106.488245958621
 30
0.0
 10
87.9884277123779
 20
106.488245958621
 30
0.0
 10
72.11342771634665
 20
108.6131808539231
 30
0.0
 10
69.68015677511468
 20
111.3665011657348
 30
0.0
  0
SPLINE
  5
1E4
330
1D4
100
AcDbEntity
  8
\U+30EC\U+30A4\U+30E4\U+30FC 1
 62
    29
370
    18
100
AcDbSpline
210
0.0
220
0.0
230
1.0
 70
     8
 71
     3
 72
    11
 73
     7
 74
     0
 42
0.0000000001
 43
0.0000000001
 40
0.0
 40
0.0
 40
0.0
 40
0.0
 40
1.0
 40
1.0
 40
1.0
 40
2.0
 40
2.0
 40
2.0
 40
2.0
 10
145.1384276980904
 20
112.921272758228
 30
0.0
 10
142.3606472083335
 20
110.2199733882436
 30
0.0
 10
126.4374158755087
 20
108.1491264920599
 30
0.0
 10
107.2106824818779
 20
108.1491264920599
 30
0.0
 10
87.73280162737235
 20
108.1491264920599
 30
0.0
 10
71.64627276854677
 20
110.274061387362
 30
0.0
 10
69.18027342020494
 20
113.0273816991737
 30
0.0
  0
SPLINE
  5
1E5
330
1D4
100
AcDbEntity
  8
\U+30EC\U+30A4\U+30E4\U+30FC 1
 62
    29
370
    18
100
AcDbSpline
210
0.0
220
0.0
230
1.0
 70
     8
 71
     3
 72
    11
 73
     7
 74
     0
 42
0.0000000001
 43
0.0000000001
 40
0.0
 40
0.0
 40
0.0
 40
0.0
 40
1.0
 40
1.0
 40
1.0
 40
2.0
 40
2.0
 40
2.0
 40
2.0
 10
145.4836262657124
 20
114.4205783134088
 30
0.0
 10
142.6803520693646
 20
111.7192789434244
 30
0.0
 10
126.6127712357079
 20
109.6484320472407
 30
0.0
 10
107.2110269914264
 20
109.6484320472407
 30
0.0
 10
87.55641273852757
 20
109.6484320472407
 30
0.0
 10
71.32346732157886
 20
111.7733669425428
 30
0.0
 10
68.8350748525829
 20
114.5266872543544
 30
0.0
  0
SPLINE
  5
1E6
330
1D4
100
AcDbEntity
  8
\U+30EC\U+30A4\U+30E4\U+30FC 1
 62
    29
370
    18
100
AcDbSpline
210
0.0
220
0.0
230
1.0
 70
     8
 71
     3
 72
    11
 73
     7
 74
     0
 42
0.0000000001
 43
0.0000000001
 40
0.0
 40
0.0
 40
0.0
 40
0.0
 40
1.0
 40
1.0
 40
1.0
 40
2.0
 40
2.0
 40
2.0
 40
2.0
 10
145.821934642364
 20
115.9198838685895
 30
0.0
 10
142.9942002680709
 20
113.2185844986051
 30
0.0
 10
126.7843369908734
 20
111.1477376024214
 30
0.0
 10
107.2113715009749
 20
111.1477376024214
 30
0.0
 10
87.38346894516802
 20
111.1477376024214
 30
0.0
 10
71.0068630464844
 20
113.2726724977235
 30
0.0
 10
68.49676647593137
 20
116.0259928095352
 30
0.0
  0
SPLINE
  5
1E7
330
1D4
100
AcDbEntity
  8
\U+30EC\U+30A4\U+30E4\U+30FC 1
 62
    29
370
    18
100
AcDbSpline
210
0.0
220
0.0
230
1.0
 70
     8
 71
     3
 72
    11
 73
     7
 74
     0
 42
0.0000000001
 43
0.0000000001
 40
0.0
 40
0.0
 40
0.0
 40
0.0
 40
1.0
 40
1.0
 40
1.0
 40
2.0
 40
2.0
 40
2.0
 40
2.0
 10
146.1971055407077
 20
117.375092201559
 30
0.0
 10
143.3414658929841
 20
114.6737928315746
 30
0.0
 10
126.9748507712077
 20
112.6029459353909
 30
0.0
 10
107.212060520072
 20
112.6029459353909
 30
0.0
 10
87.19123261709109
 20
112.6029459353909
 30
0.0
 10
70.65615232608596
 20
114.727880830693
 30
0.0
 10
68.12194008713618
 20
117.4812011425047
 30
0.0
  0
SPLINE
  5
1E8
330
1D4
100
AcDbEntity
  8
\U+30EC\U+30A4\U+30E4\U+30FC 1
 62
    29
370
    18
100
AcDbSpline
210
0.0
220
0.0
230
1.0
 70
     8
 71
     3
 72
    11
 73
     7
 74
     0
 42
0.0000000001
 43
0.0000000001
 40
0.0
 40
0.0
 40
0.0
 40
0.0
 40
1.0
 40
1.0
 40
1.0
 40
2.0
 40
2.0
 40
2.0
 40
2.0
 10
146.4048447984682
 20
118.815486623942
 30
0.0
 10
143.5343912401581
 20
116.1141872539576
 30
0.0
 10
127.0806152026048
 20
114.0433403577739
 30
0.0
 10
107.212060520072
 20
114.0433403577739
 30
0.0
 10
87.08477916659686
 20
114.0433403577739
 30
0.0
 10
70.46184894071787
 20
116.168275253076
 30
0.0
 10
67.91385631982709
 20
118.9215955648877
 30
0.0
  0
SPLINE
  5
1E9
330
1D4
100
AcDbEntity
  8
\U+30EC\U+30A4\U+30E4\U+30FC 1
 62
    29
370
    18
100
AcDbSpline
210
0.0
220
0.0
230
1.0
 70
     8
 71
     3
 72
    11
 73
     7
 74
     0
 42
0.0000000001
 43
0.0000000001
 40
0.0
 40
0.0
 40
0.0
 40
0.0
 40
1.0
 40
1.0
 40
1.0
 40
2.0
 40
2.0
 40
2.0
 40
2.0
 10
146.6122395466803
 20
120.3737033119205
 30
0.0
 10
143.726627568235
 20
117.6724039419361
 30
0.0
 10
127.1853461053564
 20
115.6015570457524
 30
0.0
 10
107.212749539169
 20
115.6015570457524
 30
0.0
 10
86.97867022565117
 20
115.6015570457524
 30
0.0
 10
70.26789006489831
 20
117.7264919410545
 30
0.0
 10
67.70646157161505
 20
120.4798122528662
 30
0.0
  0
SPLINE
  5
1EA
330
1D4
100
AcDbEntity
  8
\U+30EC\U+30A4\U+30E4\U+30FC 1
 62
    29
370
    18
100
AcDbSpline
210
0.0
220
0.0
230
1.0
 70
     8
 71
     3
 72
    11
 73
     7
 74
     0
 42
0.0000000001
 43
0.0000000001
 40
0.0
 40
0.0
 40
0.0
 40
0.0
 40
1.0
 40
1.0
 40
1.0
 40
2.0
 40
2.0
 40
2.0
 40
2.0
 10
146.7689913912591
 20
122.0201144443214
 30
0.0
 10
143.8720105977125
 20
119.318815074337
 30
0.0
 10
127.2649278110657
 20
117.2479681781533
 30
0.0
 10
107.212749539169
 20
117.2479681781533
 30
0.0
 10
86.89874401039337
 20
117.2479681781533
 30
0.0
 10
70.12147350677519
 20
119.3729030734554
 30
0.0
 10
67.55005423658471
 20
122.1262233852671
 30
0.0
  0
SPLINE
  5
1EB
330
1D4
100
AcDbEntity
  8
\U+30EC\U+30A4\U+30E4\U+30FC 1
 62
    29
370
    18
100
AcDbSpline
210
0.0
220
0.0
230
1.0
 70
     8
 71
     3
 72
    11
 73
     7
 74
     0
 42
0.0000000001
 43
0.0000000001
 40
0.0
 40
0.0
 40
0.0
 40
0.0
 40
1.0
 40
1.0
 40
1.0
 40
2.0
 40
2.0
 40
2.0
 40
2.0
 10
146.8654540648461
 20
123.6076144439245
 30
0.0
 10
143.960894061232
 20
120.9063150739401
 30
0.0
 10
127.3138481669563
 20
118.8354681777564
 30
0.0
 10
107.212749539169
 20
118.8354681777564
 30
0.0
 10
86.8494791449543
 20
118.8354681777564
 30
0.0
 10
70.03121200506165
 20
120.9604030730585
 30
0.0
 10
67.45324705344919
 20
123.7137233848702
 30
0.0
  0
SPLINE
  5
1EC
330
1D4
100
AcDbEntity
  8
\U+30EC\U+30A4\U+30E4\U+30FC 1
 62
    29
370
    18
100
AcDbSpline
210
0.0
220
0.0
230
1.0
 70
     8
 71
     3
 72
    11
 73
     7
 74
     0
 42
0.0000000001
 43
0.0000000001
 40
0.0
 40
0.0
 40
0.0
 40
0.0
 40
1.0
 40
1.0
 40
1.0
 40
2.0
 40
2.0
 40
2.0
 40
2.0
 10
146.9243651976439
 20
125.0921060885186
 30
0.0
 10
144.016015588996
 20
122.3908067185343
 30
0.0
 10
127.3438204976779
 20
120.3199598223506
 30
0.0
 10
107.212749539169
 20
120.3199598223506
 30
0.0
 10
86.8191623046841
 20
120.3199598223506
 30
0.0
 10
69.97609047729765
 20
122.4448947176527
 30
0.0
 10
67.39433592065141
 20
125.1982150294643
 30
0.0
  0
SPLINE
  5
1ED
330
1D4
100
AcDbEntity
  8
\U+30EC\U+30A4\U+30E4\U+30FC 1
 62
    29
370
    18
100
AcDbSpline
210
0.0
220
0.0
230
1.0
 70
     8
 71
     3
 72
    11
 73
     7
 74
     0
 42
0.0000000001
 43
0.0000000001
 40
0.0
 40
0.0
 40
0.0
 40
0.0
 40
1.0
 40
1.0
 40
1.0
 40
2.0
 40
2.0
 40
2.0
 40
2.0
 10
146.9829318208932
 20
126.5914116436994
 30
0.0
 10
144.0701035881144
 20
123.890112273715
 30
0.0
 10
127.3737928283996
 20
121.8192653775313
 30
0.0
 10
107.2130940487176
 20
121.8192653775313
 30
0.0
 10
86.78953448351095
 20
121.8192653775313
 30
0.0
 10
69.9216579686307
 20
123.9442002728334
 30
0.0
 10
67.33576929740217
 20
126.6975205846451
 30
0.0
  0
SPLINE
  5
1EE
330
1D4
100
AcDbEntity
  8
\U+30EC\U+30A4\U+30E4\U+30FC 1
 62
    29
370
    18
100
AcDbSpline
210
0.0
220
0.0
230
1.0
 70
     8
 71
     3
 72
    11
 73
     7
 74
     0
 42
0.0000000001
 43
0.0000000001
 40
0.0
 40
0.0
 40
0.0
 40
0.0
 40
1.0
 40
1.0
 40
1.0
 40
2.0
 40
2.0
 40
2.0
 40
2.0
 10
146.9905110309607
 20
128.0907171988801
 30
0.0
 10
144.0773382886335
 20
125.3894178288957
 30
0.0
 10
127.3775824334334
 20
123.318570932712
 30
0.0
 10
107.212749539169
 20
123.318570932712
 30
0.0
 10
86.78540036892865
 20
123.318570932712
 30
0.0
 10
69.91407875856315
 20
125.4435058280141
 30
0.0
 10
67.32819008733462
 20
128.1968261398258
 30
0.0
  0
SPLINE
  5
1EF
330
1D4
100
AcDbEntity
  8
\U+30EC\U+30A4\U+30E4\U+30FC 1
 62
    29
370
    18
100
AcDbSpline
210
0.0
220
0.0
230
1.0
 70
     8
 71
     3
 72
    11
 73
     7
 74
     0
 42
0.0000000001
 43
0.0000000001
 40
0.0
 40
0.0
 40
0.0
 40
0.0
 40
1.0
 40
1.0
 40
1.0
 40
2.0
 40
2.0
 40
2.0
 40
2.0
 10
146.946758318298
 20
129.5459255318496
 30
0.0
 10
144.0359971428105
 20
126.8446261618652
 30
0.0
 10
127.3555338223278
 20
124.7737792656816
 30
0.0
 10
107.212749539169
 20
124.7737792656816
 30
0.0
 10
86.80779348958278
 20
124.7737792656816
 30
0.0
 10
69.95541990438615
 20
126.8987141609837
 30
0.0
 10
67.37228730954583
 20
129.6520344727953
 30
0.0
  0
SPLINE
  5
1F0
330
1D4
100
AcDbEntity
  8
\U+30EC\U+30A4\U+30E4\U+30FC 1
 62
    29
370
    18
100
AcDbSpline
210
0.0
220
0.0
230
1.0
 70
     8
 71
     3
 72
    11
 73
     7
 74
     0
 42
0.0000000001
 43
0.0000000001
 40
0.0
 40
0.0
 40
0.0
 40
0.0
 40
1.0
 40
1.0
 40
1.0
 40
2.0
 40
2.0
 40
2.0
 40
2.0
 10
146.8678656316858
 20
130.9863199542326
 30
0.0
 10
143.9636501376202
 20
128.2850205842482
 30
0.0
 10
127.3155707146989
 20
126.2141736880645
 30
0.0
 10
107.212749539169
 20
126.2141736880645
 30
0.0
 10
86.8481011067602
 20
126.2141736880645
 30
0.0
 10
70.02880043822196
 20
128.3391085833666
 30
0.0
 10
67.45083548660952
 20
131.0924288951783
 30
0.0
  0
SPLINE
  5
1F1
330
1D4
100
AcDbEntity
  8
\U+30EC\U+30A4\U+30E4\U+30FC 1
 62
    29
370
    18
100
AcDbSpline
210
0.0
220
0.0
230
1.0
 70
     8
 71
     3
 72
    11
 73
     7
 74
     0
 42
0.0000000001
 43
0.0000000001
 40
0.0
 40
0.0
 40
0.0
 40
0.0
 40
1.0
 40
1.0
 40
1.0
 40
2.0
 40
2.0
 40
2.0
 40
2.0
 10
146.7886284355251
 20
132.5445366422111
 30
0.0
 10
143.8902696037844
 20
129.8432372722267
 30
0.0
 10
127.2749185879729
 20
127.772390376043
 30
0.0
 10
107.212749539169
 20
127.772390376043
 30
0.0
 10
86.88875323348616
 20
127.772390376043
 30
0.0
 10
70.10286999115485
 20
129.8973252713451
 30
0.0
 10
67.53007268277027
 20
132.6506455831568
 30
0.0
  0
SPLINE
  5
1F2
330
1D4
100
AcDbEntity
  8
\U+30EC\U+30A4\U+30E4\U+30FC 1
 62
    29
370
    18
100
AcDbSpline
210
0.0
220
0.0
230
1.0
 70
     8
 71
     3
 72
    11
 73
     7
 74
     0
 42
0.0000000001
 43
0.0000000001
 40
0.0
 40
0.0
 40
0.0
 40
0.0
 40
1.0
 40
1.0
 40
1.0
 40
2.0
 40
2.0
 40
2.0
 40
2.0
 10
146.61465111352
 20
134.190947774612
 30
0.0
 10
143.7286946255262
 20
131.4896484046276
 30
0.0
 10
127.186379634002
 20
129.4188015084439
 30
0.0
 10
107.212749539169
 20
129.4188015084439
 30
0.0
 10
86.9776366970056
 20
129.4188015084439
 30
0.0
 10
70.26547849805863
 20
131.543736403746
 30
0.0
 10
67.70439451432391
 20
134.2970567155577
 30
0.0
  0
SPLINE
  5
1F3
330
1D4
100
AcDbEntity
  8
\U+30EC\U+30A4\U+30E4\U+30FC 1
 62
    29
370
    18
100
AcDbSpline
210
0.0
220
0.0
230
1.0
 70
     8
 71
     3
 72
    11
 73
     7
 74
     0
 42
0.0000000001
 43
0.0000000001
 40
0.0
 40
0.0
 40
0.0
 40
0.0
 40
1.0
 40
1.0
 40
1.0
 40
2.0
 40
2.0
 40
2.0
 40
2.0
 10
146.4244818427342
 20
135.7784477742151
 30
0.0
 10
143.5523057366814
 20
133.0771484042307
 30
0.0
 10
127.089916960415
 20
131.006301508047
 30
0.0
 10
107.212060520072
 20
131.006301508047
 30
0.0
 10
87.07478838968964
 20
131.006301508047
 30
0.0
 10
70.44324542509753
 20
133.1312364033491
 30
0.0
 10
67.89421927556117
 20
135.8845567151608
 30
0.0
  0
SPLINE
  5
1F4
330
1D4
100
AcDbEntity
  8
\U+30EC\U+30A4\U+30E4\U+30FC 1
 62
    29
370
    18
100
AcDbSpline
210
0.0
220
0.0
230
1.0
 70
     8
 71
     3
 72
    11
 73
     7
 74
     0
 42
0.0000000001
 43
0.0000000001
 40
0.0
 40
0.0
 40
0.0
 40
0.0
 40
1.0
 40
1.0
 40
1.0
 40
2.0
 40
2.0
 40
2.0
 40
2.0
 10
146.2188096422647
 20
137.4393283076541
 30
0.0
 10
143.361791956347
 20
134.7380289376697
 30
0.0
 10
126.985530567212
 20
132.667182041486
 30
0.0
 10
107.212060520072
 20
132.667182041486
 30
0.0
 10
87.18020831153828
 20
132.667182041486
 30
0.0
 10
70.63582626272299
 20
134.7921169367881
 30
0.0
 10
68.09989147603059
 20
137.5454372485998
 30
0.0
  0
SPLINE
  5
1F5
330
1D4
100
AcDbEntity
  8
\U+30EC\U+30A4\U+30E4\U+30FC 1
 62
    29
370
    18
100
AcDbSpline
210
0.0
220
0.0
230
1.0
 70
     8
 71
     3
 72
    11
 73
     7
 74
     0
 42
0.0000000001
 43
0.0000000001
 40
0.0
 40
0.0
 40
0.0
 40
0.0
 40
1.0
 40
1.0
 40
1.0
 40
2.0
 40
2.0
 40
2.0
 40
2.0
 10
145.9573268949343
 20
138.9386338628348
 30
0.0
 10
143.119601743734
 20
136.2373344928504
 30
0.0
 10
126.8532389005784
 20
134.1664875966667
 30
0.0
 10
107.2117160105235
 20
134.1664875966667
 30
0.0
 10
87.31387801636598
 20
134.1664875966667
 30
0.0
 10
70.88042804217572
 20
136.2914224919688
 30
0.0
 10
68.36171873290958
 20
139.0447428037805
 30
0.0
  0
SPLINE
  5
1F6
330
1D4
100
AcDbEntity
  8
\U+30EC\U+30A4\U+30E4\U+30FC 1
 62
    29
370
    18
100
AcDbSpline
210
0.0
220
0.0
230
1.0
 70
     8
 71
     3
 72
    11
 73
     7
 74
     0
 42
0.0000000001
 43
0.0000000001
 40
0.0
 40
0.0
 40
0.0
 40
0.0
 40
1.0
 40
1.0
 40
1.0
 40
2.0
 40
2.0
 40
2.0
 40
2.0
 10
145.7426974462032
 20
140.4379394180155
 30
0.0
 10
142.9208197342351
 20
137.7366400480311
 30
0.0
 10
126.7443738832445
 20
135.6657931518475
 30
0.0
 10
107.2113715009749
 20
135.6657931518475
 30
0.0
 10
87.42377656234545
 20
135.6657931518475
 30
0.0
 10
71.08127710896579
 20
137.7907280471495
 30
0.0
 10
68.57600367209211
 20
140.5440483589612
 30
0.0
  0
SPLINE
  5
1F7
330
1D4
100
AcDbEntity
  8
\U+30EC\U+30A4\U+30E4\U+30FC 1
 62
    29
370
    18
100
AcDbSpline
210
0.0
220
0.0
230
1.0
 70
     8
 71
     3
 72
    11
 73
     7
 74
     0
 42
0.0000000001
 43
0.0000000001
 40
0.0
 40
0.0
 40
0.0
 40
0.0
 40
1.0
 40
1.0
 40
1.0
 40
2.0
 40
2.0
 40
2.0
 40
2.0
 10
145.5411593603161
 20
141.8931477509851
 30
0.0
 10
142.7334065398375
 20
139.1918483810007
 30
0.0
 10
126.6420545473325
 20
137.121001484817
 30
0.0
 10
107.2106824818779
 20
137.121001484817
 30
0.0
 10
87.52678491735442
 20
137.121001484817
 30
0.0
 10
71.26937932246044
 20
139.2459363801191
 30
0.0
 10
68.77788626752775
 20
141.9992566919308
 30
0.0
  0
SPLINE
  5
1F8
330
1D4
100
AcDbEntity
  8
\U+30EC\U+30A4\U+30E4\U+30FC 1
 62
    29
370
    18
100
AcDbSpline
210
0.0
220
0.0
230
1.0
 70
     8
 71
     3
 72
    11
 73
     7
 74
     0
 42
0.0000000001
 43
0.0000000001
 40
0.0
 40
0.0
 40
0.0
 40
0.0
 40
1.0
 40
1.0
 40
1.0
 40
2.0
 40
2.0
 40
2.0
 40
2.0
 10
145.2710638742725
 20
143.333542173368
 30
0.0
 10
142.4832926076083
 20
140.6322428033836
 30
0.0
 10
126.5045952374711
 20
138.5613959071999
 30
0.0
 10
107.2106824818779
 20
138.5613959071999
 30
0.0
 10
87.66458873676441
 20
138.5613959071999
 30
0.0
 10
71.52156031198072
 20
140.686330802502
 30
0.0
 10
69.04763724402281
 20
143.4396511143137
 30
0.0
  0
SPLINE
  5
1F9
330
1D4
100
AcDbEntity
  8
\U+30EC\U+30A4\U+30E4\U+30FC 1
 62
    29
370
    18
100
AcDbSpline
210
0.0
220
0.0
230
1.0
 70
     8
 71
     3
 72
    11
 73
     7
 74
     0
 42
0.0000000001
 43
0.0000000001
 40
0.0
 40
0.0
 40
0.0
 40
0.0
 40
1.0
 40
1.0
 40
1.0
 40
2.0
 40
2.0
 40
2.0
 40
2.0
 10
144.980642324866
 20
144.8917588613465
 30
0.0
 10
142.2145751597589
 20
142.1904594913621
 30
0.0
 10
126.3571451507024
 20
140.1196125951784
 30
0.0
 10
107.2103379723294
 20
140.1196125951784
 30
0.0
 10
87.8134168617272
 20
140.1196125951784
 30
0.0
 10
71.79372285531547
 20
142.2445474904805
 30
0.0
 10
69.33805879342938
 20
144.9978678022922
 30
0.0
  0
SPLINE
  5
1FA
330
1D4
100
AcDbEntity
  8
\U+30EC\U+30A4\U+30E4\U+30FC 1
 62
    29
370
    18
100
AcDbSpline
210
0.0
220
0.0
230
1.0
 70
     8
 71
     3
 72
    11
 73
     7
 74
     0
 42
0.0000000001
 43
0.0000000001
 40
0.0
 40
0.0
 40
0.0
 40
0.0
 40
1.0
 40
1.0
 40
1.0
 40
2.0
 40
2.0
 40
2.0
 40
2.0
 10
144.6523247251216
 20
146.5381699937474
 30
0.0
 10
141.9100287188628
 20
143.836870623763
 30
0.0
 10
126.1904025292163
 20
141.7660237275793
 30
0.0
 10
107.2099934627808
 20
141.7660237275793
 30
0.0
 10
87.9815375214074
 20
141.7660237275793
 30
0.0
 10
72.10068086305122
 20
143.8909586228814
 30
0.0
 10
69.66672090272222
 20
146.6442789346931
 30
0.0
  0
SPLINE
  5
1FB
330
1D4
100
AcDbEntity
  8
\U+30EC\U+30A4\U+30E4\U+30FC 1
370
     0
100
AcDbSpline
210
0.0
220
0.0
230
1.0
 70
    11
 71
     3
 72
    17
 73
    13
 74
     0
 42
0.0000000001
 43
0.0000000001
 40
0.0
 40
0.0
 40
0.0
 40
0.0
 40
1.0
 40
1.0
 40
1.0
 40
2.0
 40
2.0
 40
2.0
 40
3.0
 40
3.0
 40
3.0
 40
4.0
 40
4.0
 40
4.0
 40
4.0
 10
130.5470702798632
 20
119.1999592800959
 30
0.0
 10
130.5470702798632
 20
106.2922200255103
 30
0.0
 10
120.0832817625139
 20
95.82843150816095
 30
0.0
 10
107.1755425079283
 20
95.82843150816095
 30
0.0
 10
94.26780325334278
 20
95.82843150816095
 30
0.0
 10
83.80401473599345
 20
106.2922200255103
 30
0.0
 10
83.80401473599345
 20
119.1999592800959
 30
0.0
 10
83.80401473599345
 20
132.1076985346814
 30
0.0
 10
94.26780325334278
 20
142.5714870520307
 30
0.0
 10
107.1755425079283
 20
142.5714870520307
 30
0.0
 10
120.0832817625139
 20
142.5714870520307
 30
0.0
 10
130.5470702798632
 20
132.1076985346814
 30
0.0
 10
130.5470702798632
 20
119.1999592800959
 30
0.0
  0
ENDBLK
  5
1D7
330
1D4
100
AcDbEntity
  8
0
100
AcDbBlockEnd
  0
ENDSEC
  0
SECTION
  2
ENTITIES
  0
INSERT
  5
3D
330
1F
100
AcDbEntity
  8
\U+30EC\U+30A4\U+30E4\U+30FC 1
100
AcDbBlockReference
  2
block 2
 10
0.0
 20
0.0
 30
0.0
  0
ENDSEC
  0
SECTION
  2
OBJECTS
  0
DICTIONARY
  5
C
330
0
100
AcDbDictionary
281
     1
  3
ACAD_GROUP
350
D
  3
ACAD_LAYOUT
350
1A
  3
ACAD_MLINESTYLE
350
17
  3
ACAD_PLOTSETTINGS
350
19
  3
ACAD_PLOTSTYLENAME
350
E
  3
ACAD_TABLESTYLE
350
1FC
  3
ACAD_VISUALSTYLE
350
2A
  0
DICTIONARY
  5
D
102
{ACAD_REACTORS
330
C
102
}
330
C
100
AcDbDictionary
281
     1
  0
DICTIONARY
  5
1A
102
{ACAD_REACTORS
330
C
102
}
330
C
100
AcDbDictionary
281
     1
  3
Layout1
350
1E
  3
Layout2
350
26
  3
Model
350
22
  0
DICTIONARY
  5
17
102
{ACAD_REACTORS
330
C
102
}
330
C
100
AcDbDictionary
281
     1
  3
Standard
350
18
  0
DICTIONARY
  5
19
102
{ACAD_REACTORS
330
C
102
}
330
C
100
AcDbDictionary
281
     1
  0
ACDBDICTIONARYWDFLT
  5
E
102
{ACAD_REACTORS
330
C
102
}
330
C
100
AcDbDictionary
281
     1
  3
Normal
350
F
100
AcDbDictionaryWithDefault
340
F
  0
DICTIONARY
  5
1FC
102
{ACAD_REACTORS
330
C
102
}
330
C
100
AcDbDictionary
281
     1
  0
DICTIONARY
  5
2A
102
{ACAD_REACTORS
330
C
102
}
330
C
100
AcDbDictionary
281
     1
  3
2dWireframe
350
2F
  3
3D Hidden
350
31
  3
3dWireframe
350
30
  3
Basic
350
32
  3
Brighten
350
36
  3
ColorChange
350
3A
  3
Conceptual
350
34
  3
Dim
350
35
  3
Facepattern
350
39
  3
Flat
350
2B
  3
FlatWithEdges
350
2C
  3
Gouraud
350
2D
  3
GouraudWithEdges
350
2E
  3
Linepattern
350
38
  3
Realistic
350
33
  3
Thicken
350
37
  0
LAYOUT
  5
1E
102
{ACAD_REACTORS
330
1A
102
}
330
1A
100
AcDbPlotSettings
  1

  2
none_device
  4

  6

 40
0.0
 41
0.0
 42
0.0
 43
0.0
 44
0.0
 45
0.0
 46
0.0
 47
0.0
 48
0.0
 49
0.0
140
0.0
141
0.0
142
1.0
143
1.0
 70
   688
 72
     0
 73
     0
 74
     5
  7

 75
    16
147
1.0
148
0.0
149
0.0
100
AcDbLayout
  1
Layout1
 70
     1
 71
     1
 10
0.0
 20
0.0
 11
12.0
 21
9.0
 12
0.0
 22
0.0
 32
0.0
 14
1.000000000000000E+20
 24
1.000000000000000E+20
 34
1.000000000000000E+20
 15
-1.000000000000000E+20
 25
-1.000000000000000E+20
 35
-1.000000000000000E+20
146
0.0
 13
0.0
 23
0.0
 33
0.0
 16
1.0
 26
0.0
 36
0.0
 17
0.0
 27
1.0
 37
0.0
 76
     0
330
1B
  0
LAYOUT
  5
26
102
{ACAD_REACTORS
330
1A
102
}
330
1A
100
AcDbPlotSettings
  1

  2
none_device
  4

  6

 40
0.0
 41
0.0
 42
0.0
 43
0.0
 44
0.0
 45
0.0
 46
0.0
 47
0.0
 48
0.0
 49
0.0
140
0.0
141
0.0
142
1.0
143
1.0
 70
   688
 72
     0
 73
     0
 74
     5
  7

 75
    16
147
1.0
148
0.0
149
0.0
100
AcDbLayout
  1
Layout2
 70
     1
 71
     2
 10
0.0
 20
0.0
 11
0.0
 21
0.0
 12
0.0
 22
0.0
 32
0.0
 14
0.0
 24
0.0
 34
0.0
 15
0.0
 25
0.0
 35
0.0
146
0.0
 13
0.0
 23
0.0
 33
0.0
 16
1.0
 26
0.0
 36
0.0
 17
0.0
 27
1.0
 37
0.0
 76
     0
330
23
  0
LAYOUT
  5
22
102
{ACAD_REACTORS
330
1A
102
}
330
1A
100
AcDbPlotSettings
  1

  2
none_device
  4

  6

 40
0.0
 41
0.0
 42
0.0
 43
0.0
 44
0.0
 45
0.0
 46
0.0
 47
0.0
 48
0.0
 49
0.0
140
0.0
141
0.0
142
1.0
143
1.0
 70
  1712
 72
     0
 73
     0
 74
     0
  7

 75
     0
147
1.0
148
0.0
149
0.0
100
AcDbLayout
  1
Model
 70
     1
 71
     0
 10
0.0
 20
0.0
 11
12.0
 21
9.0
 12
0.0
 22
0.0
 32
0.0
 14
1.000000000000000E+20
 24
1.000000000000000E+20
 34
1.000000000000000E+20
 15
-1.000000000000000E+20
 25
-1.000000000000000E+20
 35
-1.000000000000000E+20
146
0.0
 13
0.0
 23
0.0
 33
0.0
 16
1.0
 26
0.0
 36
0.0
 17
0.0
 27
1.0
 37
0.0
 76
     0
330
1F
331
29
  0
MLINESTYLE
  5
18
102
{ACAD_REACTORS
330
17
102
}
330
17
100
AcDbMlineStyle
  2
Standard
 70
     0
  3

 62
   256
 51
90.0
 52
90.0
 71
     2
 49
0.5
 62
   256
  6
BYLAYER
 49
-0.5
 62
   256
  6
BYLAYER
  0
ACDBPLACEHOLDER
  5
F
102
{ACAD_REACTORS
330
E
102
}
330
E
  0
VISUALSTYLE
  5
2F
102
{ACAD_REACTORS
330
2A
102
}
330
2A
100
AcDbVisualStyle
  2
2dWireframe
 70
     4
 71
     0
 72
     2
 73
     0
 90
        0
 40
-0.6
 41
-30.0
 62
     5
 63
     7
 74
     1
 91
        4
 64
     7
 65
   257
 75
     1
175
     1
 42
1.0
 92
        0
 66
   257
 43
1.0
 76
     1
 77
     6
 78
     2
 67
     7
 79
     5
170
     0
171
     0
290
     0
174
     0
 93
        1
 44
0.0
173
     0
291
     0
 45
0.0
1001
ACAD
1000
AcDbSavedByObjectVersion
1070
     0
  0
VISUALSTYLE
  5
31
102
{ACAD_REACTORS
330
2A
102
}
330
2A
100
AcDbVisualStyle
  2
3D Hidden
 70
     6
 71
     1
 72
     2
 73
     2
 90
        0
 40
-0.6
 41
-30.0
 62
     5
 63
     7
 74
     2
 91
        2
 64
     7
 65
   257
 75
     2
175
     1
 42
40.0
 92
        0
 66
   257
 43
1.0
 76
     1
 77
     6
 78
     2
 67
     7
 79
     3
170
     0
171
     0
290
     0
174
     0
 93
        1
 44
0.0
173
     0
291
     0
 45
0.0
1001
ACAD
1000
AcDbSavedByObjectVersion
1070
     0
  0
VISUALSTYLE
  5
30
102
{ACAD_REACTORS
330
2A
102
}
330
2A
100
AcDbVisualStyle
  2
3dWireframe
 70
     5
 71
     0
 72
     2
 73
     0
 90
        0
 40
-0.6
 41
-30.0
 62
     5
 63
     7
 74
     1
 91
        4
 64
     7
 65
   257
 75
     1
175
     1
 42
1.0
 92
        0
 66
   257
 43
1.0
 76
     1
 77
     6
 78
     2
 67
     7
 79
     5
170
     0
171
     0
290
     0
174
     0
 93
        1
 44
0.0
173
     0
291
     0
 45
0.0
1001
ACAD
1000
AcDbSavedByObjectVersion
1070
     0
  0
VISUALSTYLE
  5
32
102
{ACAD_REACTORS
330
2A
102
}
330
2A
100
AcDbVisualStyle
  2
Basic
 70
     7
 71
     1
 72
     0
 73
     1
 90
        0
 40
-0.6
 41
-30.0
 62
     5
 63
     7
 74
     0
 91
        4
 64
     7
 65
   257
 75
     1
175
     1
 42
1.0
 92
        8
 66
     7
 43
1.0
 76
     1
 77
     6
 78
     2
 67
     7
 79
     5
170
     0
171
     0
290
     0
174
     0
 93
        1
 44
0.0
173
     0
291
     1
 45
0.0
1001
ACAD
1000
AcDbSavedByObjectVersion
1070
     0
  0
VISUALSTYLE
  5
36
102
{ACAD_REACTORS
330
2A
102
}
330
2A
100
AcDbVisualStyle
  2
Brighten
 70
    12
 71
     2
 72
     2
 73
     0
 90
        0
 40
-0.6
 41
-30.0
 62
     5
 63
     7
 74
     1
 91
        4
 64
     7
 65
   257
 75
     1
175
     1
 42
1.0
 92
        8
 66
     7
 43
1.0
 76
     1
 77
     6
 78
     2
 67
     7
 79
     5
170
     0
171
     0
290
     0
174
     0
 93
        1
 44
50.0
173
     0
291
     1
 45
0.0
1001
ACAD
1000
AcDbSavedByObjectVersion
1070
     0
  0
VISUALSTYLE
  5
3A
102
{ACAD_REACTORS
330
2A
102
}
330
2A
100
AcDbVisualStyle
  2
ColorChange
 70
    16
 71
     2
 72
     2
 73
     3
 90
        0
 40
-0.6
 41
-30.0
 62
     5
 63
     8
 74
     1
 91
        4
 64
     7
 65
   257
 75
     1
175
     1
 42
1.0
 92
        8
 66
     8
 43
1.0
 76
     1
 77
     6
 78
     2
 67
     7
 79
     5
170
     0
171
     0
290
     0
174
     0
 93
        1
 44
0.0
173
     0
291
     1
 45
0.0
1001
ACAD
1000
AcDbSavedByObjectVersion
1070
     0
  0
VISUALSTYLE
  5
34
102
{ACAD_REACTORS
330
2A
102
}
330
2A
100
AcDbVisualStyle
  2
Conceptual
 70
     9
 71
     3
 72
     2
 73
     0
 90
        0
 40
-0.6
 41
-30.0
 62
     5
 63
     7
 74
     2
 91
        2
 64
     7
 65
   257
 75
     1
175
     1
 42
40.0
 92
        8
 66
     7
 43
1.0
 76
     1
 77
     6
 78
     2
 67
     7
 79
     3
170
     0
171
     0
290
     0
174
     0
 93
        1
 44
0.0
173
     0
291
     0
 45
0.0
1001
ACAD
1000
AcDbSavedByObjectVersion
1070
     0
  0
VISUALSTYLE
  5
35
102
{ACAD_REACTORS
330
2A
102
}
330
2A
100
AcDbVisualStyle
  2
Dim
 70
    11
 71
     2
 72
     2
 73
     0
 90
        0
 40
-0.6
 41
-30.0
 62
     5
 63
     7
 74
     1
 91
        4
 64
     7
 65
   257
 75
     1
175
     1
 42
1.0
 92
        8
 66
     7
 43
1.0
 76
     1
 77
     6
 78
     2
 67
     7
 79
     5
170
     0
171
     0
290
     0
174
     0
 93
        1
 44
-50.0
173
     0
291
     1
 45
0.0
1001
ACAD
1000
AcDbSavedByObjectVersion
1070
     0
  0
VISUALSTYLE
  5
39
102
{ACAD_REACTORS
330
2A
102
}
330
2A
100
AcDbVisualStyle
  2
Facepattern
 70
    15
 71
     2
 72
     2
 73
     0
 90
        0
 40
-0.6
 41
-30.0
 62
     5
 63
     7
 74
     1
 91
        4
 64
     7
 65
   257
 75
     1
175
     1
 42
1.0
 92
        8
 66
     7
 43
1.0
 76
     1
 77
     6
 78
     2
 67
     7
 79
     5
170
     0
171
     0
290
     0
174
     0
 93
        1
 44
0.0
173
     0
291
     1
 45
0.0
1001
ACAD
1000
AcDbSavedByObjectVersion
1070
     0
  0
VISUALSTYLE
  5
2B
102
{ACAD_REACTORS
330
2A
102
}
330
2A
100
AcDbVisualStyle
  2
Flat
 70
     0
 71
     2
 72
     1
 73
     1
 90
        2
 40
-0.6
 41
30.0
 62
     5
 63
     7
 74
     0
 91
        4
 64
     7
 65
   257
 75
     1
175
     1
 42
1.0
 92
        8
 66
     7
 43
1.0
 76
     1
 77
     6
 78
     2
 67
     7
 79
     5
170
     0
171
     0
290
     0
174
     0
 93
       13
 44
0.0
173
     0
291
     1
 45
0.0
1001
ACAD
1000
AcDbSavedByObjectVersion
1070
     0
  0
VISUALSTYLE
  5
2C
102
{ACAD_REACTORS
330
2A
102
}
330
2A
100
AcDbVisualStyle
  2
FlatWithEdges
 70
     1
 71
     2
 72
     1
 73
     1
 90
        2
 40
-0.6
 41
30.0
 62
     5
 63
     7
 74
     1
 91
        4
 64
     7
 65
   257
 75
     1
175
     1
 42
1.0
 92
        0
 66
   257
 43
1.0
 76
     1
 77
     6
 78
     2
 67
     7
 79
     5
170
     0
171
     0
290
     0
174
     0
 93
       13
 44
0.0
173
     0
291
     1
 45
0.0
1001
ACAD
1000
AcDbSavedByObjectVersion
1070
     0
  0
VISUALSTYLE
  5
2D
102
{ACAD_REACTORS
330
2A
102
}
330
2A
100
AcDbVisualStyle
  2
Gouraud
 70
     2
 71
     2
 72
     2
 73
     1
 90
        2
 40
-0.6
 41
30.0
 62
     5
 63
     7
 74
     0
 91
        4
 64
     7
 65
   257
 75
     1
175
     1
 42
1.0
 92
        0
 66
     7
 43
1.0
 76
     1
 77
     6
 78
     2
 67
     7
 79
     5
170
     0
171
     0
290
     0
174
     0
 93
       13
 44
0.0
173
     0
291
     1
 45
0.0
1001
ACAD
1000
AcDbSavedByObjectVersion
1070
     0
  0
VISUALSTYLE
  5
2E
102
{ACAD_REACTORS
330
2A
102
}
330
2A
100
AcDbVisualStyle
  2
GouraudWithEdges
 70
     3
 71
     2
 72
     2
 73
     1
 90
        2
 40
-0.6
 41
30.0
 62
     5
 63
     7
 74
     1
 91
        4
 64
     7
 65
   257
 75
     1
175
     1
 42
1.0
 92
        0
 66
   257
 43
1.0
 76
     1
 77
     6
 78
     2
 67
     7
 79
     5
170
     0
171
     0
290
     0
174
     0
 93
       13
 44
0.0
173
     0
291
     1
 45
0.0
1001
ACAD
1000
AcDbSavedByObjectVersion
1070
     0
  0
VISUALSTYLE
  5
38
102
{ACAD_REACTORS
330
2A
102
}
330
2A
100
AcDbVisualStyle
  2
Linepattern
 70
    14
 71
     2
 72
     2
 73
     0
 90
        0
 40
-0.6
 41
-30.0
 62
     5
 63
     7
 74
     1
 91
        4
 64
     7
 65
   257
 75
     7
175
     7
 42
1.0
 92
        8
 66
     7
 43
1.0
 76
     1
 77
     6
 78
     2
 67
     7
 79
     5
170
     0
171
     0
290
     0
174
     0
 93
        1
 44
0.0
173
     0
291
     1
 45
0.0
1001
ACAD
1000
AcDbSavedByObjectVersion
1070
     0
  0
VISUALSTYLE
  5
33
102
{ACAD_REACTORS
330
2A
102
}
330
2A
100
AcDbVisualStyle
  2
Realistic
 70
     8
 71
     2
 72
     2
 73
     0
 90
        0
 40
-0.6
 41
-30.0
 62
     5
 63
     7
 74
     1
 91
        0
 64
     7
 65
   257
 75
     1
175
     1
 42
1.0
 92
        8
 66
     8
 43
1.0
 76
     1
 77
     6
 78
     2
 67
     7
 79
     5
170
     0
171
     0
290
     0
174
     0
 93
       13
 44
0.0
173
     0
291
     0
 45
0.0
1001
ACAD
1000
AcDbSavedByObjectVersion
1070
     0
  0
VISUALSTYLE
  5
37
102
{ACAD_REACTORS
330
2A
102
}
330
2A
100
AcDbVisualStyle
  2
Thicken
 70
    13
 71
     2
 72
     2
 73
     0
 90
        0
 40
-0.6
 41
-30.0
 62
     5
 63
     7
 74
     1
 91
        4
 64
     7
 65
   257
 75
     1
175
     1
 42
1.0
 92
       12
 66
     7
 43
1.0
 76
     1
 77
     6
 78
     2
 67
     7
 79
     5
170
     0
171
     0
290
     0
174
     0
 93
        1
 44
0.0
173
     0
291
     1
 45
0.0
1001
ACAD
1000
AcDbSavedByObjectVersion
1070
     0
  0
ENDSEC
  0
EOF
