  0
SECTION
  2
HEADER
  9
$ACADVER
  1
AC1015
  9
$ACADMAINTVER
 70
     6
  9
$DWGCODEPAGE
  3
DOS932
  9
$INSBASE
 10
0.0
 20
0.0
 30
0.0
  9
$EXTMIN
 10
0.0
 20
0.0
 30
0.0
  9
$EXTMAX
 10
1050.0
 20
1485.0
 30
0.0
  9
$LIMMIN
 10
0.0
 20
0.0
  9
$LIMMAX
 10
1050.0
 20
1485.0
  9
$ORTHOMODE
 70
     0
  9
$REGENMODE
 70
     1
  9
$FILLMODE
 70
     1
  9
$QTEXTMODE
 70
     0
  9
$MIRRTEXT
 70
     1
  9
$LTSCALE
 40
5.0
  9
$ATTMODE
 70
     1
  9
$TEXTSIZE
 40
17.5
  9
$TRACEWID
 40
1.0
  9
$TEXTSTYLE
  7
Standard
  9
$CLAYER
  8
0
  9
$CELTYPE
  6
ByLayer
  9
$CECOLOR
 62
   256
  9
$CELTSCALE
 40
1.0
  9
$DISPSILH
 70
     0
  9
$DIMSCALE
 40
1.0
  9
$DIMASZ
 40
7.5
  9
$DIMEXO
 40
5.0
  9
$DIMDLI
 40
3.75
  9
$DIMRND
 40
0.0
  9
$DIMDLE
 40
0.0
  9
$DIMEXE
 40
5.0
  9
$DIMTP
 40
0.0
  9
$DIMTM
 40
0.0
  9
$DIMTXT
 40
17.5
  9
$DIMCEN
 40
2.5
  9
$DIMTSZ
 40
0.0
  9
$DIMTOL
 70
     0
  9
$DIMLIM
 70
     0
  9
$DIMTIH
 70
     1
  9
$DIMTOH
 70
     1
  9
$DIMSE1
 70
     0
  9
$DIMSE2
 70
     0
  9
$DIMTAD
 70
     1
  9
$DIMZIN
 70
     0
  9
$DIMBLK
  1

  9
$DIMASO
 70
     1
  9
$DIMSHO
 70
     1
  9
$DIMPOST
  1

  9
$DIMAPOST
  1

  9
$DIMALT
 70
     0
  9
$DIMALTD
 70
     3
  9
$DIMALTF
 40
0.0393700787
  9
$DIMLFAC
 40
1.0
  9
$DIMTOFL
 70
     1
  9
$DIMTVP
 40
0.0
  9
$DIMTIX
 70
     0
  9
$DIMSOXD
 70
     0
  9
$DIMSAH
 70
     0
  9
$DIMBLK1
  1

  9
$DIMBLK2
  1

  9
$DIMSTYLE
  2
ISO-25
  9
$DIMCLRD
 70
     0
  9
$DIMCLRE
 70
     0
  9
$DIMCLRT
 70
     0
  9
$DIMTFAC
 40
1.0
  9
$DIMGAP
 40
7.5
  9
$DIMJUST
 70
     0
  9
$DIMSD1
 70
     0
  9
$DIMSD2
 70
     0
  9
$DIMTOLJ
 70
     0
  9
$DIMTZIN
 70
     0
  9
$DIMALTZ
 70
     0
  9
$DIMALTTZ
 70
     0
  9
$DIMUPT
 70
     0
  9
$DIMDEC
 70
     1
  9
$DIMTDEC
 70
     1
  9
$DIMALTU
 70
     2
  9
$DIMALTTD
 70
     3
  9
$DIMTXSTY
  7
Standard
  9
$DIMAUNIT
 70
     0
  9
$DIMADEC
 70
     2
  9
$DIMALTRND
 40
0.0
  9
$DIMAZIN
 70
     0
  9
$DIMDSEP
 70
    44
  9
$DIMATFIT
 70
     3
  9
$DIMFRAC
 70
     0
  9
$DIMLDRBLK
  1

  9
$DIMLUNIT
 70
     2
  9
$DIMLWD
 70
    -2
  9
$DIMLWE
 70
    -2
  9
$DIMTMOVE
 70
     0
  9
$LUNITS
 70
     2
  9
$LUPREC
 70
     2
  9
$SKETCHINC
 40
1.0
  9
$FILLETRAD
 40
0.0
  9
$AUNITS
 70
     0
  9
$AUPREC
 70
     2
  9
$MENU
  1
.
  9
$ELEVATION
 40
0.0
  9
$PELEVATION
 40
0.0
  9
$THICKNESS
 40
0.0
  9
$LIMCHECK
 70
     0
  9
$CHAMFERA
 40
0.0
  9
$CHAMFERB
 40
0.0
  9
$CHAMFERC
 40
0.0
  9
$CHAMFERD
 40
0.0
  9
$SKPOLY
 70
     0
  9
$TDCREATE
 40
2460115.635305961
  9
$TDUCREATE
 40
2460115.260305961
  9
$TDUPDATE
 40
2460115.635306597
  9
$TDUUPDATE
 40
2460115.260306597
  9
$TDINDWG
 40
0.0000000116
  9
$TDUSRTIMER
 40
0.0000000116
  9
$USRTIMER
 70
     1
  9
$ANGBASE
 50
0.0
  9
$ANGDIR
 70
     0
  9
$PDMODE
 70
     0
  9
$PDSIZE
 40
-1.0
  9
$PLINEWID
 40
0.0
  9
$SPLFRAME
 70
     0
  9
$SPLINETYPE
 70
     6
  9
$SPLINESEGS
 70
     8
  9
$HANDSEED
  5
FC
  9
$SURFTAB1
 70
     6
  9
$SURFTAB2
 70
     6
  9
$SURFTYPE
 70
     6
  9
$SURFU
 70
     6
  9
$SURFV
 70
     6
  9
$UCSBASE
  2

  9
$UCSNAME
  2

  9
$UCSORG
 10
0.0
 20
0.0
 30
0.0
  9
$UCSXDIR
 10
1.0
 20
0.0
 30
0.0
  9
$UCSYDIR
 10
0.0
 20
1.0
 30
0.0
  9
$UCSORTHOREF
  2

  9
$UCSORTHOVIEW
 70
     0
  9
$UCSORGTOP
 10
0.0
 20
0.0
 30
0.0
  9
$UCSORGBOTTOM
 10
0.0
 20
0.0
 30
0.0
  9
$UCSORGLEFT
 10
0.0
 20
0.0
 30
0.0
  9
$UCSORGRIGHT
 10
0.0
 20
0.0
 30
0.0
  9
$UCSORGFRONT
 10
0.0
 20
0.0
 30
0.0
  9
$UCSORGBACK
 10
0.0
 20
0.0
 30
0.0
  9
$PUCSBASE
  2

  9
$PUCSNAME
  2

  9
$PUCSORG
 10
0.0
 20
0.0
 30
0.0
  9
$PUCSXDIR
 10
1.0
 20
0.0
 30
0.0
  9
$PUCSYDIR
 10
0.0
 20
1.0
 30
0.0
  9
$PUCSORTHOREF
  2

  9
$PUCSORTHOVIEW
 70
     0
  9
$PUCSORGTOP
 10
0.0
 20
0.0
 30
0.0
  9
$PUCSORGBOTTOM
 10
0.0
 20
0.0
 30
0.0
  9
$PUCSORGLEFT
 10
0.0
 20
0.0
 30
0.0
  9
$PUCSORGRIGHT
 10
0.0
 20
0.0
 30
0.0
  9
$PUCSORGFRONT
 10
0.0
 20
0.0
 30
0.0
  9
$PUCSORGBACK
 10
0.0
 20
0.0
 30
0.0
  9
$USERI1
 70
     0
  9
$USERI2
 70
     0
  9
$USERI3
 70
     0
  9
$USERI4
 70
     0
  9
$USERI5
 70
     0
  9
$USERR1
 40
0.0
  9
$USERR2
 40
0.0
  9
$USERR3
 40
0.0
  9
$USERR4
 40
0.0
  9
$USERR5
 40
0.0
  9
$WORLDVIEW
 70
     1
  9
$SHADEDGE
 70
     3
  9
$SHADEDIF
 70
    70
  9
$TILEMODE
 70
     1
  9
$MAXACTVP
 70
    64
  9
$PINSBASE
 10
0.0
 20
0.0
 30
0.0
  9
$PLIMCHECK
 70
     0
  9
$PEXTMIN
 10
1.0000000000E+20
 20
1.0000000000E+20
 30
1.0000000000E+20
  9
$PEXTMAX
 10
-1.0000000000E+20
 20
-1.0000000000E+20
 30
-1.0000000000E+20
  9
$PLIMMIN
 10
0.0
 20
0.0
  9
$PLIMMAX
 10
420.0
 20
297.0
  9
$UNITMODE
 70
     0
  9
$VISRETAIN
 70
     1
  9
$PLINEGEN
 70
     0
  9
$PSLTSCALE
 70
     1
  9
$TREEDEPTH
 70
  3020
  9
$CMLSTYLE
  2
Standard
  9
$CMLJUST
 70
     0
  9
$CMLSCALE
 40
20.0
  9
$PROXYGRAPHICS
 70
     1
  9
$MEASUREMENT
 70
     1
  9
$CELWEIGHT
370
    -1
  9
$ENDCAPS
280
     0
  9
$JOINSTYLE
280
     0
  9
$LWDISPLAY
290
     1
  9
$INSUNITS
 70
     4
  9
$HYPERLINKBASE
  1

  9
$STYLESHEET
  1

  9
$XEDIT
290
     1
  9
$CEPSNTYPE
380
     0
  9
$PSTYLEMODE
290
     1
  9
$FINGERPRINTGUID
  2
{c6b694a0-5e1c-40a5-a6ec-002676c60d0e}
  9
$VERSIONGUID
  2
{FAEB1C32-E019-11D5-929B-00C0DF256EC4}
  9
$EXTNAMES
290
     1
  9
$PSVPSCALE
 40
0.0
  9
$OLESTARTUP
290
     0
  0
ENDSEC
  0
SECTION
  2
CLASSES
  0
CLASS
  1
ACDBDICTIONARYWDFLT
  2
AcDbDictionaryWithDefault
  3
ObjectDBX Classes
 90
        0
280
     0
281
     0
  0
CLASS
  1
VISUALSTYLE
  2
AcDbVisualStyle
  3
ObjectDBX Classes
 90
     4095
280
     0
281
     0
  0
CLASS
  1
MATERIAL
  2
AcDbMaterial
  3
ObjectDBX Classes
 90
     1153
280
     0
281
     0
  0
CLASS
  1
SCALE
  2
AcDbScale
  3
ObjectDBX Classes
 90
     1153
280
     0
281
     0
  0
CLASS
  1
TABLESTYLE
  2
AcDbTableStyle
  3
ObjectDBX Classes
 90
     4095
280
     0
281
     0
  0
CLASS
  1
MLEADERSTYLE
  2
AcDbMLeaderStyle
  3
ACDB_MLEADERSTYLE_CLASS
 90
     4095
280
     0
281
     0
  0
CLASS
  1
SUN
  2
AcDbSun
  3
SCENEOE
 90
     1153
280
     0
281
     0
  0
CLASS
  1
ACDBPLACEHOLDER
  2
AcDbPlaceHolder
  3
ObjectDBX Classes
 90
        0
280
     0
281
     0
  0
CLASS
  1
LAYOUT
  2
AcDbLayout
  3
ObjectDBX Classes
 90
        0
280
     0
281
     0
  0
ENDSEC
  0
SECTION
  2
TABLES
  0
TABLE
  2
VPORT
  5
8
330
0
100
AcDbSymbolTable
 70
     1
  0
VPORT
  5
29
330
8
100
AcDbSymbolTableRecord
100
AcDbViewportTableRecord
  2
*Active
 70
     0
 10
0.0
 20
0.0
 11
1.0
 21
1.0
 12
525.0
 22
742.5
 13
0.0
 23
0.0
 14
10.0
 24
10.0
 15
10.0
 25
10.0
 16
0.0
 26
0.0
 36
1.0
 17
0.0
 27
0.0
 37
0.0
 40
1485.0
 41
0.7070707071
 42
50.0
 43
0.0
 44
0.0
 50
0.0
 51
0.0
 71
     0
 72
  2000
 73
     1
 74
     3
 75
     0
 76
     0
 77
     0
 78
     0
281
     0
 65
     1
110
0.0
120
0.0
130
0.0
111
1.0
121
0.0
131
0.0
112
0.0
122
1.0
132
0.0
 79
     0
146
0.0
  0
ENDTAB
  0
TABLE
  2
LTYPE
  5
5
330
0
100
AcDbSymbolTable
 70
     6
  0
LTYPE
  5
14
330
5
100
AcDbSymbolTableRecord
100
AcDbLinetypeTableRecord
  2
ByBlock
 70
     0
  3

 72
    65
 73
     0
 40
0.0
  0
LTYPE
  5
15
330
5
100
AcDbSymbolTableRecord
100
AcDbLinetypeTableRecord
  2
ByLayer
 70
     0
  3

 72
    65
 73
     0
 40
0.0
  0
LTYPE
  5
16
330
5
100
AcDbSymbolTableRecord
100
AcDbLinetypeTableRecord
  2
Continuous
 70
     0
  3
Solid line
 72
    65
 73
     0
 40
0.0
  0
LTYPE
  5
5E
330
5
100
AcDbSymbolTableRecord
100
AcDbLinetypeTableRecord
  2
HIDDEN
 70
     0
  3
Hidden __ __ __ __ __ __ __ __ __ __ __ __ __ __
 72
    65
 73
     2
 40
1.905
 49
1.27
 74
     0
 49
-0.635
 74
     0
  0
LTYPE
  5
5F
330
5
100
AcDbSymbolTableRecord
100
AcDbLinetypeTableRecord
  2
PHANTOM
 70
     0
  3
Phantom ______  __  __  ______  __  __  ______
 72
    65
 73
     6
 40
12.7
 49
6.35
 74
     0
 49
-1.27
 74
     0
 49
1.27
 74
     0
 49
-1.27
 74
     0
 49
1.27
 74
     0
 49
-1.27
 74
     0
  0
LTYPE
  5
60
330
5
100
AcDbSymbolTableRecord
100
AcDbLinetypeTableRecord
  2
CENTER
 70
     0
  3
Center ____ _ ____ _ ____ _ ____ _ ____ _ ____
 72
    65
 73
     4
 40
10.16
 49
6.35
 74
     0
 49
-1.27
 74
     0
 49
1.27
 74
     0
 49
-1.27
 74
     0
  0
LTYPE
  5
61
330
5
100
AcDbSymbolTableRecord
100
AcDbLinetypeTableRecord
  2
CENTERX2
 70
     0
  3
Center (2x) ________  __  ________  __  _____
 72
    65
 73
     4
 40
20.32
 49
12.7
 74
     0
 49
-2.54
 74
     0
 49
2.54
 74
     0
 49
-2.54
 74
     0
  0
LTYPE
  5
62
330
5
100
AcDbSymbolTableRecord
100
AcDbLinetypeTableRecord
  2
DOT2
 70
     0
  3
Dot (.5x) ........................................
 72
    65
 73
     2
 40
0.635
 49
0.0
 74
     0
 49
-0.635
 74
     0
  0
ENDTAB
  0
TABLE
  2
LAYER
  5
2
330
0
100
AcDbSymbolTable
 70
     2
  0
LAYER
  5
10
330
2
100
AcDbSymbolTableRecord
100
AcDbLayerTableRecord
  2
0
 70
     0
 62
     7
  6
Continuous
370
    -3
390
F
  0
LAYER
  5
63
330
2
100
AcDbSymbolTableRecord
100
AcDbLayerTableRecord
  2
FORMAT
 70
     0
 62
     7
  6
Continuous
370
    -3
390
F
  0
ENDTAB
  0
TABLE
  2
STYLE
  5
3
330
0
100
AcDbSymbolTable
 70
     2
  0
STYLE
  5
11
330
3
100
AcDbSymbolTableRecord
100
AcDbTextStyleTableRecord
  2
Standard
 70
     0
 40
0.0
 41
1.0
 50
0.0
 71
     0
 42
17.5
  3
txt
  4
bigfont
  0
STYLE
  5
64
330
3
100
AcDbSymbolTableRecord
100
AcDbTextStyleTableRecord
  2
SLDTEXTSTYLE0
 70
     0
 40
0.0
 41
0.7
 50
0.0
 71
     0
 42
17.5
  3
TXT
  4
bigfont
  0
ENDTAB
  0
TABLE
  2
VIEW
  5
6
330
0
100
AcDbSymbolTable
 70
     0
  0
ENDTAB
  0
TABLE
  2
UCS
  5
7
330
0
100
AcDbSymbolTable
 70
     0
  0
ENDTAB
  0
TABLE
  2
APPID
  5
9
330
0
100
AcDbSymbolTable
 70
     1
  0
APPID
  5
12
330
9
100
AcDbSymbolTableRecord
100
AcDbRegAppTableRecord
  2
ACAD
 70
     0
  0
ENDTAB
  0
TABLE
  2
DIMSTYLE
  5
A
330
0
100
AcDbSymbolTable
 70
     1
100
AcDbDimStyleTable
  0
DIMSTYLE
105
27
330
A
100
AcDbSymbolTableRecord
100
AcDbDimStyleTableRecord
  2
ISO-25
 70
     0
 41
2.5
 42
0.625
 43
3.75
 44
1.25
 73
     0
 74
     0
 77
     1
 78
     8
140
2.5
141
2.5
143
0.0393700787
147
0.625
171
     3
172
     1
178
     0
271
     2
272
     2
274
     3
278
    44
283
     0
284
     8
340
11
  0
ENDTAB
  0
TABLE
  2
BLOCK_RECORD
  5
1
330
0
100
AcDbSymbolTable
 70
     1
  0
BLOCK_RECORD
  5
1F
330
1
100
AcDbSymbolTableRecord
100
AcDbBlockTableRecord
  2
*Model_Space
340
22
  0
BLOCK_RECORD
  5
1B
330
1
100
AcDbSymbolTableRecord
100
AcDbBlockTableRecord
  2
*Paper_Space
340
1E
  0
BLOCK_RECORD
  5
23
330
1
100
AcDbSymbolTableRecord
100
AcDbBlockTableRecord
  2
*Paper_Space0
340
26
  0
ENDTAB
  0
ENDSEC
  0
SECTION
  2
BLOCKS
  0
BLOCK
  5
20
330
1F
100
AcDbEntity
  8
0
100
AcDbBlockBegin
  2
*Model_Space
 70
     0
 10
0.0
 20
0.0
 30
0.0
  3
*Model_Space
  1

  0
ENDBLK
  5
21
330
1F
100
AcDbEntity
  8
0
100
AcDbBlockEnd
  0
BLOCK
  5
1C
330
1B
100
AcDbEntity
 67
     1
  8
0
100
AcDbBlockBegin
  2
*Paper_Space
 70
     0
 10
0.0
 20
0.0
 30
0.0
  3
*Paper_Space
  1

  0
ENDBLK
  5
1D
330
1B
100
AcDbEntity
 67
     1
  8
0
100
AcDbBlockEnd
  0
BLOCK
  5
24
330
23
100
AcDbEntity
  8
0
100
AcDbBlockBegin
  2
*Paper_Space0
 70
     0
 10
0.0
 20
0.0
 30
0.0
  3
*Paper_Space0
  1

  0
ENDBLK
  5
25
330
23
100
AcDbEntity
  8
0
100
AcDbBlockEnd
  0
ENDSEC
  0
SECTION
  2
ENTITIES
  0
MTEXT
  5
65
330
1F
100
AcDbEntity
  8
0
  6
Continuous
 62
     7
370
     0
100
AcDbMText
 10
232.1998134799
 20
437.6801949283
 30
0.0
 40
15.875
 41
0.0
 71
     2
 72
     1
  1
【スパイク仕様】
  7
SLDTEXTSTYLE0
 73
     1
 44
1.0
  0
MTEXT
  5
66
330
1F
100
AcDbEntity
  8
0
  6
Continuous
 62
     7
370
     0
100
AcDbMText
 10
812.4234676464
 20
320.6914694225
 30
0.0
 40
15.875
 41
0.0
 71
     2
 72
     1
  1
HBF-D38T
  7
SLDTEXTSTYLE0
 73
     1
 44
1.0
  0
MTEXT
  5
67
330
1F
100
AcDbEntity
  8
0
  6
Continuous
 62
     7
370
     0
100
AcDbMText
 10
746.2852140772
 20
437.6801949283
 30
0.0
 40
15.875
 41
0.0
 71
     2
 72
     1
  1
【ペグ仕様】
  7
SLDTEXTSTYLE0
 73
     1
 44
1.0
  0
MTEXT
  5
68
330
1F
100
AcDbEntity
  8
0
  6
Continuous
 62
     7
370
     0
100
AcDbMText
 10
812.3187341867
 20
286.5652720228
 30
0.0
 40
15.875
 41
0.0
 71
     2
 72
     1
  1
HFC-D09T
  7
SLDTEXTSTYLE0
 73
     1
 44
1.0
  0
ARC
  5
69
330
1F
100
AcDbEntity
  8
0
  6
Continuous
 62
     7
370
    25
100
AcDbCircle
 10
502.5422492273
 20
1080.7526913215
 30
0.0
 40
125.0
100
AcDbArc
 50
302.4149438941
 51
359.4595076863
  0
ARC
  5
6A
330
1F
100
AcDbEntity
  8
0
  6
Continuous
 62
     7
370
    25
100
AcDbCircle
 10
502.5422492273
 20
1080.7526913215
 30
0.0
 40
125.0
100
AcDbArc
 50
359.4595076863
 51
236.5040714785
  0
LWPOLYLINE
  5
6B
330
1F
100
AcDbEntity
  8
0
  6
Continuous
 62
     7
370
    25
100
AcDbPolyline
 90
       38
 70
   128
 43
0.0
 10
569.5481235388
 20
975.2291735268
 10
568.611183741
 20
974.6807406147
 10
566.8466908599
 20
973.8264952132
 10
564.7570783068
 20
973.0005671653
 10
562.3527564266
 20
972.207071203
 10
559.6457034297
 20
971.4499604832
 10
556.6494057181
 20
970.7330068936
 10
553.3787906963
 20
970.0597822608
 10
549.8501524038
 20
969.4336405561
 10
546.081070339
 20
968.8577011859
 10
542.0903218792
 20
968.3348334512
 10
537.8977887326
 20
967.8676422528
 10
533.5243578883
 20
967.4584551137
 10
528.9918175588
 20
967.1093105838
 10
524.322748632
 20
966.8219480833
 10
519.5404121746
 20
966.597799238
 10
514.6686335461
 20
966.4379807459
 10
509.7316837026
 20
966.343288815
 10
504.75415828
 20
966.3141951955
 10
499.7608550594
 20
966.3508448304
 10
494.7766504264
 20
966.4530551331
 10
489.8263754377
 20
966.620316897
 10
484.9346921144
 20
966.8517968324
 10
480.1259705766
 20
967.146341718
 10
475.4241676332
 20
967.5024841458
 10
470.85270743
 20
967.9184498323
 10
466.4343647516
 20
968.3921664573
 10
462.1911515592
 20
968.9212739884
 10
458.1442073274
 20
969.5031364386
 10
454.3136937287
 20
970.1348549983
 10
450.7186941893
 20
970.8132824775
 10
447.3771188161
 20
971.5350389845
 10
444.3056151693
 20
972.2965287649
 10
441.5194853258
 20
973.0939581148
 10
439.0326096442
 20
973.9233542812
 10
436.8573776141
 20
974.7805852543
 10
435.0046261321
 20
975.6613803524
 10
433.5575333017
 20
976.5120611974
  0
ELLIPSE
  5
6C
330
1F
100
AcDbEntity
  8
0
  6
Continuous
 62
     7
370
    25
100
AcDbEllipse
 10
501.6427742509
 20
985.4051907134
 30
0.0
 11
51.07073209108717
 21
230.6467130985061
 31
0.0
210
0.0
220
0.0
230
1.0
 40
0.0452769817
 41
1.661721910073378
 42
1.699421899408049
  0
LWPOLYLINE
  5
6D
330
1F
100
AcDbEntity
  8
0
  6
Continuous
 62
     7
370
    25
100
AcDbPolyline
 90
       11
 70
   128
 43
0.0
 10
484.7351517782
 20
958.1130889309
 10
480.6271683528
 20
958.4611491874
 10
476.6830460219
 20
958.8742952341
 10
472.9337974216
 20
959.3492785033
 10
469.4089028957
 20
959.8823642015
 10
466.1360786917
 20
960.4693606754
 10
463.1410590281
 20
961.1056523714
 10
460.4473937462
 20
961.7862361276
 10
458.0762631375
 20
962.5057605136
 10
456.0463114034
 20
963.2585679088
 10
454.3735000554
 20
964.038738988
  0
ELLIPSE
  5
6E
330
1F
100
AcDbEntity
  8
0
  6
Continuous
 62
     7
370
    25
100
AcDbEllipse
 10
501.6427742509
 20
985.4051907134
 30
0.0
 11
-10.80570685944366
 21
242.4446945157041
 31
0.0
210
0.0
220
0.0
230
1.0
 40
0.1991297006
 41
1.624728324458785
 42
1.650161566978631
  0
ARC
  5
6F
330
1F
100
AcDbEntity
  8
0
  6
Continuous
 62
     7
370
    25
100
AcDbCircle
 10
508.9544097989
 20
1132.2530744596
 30
0.0
 40
174.689201405184
100
AcDbArc
 50
273.0535774498
 51
278.2111754146
  0
ELLIPSE
  5
70
330
1F
100
AcDbEntity
  8
0
  6
Continuous
 62
     7
370
    25
100
AcDbEllipse
 10
501.6427742509
 20
985.4051907134
 30
0.0
 11
-46.66138691052266
 21
231.5243729944009
 31
0.0
210
0.0
220
0.0
230
1.0
 40
0.046272915
 41
4.583603757046996
 42
4.621285763300575
  0
ELLIPSE
  5
71
330
1F
100
AcDbEntity
  8
0
  6
Continuous
 62
     7
370
    25
100
AcDbEllipse
 10
501.6427742509
 20
985.4051907134
 30
0.0
 11
15.14469321091724
 21
242.2115560310434
 31
0.0
210
0.0
220
0.0
230
1.0
 40
0.1993785641
 41
4.633024630553718
 42
4.658332263554362
  0
ARC
  5
72
330
1F
100
AcDbEntity
  8
0
  6
Continuous
 62
     7
370
    25
100
AcDbCircle
 10
532.8640859778
 20
997.4517895477
 30
0.0
 40
37.69291688137336
100
AcDbArc
 50
280.2275517854
 51
294.6450598662
  0
LINE
  5
73
330
1F
100
AcDbEntity
  8
0
  6
Continuous
 62
     7
370
    25
100
AcDbLine
 10
539.556764512
 20
960.3578003167
 30
0.0
 11
539.6262752466
 21
967.7261818533
 31
0.0
  0
SPLINE
  5
74
330
1F
100
AcDbEntity
  8
0
  6
Continuous
 62
     7
370
    25
100
AcDbSpline
210
0.0
220
0.0
230
1.0
 70
     8
 71
     3
 72
     9
 73
     5
 74
     0
 42
0.00000001
 43
0.00000001
 40
0.0
 40
0.0
 40
0.0
 40
0.0
 40
0.4812023285665246
 40
1.0
 40
1.0
 40
1.0
 40
1.0
 10
534.0825162637043
 20
967.5432466784285
 30
0.0
 10
534.0480820480079
 20
967.4128157909217
 30
0.0
 10
533.9765233425484
 20
967.1417637203815
 30
0.0
 10
533.9744530419642
 20
966.8661088181391
 30
0.0
 10
533.973378974842
 20
966.7230996967363
 30
0.0
  0
LINE
  5
75
330
1F
100
AcDbEntity
  8
0
  6
Continuous
 62
     7
370
    25
100
AcDbLine
 10
533.9733789748
 20
966.7230996967
 30
0.0
 11
533.9038682402
 21
959.3547181602
 31
0.0
  0
LINE
  5
76
330
1F
100
AcDbEntity
  8
0
  6
Continuous
 62
     7
370
    25
100
AcDbLine
 10
485.512323195
 20
958.6478077002
 30
0.0
 11
484.7351517782
 21
958.1130889309
 31
0.0
  0
ELLIPSE
  5
77
330
1F
100
AcDbEntity
  8
0
  6
Continuous
 62
     7
370
    25
100
AcDbEllipse
 10
501.6427742509
 20
985.4051907134
 30
0.0
 11
48.00648816562195
 21
216.8079103125957
 31
0.0
210
0.0
220
0.0
230
1.0
 40
0.0452769817
 41
1.667044887704996
 42
1.704545777627041
  0
LINE
  5
78
330
1F
100
AcDbEntity
  8
0
  6
Continuous
 62
     7
370
    25
100
AcDbLine
 10
518.2600606895
 20
957.8119040064
 30
0.0
 11
517.4790713962
 21
958.3606211587
 31
0.0
  0
ELLIPSE
  5
79
330
1F
100
AcDbEntity
  8
0
  6
Continuous
 62
     7
370
    25
100
AcDbEllipse
 10
501.6427742509
 20
985.4051907134
 30
0.0
 11
-43.86170369589126
 21
217.6329106147368
 31
0.0
210
0.0
220
0.0
230
1.0
 40
0.046272915
 41
4.578479878828005
 42
4.615959880801089
  0
LINE
  5
7A
330
1F
100
AcDbEntity
  8
0
  6
Continuous
 62
     7
370
    25
100
AcDbLine
 10
486.4904624247
 20
959.3207987465
 30
0.0
 11
486.5285870633
 21
963.3621440823
 31
0.0
  0
LINE
  5
7B
330
1F
100
AcDbEntity
  8
0
  6
Continuous
 62
     7
370
    25
100
AcDbLine
 10
486.4904624247
 20
959.3207987465
 30
0.0
 11
485.512323195
 21
958.6478077002
 31
0.0
  0
LINE
  5
7C
330
1F
100
AcDbEntity
  8
0
  6
Continuous
 62
     7
370
    25
100
AcDbLine
 10
516.4439665778
 20
959.0878779511
 30
0.0
 11
516.4850388502
 21
963.4416828067
 31
0.0
  0
LINE
  5
7D
330
1F
100
AcDbEntity
  8
0
  6
Continuous
 62
     7
370
    25
100
AcDbLine
 10
517.4790713962
 20
958.3606211587
 30
0.0
 11
516.4439665778
 21
959.0878779511
 31
0.0
  0
LINE
  5
7E
330
1F
100
AcDbEntity
  8
0
  6
Continuous
 62
     7
370
    25
100
AcDbLine
 10
539.6262752466
 20
967.7261818533
 30
0.0
 11
539.5981553395
 21
967.7316699845
 31
0.0
  0
LINE
  5
7F
330
1F
100
AcDbEntity
  8
0
  6
Continuous
 62
     7
370
    25
100
AcDbLine
 10
539.5981553395
 20
967.7316699845
 30
0.0
 11
539.5919343006
 21
968.0470504398
 31
0.0
  0
LINE
  5
80
330
1F
100
AcDbEntity
  8
0
  6
Continuous
 62
     7
370
    25
100
AcDbLine
 10
535.1818301273
 20
966.9480120497
 30
0.0
 11
535.1123193927
 21
959.5796305131
 31
0.0
  0
LINE
  5
81
330
1F
100
AcDbEntity
  8
0
  6
Continuous
 62
     7
370
    25
100
AcDbLine
 10
539.5286446049
 20
960.363288448
 30
0.0
 11
539.5981553395
 21
967.7316699845
 31
0.0
  0
LINE
  5
82
330
1F
100
AcDbEntity
  8
0
  6
Continuous
 62
     7
370
    25
100
AcDbLine
 10
538.2920735455
 20
960.1438642262
 30
0.0
 11
539.5286446049
 21
960.363288448
 31
0.0
  0
LINE
  5
83
330
1F
100
AcDbEntity
  8
0
  6
Continuous
 62
     7
370
    25
100
AcDbLine
 10
538.2920735455
 20
960.1438642262
 30
0.0
 11
538.3615842801
 21
967.5122457628
 31
0.0
  0
LINE
  5
84
330
1F
100
AcDbEntity
  8
0
  6
Continuous
 62
     7
370
    25
100
AcDbLine
 10
538.3615842801
 20
967.5122457628
 30
0.0
 11
538.3384087453
 21
967.9131279585
 31
0.0
  0
LINE
  5
85
330
1F
100
AcDbEntity
  8
0
  6
Continuous
 62
     7
370
    25
100
AcDbLine
 10
535.2585360459
 20
967.6117716209
 30
0.0
 11
535.1818301273
 21
966.9480120497
 31
0.0
  0
LINE
  5
86
330
1F
100
AcDbEntity
  8
0
  6
Continuous
 62
     7
370
    25
100
AcDbLine
 10
533.9039672507
 20
959.365213617
 30
0.0
 11
535.1123193927
 21
959.5796305131
 31
0.0
  0
LINE
  5
87
330
1F
100
AcDbEntity
  8
0
  6
Continuous
 62
     7
370
    25
100
AcDbLine
 10
538.2920735455
 20
960.1438642262
 30
0.0
 11
535.780304829
 21
960.6340833544
 31
0.0
  0
LINE
  5
88
330
1F
100
AcDbEntity
  8
0
  6
Continuous
 62
     7
370
    25
100
AcDbLine
 10
535.8466450919
 20
967.6663837788
 30
0.0
 11
535.780304829
 21
960.6340833544
 31
0.0
  0
LINE
  5
89
330
1F
100
AcDbEntity
  8
0
  6
Continuous
 62
     7
370
    25
100
AcDbLine
 10
539.556764512
 20
960.3578003167
 30
0.0
 11
539.5286446049
 21
960.363288448
 31
0.0
  0
LINE
  5
8A
330
1F
100
AcDbEntity
  8
0
  6
Continuous
 62
     7
370
    25
100
AcDbLine
 10
535.6837308447
 20
964.9221805421
 30
0.0
 11
535.8205054151
 21
964.8954864002
 31
0.0
  0
LINE
  5
8B
330
1F
100
AcDbEntity
  8
0
  6
Continuous
 62
     7
370
    25
100
AcDbLine
 10
535.6837308447
 20
964.9221805421
 30
0.0
 11
535.7094974154
 21
967.6535273517
 31
0.0
  0
LINE
  5
8C
330
1F
100
AcDbEntity
  8
0
  6
Continuous
 62
     7
370
    25
100
AcDbLine
 10
535.8155861428
 20
964.3740262955
 30
0.0
 11
535.6837308447
 21
964.9221805421
 31
0.0
  0
LINE
  5
8D
330
1F
100
AcDbEntity
  8
0
  6
Continuous
 62
     7
370
    25
100
AcDbLine
 10
538.3615842801
 20
967.5122457628
 30
0.0
 11
537.0018052001
 21
967.7776323451
 31
0.0
  0
ARC
  5
8E
330
1F
100
AcDbEntity
  8
0
  6
Continuous
 62
     7
370
    25
100
AcDbCircle
 10
237.4605524889
 20
736.6511445498
 30
0.0
 40
125.0
100
AcDbArc
 50
302.4149438941
 51
359.4595076863
  0
ARC
  5
8F
330
1F
100
AcDbEntity
  8
0
  6
Continuous
 62
     7
370
    25
100
AcDbCircle
 10
237.4605524889
 20
736.6511445498
 30
0.0
 40
125.0
100
AcDbArc
 50
359.4595076863
 51
236.5040714785
  0
LINE
  5
90
330
1F
100
AcDbEntity
  8
0
  6
Continuous
 62
     7
370
    25
100
AcDbLine
 10
240.0079448919
 20
549.2200616667
 30
0.0
 11
239.5445399946
 21
500.0975180895
 31
0.0
  0
LINE
  5
91
330
1F
100
AcDbEntity
  8
0
  6
Continuous
 62
     7
370
    25
100
AcDbLine
 10
239.5445399946
 20
500.0975180895
 30
0.0
 11
234.9296715248
 21
471.501888756
 31
0.0
  0
LINE
  5
92
330
1F
100
AcDbEntity
  8
0
  6
Continuous
 62
     7
370
    25
100
AcDbLine
 10
236.3515850526
 20
622.229707215
 30
0.0
 11
234.9296715248
 21
471.501888756
 31
0.0
  0
LINE
  5
93
330
1F
100
AcDbEntity
  8
0
  6
Continuous
 62
     7
370
    25
100
AcDbLine
 10
252.8137310366
 20
613.966545554
 30
0.0
 11
240.0079448919
 21
549.2200616667
 31
0.0
  0
LINE
  5
94
330
1F
100
AcDbEntity
  8
0
  6
Continuous
 62
     7
370
    25
100
AcDbLine
 10
234.9296715248
 20
471.501888756
 30
0.0
 11
230.7075934722
 21
500.2084124944
 31
0.0
  0
LINE
  5
95
330
1F
100
AcDbEntity
  8
0
  6
Continuous
 62
     7
370
    25
100
AcDbLine
 10
230.7075934722
 20
500.2084124944
 30
0.0
 11
231.1709983695
 21
549.3309560717
 31
0.0
  0
LINE
  5
96
330
1F
100
AcDbEntity
  8
0
  6
Continuous
 62
     7
370
    25
100
AcDbLine
 10
231.1709983695
 20
549.3309560717
 30
0.0
 11
219.2386982101
 21
614.0431441073
 31
0.0
  0
LINE
  5
97
330
1F
100
AcDbEntity
  8
0
  6
Continuous
 62
     7
370
    25
100
AcDbLine
 10
241.8079932883
 20
549.5268626299
 30
0.0
 11
240.0079448919
 21
549.2200616667
 31
0.0
  0
LINE
  5
98
330
1F
100
AcDbEntity
  8
0
  6
Continuous
 62
     7
370
    25
100
AcDbLine
 10
254.5184246798
 20
613.7912296895
 30
0.0
 11
241.8079932883
 21
549.5268626299
 31
0.0
  0
LINE
  5
99
330
1F
100
AcDbEntity
  8
0
  6
Continuous
 62
     7
370
    25
100
AcDbLine
 10
229.4362681569
 20
549.6821147968
 30
0.0
 11
231.1709983695
 21
549.3309560717
 31
0.0
  0
LINE
  5
9A
330
1F
100
AcDbEntity
  8
0
  6
Continuous
 62
     7
370
    25
100
AcDbLine
 10
229.4362681569
 20
549.6821147968
 30
0.0
 11
217.5434022725
 21
614.1804397733
 31
0.0
  0
LINE
  5
9B
330
1F
100
AcDbEntity
  8
0
  6
Continuous
 62
     7
370
    25
100
AcDbLine
 10
241.963172924
 20
550.3114560686
 30
0.0
 11
241.5078838506
 21
502.0492182735
 31
0.0
  0
LINE
  5
9C
330
1F
100
AcDbEntity
  8
0
  6
Continuous
 62
     7
370
    25
100
AcDbLine
 10
241.5078838506
 20
502.0492182735
 30
0.0
 11
241.3507225347
 21
501.0545597956
 31
0.0
  0
LINE
  5
9D
330
1F
100
AcDbEntity
  8
0
  6
Continuous
 62
     7
370
    25
100
AcDbLine
 10
241.344588391
 20
500.4043190526
 30
0.0
 11
239.5445399946
 21
500.0975180895
 31
0.0
  0
LINE
  5
9E
330
1F
100
AcDbEntity
  8
0
  6
Continuous
 62
     7
370
    25
100
AcDbLine
 10
241.8079932883
 20
549.5268626299
 30
0.0
 11
241.344588391
 21
500.4043190526
 31
0.0
  0
LINE
  5
9F
330
1F
100
AcDbEntity
  8
0
  6
Continuous
 62
     7
370
    25
100
AcDbLine
 10
228.9728632596
 20
500.5595712196
 30
0.0
 11
230.7075934722
 21
500.2084124944
 31
0.0
  0
LINE
  5
A0
330
1F
100
AcDbEntity
  8
0
  6
Continuous
 62
     7
370
    25
100
AcDbLine
 10
228.9728632596
 20
500.5595712196
 30
0.0
 11
229.4362681569
 21
549.6821147968
 31
0.0
  0
LINE
  5
A1
330
1F
100
AcDbEntity
  8
0
  6
Continuous
 62
     7
370
    25
100
AcDbLine
 10
236.7297199212
 20
471.8086897192
 30
0.0
 11
234.9296715248
 21
471.501888756
 31
0.0
  0
LINE
  5
A2
330
1F
100
AcDbEntity
  8
0
  6
Continuous
 62
     7
370
    25
100
AcDbLine
 10
241.344588391
 20
500.4043190526
 30
0.0
 11
236.7297199212
 21
471.8086897192
 31
0.0
  0
LINE
  5
A3
330
1F
100
AcDbEntity
  8
0
  6
Continuous
 62
     7
370
    25
100
AcDbLine
 10
233.1949413123
 20
471.8530474812
 30
0.0
 11
234.9296715248
 21
471.501888756
 31
0.0
  0
LINE
  5
A4
330
1F
100
AcDbEntity
  8
0
  6
Continuous
 62
     7
370
    25
100
AcDbLine
 10
233.1949413123
 20
471.8530474812
 30
0.0
 11
228.9728632596
 21
500.5595712196
 31
0.0
  0
LWPOLYLINE
  5
A5
330
1F
100
AcDbEntity
  8
0
  6
Continuous
 62
     7
370
    25
100
AcDbPolyline
 90
       38
 70
   128
 43
0.0
 10
304.4664268003
 20
631.1276267551
 10
303.5294870026
 20
630.579193843
 10
301.7649941214
 20
629.7249484414
 10
299.6753815684
 20
628.8990203935
 10
297.2710596881
 20
628.1055244312
 10
294.5640066912
 20
627.3484137115
 10
291.5677089796
 20
626.6314601219
 10
288.2970939578
 20
625.9582354891
 10
284.7684556653
 20
625.3320937843
 10
280.9993736005
 20
624.7561544141
 10
277.0086251408
 20
624.2332866795
 10
272.8160919941
 20
623.7660954811
 10
268.4426611498
 20
623.356908342
 10
263.9101208203
 20
623.007763812
 10
259.2410518936
 20
622.7204013116
 10
254.4587154361
 20
622.4962524662
 10
249.5869368076
 20
622.3364339742
 10
244.6499869642
 20
622.2417420432
 10
239.6724615415
 20
622.2126484237
 10
234.679158321
 20
622.2492980587
 10
229.6949536879
 20
622.3515083614
 10
224.7446786993
 20
622.5187701253
 10
219.8529953759
 20
622.7502500607
 10
215.0442738381
 20
623.0447949462
 10
210.3424708947
 20
623.4009373741
 10
205.7710106915
 20
623.8169030606
 10
201.3526680132
 20
624.2906196856
 10
197.1094548207
 20
624.8197272167
 10
193.0625105889
 20
625.4015896668
 10
189.2319969903
 20
626.0333082265
 10
185.6369974509
 20
626.7117357057
 10
182.2954220776
 20
627.4334922128
 10
179.2239184309
 20
628.1949819932
 10
176.4377885873
 20
628.992411343
 10
173.9509129058
 20
629.8218075095
 10
171.7756808757
 20
630.6790384825
 10
169.9229293937
 20
631.5598335806
 10
168.4758365633
 20
632.4105144257
  0
ELLIPSE
  5
A6
330
1F
100
AcDbEntity
  8
0
  6
Continuous
 62
     7
370
    25
100
AcDbEllipse
 10
236.5610775124
 20
641.3036439416
 30
0.0
 11
51.07073209108713
 21
230.6467130985061
 31
0.0
210
0.0
220
0.0
230
1.0
 40
0.0452769817
 41
1.661721910073378
 42
1.699421899408047
  0
LWPOLYLINE
  5
A7
330
1F
100
AcDbEntity
  8
0
  6
Continuous
 62
     7
370
    25
100
AcDbPolyline
 90
       11
 70
   128
 43
0.0
 10
219.6534550397
 20
614.0115421592
 10
215.5454716143
 20
614.3596024157
 10
211.6013492835
 20
614.7727484623
 10
207.8521006832
 20
615.2477317316
 10
204.3272061572
 20
615.7808174297
 10
201.0543819532
 20
616.3678139036
 10
198.0593622896
 20
617.0041055997
 10
195.3656970077
 20
617.6846893559
 10
192.9945663991
 20
618.4042137419
 10
190.9646146649
 20
619.157021137
 10
189.291803317
 20
619.9371922163
  0
ELLIPSE
  5
A8
330
1F
100
AcDbEntity
  8
0
  6
Continuous
 62
     7
370
    25
100
AcDbEllipse
 10
236.5610775124
 20
641.3036439416
 30
0.0
 11
-10.80570685944372
 21
242.4446945157041
 31
0.0
210
0.0
220
0.0
230
1.0
 40
0.1991297006
 41
1.624728324458785
 42
1.650161566978631
  0
ARC
  5
A9
330
1F
100
AcDbEntity
  8
0
  6
Continuous
 62
     7
370
    25
100
AcDbCircle
 10
243.8727130605
 20
788.1515276879
 30
0.0
 40
174.6892014051848
100
AcDbArc
 50
273.0535774498
 51
278.2111754146
  0
ELLIPSE
  5
AA
330
1F
100
AcDbEntity
  8
0
  6
Continuous
 62
     7
370
    25
100
AcDbEllipse
 10
236.5610775124
 20
641.3036439416
 30
0.0
 11
-46.66138691052269
 21
231.5243729944011
 31
0.0
210
0.0
220
0.0
230
1.0
 40
0.046272915
 41
4.583603757046997
 42
4.621285763300575
  0
ELLIPSE
  5
AB
330
1F
100
AcDbEntity
  8
0
  6
Continuous
 62
     7
370
    25
100
AcDbEllipse
 10
236.5610775124
 20
641.3036439416
 30
0.0
 11
15.14469321091719
 21
242.2115560310435
 31
0.0
210
0.0
220
0.0
230
1.0
 40
0.1993785641
 41
4.633024630553718
 42
4.658332263554362
  0
ARC
  5
AC
330
1F
100
AcDbEntity
  8
0
  6
Continuous
 62
     7
370
    25
100
AcDbCircle
 10
267.7823892393
 20
653.3502427759
 30
0.0
 40
37.69291688137201
100
AcDbArc
 50
280.2275517854
 51
294.6450598662
  0
LINE
  5
AD
330
1F
100
AcDbEntity
  8
0
  6
Continuous
 62
     7
370
    25
100
AcDbLine
 10
274.4750677735
 20
616.256253545
 30
0.0
 11
274.5445785081
 21
623.6246350816
 31
0.0
  0
SPLINE
  5
AE
330
1F
100
AcDbEntity
  8
0
  6
Continuous
 62
     7
370
    25
100
AcDbSpline
210
0.0
220
0.0
230
1.0
 70
     8
 71
     3
 72
     9
 73
     5
 74
     0
 42
0.00000001
 43
0.00000001
 40
0.0
 40
0.0
 40
0.0
 40
0.0
 40
0.4812023285665246
 40
1.0
 40
1.0
 40
1.0
 40
1.0
 10
269.0008195252385
 20
623.4416999066915
 30
0.0
 10
268.9663853095421
 20
623.3112690191847
 30
0.0
 10
268.8948266040827
 20
623.0402169486445
 30
0.0
 10
268.8927563034985
 20
622.764562046402
 30
0.0
 10
268.8916822363763
 20
622.6215529249994
 30
0.0
  0
LINE
  5
AF
330
1F
100
AcDbEntity
  8
0
  6
Continuous
 62
     7
370
    25
100
AcDbLine
 10
268.8916822364
 20
622.621552925
 30
0.0
 11
268.8221715018
 21
615.2531713884
 31
0.0
  0
LINE
  5
B0
330
1F
100
AcDbEntity
  8
0
  6
Continuous
 62
     7
370
    25
100
AcDbLine
 10
220.4306264566
 20
614.5462609284
 30
0.0
 11
219.6534550397
 21
614.0115421592
 31
0.0
  0
ELLIPSE
  5
B1
330
1F
100
AcDbEntity
  8
0
  6
Continuous
 62
     7
370
    25
100
AcDbEllipse
 10
236.5610775124
 20
641.3036439416
 30
0.0
 11
48.0064881656219
 21
216.8079103125956
 31
0.0
210
0.0
220
0.0
230
1.0
 40
0.0452769817
 41
1.667044887704996
 42
1.70454577762704
  0
LINE
  5
B2
330
1F
100
AcDbEntity
  8
0
  6
Continuous
 62
     7
370
    25
100
AcDbLine
 10
253.178363951
 20
613.7103572347
 30
0.0
 11
252.3973746578
 21
614.259074387
 31
0.0
  0
ELLIPSE
  5
B3
330
1F
100
AcDbEntity
  8
0
  6
Continuous
 62
     7
370
    25
100
AcDbEllipse
 10
236.5610775124
 20
641.3036439416
 30
0.0
 11
-43.86170369589129
 21
217.6329106147369
 31
0.0
210
0.0
220
0.0
230
1.0
 40
0.046272915
 41
4.578479878828004
 42
4.615959880801089
  0
LINE
  5
B4
330
1F
100
AcDbEntity
  8
0
  6
Continuous
 62
     7
370
    25
100
AcDbLine
 10
221.4087656863
 20
615.2192519748
 30
0.0
 11
221.4468903249
 21
619.2605973106
 31
0.0
  0
LINE
  5
B5
330
1F
100
AcDbEntity
  8
0
  6
Continuous
 62
     7
370
    25
100
AcDbLine
 10
221.4087656863
 20
615.2192519748
 30
0.0
 11
220.4306264566
 21
614.5462609284
 31
0.0
  0
LINE
  5
B6
330
1F
100
AcDbEntity
  8
0
  6
Continuous
 62
     7
370
    25
100
AcDbLine
 10
251.3622698393
 20
614.9863311794
 30
0.0
 11
251.4033421118
 21
619.3401360349
 31
0.0
  0
LINE
  5
B7
330
1F
100
AcDbEntity
  8
0
  6
Continuous
 62
     7
370
    25
100
AcDbLine
 10
252.3973746578
 20
614.259074387
 30
0.0
 11
251.3622698393
 21
614.9863311794
 31
0.0
  0
LINE
  5
B8
330
1F
100
AcDbEntity
  8
0
  6
Continuous
 62
     7
370
    25
100
AcDbLine
 10
274.5445785081
 20
623.6246350816
 30
0.0
 11
274.5164586011
 21
623.6301232128
 31
0.0
  0
LINE
  5
B9
330
1F
100
AcDbEntity
  8
0
  6
Continuous
 62
     7
370
    25
100
AcDbLine
 10
274.5164586011
 20
623.6301232128
 30
0.0
 11
274.5102375622
 21
623.9455036681
 31
0.0
  0
LINE
  5
BA
330
1F
100
AcDbEntity
  8
0
  6
Continuous
 62
     7
370
    25
100
AcDbLine
 10
270.1001333888
 20
622.846465278
 30
0.0
 11
270.0306226542
 21
615.4780837414
 31
0.0
  0
LINE
  5
BB
330
1F
100
AcDbEntity
  8
0
  6
Continuous
 62
     7
370
    25
100
AcDbLine
 10
274.4469478665
 20
616.2617416762
 30
0.0
 11
274.5164586011
 21
623.6301232128
 31
0.0
  0
LINE
  5
BC
330
1F
100
AcDbEntity
  8
0
  6
Continuous
 62
     7
370
    25
100
AcDbLine
 10
273.210376807
 20
616.0423174545
 30
0.0
 11
274.4469478665
 21
616.2617416762
 31
0.0
  0
LINE
  5
BD
330
1F
100
AcDbEntity
  8
0
  6
Continuous
 62
     7
370
    25
100
AcDbLine
 10
273.210376807
 20
616.0423174545
 30
0.0
 11
273.2798875416
 21
623.4106989911
 31
0.0
  0
LINE
  5
BE
330
1F
100
AcDbEntity
  8
0
  6
Continuous
 62
     7
370
    25
100
AcDbLine
 10
273.2798875416
 20
623.4106989911
 30
0.0
 11
273.2567120068
 21
623.8115811868
 31
0.0
  0
LINE
  5
BF
330
1F
100
AcDbEntity
  8
0
  6
Continuous
 62
     7
370
    25
100
AcDbLine
 10
270.1768393075
 20
623.5102248492
 30
0.0
 11
270.1001333888
 21
622.846465278
 31
0.0
  0
LINE
  5
C0
330
1F
100
AcDbEntity
  8
0
  6
Continuous
 62
     7
370
    25
100
AcDbLine
 10
268.8222705123
 20
615.2636668453
 30
0.0
 11
270.0306226542
 21
615.4780837414
 31
0.0
  0
LINE
  5
C1
330
1F
100
AcDbEntity
  8
0
  6
Continuous
 62
     7
370
    25
100
AcDbLine
 10
273.210376807
 20
616.0423174545
 30
0.0
 11
270.6986080905
 21
616.5325365827
 31
0.0
  0
LINE
  5
C2
330
1F
100
AcDbEntity
  8
0
  6
Continuous
 62
     7
370
    25
100
AcDbLine
 10
270.7649483535
 20
623.564837007
 30
0.0
 11
270.6986080905
 21
616.5325365827
 31
0.0
  0
LINE
  5
C3
330
1F
100
AcDbEntity
  8
0
  6
Continuous
 62
     7
370
    25
100
AcDbLine
 10
274.4750677735
 20
616.256253545
 30
0.0
 11
274.4469478665
 21
616.2617416762
 31
0.0
  0
LINE
  5
C4
330
1F
100
AcDbEntity
  8
0
  6
Continuous
 62
     7
370
    25
100
AcDbLine
 10
270.6020341063
 20
620.8206337704
 30
0.0
 11
270.7388086766
 21
620.7939396285
 31
0.0
  0
LINE
  5
C5
330
1F
100
AcDbEntity
  8
0
  6
Continuous
 62
     7
370
    25
100
AcDbLine
 10
270.6020341063
 20
620.8206337704
 30
0.0
 11
270.6278006769
 21
623.5519805799
 31
0.0
  0
LINE
  5
C6
330
1F
100
AcDbEntity
  8
0
  6
Continuous
 62
     7
370
    25
100
AcDbLine
 10
270.7338894043
 20
620.2724795238
 30
0.0
 11
270.6020341063
 21
620.8206337704
 31
0.0
  0
LINE
  5
C7
330
1F
100
AcDbEntity
  8
0
  6
Continuous
 62
     7
370
    25
100
AcDbLine
 10
273.2798875416
 20
623.4106989911
 30
0.0
 11
271.9201084617
 21
623.6760855733
 31
0.0
  0
LINE
  5
C8
330
1F
100
AcDbEntity
  8
0
  6
Continuous
 62
     7
370
    25
100
AcDbLine
 10
736.5919245591
 20
484.3357874877
 30
0.0
 11
737.8105871291
 21
613.5182919296
 31
0.0
  0
LINE
  5
C9
330
1F
100
AcDbEntity
  8
0
  6
Continuous
 62
     7
370
    25
100
AcDbLine
 10
729.8175810133
 20
614.2974019267
 30
0.0
 11
728.5922805103
 21
484.4112533321
 31
0.0
  0
LINE
  5
CA
330
1F
100
AcDbEntity
  8
0
  6
Continuous
 62
     7
370
    25
100
AcDbLine
 10
728.6096299099
 20
484.3404410679
 30
0.0
 11
732.5179577511
 21
476.5139134376
 31
0.0
  0
LINE
  5
CB
330
1F
100
AcDbEntity
  8
0
  6
Continuous
 62
     7
370
    25
100
AcDbLine
 10
732.5179577511
 20
476.5139134376
 30
0.0
 11
736.5732423299
 21
484.2653151333
 31
0.0
  0
LINE
  5
CC
330
1F
100
AcDbEntity
  8
0
  6
Continuous
 62
     7
370
    25
100
AcDbLine
 10
757.3484747921
 20
616.0064946643
 30
0.0
 11
770.1701007891
 21
618.2816371112
 31
0.0
  0
LINE
  5
CD
330
1F
100
AcDbEntity
  8
0
  6
Continuous
 62
     7
370
    25
100
AcDbLine
 10
779.0443535701
 20
476.0503937716
 30
0.0
 11
780.3440309596
 21
613.8207530677
 31
0.0
  0
LINE
  5
CE
330
1F
100
AcDbEntity
  8
0
  6
Continuous
 62
     7
370
    25
100
AcDbLine
 10
772.337748978
 20
613.1925747593
 30
0.0
 11
771.0447095214
 21
476.125859616
 31
0.0
  0
LINE
  5
CF
330
1F
100
AcDbEntity
  8
0
  6
Continuous
 62
     7
370
    25
100
AcDbLine
 10
771.0620589209
 20
476.0550473518
 30
0.0
 11
774.9703867622
 21
468.2285197215
 31
0.0
  0
LINE
  5
D0
330
1F
100
AcDbEntity
  8
0
  6
Continuous
 62
     7
370
    25
100
AcDbLine
 10
774.9703867622
 20
468.2285197215
 30
0.0
 11
779.0256713409
 21
475.9799214173
 31
0.0
  0
LINE
  5
D1
330
1F
100
AcDbEntity
  8
0
  6
Continuous
 62
     7
370
    25
100
AcDbLine
 10
788.8160607071
 20
616.3996641026
 30
0.0
 11
789.475202181
 21
616.5166259253
 31
0.0
  0
ARC
  5
D2
330
1F
100
AcDbEntity
  8
0
  6
Continuous
 62
     7
370
    25
100
AcDbCircle
 10
756.232199221
 20
736.1107965704
 30
0.0
 40
125.0000000000001
100
AcDbArc
 50
302.4149438941
 51
359.4595076863
  0
ARC
  5
D3
330
1F
100
AcDbEntity
  8
0
  6
Continuous
 62
     7
370
    25
100
AcDbCircle
 10
756.232199221
 20
736.1107965704
 30
0.0
 40
125.0
100
AcDbArc
 50
359.4595076863
 51
236.5040714785
  0
LWPOLYLINE
  5
D4
330
1F
100
AcDbEntity
  8
0
  6
Continuous
 62
     7
370
    25
100
AcDbPolyline
 90
       13
 70
   128
 43
0.0
 10
728.5922805103
 20
484.4112533321
 10
728.5951704471
 20
484.3815647122
 10
728.8175995153
 20
484.1613073528
 10
729.3754097409
 20
483.9599060548
 10
730.2190372375
 20
483.7952562074
 10
731.2735219998
 20
483.681987672
 10
732.4451684291
 20
483.6301648552
 10
733.6298705985
 20
483.6443924415
 10
734.7223625213
 20
483.7234062476
 10
735.6255714957
 20
483.86018555
 10
736.2592434408
 20
484.0425769074
 10
736.5670738234
 20
484.2543740473
 10
736.5919245591
 20
484.3357874877
  0
LWPOLYLINE
  5
D5
330
1F
100
AcDbEntity
  8
0
  6
Continuous
 62
     7
370
    25
100
AcDbPolyline
 90
        3
 70
   128
 43
0.0
 10
753.8194473525
 20
620.4973294586
 10
753.9561107858
 20
621.6311195841
 10
753.9738865856
 20
621.7020307669
  0
LWPOLYLINE
  5
D6
330
1F
100
AcDbEntity
  8
0
  6
Continuous
 62
     7
370
    25
100
AcDbPolyline
 90
       15
 70
   128
 43
0.0
 10
759.0219651357
 20
621.6723037069
 10
759.2155821883
 20
621.1523889216
 10
759.4536860035
 20
619.9844865138
 10
759.4426352969
 20
618.8130728794
 10
759.1834119724
 20
617.7422332605
 10
758.6990491598
 20
616.8671164566
 10
758.0325846206
 20
616.265480436
 10
757.2432366539
 20
615.9907831996
 10
756.4011422906
 20
616.0674328021
 10
755.5811253102
 20
616.48861859
 10
754.8560478201
 20
617.2169163578
 10
754.2903361372
 20
618.1876136527
 10
753.9342562271
 20
619.3144597602
 10
753.8194473525
 20
620.4973294586
 10
753.8194473525
 20
620.4973294586
  0
LWPOLYLINE
  5
D7
330
1F
100
AcDbEntity
  8
0
  6
Continuous
 62
     7
370
    25
100
AcDbPolyline
 90
       13
 70
   128
 43
0.0
 10
771.0447095214
 20
476.125859616
 10
771.0475994581
 20
476.0961709961
 10
771.2700285263
 20
475.8759136367
 10
771.827838752
 20
475.6745123387
 10
772.6714662486
 20
475.5098624913
 10
773.7259510109
 20
475.3965939559
 10
774.8975974402
 20
475.3447711391
 10
776.0822996096
 20
475.3589987255
 10
777.1747915323
 20
475.4380125315
 10
778.0780005068
 20
475.5747918339
 10
778.7116724519
 20
475.7571831913
 10
779.0195028345
 20
475.9689803312
 10
779.0443535701
 20
476.0503937716
  0
LINE
  5
D8
330
1F
100
AcDbEntity
  8
0
  6
Continuous
 62
     7
370
    25
100
AcDbLine
 10
746.9498457317
 20
621.8553807832
 30
0.0
 11
753.8196378142
 21
620.5146110445
 31
0.0
  0
LINE
  5
D9
330
1F
100
AcDbEntity
  8
0
  6
Continuous
 62
     7
370
    25
100
AcDbLine
 10
767.5987364897
 20
617.8253595638
 30
0.0
 11
770.1610787567
 21
617.3252700515
 31
0.0
  0
LWPOLYLINE
  5
DA
330
1F
100
AcDbEntity
  8
0
  6
Continuous
 62
     7
370
    25
100
AcDbPolyline
 90
       38
 70
   128
 43
0.0
 10
823.2380735325
 20
630.5872787758
 10
822.3011337347
 20
630.0388458636
 10
820.5366408536
 20
629.1846004621
 10
818.4470283005
 20
628.3586724142
 10
816.0427064203
 20
627.5651764519
 10
813.3356534234
 20
626.8080657321
 10
810.3393557118
 20
626.0911121425
 10
807.06874069
 20
625.4178875097
 10
803.5401023975
 20
624.791745805
 10
799.7710203327
 20
624.2158064348
 10
795.7802718729
 20
623.6929387001
 10
791.5877387263
 20
623.2257475017
 10
787.214307882
 20
622.8165603627
 10
782.6817675525
 20
622.4674158327
 10
778.0126986258
 20
622.1800533322
 10
773.2303621683
 20
621.9559044869
 10
768.3585835398
 20
621.7960859949
 10
763.4216336964
 20
621.7013940639
 10
758.4441082737
 20
621.6723004444
 10
753.4508050531
 20
621.7089500793
 10
748.4666004201
 20
621.811160382
 10
743.5163254314
 20
621.9784221459
 10
738.6246421081
 20
622.2099020814
 10
733.8159205703
 20
622.5044469669
 10
729.1141176269
 20
622.8605893947
 10
724.5426574237
 20
623.2765550812
 10
720.1243147453
 20
623.7502717062
 10
715.8811015529
 20
624.2793792373
 10
711.8341573211
 20
624.8612416875
 10
708.0036437224
 20
625.4929602472
 10
704.408644183
 20
626.1713877264
 10
701.0670688098
 20
626.8931442334
 10
697.995565163
 20
627.6546340138
 10
695.2094353195
 20
628.4520633637
 10
692.7225596379
 20
629.2814595301
 10
690.5473276079
 20
630.1386905032
 10
688.6945761258
 20
631.0194856013
 10
687.2474832955
 20
631.8701664463
  0
ELLIPSE
  5
DB
330
1F
100
AcDbEntity
  8
0
  6
Continuous
 62
     7
370
    25
100
AcDbEllipse
 10
755.3327242446
 20
640.7632959623
 30
0.0
 11
51.07073209108727
 21
230.6467130985062
 31
0.0
210
0.0
220
0.0
230
1.0
 40
0.0452769817
 41
1.661721910073378
 42
1.699421899408046
  0
LWPOLYLINE
  5
DC
330
1F
100
AcDbEntity
  8
0
  6
Continuous
 62
     7
370
    25
100
AcDbPolyline
 90
       11
 70
   128
 43
0.0
 10
738.4251017719
 20
613.4711941798
 10
734.3171183465
 20
613.8192544363
 10
730.3729960156
 20
614.232400483
 10
726.6237474153
 20
614.7073837522
 10
723.0988528894
 20
615.2404694504
 10
719.8260286854
 20
615.8274659243
 10
716.8310090218
 20
616.4637576203
 10
714.1373437399
 20
617.1443413766
 10
711.7662131312
 20
617.8638657626
 10
709.7362613971
 20
618.6166731577
 10
708.0634500491
 20
619.3968442369
  0
ELLIPSE
  5
DD
330
1F
100
AcDbEntity
  8
0
  6
Continuous
 62
     7
370
    25
100
AcDbEllipse
 10
755.3327242446
 20
640.7632959623
 30
0.0
 11
-10.80570685944372
 21
242.4446945157042
 31
0.0
210
0.0
220
0.0
230
1.0
 40
0.1991297006
 41
1.624728324458784
 42
1.650161566978631
  0
ARC
  5
DE
330
1F
100
AcDbEntity
  8
0
  6
Continuous
 62
     7
370
    25
100
AcDbCircle
 10
762.6443597927
 20
787.6111797086
 30
0.0
 40
174.6892014051965
100
AcDbArc
 50
273.0535774498
 51
278.2111754146
  0
ELLIPSE
  5
DF
330
1F
100
AcDbEntity
  8
0
  6
Continuous
 62
     7
370
    25
100
AcDbEllipse
 10
755.3327242446
 20
640.7632959623
 30
0.0
 11
-46.66138691052254
 21
231.5243729944009
 31
0.0
210
0.0
220
0.0
230
1.0
 40
0.046272915
 41
4.583603757046998
 42
4.621285763300576
  0
ELLIPSE
  5
E0
330
1F
100
AcDbEntity
  8
0
  6
Continuous
 62
     7
370
    25
100
AcDbEllipse
 10
755.3327242446
 20
640.7632959623
 30
0.0
 11
15.14469321091736
 21
242.2115560310434
 31
0.0
210
0.0
220
0.0
230
1.0
 40
0.1993785641
 41
4.633024630553718
 42
4.658332263554362
  0
ARC
  5
E1
330
1F
100
AcDbEntity
  8
0
  6
Continuous
 62
     7
370
    25
100
AcDbCircle
 10
786.5540359715
 20
652.8098947966
 30
0.0
 40
37.692916881374
100
AcDbArc
 50
280.2275517854
 51
294.6450598662
  0
LINE
  5
E2
330
1F
100
AcDbEntity
  8
0
  6
Continuous
 62
     7
370
    25
100
AcDbLine
 10
793.2467145057
 20
615.7159055657
 30
0.0
 11
793.3162252403
 21
623.0842871022
 31
0.0
  0
SPLINE
  5
E3
330
1F
100
AcDbEntity
  8
0
  6
Continuous
 62
     7
370
    25
100
AcDbSpline
210
0.0
220
0.0
230
1.0
 70
     8
 71
     3
 72
     9
 73
     5
 74
     0
 42
0.00000001
 43
0.00000001
 40
0.0
 40
0.0
 40
0.0
 40
0.0
 40
0.4812023285665246
 40
1.0
 40
1.0
 40
1.0
 40
1.0
 10
787.7724662574143
 20
622.9013519273419
 30
0.0
 10
787.7380320417179
 20
622.7709210398351
 30
0.0
 10
787.6664733362585
 20
622.4998689692949
 30
0.0
 10
787.6644030356742
 20
622.2242140670525
 30
0.0
 10
787.6633289685522
 20
622.0812049456498
 30
0.0
  0
LINE
  5
E4
330
1F
100
AcDbEntity
  8
0
  6
Continuous
 62
     7
370
    25
100
AcDbLine
 10
787.6633289686
 20
622.0812049456
 30
0.0
 11
787.593818234
 21
614.7128234091
 31
0.0
  0
LINE
  5
E5
330
1F
100
AcDbEntity
  8
0
  6
Continuous
 62
     7
370
    25
100
AcDbLine
 10
739.2022731888
 20
614.0059129491
 30
0.0
 11
738.4251017719
 21
613.4711941798
 31
0.0
  0
ELLIPSE
  5
E6
330
1F
100
AcDbEntity
  8
0
  6
Continuous
 62
     7
370
    25
100
AcDbEllipse
 10
755.3327242446
 20
640.7632959623
 30
0.0
 11
48.00648816562205
 21
216.8079103125957
 31
0.0
210
0.0
220
0.0
230
1.0
 40
0.0452769817
 41
1.667044887704995
 42
1.704545777627039
  0
LINE
  5
E7
330
1F
100
AcDbEntity
  8
0
  6
Continuous
 62
     7
370
    25
100
AcDbLine
 10
771.9500106832
 20
613.1700092554
 30
0.0
 11
771.16902139
 21
613.7187264076
 31
0.0
  0
ELLIPSE
  5
E8
330
1F
100
AcDbEntity
  8
0
  6
Continuous
 62
     7
370
    25
100
AcDbEllipse
 10
755.3327242446
 20
640.7632959623
 30
0.0
 11
-43.86170369589116
 21
217.6329106147369
 31
0.0
210
0.0
220
0.0
230
1.0
 40
0.046272915
 41
4.578479878828004
 42
4.615959880801089
  0
LINE
  5
E9
330
1F
100
AcDbEntity
  8
0
  6
Continuous
 62
     7
370
    25
100
AcDbLine
 10
740.1804124184
 20
614.6789039954
 30
0.0
 11
740.218537057
 21
618.7202493313
 31
0.0
  0
LINE
  5
EA
330
1F
100
AcDbEntity
  8
0
  6
Continuous
 62
     7
370
    25
100
AcDbLine
 10
740.1804124184
 20
614.6789039954
 30
0.0
 11
739.2022731888
 21
614.0059129491
 31
0.0
  0
LINE
  5
EB
330
1F
100
AcDbEntity
  8
0
  6
Continuous
 62
     7
370
    25
100
AcDbLine
 10
770.1339165715
 20
614.4459832
 30
0.0
 11
770.1749888439
 21
618.7997880556
 31
0.0
  0
LINE
  5
EC
330
1F
100
AcDbEntity
  8
0
  6
Continuous
 62
     7
370
    25
100
AcDbLine
 10
771.16902139
 20
613.7187264076
 30
0.0
 11
770.1339165715
 21
614.4459832
 31
0.0
  0
LINE
  5
ED
330
1F
100
AcDbEntity
  8
0
  6
Continuous
 62
     7
370
    25
100
AcDbLine
 10
793.3162252403
 20
623.0842871022
 30
0.0
 11
793.2881053332
 21
623.0897752335
 31
0.0
  0
LINE
  5
EE
330
1F
100
AcDbEntity
  8
0
  6
Continuous
 62
     7
370
    25
100
AcDbLine
 10
793.2881053332
 20
623.0897752335
 30
0.0
 11
793.2818842943
 21
623.4051556887
 31
0.0
  0
LINE
  5
EF
330
1F
100
AcDbEntity
  8
0
  6
Continuous
 62
     7
370
    25
100
AcDbLine
 10
788.871780121
 20
622.3061172986
 30
0.0
 11
788.8022693864
 21
614.937735762
 31
0.0
  0
LINE
  5
F0
330
1F
100
AcDbEntity
  8
0
  6
Continuous
 62
     7
370
    25
100
AcDbLine
 10
793.2185945986
 20
615.7213936969
 30
0.0
 11
793.2881053332
 21
623.0897752335
 31
0.0
  0
LINE
  5
F1
330
1F
100
AcDbEntity
  8
0
  6
Continuous
 62
     7
370
    25
100
AcDbLine
 10
791.9820235392
 20
615.5019694751
 30
0.0
 11
793.2185945986
 21
615.7213936969
 31
0.0
  0
LINE
  5
F2
330
1F
100
AcDbEntity
  8
0
  6
Continuous
 62
     7
370
    25
100
AcDbLine
 10
791.9820235392
 20
615.5019694751
 30
0.0
 11
792.0515342738
 21
622.8703510117
 31
0.0
  0
LINE
  5
F3
330
1F
100
AcDbEntity
  8
0
  6
Continuous
 62
     7
370
    25
100
AcDbLine
 10
792.0515342738
 20
622.8703510117
 30
0.0
 11
792.028358739
 21
623.2712332075
 31
0.0
  0
LINE
  5
F4
330
1F
100
AcDbEntity
  8
0
  6
Continuous
 62
     7
370
    25
100
AcDbLine
 10
788.9484860396
 20
622.9698768699
 30
0.0
 11
788.871780121
 21
622.3061172986
 31
0.0
  0
LINE
  5
F5
330
1F
100
AcDbEntity
  8
0
  6
Continuous
 62
     7
370
    25
100
AcDbLine
 10
787.5939172444
 20
614.723318866
 30
0.0
 11
788.8022693864
 21
614.937735762
 31
0.0
  0
LINE
  5
F6
330
1F
100
AcDbEntity
  8
0
  6
Continuous
 62
     7
370
    25
100
AcDbLine
 10
791.9820235392
 20
615.5019694751
 30
0.0
 11
789.4702548227
 21
615.9921886033
 31
0.0
  0
LINE
  5
F7
330
1F
100
AcDbEntity
  8
0
  6
Continuous
 62
     7
370
    25
100
AcDbLine
 10
789.5365950856
 20
623.0244890277
 30
0.0
 11
789.4702548227
 21
615.9921886033
 31
0.0
  0
LINE
  5
F8
330
1F
100
AcDbEntity
  8
0
  6
Continuous
 62
     7
370
    25
100
AcDbLine
 10
793.2467145057
 20
615.7159055657
 30
0.0
 11
793.2185945986
 21
615.7213936969
 31
0.0
  0
LINE
  5
F9
330
1F
100
AcDbEntity
  8
0
  6
Continuous
 62
     7
370
    25
100
AcDbLine
 10
789.4894138329
 20
618.0231108407
 30
0.0
 11
788.8302723589
 21
617.906149018
 31
0.0
  0
LINE
  5
FA
330
1F
100
AcDbEntity
  8
0
  6
Continuous
 62
     7
370
    25
100
AcDbLine
 10
792.0515342738
 20
622.8703510117
 30
0.0
 11
790.6917551938
 21
623.135737594
 31
0.0
  0
ENDSEC
  0
SECTION
  2
OBJECTS
  0
DICTIONARY
  5
C
330
0
100
AcDbDictionary
281
     1
  3
ACAD_GROUP
350
D
  3
ACAD_LAYOUT
350
1A
  3
ACAD_MLINESTYLE
350
17
  3
ACAD_PLOTSETTINGS
350
19
  3
ACAD_PLOTSTYLENAME
350
E
  3
ACAD_SCALELIST
350
47
  3
DWGPROPS
350
FB
  0
DICTIONARY
  5
D
102
{ACAD_REACTORS
330
C
102
}
330
C
100
AcDbDictionary
281
     1
  0
DICTIONARY
  5
1A
102
{ACAD_REACTORS
330
C
102
}
330
C
100
AcDbDictionary
281
     1
  3
Layout1
350
1E
  3
Layout2
350
26
  3
Model
350
22
  0
DICTIONARY
  5
17
102
{ACAD_REACTORS
330
C
102
}
330
C
100
AcDbDictionary
281
     1
  3
Standard
350
18
  0
DICTIONARY
  5
19
102
{ACAD_REACTORS
330
C
102
}
330
C
100
AcDbDictionary
281
     1
  0
ACDBDICTIONARYWDFLT
  5
E
102
{ACAD_REACTORS
330
C
102
}
330
C
100
AcDbDictionary
281
     1
  3
Normal
350
F
100
AcDbDictionaryWithDefault
340
F
  0
DICTIONARY
  5
47
102
{ACAD_REACTORS
330
C
102
}
330
C
100
AcDbDictionary
281
     1
  3
A0
350
48
  3
A1
350
49
  3
A2
350
4A
  3
A3
350
4B
  3
A4
350
4C
  3
A5
350
4D
  3
A6
350
4E
  3
A7
350
4F
  3
A8
350
50
  3
A9
350
51
  3
B0
350
52
  3
B1
350
53
  3
B2
350
54
  3
B3
350
55
  3
B4
350
56
  3
B5
350
57
  3
B6
350
58
  0
XRECORD
  5
FB
102
{ACAD_REACTORS
330
C
102
}
330
C
100
AcDbXrecord
280
     1
  1
DWGPROPS COOKIE
  2

  3

  4

  6

  7

  8
9148
  9

300
=
301
=
302
=
303
=
304
=
305
=
306
=
307
=
308
=
309
=
 40
0.0
 41
2460115.260305961
 42
2460115.260306597
  1

 90
        0
  0
LAYOUT
  5
1E
102
{ACAD_REACTORS
330
1A
102
}
330
1A
100
AcDbPlotSettings
  1

  2
none_device
  4

  6

 40
0.0
 41
0.0
 42
0.0
 43
0.0
 44
0.0
 45
0.0
 46
0.0
 47
0.0
 48
0.0
 49
0.0
140
0.0
141
0.0
142
1.0
143
1.0
 70
   688
 72
     1
 73
     0
 74
     5
  7

 75
    16
147
1.0
148
0.0
149
0.0
100
AcDbLayout
  1
Layout1
 70
     1
 71
     1
 10
0.0
 20
0.0
 11
420.0
 21
297.0
 12
0.0
 22
0.0
 32
0.0
 14
1.0000000000E+20
 24
1.0000000000E+20
 34
1.0000000000E+20
 15
-1.0000000000E+20
 25
-1.0000000000E+20
 35
-1.0000000000E+20
146
0.0
 13
0.0
 23
0.0
 33
0.0
 16
1.0
 26
0.0
 36
0.0
 17
0.0
 27
1.0
 37
0.0
 76
     0
330
1B
  0
LAYOUT
  5
26
102
{ACAD_REACTORS
330
1A
102
}
330
1A
100
AcDbPlotSettings
  1

  2
none_device
  4

  6

 40
0.0
 41
0.0
 42
0.0
 43
0.0
 44
0.0
 45
0.0
 46
0.0
 47
0.0
 48
0.0
 49
0.0
140
0.0
141
0.0
142
1.0
143
1.0
 70
   688
 72
     1
 73
     0
 74
     5
  7

 75
    16
147
1.0
148
0.0
149
0.0
100
AcDbLayout
  1
Layout2
 70
     1
 71
     2
 10
0.0
 20
0.0
 11
0.0
 21
0.0
 12
0.0
 22
0.0
 32
0.0
 14
0.0
 24
0.0
 34
0.0
 15
0.0
 25
0.0
 35
0.0
146
0.0
 13
0.0
 23
0.0
 33
0.0
 16
1.0
 26
0.0
 36
0.0
 17
0.0
 27
1.0
 37
0.0
 76
     0
330
23
  0
LAYOUT
  5
22
102
{ACAD_REACTORS
330
1A
102
}
330
1A
100
AcDbPlotSettings
  1

  2
none_device
  4
Letter_(8.50_x_11.00_Inches)
  6

 40
6.35
 41
6.35
 42
6.35000508
 43
6.35000508
 44
215.9
 45
279.4
 46
0.0
 47
0.0
 48
0.0
 49
0.0
140
0.0
141
0.0
142
1.0
143
1.0
 70
  1712
 72
     1
 73
     0
 74
     0
  7

 75
     0
147
1.0
148
0.0
149
0.0
100
AcDbLayout
  1
Model
 70
     1
 71
     0
 10
0.0
 20
0.0
 11
1050.0
 21
1485.0
 12
0.0
 22
0.0
 32
0.0
 14
0.0
 24
0.0
 34
0.0
 15
1050.0
 25
1485.0
 35
0.0
146
0.0
 13
0.0
 23
0.0
 33
0.0
 16
1.0
 26
0.0
 36
0.0
 17
0.0
 27
1.0
 37
0.0
 76
     0
330
1F
331
29
  0
MLINESTYLE
  5
18
102
{ACAD_REACTORS
330
17
102
}
330
17
100
AcDbMlineStyle
  2
Standard
 70
     0
  3

 62
   256
 51
90.0
 52
90.0
 71
     2
 49
0.5
 62
   256
  6
BYLAYER
 49
-0.5
 62
   256
  6
BYLAYER
  0
ACDBPLACEHOLDER
  5
F
102
{ACAD_REACTORS
330
E
102
}
330
E
  0
SCALE
  5
48
102
{ACAD_REACTORS
330
47
102
}
330
47
100
AcDbScale
 70
     0
300
1:1
140
1.0
141
1.0
290
     1
  0
SCALE
  5
49
102
{ACAD_REACTORS
330
47
102
}
330
47
100
AcDbScale
 70
     0
300
1:2
140
1.0
141
2.0
290
     0
  0
SCALE
  5
4A
102
{ACAD_REACTORS
330
47
102
}
330
47
100
AcDbScale
 70
     0
300
1:4
140
1.0
141
4.0
290
     0
  0
SCALE
  5
4B
102
{ACAD_REACTORS
330
47
102
}
330
47
100
AcDbScale
 70
     0
300
1:5
140
1.0
141
5.0
290
     0
  0
SCALE
  5
4C
102
{ACAD_REACTORS
330
47
102
}
330
47
100
AcDbScale
 70
     0
300
1:8
140
1.0
141
8.0
290
     0
  0
SCALE
  5
4D
102
{ACAD_REACTORS
330
47
102
}
330
47
100
AcDbScale
 70
     0
300
1:10
140
1.0
141
10.0
290
     0
  0
SCALE
  5
4E
102
{ACAD_REACTORS
330
47
102
}
330
47
100
AcDbScale
 70
     0
300
1:16
140
1.0
141
16.0
290
     0
  0
SCALE
  5
4F
102
{ACAD_REACTORS
330
47
102
}
330
47
100
AcDbScale
 70
     0
300
1:20
140
1.0
141
20.0
290
     0
  0
SCALE
  5
50
102
{ACAD_REACTORS
330
47
102
}
330
47
100
AcDbScale
 70
     0
300
1:30
140
1.0
141
30.0
290
     0
  0
SCALE
  5
51
102
{ACAD_REACTORS
330
47
102
}
330
47
100
AcDbScale
 70
     0
300
1:40
140
1.0
141
40.0
290
     0
  0
SCALE
  5
52
102
{ACAD_REACTORS
330
47
102
}
330
47
100
AcDbScale
 70
     0
300
1:50
140
1.0
141
50.0
290
     0
  0
SCALE
  5
53
102
{ACAD_REACTORS
330
47
102
}
330
47
100
AcDbScale
 70
     0
300
1:100
140
1.0
141
100.0
290
     0
  0
SCALE
  5
54
102
{ACAD_REACTORS
330
47
102
}
330
47
100
AcDbScale
 70
     0
300
2:1
140
2.0
141
1.0
290
     0
  0
SCALE
  5
55
102
{ACAD_REACTORS
330
47
102
}
330
47
100
AcDbScale
 70
     0
300
4:1
140
4.0
141
1.0
290
     0
  0
SCALE
  5
56
102
{ACAD_REACTORS
330
47
102
}
330
47
100
AcDbScale
 70
     0
300
8:1
140
8.0
141
1.0
290
     0
  0
SCALE
  5
57
102
{ACAD_REACTORS
330
47
102
}
330
47
100
AcDbScale
 70
     0
300
10:1
140
10.0
141
1.0
290
     0
  0
SCALE
  5
58
102
{ACAD_REACTORS
330
47
102
}
330
47
100
AcDbScale
 70
     0
300
100:1
140
100.0
141
1.0
290
     0
  0
ENDSEC
  0
EOF
