  0
SECTION
  2
HEADER
  9
$ACADVER
  1
AC1015
  9
$ACADMAINTVER
 70
     6
  9
$DWGCODEPAGE
  3
DOS932
  9
$INSBASE
 10
0.0
 20
0.0
 30
0.0
  9
$EXTMIN
 10
0.0
 20
0.0
 30
0.0
  9
$EXTMAX
 10
1050.0
 20
1485.0
 30
0.0
  9
$LIMMIN
 10
0.0
 20
0.0
  9
$LIMMAX
 10
1050.0
 20
1485.0
  9
$ORTHOMODE
 70
     0
  9
$REGENMODE
 70
     1
  9
$FILLMODE
 70
     1
  9
$QTEXTMODE
 70
     0
  9
$MIRRTEXT
 70
     1
  9
$LTSCALE
 40
5.0
  9
$ATTMODE
 70
     1
  9
$TEXTSIZE
 40
17.5
  9
$TRACEWID
 40
1.0
  9
$TEXTSTYLE
  7
Standard
  9
$CLAYER
  8
0
  9
$CELTYPE
  6
ByLayer
  9
$CECOLOR
 62
   256
  9
$CELTSCALE
 40
1.0
  9
$DISPSILH
 70
     0
  9
$DIMSCALE
 40
1.0
  9
$DIMASZ
 40
7.5
  9
$DIMEXO
 40
5.0
  9
$DIMDLI
 40
3.75
  9
$DIMRND
 40
0.0
  9
$DIMDLE
 40
0.0
  9
$DIMEXE
 40
5.0
  9
$DIMTP
 40
0.0
  9
$DIMTM
 40
0.0
  9
$DIMTXT
 40
17.5
  9
$DIMCEN
 40
2.5
  9
$DIMTSZ
 40
0.0
  9
$DIMTOL
 70
     0
  9
$DIMLIM
 70
     0
  9
$DIMTIH
 70
     1
  9
$DIMTOH
 70
     1
  9
$DIMSE1
 70
     0
  9
$DIMSE2
 70
     0
  9
$DIMTAD
 70
     1
  9
$DIMZIN
 70
     0
  9
$DIMBLK
  1

  9
$DIMASO
 70
     1
  9
$DIMSHO
 70
     1
  9
$DIMPOST
  1

  9
$DIMAPOST
  1

  9
$DIMALT
 70
     0
  9
$DIMALTD
 70
     3
  9
$DIMALTF
 40
0.0393700787
  9
$DIMLFAC
 40
1.0
  9
$DIMTOFL
 70
     1
  9
$DIMTVP
 40
0.0
  9
$DIMTIX
 70
     0
  9
$DIMSOXD
 70
     0
  9
$DIMSAH
 70
     0
  9
$DIMBLK1
  1

  9
$DIMBLK2
  1

  9
$DIMSTYLE
  2
ISO-25
  9
$DIMCLRD
 70
     0
  9
$DIMCLRE
 70
     0
  9
$DIMCLRT
 70
     0
  9
$DIMTFAC
 40
1.0
  9
$DIMGAP
 40
7.5
  9
$DIMJUST
 70
     0
  9
$DIMSD1
 70
     0
  9
$DIMSD2
 70
     0
  9
$DIMTOLJ
 70
     0
  9
$DIMTZIN
 70
     0
  9
$DIMALTZ
 70
     0
  9
$DIMALTTZ
 70
     0
  9
$DIMUPT
 70
     0
  9
$DIMDEC
 70
     1
  9
$DIMTDEC
 70
     1
  9
$DIMALTU
 70
     2
  9
$DIMALTTD
 70
     3
  9
$DIMTXSTY
  7
Standard
  9
$DIMAUNIT
 70
     0
  9
$DIMADEC
 70
     2
  9
$DIMALTRND
 40
0.0
  9
$DIMAZIN
 70
     0
  9
$DIMDSEP
 70
    44
  9
$DIMATFIT
 70
     3
  9
$DIMFRAC
 70
     0
  9
$DIMLDRBLK
  1

  9
$DIMLUNIT
 70
     2
  9
$DIMLWD
 70
    -2
  9
$DIMLWE
 70
    -2
  9
$DIMTMOVE
 70
     0
  9
$LUNITS
 70
     2
  9
$LUPREC
 70
     2
  9
$SKETCHINC
 40
1.0
  9
$FILLETRAD
 40
0.0
  9
$AUNITS
 70
     0
  9
$AUPREC
 70
     2
  9
$MENU
  1
.
  9
$ELEVATION
 40
0.0
  9
$PELEVATION
 40
0.0
  9
$THICKNESS
 40
0.0
  9
$LIMCHECK
 70
     0
  9
$CHAMFERA
 40
0.0
  9
$CHAMFERB
 40
0.0
  9
$CHAMFERC
 40
0.0
  9
$CHAMFERD
 40
0.0
  9
$SKPOLY
 70
     0
  9
$TDCREATE
 40
2460115.640151597
  9
$TDUCREATE
 40
2460115.265151597
  9
$TDUPDATE
 40
2460115.640151979
  9
$TDUUPDATE
 40
2460115.265151979
  9
$TDINDWG
 40
0.0000000116
  9
$TDUSRTIMER
 40
0.0000000116
  9
$USRTIMER
 70
     1
  9
$ANGBASE
 50
0.0
  9
$ANGDIR
 70
     0
  9
$PDMODE
 70
     0
  9
$PDSIZE
 40
-1.0
  9
$PLINEWID
 40
0.0
  9
$SPLFRAME
 70
     0
  9
$SPLINETYPE
 70
     6
  9
$SPLINESEGS
 70
     8
  9
$HANDSEED
  5
C8
  9
$SURFTAB1
 70
     6
  9
$SURFTAB2
 70
     6
  9
$SURFTYPE
 70
     6
  9
$SURFU
 70
     6
  9
$SURFV
 70
     6
  9
$UCSBASE
  2

  9
$UCSNAME
  2

  9
$UCSORG
 10
0.0
 20
0.0
 30
0.0
  9
$UCSXDIR
 10
1.0
 20
0.0
 30
0.0
  9
$UCSYDIR
 10
0.0
 20
1.0
 30
0.0
  9
$UCSORTHOREF
  2

  9
$UCSORTHOVIEW
 70
     0
  9
$UCSORGTOP
 10
0.0
 20
0.0
 30
0.0
  9
$UCSORGBOTTOM
 10
0.0
 20
0.0
 30
0.0
  9
$UCSORGLEFT
 10
0.0
 20
0.0
 30
0.0
  9
$UCSORGRIGHT
 10
0.0
 20
0.0
 30
0.0
  9
$UCSORGFRONT
 10
0.0
 20
0.0
 30
0.0
  9
$UCSORGBACK
 10
0.0
 20
0.0
 30
0.0
  9
$PUCSBASE
  2

  9
$PUCSNAME
  2

  9
$PUCSORG
 10
0.0
 20
0.0
 30
0.0
  9
$PUCSXDIR
 10
1.0
 20
0.0
 30
0.0
  9
$PUCSYDIR
 10
0.0
 20
1.0
 30
0.0
  9
$PUCSORTHOREF
  2

  9
$PUCSORTHOVIEW
 70
     0
  9
$PUCSORGTOP
 10
0.0
 20
0.0
 30
0.0
  9
$PUCSORGBOTTOM
 10
0.0
 20
0.0
 30
0.0
  9
$PUCSORGLEFT
 10
0.0
 20
0.0
 30
0.0
  9
$PUCSORGRIGHT
 10
0.0
 20
0.0
 30
0.0
  9
$PUCSORGFRONT
 10
0.0
 20
0.0
 30
0.0
  9
$PUCSORGBACK
 10
0.0
 20
0.0
 30
0.0
  9
$USERI1
 70
     0
  9
$USERI2
 70
     0
  9
$USERI3
 70
     0
  9
$USERI4
 70
     0
  9
$USERI5
 70
     0
  9
$USERR1
 40
0.0
  9
$USERR2
 40
0.0
  9
$USERR3
 40
0.0
  9
$USERR4
 40
0.0
  9
$USERR5
 40
0.0
  9
$WORLDVIEW
 70
     1
  9
$SHADEDGE
 70
     3
  9
$SHADEDIF
 70
    70
  9
$TILEMODE
 70
     1
  9
$MAXACTVP
 70
    64
  9
$PINSBASE
 10
0.0
 20
0.0
 30
0.0
  9
$PLIMCHECK
 70
     0
  9
$PEXTMIN
 10
1.0000000000E+20
 20
1.0000000000E+20
 30
1.0000000000E+20
  9
$PEXTMAX
 10
-1.0000000000E+20
 20
-1.0000000000E+20
 30
-1.0000000000E+20
  9
$PLIMMIN
 10
0.0
 20
0.0
  9
$PLIMMAX
 10
420.0
 20
297.0
  9
$UNITMODE
 70
     0
  9
$VISRETAIN
 70
     1
  9
$PLINEGEN
 70
     0
  9
$PSLTSCALE
 70
     1
  9
$TREEDEPTH
 70
  3020
  9
$CMLSTYLE
  2
Standard
  9
$CMLJUST
 70
     0
  9
$CMLSCALE
 40
20.0
  9
$PROXYGRAPHICS
 70
     1
  9
$MEASUREMENT
 70
     1
  9
$CELWEIGHT
370
    -1
  9
$ENDCAPS
280
     0
  9
$JOINSTYLE
280
     0
  9
$LWDISPLAY
290
     1
  9
$INSUNITS
 70
     4
  9
$HYPERLINKBASE
  1

  9
$STYLESHEET
  1

  9
$XEDIT
290
     1
  9
$CEPSNTYPE
380
     0
  9
$PSTYLEMODE
290
     1
  9
$FINGERPRINTGUID
  2
{0739c507-0219-4c55-893f-19c102a6abe6}
  9
$VERSIONGUID
  2
{FAEB1C32-E019-11D5-929B-00C0DF256EC4}
  9
$EXTNAMES
290
     1
  9
$PSVPSCALE
 40
0.0
  9
$OLESTARTUP
290
     0
  0
ENDSEC
  0
SECTION
  2
CLASSES
  0
CLASS
  1
ACDBDICTIONARYWDFLT
  2
AcDbDictionaryWithDefault
  3
ObjectDBX Classes
 90
        0
280
     0
281
     0
  0
CLASS
  1
VISUALSTYLE
  2
AcDbVisualStyle
  3
ObjectDBX Classes
 90
     4095
280
     0
281
     0
  0
CLASS
  1
MATERIAL
  2
AcDbMaterial
  3
ObjectDBX Classes
 90
     1153
280
     0
281
     0
  0
CLASS
  1
SCALE
  2
AcDbScale
  3
ObjectDBX Classes
 90
     1153
280
     0
281
     0
  0
CLASS
  1
TABLESTYLE
  2
AcDbTableStyle
  3
ObjectDBX Classes
 90
     4095
280
     0
281
     0
  0
CLASS
  1
MLEADERSTYLE
  2
AcDbMLeaderStyle
  3
ACDB_MLEADERSTYLE_CLASS
 90
     4095
280
     0
281
     0
  0
CLASS
  1
SUN
  2
AcDbSun
  3
SCENEOE
 90
     1153
280
     0
281
     0
  0
CLASS
  1
ACDBPLACEHOLDER
  2
AcDbPlaceHolder
  3
ObjectDBX Classes
 90
        0
280
     0
281
     0
  0
CLASS
  1
LAYOUT
  2
AcDbLayout
  3
ObjectDBX Classes
 90
        0
280
     0
281
     0
  0
ENDSEC
  0
SECTION
  2
TABLES
  0
TABLE
  2
VPORT
  5
8
330
0
100
AcDbSymbolTable
 70
     1
  0
VPORT
  5
29
330
8
100
AcDbSymbolTableRecord
100
AcDbViewportTableRecord
  2
*Active
 70
     0
 10
0.0
 20
0.0
 11
1.0
 21
1.0
 12
525.0
 22
742.5
 13
0.0
 23
0.0
 14
10.0
 24
10.0
 15
10.0
 25
10.0
 16
0.0
 26
0.0
 36
1.0
 17
0.0
 27
0.0
 37
0.0
 40
1485.0
 41
0.7070707071
 42
50.0
 43
0.0
 44
0.0
 50
0.0
 51
0.0
 71
     0
 72
  2000
 73
     1
 74
     3
 75
     0
 76
     0
 77
     0
 78
     0
281
     0
 65
     1
110
0.0
120
0.0
130
0.0
111
1.0
121
0.0
131
0.0
112
0.0
122
1.0
132
0.0
 79
     0
146
0.0
  0
ENDTAB
  0
TABLE
  2
LTYPE
  5
5
330
0
100
AcDbSymbolTable
 70
     6
  0
LTYPE
  5
14
330
5
100
AcDbSymbolTableRecord
100
AcDbLinetypeTableRecord
  2
ByBlock
 70
     0
  3

 72
    65
 73
     0
 40
0.0
  0
LTYPE
  5
15
330
5
100
AcDbSymbolTableRecord
100
AcDbLinetypeTableRecord
  2
ByLayer
 70
     0
  3

 72
    65
 73
     0
 40
0.0
  0
LTYPE
  5
16
330
5
100
AcDbSymbolTableRecord
100
AcDbLinetypeTableRecord
  2
Continuous
 70
     0
  3
Solid line
 72
    65
 73
     0
 40
0.0
  0
LTYPE
  5
5E
330
5
100
AcDbSymbolTableRecord
100
AcDbLinetypeTableRecord
  2
HIDDEN
 70
     0
  3
Hidden __ __ __ __ __ __ __ __ __ __ __ __ __ __
 72
    65
 73
     2
 40
1.905
 49
1.27
 74
     0
 49
-0.635
 74
     0
  0
LTYPE
  5
5F
330
5
100
AcDbSymbolTableRecord
100
AcDbLinetypeTableRecord
  2
PHANTOM
 70
     0
  3
Phantom ______  __  __  ______  __  __  ______
 72
    65
 73
     6
 40
12.7
 49
6.35
 74
     0
 49
-1.27
 74
     0
 49
1.27
 74
     0
 49
-1.27
 74
     0
 49
1.27
 74
     0
 49
-1.27
 74
     0
  0
LTYPE
  5
60
330
5
100
AcDbSymbolTableRecord
100
AcDbLinetypeTableRecord
  2
CENTER
 70
     0
  3
Center ____ _ ____ _ ____ _ ____ _ ____ _ ____
 72
    65
 73
     4
 40
10.16
 49
6.35
 74
     0
 49
-1.27
 74
     0
 49
1.27
 74
     0
 49
-1.27
 74
     0
  0
LTYPE
  5
61
330
5
100
AcDbSymbolTableRecord
100
AcDbLinetypeTableRecord
  2
CENTERX2
 70
     0
  3
Center (2x) ________  __  ________  __  _____
 72
    65
 73
     4
 40
20.32
 49
12.7
 74
     0
 49
-2.54
 74
     0
 49
2.54
 74
     0
 49
-2.54
 74
     0
  0
LTYPE
  5
62
330
5
100
AcDbSymbolTableRecord
100
AcDbLinetypeTableRecord
  2
DOT2
 70
     0
  3
Dot (.5x) ........................................
 72
    65
 73
     2
 40
0.635
 49
0.0
 74
     0
 49
-0.635
 74
     0
  0
ENDTAB
  0
TABLE
  2
LAYER
  5
2
330
0
100
AcDbSymbolTable
 70
     2
  0
LAYER
  5
10
330
2
100
AcDbSymbolTableRecord
100
AcDbLayerTableRecord
  2
0
 70
     0
 62
     7
  6
Continuous
370
    -3
390
F
  0
LAYER
  5
63
330
2
100
AcDbSymbolTableRecord
100
AcDbLayerTableRecord
  2
FORMAT
 70
     0
 62
     7
  6
Continuous
370
    -3
390
F
  0
ENDTAB
  0
TABLE
  2
STYLE
  5
3
330
0
100
AcDbSymbolTable
 70
     2
  0
STYLE
  5
11
330
3
100
AcDbSymbolTableRecord
100
AcDbTextStyleTableRecord
  2
Standard
 70
     0
 40
0.0
 41
1.0
 50
0.0
 71
     0
 42
17.5
  3
txt
  4
bigfont
  0
STYLE
  5
64
330
3
100
AcDbSymbolTableRecord
100
AcDbTextStyleTableRecord
  2
SLDTEXTSTYLE0
 70
     0
 40
0.0
 41
0.7
 50
0.0
 71
     0
 42
17.5
  3
TXT
  4
bigfont
  0
ENDTAB
  0
TABLE
  2
VIEW
  5
6
330
0
100
AcDbSymbolTable
 70
     0
  0
ENDTAB
  0
TABLE
  2
UCS
  5
7
330
0
100
AcDbSymbolTable
 70
     0
  0
ENDTAB
  0
TABLE
  2
APPID
  5
9
330
0
100
AcDbSymbolTable
 70
     1
  0
APPID
  5
12
330
9
100
AcDbSymbolTableRecord
100
AcDbRegAppTableRecord
  2
ACAD
 70
     0
  0
ENDTAB
  0
TABLE
  2
DIMSTYLE
  5
A
330
0
100
AcDbSymbolTable
 70
     1
100
AcDbDimStyleTable
  0
DIMSTYLE
105
27
330
A
100
AcDbSymbolTableRecord
100
AcDbDimStyleTableRecord
  2
ISO-25
 70
     0
 41
2.5
 42
0.625
 43
3.75
 44
1.25
 73
     0
 74
     0
 77
     1
 78
     8
140
2.5
141
2.5
143
0.0393700787
147
0.625
171
     3
172
     1
178
     0
271
     2
272
     2
274
     3
278
    44
283
     0
284
     8
340
11
  0
ENDTAB
  0
TABLE
  2
BLOCK_RECORD
  5
1
330
0
100
AcDbSymbolTable
 70
     1
  0
BLOCK_RECORD
  5
1F
330
1
100
AcDbSymbolTableRecord
100
AcDbBlockTableRecord
  2
*Model_Space
340
22
  0
BLOCK_RECORD
  5
1B
330
1
100
AcDbSymbolTableRecord
100
AcDbBlockTableRecord
  2
*Paper_Space
340
1E
  0
BLOCK_RECORD
  5
23
330
1
100
AcDbSymbolTableRecord
100
AcDbBlockTableRecord
  2
*Paper_Space0
340
26
  0
ENDTAB
  0
ENDSEC
  0
SECTION
  2
BLOCKS
  0
BLOCK
  5
20
330
1F
100
AcDbEntity
  8
0
100
AcDbBlockBegin
  2
*Model_Space
 70
     0
 10
0.0
 20
0.0
 30
0.0
  3
*Model_Space
  1

  0
ENDBLK
  5
21
330
1F
100
AcDbEntity
  8
0
100
AcDbBlockEnd
  0
BLOCK
  5
1C
330
1B
100
AcDbEntity
 67
     1
  8
0
100
AcDbBlockBegin
  2
*Paper_Space
 70
     0
 10
0.0
 20
0.0
 30
0.0
  3
*Paper_Space
  1

  0
ENDBLK
  5
1D
330
1B
100
AcDbEntity
 67
     1
  8
0
100
AcDbBlockEnd
  0
BLOCK
  5
24
330
23
100
AcDbEntity
  8
0
100
AcDbBlockBegin
  2
*Paper_Space0
 70
     0
 10
0.0
 20
0.0
 30
0.0
  3
*Paper_Space0
  1

  0
ENDBLK
  5
25
330
23
100
AcDbEntity
  8
0
100
AcDbBlockEnd
  0
ENDSEC
  0
SECTION
  2
ENTITIES
  0
MTEXT
  5
65
330
1F
100
AcDbEntity
  8
0
  6
Continuous
 62
     7
370
     0
100
AcDbMText
 10
782.5029144494
 20
523.8507724387
 30
0.0
 40
15.875
 41
0.0
 71
     2
 72
     1
  1
HBF-D40H/B
  7
SLDTEXTSTYLE0
 73
     1
 44
1.0
  0
MTEXT
  5
66
330
1F
100
AcDbEntity
  8
0
  6
Continuous
 62
     7
370
     0
100
AcDbMText
 10
783.0210541843
 20
485.7150786492
 30
0.0
 40
15.875
 41
0.0
 71
     2
 72
     1
  1
HFC-D11H/B
  7
SLDTEXTSTYLE0
 73
     1
 44
1.0
  0
SPLINE
  5
67
330
1F
100
AcDbEntity
  8
0
  6
Continuous
 62
     7
370
    25
100
AcDbSpline
210
0.0
220
0.0
230
1.0
 70
     8
 71
     3
 72
    49
 73
    45
 74
     0
 42
0.00000001
 43
0.00000001
 40
0.0
 40
0.0
 40
0.0
 40
0.0
 40
0.0134394448533451
 40
0.028121955811466
 40
0.0428962895627007
 40
0.057793857827363
 40
0.0728460751783437
 40
0.0880837261851644
 40
0.1035368345043742
 40
0.1192345170417823
 40
0.1352048195564726
 40
0.1514745267609516
 40
0.1680689398893631
 40
0.1850116142095137
 40
0.2023240481394005
 40
0.220025314531549
 40
0.2381316233351662
 40
0.2566558032667994
 40
0.2756066883685064
 40
0.2949883935082046
 40
0.3147994611593106
 40
0.3350357398084277
 40
0.3557064827908016
 40
0.3766967947366753
 40
0.3980353528514592
 40
0.4197715089989192
 40
0.441957771474261
 40
0.4646507966245642
 40
0.4879124154100408
 40
0.5118109882318778
 40
0.5364232202860876
 40
0.5618366430311996
 40
0.5881530848626878
 40
0.6154936564102617
 40
0.6440061395241518
 40
0.6738763566996676
 40
0.7053464794334838
 40
0.738746222669473
 40
0.7745499570760375
 40
0.8134916507234844
 40
0.8568282846275898
 40
0.9070680293657859
 40
0.9706053243422115
 40
1.0
 40
1.0
 40
1.0
 40
1.0
 10
673.0447675423956
 20
701.6534971283157
 30
0.0
 10
674.429488119383
 20
703.3974003758459
 30
0.0
 10
677.3270074218694
 20
707.0465072103673
 30
0.0
 10
681.4422922538319
 20
712.8452461660736
 30
0.0
 10
685.4653085741741
 20
718.9976086749363
 30
0.0
 10
689.2558785042785
 20
725.3687080901755
 30
0.0
 10
692.8211539683127
 20
731.9560430412089
 30
0.0
 10
696.1582381020414
 20
738.7649035397499
 30
0.0
 10
699.2660239546325
 20
745.7985887789544
 30
0.0
 10
702.1419694340966
 20
753.0608993251547
 30
0.0
 10
704.7829965439215
 20
760.5552953624931
 30
0.0
 10
707.1852780587451
 20
768.2849490625168
 30
0.0
 10
709.3443414716594
 20
776.2525337265214
 30
0.0
 10
711.2550994118908
 20
784.4600629030701
 30
0.0
 10
712.9119149280891
 20
792.9086892498275
 30
0.0
 10
714.3086739335993
 20
801.5984830774438
 30
0.0
 10
715.4388741887001
 20
810.5281788149673
 30
0.0
 10
716.2957351766361
 20
819.6948876193421
 30
0.0
 10
716.8723189624183
 20
829.0937623884564
 30
0.0
 10
717.1617217441953
 20
838.7176358390795
 30
0.0
 10
717.1571289366885
 20
848.5571609911789
 30
0.0
 10
716.8523504271903
 20
858.6040659777352
 30
0.0
 10
716.2385104339335
 20
868.8313862445161
 30
0.0
 10
715.309522980959
 20
879.2166471623169
 30
0.0
 10
714.0623374111939
 20
889.7443970647093
 30
0.0
 10
712.4915888389916
 20
900.426798314413
 30
0.0
 10
710.5905098180772
 20
911.2805885736892
 30
0.0
 10
708.3510304756112
 20
922.3244647110089
 30
0.0
 10
705.7635867669429
 20
933.579593172756
 30
0.0
 10
702.8168538582904
 20
945.0702355339929
 30
0.0
 10
699.4973812202755
 20
956.824595254786
 30
0.0
 10
695.7890796860793
 20
968.8759815568312
 30
0.0
 10
691.6724870378897
 20
981.2644478495982
 30
0.0
 10
687.1236897784105
 20
994.0391628497156
 30
0.0
 10
682.1126896949432
 20
1007.261958221786
 30
0.0
 10
676.6008361928654
 20
1021.012859502752
 30
0.0
 10
670.5365716010267
 20
1035.399147951441
 30
0.0
 10
663.8479918962756
 20
1050.571233190767
 30
0.0
 10
656.4284013519289
 20
1066.752757461909
 30
0.0
 10
648.106133352235
 20
1084.305480495826
 30
0.0
 10
638.5635151942029
 20
1103.891760251618
 30
0.0
 10
627.09010992404
 20
1127.017045716643
 30
0.0
 10
616.5600810453896
 20
1148.035113929696
 30
0.0
 10
609.8394812246692
 20
1161.73021074273
 30
0.0
 10
607.7137342873376
 20
1166.062013094212
 30
0.0
  0
SPLINE
  5
68
330
1F
100
AcDbEntity
  8
0
  6
Continuous
 62
     7
370
    25
100
AcDbSpline
210
0.0
220
0.0
230
1.0
 70
     8
 71
     3
 72
    48
 73
    44
 74
     0
 42
0.00000001
 43
0.00000001
 40
0.0
 40
0.0
 40
0.0
 40
0.0
 40
0.0042209250177682
 40
0.0540044971629274
 40
0.1226702503522046
 40
0.1698712793424763
 40
0.2118268824839084
 40
0.2494596499215601
 40
0.2839483179606766
 40
0.3160414590015426
 40
0.3462290718571485
 40
0.3748500783740613
 40
0.4051148035156733
 40
0.4338625884858233
 40
0.4612951413160479
 40
0.4876103145354121
 40
0.5129636879609013
 40
0.5374815170768714
 40
0.5612693473828373
 40
0.5844176310328487
 40
0.6070055315684216
 40
0.6291035866051994
 40
0.6507756228544569
 40
0.6720801657768026
 40
0.6930701536396269
 40
0.7136915138649077
 40
0.733823925146973
 40
0.7534666421100842
 40
0.7726254901781359
 40
0.7913121866155814
 40
0.8095432882039647
 40
0.8273393154886497
 40
0.84472402955698
 40
0.8617238359304409
 40
0.8783672938186631
 40
0.8946847123712793
 40
0.9107078185077411
 40
0.9264694833654019
 40
0.9420034963807264
 40
0.9573443775117136
 40
0.9725272191100823
 40
0.9875875494082096
 40
1.0
 40
1.0
 40
1.0
 40
1.0
 10
425.3452188589902
 20
1165.743949681755
 30
0.0
 10
425.0427569675754
 20
1165.12040847522
 30
0.0
 10
421.1729174684021
 20
1157.142529413748
 30
0.0
 10
412.2677375175956
 20
1139.084683709892
 30
0.0
 10
400.1924454693714
 20
1114.699803522623
 30
0.0
 10
388.8274354613024
 20
1091.379896171857
 30
0.0
 10
379.8762161287265
 20
1072.544068298817
 30
0.0
 10
372.0291085418501
 20
1055.487509651016
 30
0.0
 10
365.0806844586451
 20
1039.79511891487
 30
0.0
 10
358.8575050687036
 20
1025.115041273168
 30
0.0
 10
353.2470590325733
 20
1011.219222123199
 30
0.0
 10
347.9985413930153
 20
997.4972915581162
 30
0.0
 10
343.1107493504007
 20
983.8871370221992
 30
0.0
 10
338.5954319829031
 20
970.3484493871049
 30
0.0
 10
334.5946746584839
 20
957.3234444214078
 30
0.0
 10
331.0685989023146
 20
944.7380284175397
 30
0.0
 10
327.9844260901427
 20
932.5286885706284
 30
0.0
 10
325.3164579852615
 20
920.6455593869417
 30
0.0
 10
323.0441013381334
 20
909.0484216908488
 30
0.0
 10
321.1505829230896
 20
897.7040439837526
 30
0.0
 10
319.6220894550527
 20
886.5844023900504
 30
0.0
 10
318.4472037039814
 20
875.6654461095384
 30
0.0
 10
317.6164142118626
 20
864.9262253433772
 30
0.0
 10
317.1221115205107
 20
854.3484522426696
 30
0.0
 10
316.9575731076295
 20
843.9332525321848
 30
0.0
 10
317.1185304275066
 20
833.7103434885909
 30
0.0
 10
317.5996857425187
 20
823.7192388127479
 30
0.0
 10
318.3918862905174
 20
813.9894274956068
 30
0.0
 10
319.4861540137847
 20
804.5285300845244
 30
0.0
 10
320.8734630934262
 20
795.3412645325055
 30
0.0
 10
322.5450052589247
 20
786.4299011271069
 30
0.0
 10
324.4923465424172
 20
777.7947231952081
 30
0.0
 10
326.7075651003323
 20
769.4344229043862
 30
0.0
 10
329.183354895703
 20
761.3464365483658
 30
0.0
 10
331.9131162405129
 20
753.5272384363071
 30
0.0
 10
334.8909979213942
 20
745.9725704483964
 30
0.0
 10
338.1120322844238
 20
738.6777262940708
 30
0.0
 10
341.5718644078596
 20
731.637489337574
 30
0.0
 10
345.2679003103669
 20
724.8472096024744
 30
0.0
 10
349.195219566501
 20
718.2996187262461
 30
0.0
 10
353.3616180913847
 20
711.99717405509
 30
0.0
 10
357.4847277683943
 20
706.2522106777355
 30
0.0
 10
360.3392953317171
 20
702.706226652696
 30
0.0
 10
361.6290147446388
 20
701.1041190361996
 30
0.0
  0
SPLINE
  5
69
330
1F
100
AcDbEntity
  8
0
  6
Continuous
 62
     7
370
    25
100
AcDbSpline
210
0.0
220
0.0
230
1.0
 70
     8
 71
     3
 72
    73
 73
    69
 74
     0
 42
0.00000001
 43
0.00000001
 40
0.0
 40
0.0
 40
0.0
 40
0.0
 40
0.0012206677900127
 40
0.0125206192279533
 40
0.0257616502117634
 40
0.0414972990584727
 40
0.059104953054946
 40
0.0766119893908811
 40
0.0935071458288398
 40
0.1099585429602449
 40
0.1261196481011362
 40
0.1420872276738036
 40
0.1579213433526779
 40
0.1736604336911301
 40
0.1893299748282464
 40
0.2049474015608429
 40
0.2205249860503165
 40
0.2360715816361472
 40
0.2515937149503228
 40
0.26709629078029
 40
0.2825830593582832
 40
0.2980569336394694
 40
0.3135202093833871
 40
0.328974720790813
 40
0.344421952522642
 40
0.3598631216481664
 40
0.3752992385192097
 40
0.3907311526589807
 40
0.406159587860122
 40
0.4215851694304206
 40
0.4370084456788618
 40
0.4524299051576685
 40
0.4678499907781369
 40
0.4832691116423047
 40
0.4986876532412682
 40
0.5141059865402657
 40
0.5295244252624365
 40
0.544943264949299
 40
0.5603628787080446
 40
0.5757836554980879
 40
0.5912060092297466
 40
0.6066303889902879
 40
0.6220572909000145
 40
0.6374872722399719
 40
0.6529209686782484
 40
0.6683591156884703
 40
0.683802575637156
 40
0.6992523725696118
 40
0.7147097375301159
 40
0.7301761684415461
 40
0.7456535103499663
 40
0.7611440645483899
 40
0.7766507392891449
 40
0.7921772614202632
 40
0.8077284789706582
 40
0.8233108023513342
 40
0.8389328616706637
 40
0.8546065093695874
 40
0.8703483891557829
 40
0.8861824580150673
 40
0.9021441472011705
 40
0.9182873534680003
 40
0.9346960287896481
 40
0.9515006427045519
 40
0.9688784230044973
 40
0.984172549507299
 40
0.9966704982399333
 40
1.0
 40
1.0
 40
1.0
 40
1.0
 10
361.6800768188976
 20
701.0262393518612
 30
0.0
 10
361.7144859018557
 20
700.9800478307143
 30
0.0
 10
362.0674263408726
 20
700.5062527059684
 30
0.0
 10
362.9198697542743
 20
699.7512951703304
 30
0.0
 10
364.3143357537515
 20
698.6698486034782
 30
0.0
 10
366.1157874950717
 20
697.6129581839763
 30
0.0
 10
368.3226612289463
 20
696.565280009213
 30
0.0
 10
370.8813443250347
 20
695.5711562776631
 30
0.0
 10
373.6897853244935
 20
694.6469917756825
 30
0.0
 10
376.7235611614205
 20
693.7831968595129
 30
0.0
 10
379.9916059091989
 20
692.965142203018
 30
0.0
 10
383.5012213359317
 20
692.1842644461952
 30
0.0
 10
387.2550824073803
 20
691.4358599855087
 30
0.0
 10
391.2524253318619
 20
690.7175067572504
 30
0.0
 10
395.4900349926681
 20
690.0280825825362
 30
0.0
 10
399.9629015301098
 20
689.3672433106959
 30
0.0
 10
404.6646361566993
 20
688.7351170535347
 30
0.0
 10
409.5877465242597
 20
688.1321225647657
 30
0.0
 10
414.7238257992392
 20
687.5588554984919
 30
0.0
 10
420.0636885861435
 20
687.0160149805953
 30
0.0
 10
425.5974729179209
 20
686.5043545288576
 30
0.0
 10
431.3147201350044
 20
686.0246483031802
 30
0.0
 10
437.2044400269282
 20
685.5776672594471
 30
0.0
 10
443.255165985624
 20
685.164161887027
 30
0.0
 10
449.4550032922107
 20
684.7848494319559
 30
0.0
 10
455.7916726327988
 20
684.4404042520196
 30
0.0
 10
462.2525502731627
 20
684.1314504109052
 30
0.0
 10
468.8247058816185
 20
683.8585559119293
 30
0.0
 10
475.4949386920401
 20
683.6222281621871
 30
0.0
 10
482.2498124947429
 20
683.422910383984
 30
0.0
 10
489.0756898006811
 20
683.2609787753363
 30
0.0
 10
495.958765424112
 20
683.136740279608
 30
0.0
 10
502.8850996575013
 20
683.0504308650684
 30
0.0
 10
509.8406511618763
 20
683.0022142441998
 30
0.0
 10
516.8113096587778
 20
682.9921809838006
 30
0.0
 10
523.7829207835675
 20
683.0203479418761
 30
0.0
 10
530.7413155908143
 20
683.0866578124944
 30
0.0
 10
537.6723535142788
 20
683.1909790913871
 30
0.0
 10
544.561962358675
 20
683.3331067402647
 30
0.0
 10
551.3961731918329
 20
683.51276328659
 30
0.0
 10
558.1611422077743
 20
683.7295998497349
 30
0.0
 10
564.8431832226497
 20
683.9831976547748
 30
0.0
 10
571.4288003337542
 20
684.2730699806457
 30
0.0
 10
577.9047208432438
 20
684.5986646104477
 30
0.0
 10
584.2579285944678
 20
684.9593668798407
 30
0.0
 10
590.4756979281711
 20
685.3545034587273
 30
0.0
 10
596.5456285494287
 20
685.7833470573293
 30
0.0
 10
602.4556817133332
 20
686.2451223288482
 30
0.0
 10
608.1942183034203
 20
686.7390133604805
 30
0.0
 10
613.7500396145319
 20
687.2641733241303
 30
0.0
 10
619.112431997482
 20
687.8197371322792
 30
0.0
 10
624.2712170322553
 20
688.4048383732694
 30
0.0
 10
629.2168096649134
 20
689.0186324775525
 30
0.0
 10
633.9402879079979
 20
689.660329192083
 30
0.0
 10
638.4334795703172
 20
690.3292392437604
 30
0.0
 10
642.6890742937322
 20
691.0248434824756
 30
0.0
 10
646.7007744158459
 20
691.7468977175578
 30
0.0
 10
650.4635045151613
 20
692.4955998723353
 30
0.0
 10
653.9737194256821
 20
693.2718553667438
 30
0.0
 10
657.2298501805699
 20
694.0777579206878
 30
0.0
 10
660.233054284195
 20
694.9173337257548
 30
0.0
 10
662.9881493806768
 20
695.7983610029377
 30
0.0
 10
665.5058471722053
 20
696.7342636718636
 30
0.0
 10
667.8016708165483
 20
697.7541249175247
 30
0.0
 10
669.7915568812393
 20
698.8364173340586
 30
0.0
 10
671.3989564661014
 20
699.9939053518669
 30
0.0
 10
672.4371305732462
 20
700.8855129225569
 30
0.0
 10
672.8880579426994
 20
701.4752760802156
 30
0.0
 10
672.982916143074
 20
701.599340121506
 30
0.0
  0
SPLINE
  5
6A
330
1F
100
AcDbEntity
  8
0
  6
Continuous
 62
     7
370
    25
100
AcDbSpline
210
0.0
220
0.0
230
1.0
 70
     8
 71
     3
 72
    40
 73
    36
 74
     0
 42
0.00000001
 43
0.00000001
 40
0.0
 40
0.0
 40
0.0
 40
0.0
 40
0.0136506359806134
 40
0.0313682165689993
 40
0.0514372641915605
 40
0.0755140761113987
 40
0.1059156899841689
 40
0.143349904243446
 40
0.1767243718359607
 40
0.2119607018883514
 40
0.2458959473885031
 40
0.2790617495061964
 40
0.3117598292777665
 40
0.3441546099578919
 40
0.3763428526864906
 40
0.4083850754249863
 40
0.4403209815421333
 40
0.4721776512659731
 40
0.5039741694755275
 40
0.5357243749900045
 40
0.5674385634934822
 40
0.599124580596045
 40
0.6307885458102677
 40
0.6624353460613633
 40
0.6940689815690956
 40
0.7256928153097909
 40
0.7573097587636107
 40
0.7889224155680304
 40
0.8205331979707646
 40
0.8521442851120538
 40
0.883757366504348
 40
0.9153748201919388
 40
0.9469991820077259
 40
0.9786332533764514
 40
1.0
 40
1.0
 40
1.0
 40
1.0
 10
607.6628571080017
 20
1166.090262975717
 30
0.0
 10
607.4962590729386
 20
1166.393981281964
 30
0.0
 10
607.1134283204923
 20
1167.091904925951
 30
0.0
 10
606.3427493395676
 20
1167.955879130503
 30
0.0
 10
605.3860525012079
 20
1168.800217469539
 30
0.0
 10
604.1811809659062
 20
1169.603466420648
 30
0.0
 10
602.6039332541468
 20
1170.420477469301
 30
0.0
 10
600.6714207603957
 20
1171.194148408901
 30
0.0
 10
598.3763016585091
 20
1171.932835102447
 30
0.0
 10
595.8786967865833
 20
1172.600514713008
 30
0.0
 10
593.0947315837727
 20
1173.23038980721
 30
0.0
 10
590.1022252605607
 20
1173.813741192486
 30
0.0
 10
586.8909857693792
 20
1174.359328126392
 30
0.0
 10
583.4591527822395
 20
1174.871194389332
 30
0.0
 10
579.8105886620175
 20
1175.350989814207
 30
0.0
 10
575.9526961898899
 20
1175.799145771839
 30
0.0
 10
571.8952985929335
 20
1176.21545108064
 30
0.0
 10
567.6500085787792
 20
1176.599351852434
 30
0.0
 10
563.2298366913597
 20
1176.950121670416
 30
0.0
 10
558.6489267796856
 20
1177.266963302403
 30
0.0
 10
553.9223630308645
 20
1177.549072700436
 30
0.0
 10
549.0660192537432
 20
1177.795680880745
 30
0.0
 10
544.0964340085974
 20
1178.006082275284
 30
0.0
 10
539.030701934592
 20
1178.179654442792
 30
0.0
 10
533.8863756101041
 20
1178.315871977171
 30
0.0
 10
528.6813736842797
 20
1178.414316546384
 30
0.0
 10
523.433895247764
 20
1178.474683476562
 30
0.0
 10
518.1623303179084
 20
1178.49678807655
 30
0.0
 10
512.8852053560453
 20
1178.480562775119
 30
0.0
 10
507.6210547901717
 20
1178.426080858315
 30
0.0
 10
502.3885837434426
 20
1178.333475996735
 30
0.0
 10
497.205542945854
 20
1178.203243731957
 30
0.0
 10
492.0924923496889
 20
1178.035105496932
 30
0.0
 10
487.6036149063551
 20
1177.85420528501
 30
0.0
 10
484.8539431135054
 20
1177.720419070142
 30
0.0
 10
483.7454405899348
 20
1177.666484503411
 30
0.0
  0
SPLINE
  5
6B
330
1F
100
AcDbEntity
  8
0
  6
Continuous
 62
     7
370
    25
100
AcDbSpline
210
0.0
220
0.0
230
1.0
 70
     8
 71
     3
 72
    28
 73
    24
 74
     0
 42
0.00000001
 43
0.00000001
 40
0.0
 40
0.0
 40
0.0
 40
0.0
 40
0.0278175058863681
 40
0.0807634132263018
 40
0.1337444291715935
 40
0.1867723829076343
 40
0.23985970292104
 40
0.2930225168932366
 40
0.3462822246052741
 40
0.3996678966348727
 40
0.4532200465865392
 40
0.5069967734240277
 40
0.5610841705818779
 40
0.6156148006134984
 40
0.6708022741633893
 40
0.727009801241895
 40
0.7848921490820937
 40
0.8456628585940773
 40
0.8971674546689724
 40
0.9354329432845851
 40
0.9678677158691742
 40
0.996790967569439
 40
0.9999999999999999
 40
0.9999999999999999
 40
0.9999999999999999
 40
0.9999999999999999
 10
483.7454405899348
 20
1177.666484503411
 30
0.0
 10
482.8896427201786
 20
1177.622250722776
 30
0.0
 10
480.4049786645423
 20
1177.493825438403
 30
0.0
 10
476.3851972872294
 20
1177.254244856567
 30
0.0
 10
471.7456701896515
 20
1176.937114413683
 30
0.0
 10
467.2636111921257
 20
1176.586009678238
 30
0.0
 10
462.9519690729721
 20
1176.202499575929
 30
0.0
 10
458.8252870985556
 20
1175.787378344187
 30
0.0
 10
454.8964072346532
 20
1175.34160103175
 30
0.0
 10
451.1771051346199
 20
1174.865934521587
 30
0.0
 10
447.6776057740397
 20
1174.36089702307
 30
0.0
 10
444.4062628793725
 20
1173.82651930769
 30
0.0
 10
441.368956889022
 20
1173.261957031155
 30
0.0
 10
438.5681168461176
 20
1172.664774719408
 30
0.0
 10
436.001014221715
 20
1172.029420138108
 30
0.0
 10
433.6563689649828
 20
1171.344205175805
 30
0.0
 10
431.5085703429176
 20
1170.582754559238
 30
0.0
 10
429.660016508725
 20
1169.756192421298
 30
0.0
 10
428.1746776424147
 20
1168.876175344785
 30
0.0
 10
427.018992888938
 20
1167.97788445635
 30
0.0
 10
426.1421679736455
 20
1167.011177994046
 30
0.0
 10
425.5780307278307
 20
1166.275198186512
 30
0.0
 10
425.3866197867798
 20
1165.801197498521
 30
0.0
 10
425.3675036880022
 20
1165.753859326928
 30
0.0
  0
SPLINE
  5
6C
330
1F
100
AcDbEntity
  8
0
  6
Continuous
 62
     7
370
    25
100
AcDbSpline
210
0.0
220
0.0
230
1.0
 70
     8
 71
     3
 72
    58
 73
    54
 74
     0
 42
0.00000001
 43
0.00000001
 40
0.0
 40
0.0
 40
0.0
 40
0.0
 40
0.0064476543672788
 40
0.0201531988577903
 40
0.0351948516544997
 40
0.0515756557985811
 40
0.0691502610761176
 40
0.0876981733262094
 40
0.1069901012301532
 40
0.1268279932824873
 40
0.1470583666586878
 40
0.1675694277637196
 40
0.1882822329421008
 40
0.2091416262038579
 40
0.2301089938456614
 40
0.2511570466130373
 40
0.2722662354086211
 40
0.2934223346518504
 40
0.3146148180559223
 40
0.3358357609572847
 40
0.3570790906956152
 40
0.3783400677723405
 40
0.399614921156368
 40
0.4209005874730962
 40
0.4421945207930902
 40
0.4634945506726833
 40
0.4847987731604648
 40
0.5061054640474137
 40
0.5274130065654046
 40
0.5487194169158586
 40
0.5700229783773231
 40
0.5913219864752992
 40
0.6126145682745907
 40
0.6338986000015847
 40
0.6551716047777127
 40
0.6764306206958584
 40
0.6976720254670055
 40
0.7188912975725211
 40
0.7400826840344846
 40
0.7612387294688974
 40
0.7823495965929979
 40
0.8034020692797227
 40
0.8243780668684705
 40
0.8452523999344298
 40
0.8659893474516591
 40
0.8865374255995182
 40
0.9068214929228255
 40
0.9267313282109462
 40
0.9461068162942676
 40
0.9627794685921681
 40
0.9783002513387103
 40
0.9925202701852328
 40
1.0
 40
1.0
 40
1.0
 40
1.0
 10
599.2696686838179
 20
1165.500144177037
 30
0.0
 10
599.274124521669
 20
1165.503751114763
 30
0.0
 10
599.2880519720526
 20
1165.515025188886
 30
0.0
 10
599.062549074633
 20
1165.361262074607
 30
0.0
 10
598.5719253623498
 20
1165.105874981167
 30
0.0
 10
597.7631045055472
 20
1164.754245672189
 30
0.0
 10
596.6300491550807
 20
1164.343067573889
 30
0.0
 10
595.1572257947582
 20
1163.887993534203
 30
0.0
 10
593.347453524336
 20
1163.407118731313
 30
0.0
 10
591.2094606138675
 20
1162.913572327556
 30
0.0
 10
588.7569268735447
 20
1162.41787301988
 30
0.0
 10
586.0053162738703
 20
1161.927901460062
 30
0.0
 10
582.9708031632542
 20
1161.449692584438
 30
0.0
 10
579.6697070620352
 20
1160.987919856565
 30
0.0
 10
576.118397032392
 20
1160.546303634115
 30
0.0
 10
572.3333345227517
 20
1160.127882104269
 30
0.0
 10
568.3311618318094
 20
1159.735195588152
 30
0.0
 10
564.1287807426044
 20
1159.370406685706
 30
0.0
 10
559.7434079932757
 20
1159.035378906148
 30
0.0
 10
555.1926055719417
 20
1158.731727873621
 30
0.0
 10
550.4942891603894
 20
1158.460854776345
 30
0.0
 10
545.6667188827323
 20
1158.223968228153
 30
0.0
 10
540.7284762480497
 20
1158.022098558644
 30
0.0
 10
535.698430499384
 20
1157.856107131606
 30
0.0
 10
530.595696926985
 20
1157.726692392376
 30
0.0
 10
525.4395891604925
 20
1157.634393761943
 30
0.0
 10
520.249567037748
 20
1157.579594114522
 30
0.0
 10
515.0451813585736
 20
1157.562521319687
 30
0.0
 10
509.8460499810479
 20
1157.583249020429
 30
0.0
 10
504.6717757016627
 20
1157.64169601244
 30
0.0
 10
499.5418782221973
 20
1157.737626057807
 30
0.0
 10
494.4757042746489
 20
1157.870648640161
 30
0.0
 10
489.4923963576731
 20
1158.040218184821
 30
0.0
 10
484.6108482126519
 20
1158.245632110824
 30
0.0
 10
479.8496551320434
 20
1158.486027766787
 30
0.0
 10
475.2270695117103
 20
1158.760377508199
 30
0.0
 10
470.7609634521256
 20
1159.067480932656
 30
0.0
 10
466.4688007612605
 20
1159.40595276341
 30
0.0
 10
462.3676215125499
 20
1159.774204025063
 30
0.0
 10
458.4740433769584
 20
1160.170412829755
 30
0.0
 10
454.8042856025385
 20
1160.592478734466
 30
0.0
 10
451.374222864801
 20
1161.037951303604
 30
0.0
 10
448.1994803953294
 20
1161.503915471157
 30
0.0
 10
445.29557525547
 20
1161.986811270703
 30
0.0
 10
442.6781347571138
 20
1162.482124088443
 30
0.0
 10
440.3631011205034
 20
1162.983931713994
 30
0.0
 10
438.3671754238758
 20
1163.483937571208
 30
0.0
 10
436.7071839467857
 20
1163.970657586902
 30
0.0
 10
435.4458129751141
 20
1164.410033131047
 30
0.0
 10
434.5578398389926
 20
1164.78312456465
 30
0.0
 10
434.0215790061161
 20
1165.053700258357
 30
0.0
 10
433.7652517459602
 20
1165.22283891175
 30
0.0
 10
433.7743258148078
 20
1165.21596479539
 30
0.0
 10
433.7774535737676
 20
1165.213595342457
 30
0.0
  0
SPLINE
  5
6D
330
1F
100
AcDbEntity
  8
0
  6
Continuous
 62
     7
370
    25
100
AcDbSpline
210
0.0
220
0.0
230
1.0
 70
     8
 71
     3
 72
    40
 73
    36
 74
     0
 42
0.00000001
 43
0.00000001
 40
0.0
 40
0.0
 40
0.0
 40
0.0
 40
0.004196741077155
 40
0.0375847643209551
 40
0.070434078777215
 40
0.1029214333101841
 40
0.1351560412549007
 40
0.1672083800874125
 40
0.1991257111505415
 40
0.2309407811572661
 40
0.2626769222134146
 40
0.294351164281826
 40
0.325976203015608
 40
0.3575616827493044
 40
0.3891150557773588
 40
0.4206421716743711
 40
0.4521476901303615
 40
0.4836353757624782
 40
0.5151083124049044
 40
0.5465690614892849
 40
0.5780197810090161
 40
0.6094623163367272
 40
0.6408982707394126
 40
0.672329061154012
 40
0.7037559632464218
 40
0.735180148729098
 40
0.7666027171979543
 40
0.7980247242677159
 40
0.8294470518711055
 40
0.8608705514073326
 40
0.8922962870912735
 40
0.923725372806303
 40
0.9551590004646628
 40
0.9865984722025836
 40
1.0
 40
1.0
 40
1.0
 40
1.0
 10
386.4703678891021
 20
682.5300874103527
 30
0.0
 10
386.5933165927312
 20
682.4948922330548
 30
0.0
 10
387.694408598293
 20
682.1796946977157
 30
0.0
 10
390.0325957882629
 20
681.622361979099
 30
0.0
 10
393.4856056957323
 20
680.8570928411953
 30
0.0
 10
397.2006731759329
 20
680.1317122292439
 30
0.0
 10
401.1433958502259
 20
679.4380361984003
 30
0.0
 10
405.3213238275386
 20
678.7754205775057
 30
0.0
 10
409.7276083564392
 20
678.1427781348382
 30
0.0
 10
414.3568218739035
 20
677.540053757045
 30
0.0
 10
419.2013346452557
 20
676.9674709469728
 30
0.0
 10
424.2526521602679
 20
676.4255154037677
 30
0.0
 10
429.5013142827128
 20
675.9148037831089
 30
0.0
 10
434.9371059646849
 20
675.4360306643279
 30
0.0
 10
440.5491395853355
 20
674.9899236158328
 30
0.0
 10
446.3259422974048
 20
674.5772143515172
 30
0.0
 10
452.2555226176879
 20
674.198617448025
 30
0.0
 10
458.3254294441007
 20
673.8548149683791
 30
0.0
 10
464.5228040913458
 20
673.5464449467087
 30
0.0
 10
470.8344279393233
 20
673.2740926703829
 30
0.0
 10
477.2467668697082
 20
673.0382839804663
 30
0.0
 10
483.7460134777668
 20
672.8394800796506
 30
0.0
 10
490.318127663271
 20
672.6780735066487
 30
0.0
 10
496.948876204443
 20
672.5543849872391
 30
0.0
 10
503.6238711233582
 20
672.4686611641375
 30
0.0
 10
510.3286090161255
 20
672.421072443201
 30
0.0
 10
517.0485042888616
 20
672.4117132763635
 30
0.0
 10
523.7689323125632
 20
672.4405958147195
 30
0.0
 10
530.4752015637387
 20
672.5076700754418
 30
0.0
 10
537.1528379905363
 20
672.6127462268943
 30
0.0
 10
543.7867609259449
 20
672.7557853613233
 30
0.0
 10
550.3645777039754
 20
672.9358190465983
 30
0.0
 10
556.8644557961328
 20
673.1549891243137
 30
0.0
 10
562.069176459248
 20
673.3559344815067
 30
0.0
 10
565.0664313289278
 20
673.4956752146173
 30
0.0
 10
565.9622140917608
 20
673.5374392104832
 30
0.0
  0
SPLINE
  5
6E
330
1F
100
AcDbEntity
  8
0
  6
Continuous
 62
     7
370
    25
100
AcDbSpline
210
0.0
220
0.0
230
1.0
 70
     8
 71
     3
 72
    35
 73
    31
 74
     0
 42
0.00000001
 43
0.00000001
 40
0.0
 40
0.0
 40
0.0
 40
0.0
 40
0.0289780589140568
 40
0.0691841476059029
 40
0.1094091632061057
 40
0.1496569145409442
 40
0.1899320243614948
 40
0.2302401779932083
 40
0.2705884621146357
 40
0.3109858339711987
 40
0.3514437827961606
 40
0.3919772801773662
 40
0.432606174568442
 40
0.4733572855829875
 40
0.5142676313613617
 40
0.5553895459713205
 40
0.5967990495407626
 40
0.638609983383776
 40
0.6809985337794776
 40
0.7242457812649605
 40
0.7688023425729319
 40
0.8152905067573104
 40
0.8533254149442766
 40
0.8839904711777966
 40
0.9103148939220023
 40
0.9339401102247904
 40
0.9559789936507436
 40
0.9772335344866653
 40
0.9998015160267424
 40
1.0
 40
1.0
 40
1.0
 40
1.0
 10
575.6019294347101
 20
674.024334788407
 30
0.0
 10
577.0777178231527
 20
674.107042926213
 30
0.0
 10
580.6011132998442
 20
674.3045058422475
 30
0.0
 10
586.0154184529406
 20
674.6569401522174
 30
0.0
 10
591.8530333268951
 20
675.0746726321315
 30
0.0
 10
597.5251521578685
 20
675.5266175717559
 30
0.0
 10
603.0257322752246
 20
676.0104045487482
 30
0.0
 10
608.3418834712115
 20
676.525620000763
 30
0.0
 10
613.4632602871613
 20
677.0713202254991
 30
0.0
 10
618.3796276155132
 20
677.6467297416356
 30
0.0
 10
623.0816155527394
 20
678.2510978854183
 30
0.0
 10
627.5606438050928
 20
678.8838005900793
 30
0.0
 10
631.8091068524936
 20
679.544406863659
 30
0.0
 10
635.820547337869
 20
680.2328042603934
 30
0.0
 10
639.5899242449555
 20
680.949391967215
 30
0.0
 10
643.1140037102971
 20
681.6954012153869
 30
0.0
 10
646.3919632267041
 20
682.4734498940127
 30
0.0
 10
649.4263575266156
 20
683.2885426247915
 30
0.0
 10
652.2246991352094
 20
684.1500146984214
 30
0.0
 10
654.8019268332421
 20
685.0753467119704
 30
0.0
 10
657.182754516589
 20
686.0981907325504
 30
0.0
 10
659.2285503556398
 20
687.191031160167
 30
0.0
 10
660.8950186954348
 20
688.336151144474
 30
0.0
 10
662.1787664628755
 20
689.4814453763622
 30
0.0
 10
663.1877410140759
 20
690.6700839257396
 30
0.0
 10
663.9729338900402
 20
691.9535525714597
 30
0.0
 10
664.5414306931661
 20
693.3545206965396
 30
0.0
 10
664.8249817705403
 20
694.8768447161232
 30
0.0
 10
664.8989142299359
 20
695.9667048692183
 30
0.0
 10
664.7957113355868
 20
696.4914627025818
 30
0.0
 10
664.7948115858865
 20
696.4960376779859
 30
0.0
  0
SPLINE
  5
6F
330
1F
100
AcDbEntity
  8
0
  6
Continuous
 62
     7
370
    25
100
AcDbSpline
210
0.0
220
0.0
230
1.0
 70
     8
 71
     3
 72
    17
 73
    13
 74
     0
 42
0.00000001
 43
0.00000001
 40
0.0
 40
0.0
 40
0.0
 40
0.0
 40
0.0489170336120787
 40
0.1265120943547753
 40
0.2036944478696129
 40
0.2829099744947096
 40
0.3674409163278712
 40
0.4615484515419333
 40
0.5709164110099664
 40
0.7024769214356504
 40
0.8588112889476577
 40
1.0
 40
1.0
 40
1.0
 40
1.0
 10
369.9119284952464
 20
695.9784432576234
 30
0.0
 10
369.8765301286204
 20
695.6455388824501
 30
0.0
 10
369.7849808017722
 20
694.7845621098795
 30
0.0
 10
370.0023949587201
 20
693.3886858097851
 30
0.0
 10
370.480475458072
 20
691.9278635586821
 30
0.0
 10
371.1895588992531
 20
690.6227091632669
 30
0.0
 10
372.079011795028
 20
689.4532822272913
 30
0.0
 10
373.1651800656712
 20
688.3733141470519
 30
0.0
 10
374.5081975580924
 20
687.3294573797987
 30
0.0
 10
376.2209011414184
 20
686.2820737357042
 30
0.0
 10
378.2249991035209
 20
685.2856690978853
 30
0.0
 10
379.8395072115209
 20
684.6683781725285
 30
0.0
 10
380.6056673354751
 20
684.3754445604002
 30
0.0
  0
LINE
  5
70
330
1F
100
AcDbEntity
  8
0
  6
Continuous
 62
     7
370
    25
100
AcDbLine
 10
585.1451294774
 20
601.3928376235
 30
0.0
 11
585.1348267446
 21
607.3491687133
 31
0.0
  0
LINE
  5
71
330
1F
100
AcDbEntity
  8
0
  6
Continuous
 62
     7
370
    25
100
AcDbLine
 10
562.1348611514
 20
607.3093854145
 30
0.0
 11
562.1451638842
 21
601.3530543246
 31
0.0
  0
LINE
  5
72
330
1F
100
AcDbEntity
  8
0
  6
Continuous
 62
     7
370
    25
100
AcDbLine
 10
578.2589499737
 20
617.3732316424
 30
0.0
 11
575.5872640826
 21
674.3370190005
 31
0.0
  0
LINE
  5
73
330
1F
100
AcDbEntity
  8
0
  6
Continuous
 62
     7
370
    25
100
AcDbLine
 10
565.6145198883
 20
673.5215115129
 30
0.0
 11
568.2487913634
 21
617.3554477367
 31
0.0
  0
LINE
  5
74
330
1F
100
AcDbEntity
  8
0
  6
Continuous
 62
     7
370
    25
100
AcDbLine
 10
582.6348304845
 20
607.3448444417
 30
0.0
 11
582.6262448738
 21
612.3084536833
 31
0.0
  0
LINE
  5
75
330
1F
100
AcDbEntity
  8
0
  6
Continuous
 62
     7
370
    25
100
AcDbLine
 10
564.6262718009
 20
612.2773189277
 30
0.0
 11
564.6348574115
 21
607.3137096861
 31
0.0
  0
LINE
  5
76
330
1F
100
AcDbEntity
  8
0
  6
Continuous
 62
     7
370
    25
100
AcDbLine
 10
581.6262463698
 20
612.3067239746
 30
0.0
 11
581.6176607591
 21
617.2703332162
 31
0.0
  0
LINE
  5
77
330
1F
100
AcDbEntity
  8
0
  6
Continuous
 62
     7
370
    25
100
AcDbLine
 10
565.6176846943
 20
617.2426578778
 30
0.0
 11
565.6262703049
 21
612.2790486363
 31
0.0
  0
LINE
  5
78
330
1F
100
AcDbEntity
  8
0
  6
Continuous
 62
     7
370
    25
100
AcDbLine
 10
384.2905566785
 20
626.9562647028
 30
0.0
 11
390.3545510821
 21
681.5606558261
 31
0.0
  0
LINE
  5
79
330
1F
100
AcDbEntity
  8
0
  6
Continuous
 62
     7
370
    25
100
AcDbLine
 10
380.7433646281
 20
685.6153660253
 30
0.0
 11
374.2282773631
 21
626.9490234231
 31
0.0
  0
LINE
  5
7A
330
1F
100
AcDbEntity
  8
0
  6
Continuous
 62
     7
370
    25
100
AcDbLine
 10
389.8861414309
 20
611.0436424471
 30
0.0
 11
389.8758386981
 21
616.999973537
 31
0.0
  0
LINE
  5
7B
330
1F
100
AcDbEntity
  8
0
  6
Continuous
 62
     7
370
    25
100
AcDbLine
 10
366.8758731049
 20
616.9601902381
 30
0.0
 11
366.8861758377
 21
611.0038591483
 31
0.0
  0
LINE
  5
7C
330
1F
100
AcDbEntity
  8
0
  6
Continuous
 62
     7
370
    25
100
AcDbLine
 10
387.375842438
 20
616.9956492654
 30
0.0
 11
387.3672568273
 21
621.9592585069
 31
0.0
  0
LINE
  5
7D
330
1F
100
AcDbEntity
  8
0
  6
Continuous
 62
     7
370
    25
100
AcDbLine
 10
369.3672837544
 20
621.9281237513
 30
0.0
 11
369.375869365
 21
616.9645145098
 31
0.0
  0
LINE
  5
7E
330
1F
100
AcDbEntity
  8
0
  6
Continuous
 62
     7
370
    25
100
AcDbLine
 10
386.3672583233
 20
621.9575287983
 30
0.0
 11
386.3586727126
 21
626.9211380398
 31
0.0
  0
LINE
  5
7F
330
1F
100
AcDbEntity
  8
0
  6
Continuous
 62
     7
370
    25
100
AcDbLine
 10
370.3586966477
 20
626.8934627015
 30
0.0
 11
370.3672822584
 21
621.92985346
 31
0.0
  0
LINE
  5
80
330
1F
100
AcDbEntity
  8
0
  6
Continuous
 62
     7
370
    25
100
AcDbLine
 10
660.6563940454
 20
640.8851526753
 30
0.0
 11
655.5002470394
 21
685.4084174338
 31
0.0
  0
LINE
  5
81
330
1F
100
AcDbEntity
  8
0
  6
Continuous
 62
     7
370
    25
100
AcDbLine
 10
645.7881086915
 20
682.3456245739
 30
0.0
 11
650.594191605
 21
640.8451588659
 31
0.0
  0
LINE
  5
82
330
1F
100
AcDbEntity
  8
0
  6
Continuous
 62
     7
370
    25
100
AcDbLine
 10
668.0534819165
 20
625.0468415394
 30
0.0
 11
668.0431791837
 21
631.0031726292
 31
0.0
  0
LINE
  5
83
330
1F
100
AcDbEntity
  8
0
  6
Continuous
 62
     7
370
    25
100
AcDbLine
 10
645.0432135905
 20
630.9633893304
 30
0.0
 11
645.0535163233
 21
625.0070582405
 31
0.0
  0
LINE
  5
84
330
1F
100
AcDbEntity
  8
0
  6
Continuous
 62
     7
370
    25
100
AcDbLine
 10
665.5431829236
 20
630.9988483576
 30
0.0
 11
665.534597313
 21
635.9624575992
 31
0.0
  0
LINE
  5
85
330
1F
100
AcDbEntity
  8
0
  6
Continuous
 62
     7
370
    25
100
AcDbLine
 10
647.53462424
 20
635.9313228436
 30
0.0
 11
647.5432098507
 21
630.967713602
 31
0.0
  0
LINE
  5
86
330
1F
100
AcDbEntity
  8
0
  6
Continuous
 62
     7
370
    25
100
AcDbLine
 10
664.5345988089
 20
635.9607278905
 30
0.0
 11
664.5260131982
 21
640.9243371321
 31
0.0
  0
LINE
  5
87
330
1F
100
AcDbEntity
  8
0
  6
Continuous
 62
     7
370
    25
100
AcDbLine
 10
648.5260371334
 20
640.8966617937
 30
0.0
 11
648.5346227441
 21
635.9330525522
 31
0.0
  0
LINE
  5
88
330
1F
100
AcDbEntity
  8
0
  6
Continuous
 62
     7
370
    25
100
AcDbLine
 10
466.6359259088
 20
650.4556348831
 30
0.0
 11
467.6620077341
 21
673.417804743
 31
0.0
  0
LINE
  5
89
330
1F
100
AcDbEntity
  8
0
  6
Continuous
 62
     7
370
    25
100
AcDbLine
 10
457.6735246399
 20
673.8988531297
 30
0.0
 11
456.6257524461
 21
650.4512854049
 31
0.0
  0
LINE
  5
8A
330
1F
100
AcDbEntity
  8
0
  6
Continuous
 62
     7
370
    25
100
AcDbLine
 10
472.79449387
 20
634.697646363
 30
0.0
 11
472.7841911372
 21
640.6539774529
 31
0.0
  0
LINE
  5
8B
330
1F
100
AcDbEntity
  8
0
  6
Continuous
 62
     7
370
    25
100
AcDbLine
 10
449.784225544
 20
640.614194154
 30
0.0
 11
449.7945282768
 21
634.6578630642
 31
0.0
  0
LINE
  5
8C
330
1F
100
AcDbEntity
  8
0
  6
Continuous
 62
     7
370
    25
100
AcDbLine
 10
470.2841948771
 20
640.6496531813
 30
0.0
 11
470.2756092664
 21
645.6132624228
 31
0.0
  0
LINE
  5
8D
330
1F
100
AcDbEntity
  8
0
  6
Continuous
 62
     7
370
    25
100
AcDbLine
 10
452.2756361935
 20
645.5821276672
 30
0.0
 11
452.2842218041
 21
640.6185184257
 31
0.0
  0
LINE
  5
8E
330
1F
100
AcDbEntity
  8
0
  6
Continuous
 62
     7
370
    25
100
AcDbLine
 10
469.2756107624
 20
645.6115327142
 30
0.0
 11
469.2670251517
 21
650.5751419557
 31
0.0
  0
LINE
  5
8F
330
1F
100
AcDbEntity
  8
0
  6
Continuous
 62
     7
370
    25
100
AcDbLine
 10
453.2670490869
 20
650.5474666174
 30
0.0
 11
453.2756346975
 21
645.5838573759
 31
0.0
  0
LWPOLYLINE
  5
90
330
1F
100
AcDbEntity
  8
0
  6
Continuous
 62
     7
370
    25
100
AcDbPolyline
 90
        3
 70
   128
 43
0.0
 10
361.5456823444
 20
701.1702044315
 10
361.5545247631
 20
701.159386065
 10
361.6089811796
 20
701.0941246126
  0
LINE
  5
91
330
1F
100
AcDbEntity
  8
0
  6
Continuous
 62
     7
370
    25
100
AcDbLine
 10
673.0516832546
 20
701.6438868071
 30
0.0
 11
673.1058279192
 21
701.7096292393
 31
0.0
  0
LINE
  5
92
330
1F
100
AcDbEntity
  8
0
  6
Continuous
 62
     7
370
    25
100
AcDbLine
 10
607.7129465324
 20
1166.0255281602
 30
0.0
 11
607.7274687137
 21
1165.9966300255
 31
0.0
  0
LINE
  5
93
330
1F
100
AcDbEntity
  8
0
  6
Continuous
 62
     7
370
    25
100
AcDbLine
 10
425.3166419819
 20
1165.680232359
 30
0.0
 11
425.3278417474
 21
1165.7028516306
 31
0.0
  0
LWPOLYLINE
  5
94
330
1F
100
AcDbEntity
  8
0
  6
Continuous
 62
     7
370
    25
100
AcDbPolyline
 90
       99
 70
   128
 43
0.0
 10
549.0488451969
 20
1158.3500913661
 10
554.142307775
 20
1158.6296784928
 10
559.0811662344
 20
1158.9477425609
 10
563.8451257461
 20
1159.3029765772
 10
568.4146101786
 20
1159.6939208086
 10
572.7708425404
 20
1160.1189687816
 10
576.8959221381
 20
1160.5763738829
 10
580.7728981349
 20
1161.0642565367
 10
584.3858392049
 20
1161.5806119287
 10
587.7198989981
 20
1162.1233182436
 10
590.7613771478
 20
1162.690145385
 10
593.4977755679
 20
1163.2787641385
 10
595.9178498102
 20
1163.8867557433
 10
598.0116552706
 20
1164.5116218315
 10
599.7705880533
 20
1165.1507946944
 10
601.1874203263
 20
1165.8016478336
 10
602.2563300219
 20
1166.4615067538
 10
602.9729247608
 20
1167.1276599533
 10
603.3342599015
 20
1167.7973700657
 10
603.3388506404
 20
1168.4678851084
 10
602.9866781132
 20
1169.1364497914
 10
602.2791894724
 20
1169.8003168389
 10
601.2192919404
 20
1170.4567582789
 10
599.8113408638
 20
1171.1030766526
 10
598.0611218153
 20
1171.7366160992
 10
595.9758268206
 20
1172.3547732693
 10
593.564024804
 20
1172.9550080225
 10
590.8356263773
 20
1173.5348538653
 10
587.801843115
 20
1174.0919280869
 10
584.4751414832
 20
1174.6239415497
 10
580.8691916124
 20
1175.1287080964
 10
576.9988111242
 20
1175.604153533
 10
572.8799042422
 20
1176.048324152
 10
568.5293964382
 20
1176.4593947613
 10
563.9651648821
 20
1176.8356761835
 10
559.2059649803
 20
1177.1756221975
 10
554.271353306
 20
1177.4778358922
 10
549.1816072372
 20
1177.7410754067
 10
543.957641632
 20
1177.9642590335
 10
538.6209228858
 20
1178.146469663
 10
533.1933807206
 20
1178.2869585528
 10
527.6973180713
 20
1178.3851484039
 10
522.1553194383
 20
1178.4406357331
 10
516.5901580828
 20
1178.453192531
 10
511.0247024463
 20
1178.4227671991
 10
505.4818221801
 20
1178.3494847617
 10
499.9842941679
 20
1178.2336463518
 10
494.5547089317
 20
1178.0757279746
 10
489.2153778017
 20
1177.8763785503
 10
483.988241235
 20
1177.6364172486
 10
478.8947786568
 20
1177.3568301219
 10
473.9559201975
 20
1177.0387660537
 10
469.1919606858
 20
1176.6835320375
 10
464.6224762532
 20
1176.2925878061
 10
460.2662438915
 20
1175.867539833
 10
456.1411642937
 20
1175.4101347318
 10
452.2641882969
 20
1174.9222520779
 10
448.651247227
 20
1174.405896686
 10
445.3171874337
 20
1173.863190371
 10
442.275709284
 20
1173.2963632296
 10
439.539310864
 20
1172.7077444762
 10
437.1192366217
 20
1172.0997528714
 10
435.0254311613
 20
1171.4748867832
 10
433.2664983785
 20
1170.8357139203
 10
431.8496661055
 20
1170.1848607811
 10
430.7807564099
 20
1169.5250018609
 10
430.0641616711
 20
1168.8588486613
 10
429.7028265304
 20
1168.189138549
 10
429.6982357915
 20
1167.5186235062
 10
430.0504083186
 20
1166.8500588233
 10
430.7578969595
 20
1166.1861917757
 10
431.8177944914
 20
1165.5297503358
 10
433.2257455681
 20
1164.8834319621
 10
434.9759646165
 20
1164.2498925154
 10
437.0612596112
 20
1163.6317353453
 10
439.4730616279
 20
1163.0315005922
 10
442.2014600545
 20
1162.4516547494
 10
445.2352433168
 20
1161.8945805278
 10
448.5619449487
 20
1161.3625670649
 10
452.1678948194
 20
1160.8578005182
 10
456.0382753076
 20
1160.3823550817
 10
460.1571821896
 20
1159.9381844626
 10
464.5076899936
 20
1159.5271138533
 10
469.0719215497
 20
1159.1508324312
 10
473.8311214515
 20
1158.8108864172
 10
478.7657331258
 20
1158.5086727225
 10
483.8554791947
 20
1158.2454332079
 10
489.0794447998
 20
1158.0222495812
 10
494.416163546
 20
1157.8400389516
 10
499.8437057113
 20
1157.6995500618
 10
505.3397683605
 20
1157.6013602108
 10
510.8817669935
 20
1157.5458728816
 10
516.4469283491
 20
1157.5333160837
 10
522.0123839855
 20
1157.5637414155
 10
527.5552642518
 20
1157.637023853
 10
533.0527922639
 20
1157.7528622628
 10
538.4823775002
 20
1157.9107806401
 10
543.8217086301
 20
1158.1101300644
 10
549.0488451969
 20
1158.3500913661
  0
SPLINE
  5
95
330
1F
100
AcDbEntity
  8
0
  6
Continuous
 62
     7
370
    25
100
AcDbSpline
210
0.0
220
0.0
230
1.0
 70
     8
 71
     3
 72
    14
 73
    10
 74
     0
 42
0.00000001
 43
0.00000001
 40
0.0
 40
0.0
 40
0.0
 40
0.0
 40
0.1235803627106715
 40
0.2288144868568852
 40
0.3341121270472506
 40
0.4930128945747912
 40
0.7167356691208163
 40
0.8944376379201388
 40
1.0
 40
1.0
 40
1.0
 40
1.0
 10
380.7509294013049
 20
685.6145851593158
 30
0.0
 10
380.7826488941831
 20
685.7369266482679
 30
0.0
 10
380.841378932897
 20
685.9634473057723
 30
0.0
 10
381.1888437485277
 20
685.9679754052936
 30
0.0
 10
381.7312498400534
 20
685.6136003185566
 30
0.0
 10
382.6308342433202
 20
684.7789103797052
 30
0.0
 10
383.9118843842202
 20
683.7249912213987
 30
0.0
 10
385.3133226988413
 20
682.8806185397518
 30
0.0
 10
386.1615812093154
 20
682.6421568809882
 30
0.0
 10
386.4776964496002
 20
682.5532908529696
 30
0.0
  0
SPLINE
  5
96
330
1F
100
AcDbEntity
  8
0
  6
Continuous
 62
     7
370
    25
100
AcDbSpline
210
0.0
220
0.0
230
1.0
 70
     8
 71
     3
 72
    18
 73
    14
 74
     0
 42
0.00000001
 43
0.00000001
 40
0.0
 40
0.0
 40
0.0
 40
0.0
 40
0.009460291031329
 40
0.0987537264553169
 40
0.1890928717639914
 40
0.3187131712096957
 40
0.4504548615315339
 40
0.5259065385320105
 40
0.6020690220690427
 40
0.6677642461989997
 40
0.7847090118488732
 40
0.9084123902590431
 40
1.0
 40
1.0
 40
1.0
 40
1.0
 10
565.9621138634889
 20
673.5490221568002
 30
0.0
 10
565.9729316516272
 20
673.5439621021313
 30
0.0
 10
566.0858559672872
 20
673.4911413957752
 30
0.0
 10
566.6365793054819
 20
673.7107903697466
 30
0.0
 10
567.6253206387212
 20
674.2096886715185
 30
0.0
 10
569.0068852269724
 20
675.0735165268788
 30
0.0
 10
570.4408047543509
 20
675.942630193509
 30
0.0
 10
571.7548910695242
 20
676.4557895976876
 30
0.0
 10
572.7836567754354
 20
676.5273090685783
 30
0.0
 10
573.8400181261576
 20
676.2235505591781
 30
0.0
 10
574.7770920791296
 20
675.5793588277581
 30
0.0
 10
575.4619168344716
 20
674.818158191478
 30
0.0
 10
575.5286978715221
 20
674.4796411643796
 30
0.0
 10
575.5571074004672
 20
674.3356315816524
 30
0.0
  0
LWPOLYLINE
  5
97
330
1F
100
AcDbEntity
  8
0
  6
Continuous
 62
     7
370
    25
100
AcDbPolyline
 90
       20
 70
   128
 43
0.0
 10
585.1451294774
 20
601.3928376235
 10
585.1428162867
 20
601.3647697409
 10
584.9168582047
 20
601.1176144191
 10
584.3286180399
 20
600.8786656635
 10
583.3970023153
 20
600.6556034838
 10
582.1519539267
 20
600.455597282
 10
580.6334897538
 20
600.285075422
 10
578.8904144845
 20
600.1495186166
 10
576.9787519922
 20
600.0532837731
 10
574.9599446823
 20
599.9994639585
 10
572.8988786827
 20
599.9897889861
 10
570.8617983507
 20
600.0245698173
 10
568.9141771242
 20
600.1026885676
 10
567.1186131518
 20
600.2216344362
 10
565.5328173372
 20
600.3775844049
 10
564.2077584625
 20
600.5655261134
 10
563.1860250102
 20
600.7794189605
 10
562.5004563342
 20
601.0123882543
 10
562.1730871758
 20
601.2569461698
 10
562.1451638842
 20
601.3530543246
  0
LWPOLYLINE
  5
98
330
1F
100
AcDbEntity
  8
0
  6
Continuous
 62
     7
370
    25
100
AcDbPolyline
 90
       27
 70
   128
 43
0.0
 10
582.6333393747
 20
608.2069015308
 10
583.6233095183
 20
608.0325817991
 10
584.4804110211
 20
607.8082476252
 10
584.9889270744
 20
607.5685189434
 10
585.1325135539
 20
607.3211008307
 10
584.9065554719
 20
607.0739455089
 10
584.3183153071
 20
606.8349967534
 10
583.3866995825
 20
606.6119345737
 10
582.1416511939
 20
606.4119283719
 10
580.623187021
 20
606.2414065118
 10
578.8801117517
 20
606.1058497064
 10
576.9684492594
 20
606.0096148629
 10
574.9496419495
 20
605.9557950484
 10
572.88857595
 20
605.946120076
 10
570.8514956179
 20
605.9809009072
 10
568.9038743914
 20
606.0590196575
 10
567.1083104191
 20
606.177965526
 10
565.5225146044
 20
606.3339154947
 10
564.1974557297
 20
606.5218572032
 10
563.1757222774
 20
606.7357500504
 10
562.4901536014
 20
606.9687193441
 10
562.162784443
 20
607.2132772596
 10
562.2041367164
 20
607.4615635043
 10
562.6128813254
 20
607.7055979539
 10
563.375880882
 20
607.9375371405
 10
564.4686119527
 20
608.1499263478
 10
564.6333663017
 20
608.1757667752
  0
LWPOLYLINE
  5
99
330
1F
100
AcDbEntity
  8
0
  6
Continuous
 62
     7
370
    25
100
AcDbPolyline
 90
       18
 70
   128
 43
0.0
 10
582.6348304845
 20
607.3448444417
 10
582.6113978648
 20
607.2664238457
 10
582.2969983439
 20
607.049896586
 10
581.6279692043
 20
606.844807196
 10
580.6317005775
 20
606.6595520593
 10
579.3489798182
 20
606.5017155429
 10
577.832321665
 20
606.3777594925
 10
576.1438182808
 20
606.2927586832
 10
574.3525971927
 20
606.2501930582
 10
572.5319912025
 20
606.2518052592
 10
570.7565361332
 20
606.2975292825
 10
569.098919324
 20
606.3854931811
 10
567.6270038019
 20
606.5120957029
 10
566.4010499613
 20
606.6721537255
 10
565.4712484964
 20
606.8591144549
 10
564.8756655885
 20
607.0653236967
 10
564.6386844718
 20
607.2823392203
 10
564.6348574115
 20
607.3137096861
  0
ELLIPSE
  5
9A
330
1F
100
AcDbEntity
  8
0
  6
Continuous
 62
     7
370
    25
100
AcDbEllipse
 10
573.2538706685
 20
617.3643396896
 30
0.0
 11
5.005159918944514
 21
0.005533430996138122
 31
0.0
210
0.0
220
0.0
230
1.0
 40
0.1210519368
 41
3.147135995876343
 42
5.098663579390502
  0
ELLIPSE
  5
9B
330
1F
100
AcDbEntity
  8
0
  6
Continuous
 62
     7
370
    25
100
AcDbEllipse
 10
573.2538706685
 20
617.3643396896
 30
0.0
 11
5.005159918944514
 21
0.005533430996138122
 31
0.0
210
0.0
220
0.0
230
1.0
 40
0.1210519368
 41
5.098663579390481
 42
6.288728649466018
  0
LWPOLYLINE
  5
9C
330
1F
100
AcDbEntity
  8
0
  6
Continuous
 62
     7
370
    25
100
AcDbPolyline
 90
       22
 70
   128
 43
0.0
 10
581.6253875794
 20
612.8032174589
 10
582.1312817677
 20
612.6618372616
 10
582.549710603
 20
612.449133565
 10
582.6028122542
 20
612.2300330872
 10
582.2884127332
 20
612.0135058276
 10
581.6193835936
 20
611.8084164375
 10
580.6231149668
 20
611.6231613008
 10
579.3403942075
 20
611.4653247845
 10
577.8237360543
 20
611.341368734
 10
576.1352326702
 20
611.2563679247
 10
574.3440115821
 20
611.2138022997
 10
572.5234055918
 20
611.2154145007
 10
570.7479505225
 20
611.261138524
 10
569.0903337134
 20
611.3491024227
 10
567.6184181913
 20
611.4757049444
 10
566.3924643506
 20
611.6357629671
 10
565.4626628857
 20
611.8227236964
 10
564.8670799778
 20
612.0289329382
 10
564.6300988611
 20
612.2459484619
 10
564.7614215704
 20
612.4648856264
 10
565.2556717384
 20
612.6767811185
 10
565.6254115146
 20
612.7755421206
  0
LWPOLYLINE
  5
9D
330
1F
100
AcDbEntity
  8
0
  6
Continuous
 62
     7
370
    25
100
AcDbPolyline
 90
       16
 70
   128
 43
0.0
 10
581.6262463698
 20
612.3067239746
 10
581.4472122268
 20
612.1035547308
 10
580.902567257
 20
611.9049090104
 10
580.0176901692
 20
611.7244046771
 10
578.8339568325
 20
611.5704819129
 10
577.4067173021
 20
611.4503379752
 10
575.8027077122
 20
611.3695906611
 10
574.0969297685
 20
611.3320156251
 10
572.3691437517
 20
611.3393698341
 10
570.7001390158
 20
611.3913094137
 10
569.1679563673
 20
611.4854057266
 10
567.8442389638
 20
611.617258934
 10
566.7908823599
 20
611.7807037263
 10
566.0571403398
 20
611.9680976068
 10
565.6773218648
 20
612.1706782459
 10
565.6262703049
 20
612.2790486363
  0
LWPOLYLINE
  5
9E
330
1F
100
AcDbEntity
  8
0
  6
Continuous
 62
     7
370
    25
100
AcDbPolyline
 90
       25
 70
   128
 43
0.0
 10
578.2271282295
 20
618.0517122505
 10
578.7680249841
 20
618.002422176
 10
579.9635703258
 20
617.8539025477
 10
580.8623885487
 20
617.6774488321
 10
581.4224519117
 20
617.4813118087
 10
581.6175724744
 20
617.2746626267
 10
581.4386266162
 20
617.0671639723
 10
580.8939816464
 20
616.8685182519
 10
580.0091045586
 20
616.6880139186
 10
578.8253712219
 20
616.5340911545
 10
577.3981316915
 20
616.4139472168
 10
575.7941221015
 20
616.3331999026
 10
574.0883441578
 20
616.2956248666
 10
572.3605581411
 20
616.3029790757
 10
570.6915534052
 20
616.3549186552
 10
569.1593707566
 20
616.4490149682
 10
567.8356533531
 20
616.5808681755
 10
566.7822967493
 20
616.7443129679
 10
566.0485547292
 20
616.9317068484
 10
565.6687362541
 20
617.1342874874
 10
565.660601214
 20
617.3425824396
 10
566.0245299941
 20
617.5468520643
 10
566.7435056892
 20
617.7375449409
 10
567.7839097949
 20
617.9057444826
 10
568.2205130484
 20
617.9583778672
  0
ELLIPSE
  5
9F
330
1F
100
AcDbEntity
  8
0
  6
Continuous
 62
     7
370
    25
100
AcDbEllipse
 10
379.2594170208
 20
626.952644063
 30
0.0
 11
5.031584807257844
 21
0.01180986220924751
 31
0.0
210
0.0
220
0.0
230
1.0
 40
0.1197832804
 41
3.128006478158198
 42
3.522637167134175
  0
ELLIPSE
  5
A0
330
1F
100
AcDbEntity
  8
0
  6
Continuous
 62
     7
370
    25
100
AcDbEllipse
 10
379.2594170208
 20
626.952644063
 30
0.0
 11
5.031584807257844
 21
0.01180986220924751
 31
0.0
210
0.0
220
0.0
230
1.0
 40
0.1197832804
 41
3.522637167134175
 42
6.269599131747916
  0
LWPOLYLINE
  5
A1
330
1F
100
AcDbEntity
  8
0
  6
Continuous
 62
     7
370
    25
100
AcDbPolyline
 90
       25
 70
   128
 43
0.0
 10
389.0389372868
 20
617.5168711861
 10
389.6365814393
 20
617.2802839707
 10
389.8722966077
 20
617.0340480134
 10
389.7385067125
 20
616.7860775404
 10
389.239511871
 20
616.5443425267
 10
388.391350188
 20
616.3166125347
 10
387.2212822779
 20
616.1102069935
 10
385.7669150859
 20
615.9317599471
 10
384.0749931705
 20
615.7870068305
 10
382.1998962939
 20
615.6806001279
 10
380.2018916126
 20
615.6159598383
 10
378.1451966412
 20
615.5951635537
 10
376.0959152482
 20
615.6188796839
 10
374.1199130237
 20
615.6863459729
 10
372.2807003051
 20
615.7953939987
 10
370.6373909024
 20
615.942518868
 10
369.2428021321
 20
616.1229918665
 10
368.1417572246
 20
616.3310124435
 10
367.3696446693
 20
616.5598946464
 10
366.9512807989
 20
616.802282013
 10
366.9001121724
 20
617.0503840139
 10
367.2177833917
 20
617.2962264466
 10
367.8940842424
 20
617.5319077331
 10
368.9072778586
 20
617.7498528828
 10
369.3743782552
 20
617.8265715988
  0
LWPOLYLINE
  5
A2
330
1F
100
AcDbEntity
  8
0
  6
Continuous
 62
     7
370
    25
100
AcDbPolyline
 90
        3
 70
   128
 43
0.0
 10
387.3743513281
 20
617.8577063545
 10
388.0985729249
 20
617.7362055517
 10
389.0389372868
 20
617.5168711861
  0
LWPOLYLINE
  5
A3
330
1F
100
AcDbEntity
  8
0
  6
Continuous
 62
     7
370
    25
100
AcDbPolyline
 90
       18
 70
   128
 43
0.0
 10
387.375842438
 20
616.9956492654
 10
387.3737613451
 20
616.9721139735
 10
387.1506138218
 20
616.7541019445
 10
386.5682266782
 20
616.545341561
 10
385.6504429125
 20
616.3543794975
 10
384.4348366998
 20
616.1890337634
 10
382.9711751013
 20
616.0560736325
 10
381.3193805949
 20
615.960942508
 10
379.5470778416
 20
615.9075350695
 10
377.7268251245
 20
615.8980378238
 10
375.9331438037
 20
615.9328395892
 10
374.2394674032
 20
616.0105155773
 10
372.7151352338
 20
616.127885724
 10
371.4225536336
 20
616.2801448819
 10
370.4146410453
 20
616.461059543
 10
369.7326615286
 20
616.6632230398
 10
369.404535405
 20
616.8783587751
 10
369.375869365
 20
616.9645145098
  0
LWPOLYLINE
  5
A4
330
1F
100
AcDbEntity
  8
0
  6
Continuous
 62
     7
370
    25
100
AcDbPolyline
 90
       19
 70
   128
 43
0.0
 10
389.8861414309
 20
611.0436424471
 10
389.7488094453
 20
610.8297464505
 10
389.2498146038
 20
610.5880114369
 10
388.4016529208
 20
610.3602814448
 10
387.2315850107
 20
610.1538759036
 10
385.7772178187
 20
609.9754288573
 10
384.0852959032
 20
609.8306757407
 10
382.2101990267
 20
609.7242690381
 10
380.2121943454
 20
609.6596287484
 10
378.155499374
 20
609.6388324638
 10
376.106217981
 20
609.662548594
 10
374.1302157565
 20
609.730014883
 10
372.2910030379
 20
609.8390629088
 10
370.6476936352
 20
609.9861877782
 10
369.2531048649
 20
610.1666607766
 10
368.1520599574
 20
610.3746813536
 10
367.3799474021
 20
610.6035635566
 10
366.9615835317
 20
610.8459509232
 10
366.8861758377
 20
611.0038591483
  0
LWPOLYLINE
  5
A5
330
1F
100
AcDbEntity
  8
0
  6
Continuous
 62
     7
370
    25
100
AcDbPolyline
 90
       22
 70
   128
 43
0.0
 10
386.3663995329
 20
622.4540222826
 10
386.7122905054
 20
622.3637871019
 10
387.2199479517
 20
622.1540614513
 10
387.3651757345
 20
621.935723215
 10
387.1420282111
 20
621.7177111861
 10
386.5596410676
 20
621.5089508026
 10
385.6418573018
 20
621.3179887391
 10
384.4262510891
 20
621.152643005
 10
382.9625894906
 20
621.019682874
 10
381.3107949842
 20
620.9245517496
 10
379.5384922309
 20
620.8711443111
 10
377.7182395139
 20
620.8616470653
 10
375.924558193
 20
620.8964488307
 10
374.2308817925
 20
620.9741248188
 10
372.7065496231
 20
621.0914949656
 10
371.413968023
 20
621.2437541234
 10
370.4060554346
 20
621.4246687845
 10
369.7240759179
 20
621.6268322814
 10
369.3959497944
 20
621.8419680167
 10
369.435110586
 20
622.0612683082
 10
369.8399550455
 20
622.2757549761
 10
370.3664234681
 20
622.4263469442
  0
LWPOLYLINE
  5
A6
330
1F
100
AcDbEntity
  8
0
  6
Continuous
 62
     7
370
    25
100
AcDbPolyline
 90
       17
 70
   128
 43
0.0
 10
386.3672583233
 20
621.9575287983
 10
386.3574742435
 20
621.9096813444
 10
386.0856382534
 20
621.7034948146
 10
385.4528999557
 20
621.5085395974
 10
384.4888454901
 20
621.3339315822
 10
383.2385529717
 20
621.1878352458
 10
381.7604846892
 20
621.0770818904
 10
380.1237534728
 20
621.0068502198
 10
378.4048910549
 20
620.9804241889
 10
376.6842695319
 20
620.9990394495
 10
375.0423432539
 20
621.0618255728
 10
373.5558868688
 20
621.1658467494
 10
372.294405425
 20
621.3062390646
 10
371.3168843928
 20
621.4764379299
 10
370.6690315693
 20
621.6684850355
 10
370.3811398324
 20
621.8734004722
 10
370.3672822584
 20
621.92985346
  0
LWPOLYLINE
  5
A7
330
1F
100
AcDbEntity
  8
0
  6
Continuous
 62
     7
370
    25
100
AcDbPolyline
 90
       23
 70
   128
 43
0.0
 10
385.7764804265
 20
627.2807190131
 10
386.2471115666
 20
627.0810673755
 10
386.3488886328
 20
626.873290586
 10
386.0770526427
 20
626.6671040561
 10
385.4443143451
 20
626.4721488389
 10
384.4802598794
 20
626.2975408238
 10
383.229967361
 20
626.1514444873
 10
381.7518990786
 20
626.0406911319
 10
380.1151678621
 20
625.9704594613
 10
378.3963054442
 20
625.9440334305
 10
376.6756839213
 20
625.9626486911
 10
375.0337576433
 20
626.0254348144
 10
373.5473012581
 20
626.1294559909
 10
372.2858198143
 20
626.2698483062
 10
371.3082987821
 20
626.4400471715
 10
370.6604459586
 20
626.6320942771
 10
370.3725542217
 20
626.8370097137
 10
370.4580850691
 20
627.0452118634
 10
370.9130391735
 20
627.2469654249
 10
371.7161433864
 20
627.432836626
 10
372.8298454477
 20
627.5941343359
 10
374.2020698865
 20
627.7233164529
 10
374.3151894411
 20
627.7316397623
  0
LWPOLYLINE
  5
A8
330
1F
100
AcDbEntity
  8
0
  6
Continuous
 62
     7
370
    25
100
AcDbPolyline
 90
        3
 70
   128
 43
0.0
 10
384.3570414084
 20
627.5549391002
 10
384.9590014015
 20
627.46291001
 10
385.7764804265
 20
627.2807190131
  0
ELLIPSE
  5
A9
330
1F
100
AcDbEntity
  8
0
  6
Continuous
 62
     7
370
    25
100
AcDbEllipse
 10
655.6252928252
 20
640.8651557706
 30
0.0
 11
5.031584807257786
 21
0.01180986220947489
 31
0.0
210
0.0
220
0.0
230
1.0
 40
0.1197832804
 41
3.155178829021177
 42
6.29677148261104
  0
LWPOLYLINE
  5
AA
330
1F
100
AcDbEntity
  8
0
  6
Continuous
 62
     7
370
    25
100
AcDbPolyline
 90
        4
 70
   128
 43
0.0
 10
645.8904177346
 20
624.4901605914
 10
645.2927735821
 20
624.7267478068
 10
645.0570584137
 20
624.9729837641
 10
645.0535163233
 20
625.0070582405
  0
LWPOLYLINE
  5
AB
330
1F
100
AcDbEntity
  8
0
  6
Continuous
 62
     7
370
    25
100
AcDbPolyline
 90
       17
 70
   128
 43
0.0
 10
668.0534819165
 20
625.0468415394
 10
668.029242849
 20
624.9566477636
 10
667.7115716297
 20
624.7108053309
 10
667.0352707791
 20
624.4751240445
 10
666.0220771629
 20
624.2571788947
 10
664.7045556576
 20
624.0639748182
 10
663.1250524885
 20
623.9017215527
 10
661.334334187
 20
623.7756340519
 10
659.3899559128
 20
623.6897648717
 10
657.3544115835
 20
623.6468739182
 10
655.2931252685
 20
623.648339742
 10
653.2723484062
 20
623.6941152303
 10
651.3570304276
 20
623.7827291212
 10
649.6087312284
 20
623.9113332913
 10
648.0836425834
 20
624.0757942969
 10
646.8307820965
 20
624.2708262258
 10
645.8904177346
 20
624.4901605914
  0
LWPOLYLINE
  5
AC
330
1F
100
AcDbEntity
  8
0
  6
Continuous
 62
     7
370
    25
100
AcDbPolyline
 90
        7
 70
   128
 43
0.0
 10
645.8801150019
 20
630.4464916813
 10
645.2824708493
 20
630.6830788966
 10
645.0467556809
 20
630.929314854
 10
645.1805455761
 20
631.177285327
 10
645.6795404176
 20
631.4190203406
 10
646.5277021006
 20
631.6467503327
 10
647.5417187408
 20
631.8297706911
  0
LWPOLYLINE
  5
AD
330
1F
100
AcDbEntity
  8
0
  6
Continuous
 62
     7
370
    25
100
AcDbPolyline
 90
       22
 70
   128
 43
0.0
 10
665.5416918138
 20
631.8609054467
 10
665.6762501565
 20
631.8403710009
 10
666.777295064
 20
631.6323504239
 10
667.5494076193
 20
631.403468221
 10
667.9677714897
 20
631.1610808543
 10
668.0189401162
 20
630.9129788535
 10
667.7012688969
 20
630.6671364208
 10
667.0249680463
 20
630.4314551343
 10
666.0117744301
 20
630.2135099846
 10
664.6942529248
 20
630.020305908
 10
663.1147497557
 20
629.8580526426
 10
661.3240314542
 20
629.7319651418
 10
659.37965318
 20
629.6460959616
 10
657.3441088507
 20
629.6032050081
 10
655.2828225357
 20
629.6046708319
 10
653.2620456734
 20
629.6504463201
 10
651.3467276948
 20
629.739060211
 10
649.5984284956
 20
629.8676643812
 10
648.0733398506
 20
630.0321253867
 10
646.8204793637
 20
630.2271573156
 10
645.8801150019
 20
630.4464916813
 10
645.8801150019
 20
630.4464916813
  0
LWPOLYLINE
  5
AE
330
1F
100
AcDbEntity
  8
0
  6
Continuous
 62
     7
370
    25
100
AcDbPolyline
 90
        3
 70
   128
 43
0.0
 10
648.1981761726
 20
630.563185007
 10
647.6905187262
 20
630.7729106576
 10
647.5432098507
 20
630.967713602
  0
LWPOLYLINE
  5
AF
330
1F
100
AcDbEntity
  8
0
  6
Continuous
 62
     7
370
    25
100
AcDbPolyline
 90
       15
 70
   128
 43
0.0
 10
665.5431829236
 20
630.9988483576
 10
665.475356092
 20
630.8657038008
 10
665.0705116325
 20
630.6512171328
 10
664.316557885
 20
630.4503251977
 10
663.2443618044
 20
630.271252535
 10
661.8978192243
 20
630.1213304005
 10
660.3320577561
 20
630.006696624
 10
658.6111798583
 20
629.9320443257
 10
656.8056384742
 20
629.9004297796
 10
654.9893526802
 20
629.9131472888
 10
653.2366814301
 20
629.9696761971
 10
651.6193792909
 20
630.0677022043
 10
650.2036588022
 20
630.2032121141
 10
649.047479727
 20
630.370658135
 10
648.1981761726
 20
630.563185007
  0
LWPOLYLINE
  5
B0
330
1F
100
AcDbEntity
  8
0
  6
Continuous
 62
     7
370
    25
100
AcDbPolyline
 90
        6
 70
   128
 43
0.0
 10
648.1895905619
 20
635.5267942486
 10
647.6819331156
 20
635.7365198992
 10
647.5367053328
 20
635.9548581355
 10
647.7598528562
 20
636.1728701644
 10
648.3422399998
 20
636.3816305479
 10
648.5337639537
 20
636.4295460365
  0
LWPOLYLINE
  5
B1
330
1F
100
AcDbEntity
  8
0
  6
Continuous
 62
     7
370
    25
100
AcDbPolyline
 90
       18
 70
   128
 43
0.0
 10
664.5337400185
 20
636.4572213748
 10
665.1778051494
 20
636.2637490691
 10
665.505931273
 20
636.0486133338
 10
665.4667704813
 20
635.8293130423
 10
665.0619260218
 20
635.6148263743
 10
664.3079722743
 20
635.4139344393
 10
663.2357761938
 20
635.2348617766
 10
661.8892336137
 20
635.0849396421
 10
660.3234721455
 20
634.9703058655
 10
658.6025942476
 20
634.8956535673
 10
656.7970528635
 20
634.8640390211
 10
654.9807670695
 20
634.8767565304
 10
653.2280958195
 20
634.9332854387
 10
651.6107936803
 20
635.0313114458
 10
650.1950731915
 20
635.1668213557
 10
649.0388941163
 20
635.3342673765
 10
648.1895905619
 20
635.5267942486
 10
648.1895905619
 20
635.5267942486
  0
LWPOLYLINE
  5
B2
330
1F
100
AcDbEntity
  8
0
  6
Continuous
 62
     7
370
    25
100
AcDbPolyline
 90
        3
 70
   128
 43
0.0
 10
649.1168150302
 20
635.5734715789
 10
648.6461838901
 20
635.7731232165
 10
648.5346227441
 20
635.9330525522
  0
LWPOLYLINE
  5
B3
330
1F
100
AcDbEntity
  8
0
  6
Continuous
 62
     7
370
    25
100
AcDbPolyline
 90
       14
 70
   128
 43
0.0
 10
664.5345988089
 20
635.9607278905
 10
664.4352103875
 20
635.8089787286
 10
663.9802562832
 20
635.6072251671
 10
663.1771520702
 20
635.421353966
 10
662.063450009
 20
635.2600562561
 10
660.6912255701
 20
635.1308741391
 10
659.1246424432
 20
635.0398480271
 10
657.4369523142
 20
634.9912342001
 10
655.7070696978
 20
634.9873057864
 10
654.0158819825
 20
635.0282464744
 10
652.4424672262
 20
635.1121419231
 10
651.0603965542
 20
635.2350692744
 10
649.9342940551
 20
635.391280582
 10
649.1168150302
 20
635.5734715789
  0
LWPOLYLINE
  5
B4
330
1F
100
AcDbEntity
  8
0
  6
Continuous
 62
     7
370
    25
100
AcDbPolyline
 90
        7
 70
   128
 43
0.0
 10
649.1082294195
 20
640.5370808204
 10
648.6375982794
 20
640.736732458
 10
648.5358212131
 20
640.9445092476
 10
648.8076572032
 20
641.1506957775
 10
649.4403955009
 20
641.3456509946
 10
650.4044499666
 20
641.5202590098
 10
650.5142071427
 20
641.535823695
  0
LWPOLYLINE
  5
B5
330
1F
100
AcDbEntity
  8
0
  6
Continuous
 62
     7
370
    25
100
AcDbPolyline
 90
       20
 70
   128
 43
0.0
 10
660.5562919895
 20
641.7495326734
 10
661.3374085879
 20
641.6883438426
 10
662.5988900317
 20
641.5479515274
 10
663.5764110638
 20
641.3777526621
 10
664.2242638874
 20
641.1857055565
 10
664.5121556243
 20
640.9807901198
 10
664.4266247769
 20
640.7725879702
 10
663.9716706725
 20
640.5708344087
 10
663.1685664595
 20
640.3849632076
 10
662.0548643983
 20
640.2236654977
 10
660.6826399594
 20
640.0944833806
 10
659.1160568326
 20
640.0034572687
 10
657.4283667036
 20
639.9548434416
 10
655.6984840871
 20
639.9509150279
 10
654.0072963718
 20
639.991855716
 10
652.4338816155
 20
640.0757511646
 10
651.0518109435
 20
640.1986785159
 10
649.9257084445
 20
640.3548898236
 10
649.1082294195
 20
640.5370808204
 10
649.1082294195
 20
640.5370808204
  0
ELLIPSE
  5
B6
330
1F
100
AcDbEntity
  8
0
  6
Continuous
 62
     7
370
    25
100
AcDbEllipse
 10
461.6308391774
 20
650.453460144
 30
0.0
 11
5.005159918944343
 21
0.005533430996024435
 31
0.0
210
0.0
220
0.0
230
1.0
 40
0.1210519368
 41
3.136049311303613
 42
6.277641964893335
  0
LWPOLYLINE
  5
B7
330
1F
100
AcDbEntity
  8
0
  6
Continuous
 62
     7
370
    25
100
AcDbPolyline
 90
       12
 70
   128
 43
0.0
 10
465.6012854384
 20
633.4010703786
 10
463.6281071014
 20
633.3257397908
 10
461.5799250679
 20
633.293864075
 10
459.5225695939
 20
633.3064677431
 10
457.5221657769
 20
633.3631457026
 10
455.6430082417
 20
633.4620762775
 10
453.9454946576
 20
633.6000797575
 10
452.4841845079
 20
633.7727205974
 10
451.3060455031
 20
633.9744499784
 10
450.4489440003
 20
634.1987841523
 10
449.940427947
 20
634.4385128341
 10
449.7945282768
 20
634.6578630642
  0
LWPOLYLINE
  5
B8
330
1F
100
AcDbEntity
  8
0
  6
Continuous
 62
     7
370
    25
100
AcDbPolyline
 90
        8
 70
   128
 43
0.0
 10
472.79449387
 20
634.697646363
 10
472.725218305
 20
634.5454682732
 10
472.316473696
 20
634.3014338236
 10
471.5534741394
 20
634.069494637
 10
470.4607430687
 20
633.8571054297
 10
469.0734017598
 20
633.6710925657
 10
467.4360405036
 20
633.5174346514
 10
465.6012854384
 20
633.4010703786
  0
LWPOLYLINE
  5
B9
330
1F
100
AcDbEntity
  8
0
  6
Continuous
 62
     7
370
    25
100
AcDbPolyline
 90
       16
 70
   128
 43
0.0
 10
465.5909827056
 20
639.3574014685
 10
463.6178043686
 20
639.2820708806
 10
461.5696223351
 20
639.2501951649
 10
459.5122668611
 20
639.2627988329
 10
457.5118630441
 20
639.3194767925
 10
455.6327055089
 20
639.4184073673
 10
453.9351919248
 20
639.5564108474
 10
452.4738817751
 20
639.7290516872
 10
451.2957427703
 20
639.9307810683
 10
450.4386412675
 20
640.1551152421
 10
449.9301252142
 20
640.394843924
 10
449.7865387348
 20
640.6422620366
 10
450.0124968168
 20
640.8894173585
 10
450.6007369815
 20
641.128366114
 10
451.5323527062
 20
641.3514282937
 10
452.2827306943
 20
641.4805755147
  0
LWPOLYLINE
  5
BA
330
1F
100
AcDbEntity
  8
0
  6
Continuous
 62
     7
370
    25
100
AcDbPolyline
 90
       12
 70
   128
 43
0.0
 10
470.2827037673
 20
641.5117102704
 10
470.721596559
 20
641.4415056642
 10
471.7433300112
 20
641.227612817
 10
472.4288986872
 20
640.9946435233
 10
472.7562678456
 20
640.7500856077
 10
472.7149155722
 20
640.5017993631
 10
472.3061709632
 20
640.2577649134
 10
471.5431714066
 20
640.0258257269
 10
470.450440336
 20
639.8134365196
 10
469.063099027
 20
639.6274236556
 10
467.4257377708
 20
639.4737657413
 10
465.5909827056
 20
639.3574014685
  0
LWPOLYLINE
  5
BB
330
1F
100
AcDbEntity
  8
0
  6
Continuous
 62
     7
370
    25
100
AcDbPolyline
 90
       11
 70
   128
 43
0.0
 10
464.6547274088
 20
639.6349415413
 10
462.9058924662
 20
639.5708293854
 10
461.0906655849
 20
639.5502470722
 10
459.2833623668
 20
639.574037244
 10
457.5579740179
 20
639.6412259284
 10
455.9851381401
 20
639.7490624128
 10
454.6292468188
 20
639.8931318587
 10
453.5458104042
 20
640.0675360462
 10
452.7791849103
 20
640.2651348473
 10
452.3607560749
 20
640.4778385439
 10
452.2842218041
 20
640.6185184257
  0
LWPOLYLINE
  5
BC
330
1F
100
AcDbEntity
  8
0
  6
Continuous
 62
     7
370
    25
100
AcDbPolyline
 90
        7
 70
   128
 43
0.0
 10
470.2841948771
 20
640.6496531813
 10
470.1490451076
 20
640.4620864825
 10
469.6547949395
 20
640.2501909904
 10
468.8178519726
 20
640.0540121971
 10
467.6724807502
 20
639.8815816854
 10
466.2655729048
 20
639.7399587806
 10
464.6547274088
 20
639.6349415413
  0
LWPOLYLINE
  5
BD
330
1F
100
AcDbEntity
  8
0
  6
Continuous
 62
     7
370
    25
100
AcDbPolyline
 90
       13
 70
   128
 43
0.0
 10
464.6461417982
 20
644.5985507828
 10
462.8973068555
 20
644.534438627
 10
461.0820799743
 20
644.5138563138
 10
459.2747767561
 20
644.5376464856
 10
457.5493884073
 20
644.60483517
 10
455.9765525294
 20
644.7126716543
 10
454.6206612081
 20
644.8567411002
 10
453.5372247935
 20
645.0311452877
 10
452.7705992996
 20
645.2287440888
 10
452.3521704643
 20
645.4414477855
 10
452.2990688131
 20
645.6605482632
 10
452.6134683341
 20
645.8770755229
 10
453.2747759072
 20
646.0803508601
  0
LWPOLYLINE
  5
BE
330
1F
100
AcDbEntity
  8
0
  6
Continuous
 62
     7
370
    25
100
AcDbPolyline
 90
       10
 70
   128
 43
0.0
 10
469.274751972
 20
646.1080261985
 10
469.4392181816
 20
646.067857654
 10
470.0348010895
 20
645.8616484122
 10
470.2717822062
 20
645.6446328886
 10
470.1404594969
 20
645.4256957241
 10
469.6462093289
 20
645.213800232
 10
468.8092663619
 20
645.0176214387
 10
467.6638951396
 20
644.8451909269
 10
466.2569872941
 20
644.7035680222
 10
464.6461417982
 20
644.5985507828
  0
LWPOLYLINE
  5
BF
330
1F
100
AcDbEntity
  8
0
  6
Continuous
 62
     7
370
    25
100
AcDbPolyline
 90
       11
 70
   128
 43
0.0
 10
464.2716396795
 20
644.709566812
 10
462.6069876511
 20
644.6500567866
 10
460.8800824788
 20
644.6348572729
 10
459.171672329
 20
644.6646789833
 10
457.5616405615
 20
644.7381274878
 10
456.1252704725
 20
644.851768416
 10
454.9297251308
 20
645.0002880443
 10
454.0309069079
 20
645.1767417599
 10
453.4708435449
 20
645.3728787834
 10
453.2757229822
 20
645.5795279653
 10
453.2756346975
 20
645.5838573759
  0
LWPOLYLINE
  5
C0
330
1F
100
AcDbEntity
  8
0
  6
Continuous
 62
     7
370
    25
100
AcDbPolyline
 90
        7
 70
   128
 43
0.0
 10
469.2756107624
 20
645.6115327142
 10
469.2326942427
 20
645.5116081525
 10
468.8687654626
 20
645.3073385278
 10
468.1497897674
 20
645.1166456511
 10
467.1093856617
 20
644.9484461095
 10
465.7962012851
 20
644.8106047265
 10
464.2716396795
 20
644.709566812
  0
LWPOLYLINE
  5
C1
330
1F
100
AcDbEntity
  8
0
  6
Continuous
 62
     7
370
    25
100
AcDbPolyline
 90
       15
 70
   128
 43
0.0
 10
464.2630540688
 20
649.6731760535
 10
462.5984020405
 20
649.6136660281
 10
460.8714968681
 20
649.5984665144
 10
459.1630867183
 20
649.6282882249
 10
457.5530549509
 20
649.7017367294
 10
456.1166848618
 20
649.8153776575
 10
454.9211395202
 20
649.9638972858
 10
454.0223212973
 20
650.1403510015
 10
453.4622579343
 20
650.3364880249
 10
453.2671373716
 20
650.5431372069
 10
453.4460832298
 20
650.7506358613
 10
453.9907281996
 20
650.9492815817
 10
454.8756052874
 20
651.129785915
 10
456.0593386241
 20
651.2837086791
 10
456.6655320758
 20
651.3414937606
  0
LWPOLYLINE
  5
C2
330
1F
100
AcDbEntity
  8
0
  6
Continuous
 62
     7
370
    25
100
AcDbPolyline
 90
       11
 70
   128
 43
0.0
 10
466.6727925152
 20
651.280654152
 10
467.0490564929
 20
651.236931658
 10
468.1024130967
 20
651.0734868657
 10
468.8361551168
 20
650.8860929852
 10
469.2159735918
 20
650.6835123461
 10
469.224108632
 20
650.475217394
 10
468.8601798519
 20
650.2709477693
 10
468.1412041568
 20
650.0802548927
 10
467.1008000511
 20
649.912055351
 10
465.7876156744
 20
649.774213968
 10
464.2630540688
 20
649.6731760535
  0
LWPOLYLINE
  5
C3
330
1F
100
AcDbEntity
  8
0
  6
Continuous
 62
     7
370
    25
100
AcDbPolyline
 90
       63
 70
   128
 43
0.0
 10
361.6089811796
 20
701.0941246126
 10
362.4615943309
 20
700.2705214121
 10
363.7194733717
 20
699.3884605421
 10
365.3253123849
 20
698.5152016067
 10
367.2754736288
 20
697.6527228182
 10
369.5655393607
 20
696.8029779685
 10
372.1903218453
 20
695.967892003
 10
375.143875106
 20
695.1493566599
 10
378.4195083947
 20
694.349226185
 10
382.0098013486
 20
693.5693131314
 10
385.9066207991
 20
692.8113842528
 10
390.1011391971
 20
692.0771565019
 10
394.5838546091
 20
691.3682931409
 10
399.344612243
 20
690.6863999731
 10
404.3726274516
 20
690.0330217059
 10
409.6565101631
 20
689.4096384513
 10
415.1842906839
 20
688.8176623727
 10
420.943446813
 20
688.2584344865
 10
426.9209322095
 20
687.7332216237
 10
433.1032059464
 20
687.2432135603
 10
439.4762631853
 20
686.7895203222
 10
446.0256669018
 20
686.3731696704
 10
452.7365805898
 20
685.9951047732
 10
459.5938018716
 20
685.6561820692
 10
466.5817969352
 20
685.3571693272
 10
473.6847357244
 20
685.0987439073
 10
480.8865277982
 20
684.8814912261
 10
488.1708587813
 20
684.705903431
 10
495.521227321
 20
684.5723782846
 10
502.9209824685
 20
684.4812182645
 10
510.3533613985
 20
684.4326298774
 10
517.801527382
 20
684.4267231916
 10
525.2486079276
 20
684.4635115876
 10
532.6777330026
 20
684.542911728
 10
540.0720732493
 20
684.6647437457
 10
547.4148781086
 20
684.8287316523
 10
554.689513766
 20
685.0345039622
 10
561.8795008318
 20
685.281594535
 10
568.9685516729
 20
685.5694436312
 10
575.940607309
 20
685.8973991798
 10
582.7798737916
 20
686.2647182562
 10
589.4708579824
 20
686.6705687645
 10
595.9984026502
 20
687.1140313226
 10
602.3477208067
 20
687.5941013454
 10
608.5044292044
 20
688.1096913198
 10
614.4545809183
 20
688.6596332687
 10
620.1846969411
 20
689.2426813966
 10
625.681796717
 20
689.8575149121
 10
630.933427547
 20
690.5027410194
 10
635.9276927982
 20
691.176898074
 10
640.6532788533
 20
691.8784588933
 10
645.0994807401
 20
692.6058342163
 10
649.2562263813
 20
693.3573763039
 10
653.114099411
 20
694.1313826718
 10
656.6643605061
 20
694.9260999464
 10
659.8989671831
 20
695.7397278376
 10
662.8105920177
 20
696.5704232164
 10
665.3926392432
 20
697.4163042908
 10
667.639259692
 20
698.2754548679
 10
669.5453640463
 20
699.1459286953
 10
671.1066343666
 20
700.02575387
 10
672.3195338736
 20
700.9129373049
 10
673.0516832546
 20
701.6438868071
  0
LWPOLYLINE
  5
C4
330
1F
100
AcDbEntity
  8
0
  6
Continuous
 62
     7
370
    25
100
AcDbPolyline
 90
       54
 70
   128
 43
0.0
 10
607.7274687137
 20
1165.9966300255
 10
607.8555791702
 20
1165.6350455093
 10
607.8274460084
 20
1164.9506974752
 10
607.4460751882
 20
1164.2672816281
 10
606.7129421591
 20
1163.587441971
 10
605.6308832704
 20
1162.9138086717
 10
604.2040847978
 20
1162.2489878863
 10
602.4380667473
 20
1161.5955516775
 10
600.3396614998
 20
1160.9560280629
 10
597.9169873774
 20
1160.3328912352
 10
595.1794172358
 20
1159.7285519897
 10
592.1375422019
 20
1159.1453483976
 10
588.8031306993
 20
1158.5855367602
 10
585.1890829185
 20
1158.05128288
 10
581.3093809081
 20
1157.5446536815
 10
577.1790344815
 20
1157.0676092147
 10
572.8140231466
 20
1156.6219950719
 10
568.2312342844
 20
1156.2095352476
 10
563.4483978147
 20
1155.8318254688
 10
558.4840176025
 20
1155.4903270213
 10
553.3572998706
 20
1155.1863610962
 10
548.0880788939
 20
1154.9211036786
 10
542.6967402647
 20
1154.6955809979
 10
537.2041420248
 20
1154.5106655576
 10
531.6315339698
 20
1154.3670727596
 10
526.0004754376
 20
1154.2653581366
 10
520.3327518998
 20
1154.2059152025
 10
514.6502906777
 20
1154.1889739307
 10
508.9750761099
 20
1154.2145998636
 10
503.3290644989
 20
1154.2826938594
 10
497.734099167
 20
1154.3929924758
 10
492.211825948
 20
1154.5450689887
 10
486.7836094443
 20
1154.7383350437
 10
481.4704503709
 20
1154.972042932
 10
476.2929043081
 20
1155.2452884831
 10
471.2710021759
 20
1155.5570145632
 10
466.424172738
 20
1155.9060151645
 10
461.7711674359
 20
1156.2909400715
 10
457.3299878432
 20
1156.7103000846
 10
453.1178160209
 20
1157.1624727813
 10
449.1509480436
 20
1157.6457087934
 10
445.4447309529
 20
1158.1581385744
 10
442.0135033826
 20
1158.6977796332
 10
438.8705400856
 20
1159.2625442034
 10
436.0280005765
 20
1159.8502473205
 10
433.4968820882
 20
1160.4586152754
 10
431.2869770266
 20
1161.0852944106
 10
429.406835085
 20
1161.7278602263
 10
427.8637301674
 20
1162.3838267602
 10
426.6636322468
 20
1163.0506562051
 10
425.811184269
 20
1163.7257687276
 10
425.3096841897
 20
1164.4065524484
 10
425.1610722151
 20
1165.0903735476
 10
425.3166419819
 20
1165.680232359
  0
LWPOLYLINE
  5
C5
330
1F
100
AcDbEntity
  8
0
  6
Continuous
 62
     7
370
    25
100
AcDbPolyline
 90
       15
 70
   128
 43
0.0
 10
485.6861155115
 20
1170.0111481118
 10
480.7574447587
 20
1169.7401327951
 10
475.9819612982
 20
1169.4311241154
 10
471.3801144834
 20
1169.0854452955
 10
466.9716101289
 20
1168.704576585
 10
462.775326127
 20
1168.2901489223
 10
458.8092316101
 20
1167.8439369501
 10
455.0903100038
 20
1167.3678514168
 10
451.6344863014
 20
1166.8639309936
 10
448.4565588704
 20
1166.3343335452
 10
445.5701360841
 20
1165.781326889
 10
442.987578048
 20
1165.2072790846
 10
440.719943672
 20
1164.6146482928
 10
438.7769433146
 20
1164.0059722495
 10
437.7897795278
 20
1163.6417641555
  0
LWPOLYLINE
  5
C6
330
1F
100
AcDbEntity
  8
0
  6
Continuous
 62
     7
370
    25
100
AcDbPolyline
 90
       27
 70
   128
 43
0.0
 10
595.2996414934
 20
1163.8993693871
 10
594.752786962
 20
1164.1058374962
 10
592.8989535307
 20
1164.7120825749
 10
590.718100235
 20
1165.3018651737
 10
588.2195658233
 20
1165.8726597528
 10
585.4140494037
 20
1166.4220220824
 10
582.3135646282
 20
1166.9475997085
 10
578.9313882486
 20
1167.447142027
 10
575.2820032634
 20
1167.9185099212
 10
571.3810368994
 20
1168.3596849212
 10
567.2451936933
 20
1168.768777848
 10
562.8921839608
 20
1169.1440369029
 10
558.3406479579
 20
1169.4838551689
 10
553.6100760604
 20
1169.7867774922
 10
548.7207253035
 20
1170.0515067129
 10
543.6935326378
 20
1170.2769092196
 10
538.5500252739
 20
1170.4620198044
 10
533.3122285002
 20
1170.6060457953
 10
528.0025713665
 20
1170.7083704508
 10
522.6437906397
 20
1170.7685556011
 10
517.2588334418
 20
1170.7863435241
 10
511.8707589861
 20
1170.7616580493
 10
506.5026398346
 20
1170.6946048835
 10
501.1774630977
 20
1170.5854711588
 10
495.9180319996
 20
1170.4347242026
 10
490.7468682318
 20
1170.2430095363
 10
485.6861155115
 20
1170.0111481118
  0
ENDSEC
  0
SECTION
  2
OBJECTS
  0
DICTIONARY
  5
C
330
0
100
AcDbDictionary
281
     1
  3
ACAD_GROUP
350
D
  3
ACAD_LAYOUT
350
1A
  3
ACAD_MLINESTYLE
350
17
  3
ACAD_PLOTSETTINGS
350
19
  3
ACAD_PLOTSTYLENAME
350
E
  3
ACAD_SCALELIST
350
47
  3
DWGPROPS
350
C7
  0
DICTIONARY
  5
D
102
{ACAD_REACTORS
330
C
102
}
330
C
100
AcDbDictionary
281
     1
  0
DICTIONARY
  5
1A
102
{ACAD_REACTORS
330
C
102
}
330
C
100
AcDbDictionary
281
     1
  3
Layout1
350
1E
  3
Layout2
350
26
  3
Model
350
22
  0
DICTIONARY
  5
17
102
{ACAD_REACTORS
330
C
102
}
330
C
100
AcDbDictionary
281
     1
  3
Standard
350
18
  0
DICTIONARY
  5
19
102
{ACAD_REACTORS
330
C
102
}
330
C
100
AcDbDictionary
281
     1
  0
ACDBDICTIONARYWDFLT
  5
E
102
{ACAD_REACTORS
330
C
102
}
330
C
100
AcDbDictionary
281
     1
  3
Normal
350
F
100
AcDbDictionaryWithDefault
340
F
  0
DICTIONARY
  5
47
102
{ACAD_REACTORS
330
C
102
}
330
C
100
AcDbDictionary
281
     1
  3
A0
350
48
  3
A1
350
49
  3
A2
350
4A
  3
A3
350
4B
  3
A4
350
4C
  3
A5
350
4D
  3
A6
350
4E
  3
A7
350
4F
  3
A8
350
50
  3
A9
350
51
  3
B0
350
52
  3
B1
350
53
  3
B2
350
54
  3
B3
350
55
  3
B4
350
56
  3
B5
350
57
  3
B6
350
58
  0
XRECORD
  5
C7
102
{ACAD_REACTORS
330
C
102
}
330
C
100
AcDbXrecord
280
     1
  1
DWGPROPS COOKIE
  2

  3

  4

  6

  7

  8
9148
  9

300
=
301
=
302
=
303
=
304
=
305
=
306
=
307
=
308
=
309
=
 40
0.0
 41
2460115.265151597
 42
2460115.265151979
  1

 90
        0
  0
LAYOUT
  5
1E
102
{ACAD_REACTORS
330
1A
102
}
330
1A
100
AcDbPlotSettings
  1

  2
none_device
  4

  6

 40
0.0
 41
0.0
 42
0.0
 43
0.0
 44
0.0
 45
0.0
 46
0.0
 47
0.0
 48
0.0
 49
0.0
140
0.0
141
0.0
142
1.0
143
1.0
 70
   688
 72
     1
 73
     0
 74
     5
  7

 75
    16
147
1.0
148
0.0
149
0.0
100
AcDbLayout
  1
Layout1
 70
     1
 71
     1
 10
0.0
 20
0.0
 11
420.0
 21
297.0
 12
0.0
 22
0.0
 32
0.0
 14
1.0000000000E+20
 24
1.0000000000E+20
 34
1.0000000000E+20
 15
-1.0000000000E+20
 25
-1.0000000000E+20
 35
-1.0000000000E+20
146
0.0
 13
0.0
 23
0.0
 33
0.0
 16
1.0
 26
0.0
 36
0.0
 17
0.0
 27
1.0
 37
0.0
 76
     0
330
1B
  0
LAYOUT
  5
26
102
{ACAD_REACTORS
330
1A
102
}
330
1A
100
AcDbPlotSettings
  1

  2
none_device
  4

  6

 40
0.0
 41
0.0
 42
0.0
 43
0.0
 44
0.0
 45
0.0
 46
0.0
 47
0.0
 48
0.0
 49
0.0
140
0.0
141
0.0
142
1.0
143
1.0
 70
   688
 72
     1
 73
     0
 74
     5
  7

 75
    16
147
1.0
148
0.0
149
0.0
100
AcDbLayout
  1
Layout2
 70
     1
 71
     2
 10
0.0
 20
0.0
 11
0.0
 21
0.0
 12
0.0
 22
0.0
 32
0.0
 14
0.0
 24
0.0
 34
0.0
 15
0.0
 25
0.0
 35
0.0
146
0.0
 13
0.0
 23
0.0
 33
0.0
 16
1.0
 26
0.0
 36
0.0
 17
0.0
 27
1.0
 37
0.0
 76
     0
330
23
  0
LAYOUT
  5
22
102
{ACAD_REACTORS
330
1A
102
}
330
1A
100
AcDbPlotSettings
  1

  2
none_device
  4
Letter_(8.50_x_11.00_Inches)
  6

 40
6.35
 41
6.35
 42
6.35000508
 43
6.35000508
 44
215.9
 45
279.4
 46
0.0
 47
0.0
 48
0.0
 49
0.0
140
0.0
141
0.0
142
1.0
143
1.0
 70
  1712
 72
     1
 73
     0
 74
     0
  7

 75
     0
147
1.0
148
0.0
149
0.0
100
AcDbLayout
  1
Model
 70
     1
 71
     0
 10
0.0
 20
0.0
 11
1050.0
 21
1485.0
 12
0.0
 22
0.0
 32
0.0
 14
0.0
 24
0.0
 34
0.0
 15
1050.0
 25
1485.0
 35
0.0
146
0.0
 13
0.0
 23
0.0
 33
0.0
 16
1.0
 26
0.0
 36
0.0
 17
0.0
 27
1.0
 37
0.0
 76
     0
330
1F
331
29
  0
MLINESTYLE
  5
18
102
{ACAD_REACTORS
330
17
102
}
330
17
100
AcDbMlineStyle
  2
Standard
 70
     0
  3

 62
   256
 51
90.0
 52
90.0
 71
     2
 49
0.5
 62
   256
  6
BYLAYER
 49
-0.5
 62
   256
  6
BYLAYER
  0
ACDBPLACEHOLDER
  5
F
102
{ACAD_REACTORS
330
E
102
}
330
E
  0
SCALE
  5
48
102
{ACAD_REACTORS
330
47
102
}
330
47
100
AcDbScale
 70
     0
300
1:1
140
1.0
141
1.0
290
     1
  0
SCALE
  5
49
102
{ACAD_REACTORS
330
47
102
}
330
47
100
AcDbScale
 70
     0
300
1:2
140
1.0
141
2.0
290
     0
  0
SCALE
  5
4A
102
{ACAD_REACTORS
330
47
102
}
330
47
100
AcDbScale
 70
     0
300
1:4
140
1.0
141
4.0
290
     0
  0
SCALE
  5
4B
102
{ACAD_REACTORS
330
47
102
}
330
47
100
AcDbScale
 70
     0
300
1:5
140
1.0
141
5.0
290
     0
  0
SCALE
  5
4C
102
{ACAD_REACTORS
330
47
102
}
330
47
100
AcDbScale
 70
     0
300
1:8
140
1.0
141
8.0
290
     0
  0
SCALE
  5
4D
102
{ACAD_REACTORS
330
47
102
}
330
47
100
AcDbScale
 70
     0
300
1:10
140
1.0
141
10.0
290
     0
  0
SCALE
  5
4E
102
{ACAD_REACTORS
330
47
102
}
330
47
100
AcDbScale
 70
     0
300
1:16
140
1.0
141
16.0
290
     0
  0
SCALE
  5
4F
102
{ACAD_REACTORS
330
47
102
}
330
47
100
AcDbScale
 70
     0
300
1:20
140
1.0
141
20.0
290
     0
  0
SCALE
  5
50
102
{ACAD_REACTORS
330
47
102
}
330
47
100
AcDbScale
 70
     0
300
1:30
140
1.0
141
30.0
290
     0
  0
SCALE
  5
51
102
{ACAD_REACTORS
330
47
102
}
330
47
100
AcDbScale
 70
     0
300
1:40
140
1.0
141
40.0
290
     0
  0
SCALE
  5
52
102
{ACAD_REACTORS
330
47
102
}
330
47
100
AcDbScale
 70
     0
300
1:50
140
1.0
141
50.0
290
     0
  0
SCALE
  5
53
102
{ACAD_REACTORS
330
47
102
}
330
47
100
AcDbScale
 70
     0
300
1:100
140
1.0
141
100.0
290
     0
  0
SCALE
  5
54
102
{ACAD_REACTORS
330
47
102
}
330
47
100
AcDbScale
 70
     0
300
2:1
140
2.0
141
1.0
290
     0
  0
SCALE
  5
55
102
{ACAD_REACTORS
330
47
102
}
330
47
100
AcDbScale
 70
     0
300
4:1
140
4.0
141
1.0
290
     0
  0
SCALE
  5
56
102
{ACAD_REACTORS
330
47
102
}
330
47
100
AcDbScale
 70
     0
300
8:1
140
8.0
141
1.0
290
     0
  0
SCALE
  5
57
102
{ACAD_REACTORS
330
47
102
}
330
47
100
AcDbScale
 70
     0
300
10:1
140
10.0
141
1.0
290
     0
  0
SCALE
  5
58
102
{ACAD_REACTORS
330
47
102
}
330
47
100
AcDbScale
 70
     0
300
100:1
140
100.0
141
1.0
290
     0
  0
ENDSEC
  0
EOF
