  0
SECTION
  2
HEADER
  9
$ACADVER
  1
AC1015
  9
$ACADMAINTVER
 70
     6
  9
$DWGCODEPAGE
  3
DOS932
  9
$INSBASE
 10
0.0
 20
0.0
 30
0.0
  9
$EXTMIN
 10
0.0
 20
0.0
 30
0.0
  9
$EXTMAX
 10
1050.0
 20
1485.0
 30
0.0
  9
$LIMMIN
 10
0.0
 20
0.0
  9
$LIMMAX
 10
1050.0
 20
1485.0
  9
$ORTHOMODE
 70
     0
  9
$REGENMODE
 70
     1
  9
$FILLMODE
 70
     1
  9
$QTEXTMODE
 70
     0
  9
$MIRRTEXT
 70
     1
  9
$LTSCALE
 40
5.0
  9
$ATTMODE
 70
     1
  9
$TEXTSIZE
 40
17.5
  9
$TRACEWID
 40
1.0
  9
$TEXTSTYLE
  7
Standard
  9
$CLAYER
  8
0
  9
$CELTYPE
  6
ByLayer
  9
$CECOLOR
 62
   256
  9
$CELTSCALE
 40
1.0
  9
$DISPSILH
 70
     0
  9
$DIMSCALE
 40
1.0
  9
$DIMASZ
 40
7.5
  9
$DIMEXO
 40
5.0
  9
$DIMDLI
 40
3.75
  9
$DIMRND
 40
0.0
  9
$DIMDLE
 40
0.0
  9
$DIMEXE
 40
5.0
  9
$DIMTP
 40
0.0
  9
$DIMTM
 40
0.0
  9
$DIMTXT
 40
17.5
  9
$DIMCEN
 40
2.5
  9
$DIMTSZ
 40
0.0
  9
$DIMTOL
 70
     0
  9
$DIMLIM
 70
     0
  9
$DIMTIH
 70
     1
  9
$DIMTOH
 70
     1
  9
$DIMSE1
 70
     0
  9
$DIMSE2
 70
     0
  9
$DIMTAD
 70
     1
  9
$DIMZIN
 70
     0
  9
$DIMBLK
  1

  9
$DIMASO
 70
     1
  9
$DIMSHO
 70
     1
  9
$DIMPOST
  1

  9
$DIMAPOST
  1

  9
$DIMALT
 70
     0
  9
$DIMALTD
 70
     3
  9
$DIMALTF
 40
0.0393700787
  9
$DIMLFAC
 40
1.0
  9
$DIMTOFL
 70
     1
  9
$DIMTVP
 40
0.0
  9
$DIMTIX
 70
     0
  9
$DIMSOXD
 70
     0
  9
$DIMSAH
 70
     0
  9
$DIMBLK1
  1

  9
$DIMBLK2
  1

  9
$DIMSTYLE
  2
ISO-25
  9
$DIMCLRD
 70
     0
  9
$DIMCLRE
 70
     0
  9
$DIMCLRT
 70
     0
  9
$DIMTFAC
 40
1.0
  9
$DIMGAP
 40
7.5
  9
$DIMJUST
 70
     0
  9
$DIMSD1
 70
     0
  9
$DIMSD2
 70
     0
  9
$DIMTOLJ
 70
     0
  9
$DIMTZIN
 70
     0
  9
$DIMALTZ
 70
     0
  9
$DIMALTTZ
 70
     0
  9
$DIMUPT
 70
     0
  9
$DIMDEC
 70
     1
  9
$DIMTDEC
 70
     1
  9
$DIMALTU
 70
     2
  9
$DIMALTTD
 70
     3
  9
$DIMTXSTY
  7
Standard
  9
$DIMAUNIT
 70
     0
  9
$DIMADEC
 70
     2
  9
$DIMALTRND
 40
0.0
  9
$DIMAZIN
 70
     0
  9
$DIMDSEP
 70
    44
  9
$DIMATFIT
 70
     3
  9
$DIMFRAC
 70
     0
  9
$DIMLDRBLK
  1

  9
$DIMLUNIT
 70
     2
  9
$DIMLWD
 70
    -2
  9
$DIMLWE
 70
    -2
  9
$DIMTMOVE
 70
     0
  9
$LUNITS
 70
     2
  9
$LUPREC
 70
     2
  9
$SKETCHINC
 40
1.0
  9
$FILLETRAD
 40
0.0
  9
$AUNITS
 70
     0
  9
$AUPREC
 70
     2
  9
$MENU
  1
.
  9
$ELEVATION
 40
0.0
  9
$PELEVATION
 40
0.0
  9
$THICKNESS
 40
0.0
  9
$LIMCHECK
 70
     0
  9
$CHAMFERA
 40
0.0
  9
$CHAMFERB
 40
0.0
  9
$CHAMFERC
 40
0.0
  9
$CHAMFERD
 40
0.0
  9
$SKPOLY
 70
     0
  9
$TDCREATE
 40
2460151.590381563
  9
$TDUCREATE
 40
2460151.215381563
  9
$TDUPDATE
 40
2460151.590381736
  9
$TDUUPDATE
 40
2460151.215381736
  9
$TDINDWG
 40
0.0000000116
  9
$TDUSRTIMER
 40
0.0000000116
  9
$USRTIMER
 70
     1
  9
$ANGBASE
 50
0.0
  9
$ANGDIR
 70
     0
  9
$PDMODE
 70
     0
  9
$PDSIZE
 40
-1.0
  9
$PLINEWID
 40
0.0
  9
$SPLFRAME
 70
     0
  9
$SPLINETYPE
 70
     6
  9
$SPLINESEGS
 70
     8
  9
$HANDSEED
  5
AC
  9
$SURFTAB1
 70
     6
  9
$SURFTAB2
 70
     6
  9
$SURFTYPE
 70
     6
  9
$SURFU
 70
     6
  9
$SURFV
 70
     6
  9
$UCSBASE
  2

  9
$UCSNAME
  2

  9
$UCSORG
 10
0.0
 20
0.0
 30
0.0
  9
$UCSXDIR
 10
1.0
 20
0.0
 30
0.0
  9
$UCSYDIR
 10
0.0
 20
1.0
 30
0.0
  9
$UCSORTHOREF
  2

  9
$UCSORTHOVIEW
 70
     0
  9
$UCSORGTOP
 10
0.0
 20
0.0
 30
0.0
  9
$UCSORGBOTTOM
 10
0.0
 20
0.0
 30
0.0
  9
$UCSORGLEFT
 10
0.0
 20
0.0
 30
0.0
  9
$UCSORGRIGHT
 10
0.0
 20
0.0
 30
0.0
  9
$UCSORGFRONT
 10
0.0
 20
0.0
 30
0.0
  9
$UCSORGBACK
 10
0.0
 20
0.0
 30
0.0
  9
$PUCSBASE
  2

  9
$PUCSNAME
  2

  9
$PUCSORG
 10
0.0
 20
0.0
 30
0.0
  9
$PUCSXDIR
 10
1.0
 20
0.0
 30
0.0
  9
$PUCSYDIR
 10
0.0
 20
1.0
 30
0.0
  9
$PUCSORTHOREF
  2

  9
$PUCSORTHOVIEW
 70
     0
  9
$PUCSORGTOP
 10
0.0
 20
0.0
 30
0.0
  9
$PUCSORGBOTTOM
 10
0.0
 20
0.0
 30
0.0
  9
$PUCSORGLEFT
 10
0.0
 20
0.0
 30
0.0
  9
$PUCSORGRIGHT
 10
0.0
 20
0.0
 30
0.0
  9
$PUCSORGFRONT
 10
0.0
 20
0.0
 30
0.0
  9
$PUCSORGBACK
 10
0.0
 20
0.0
 30
0.0
  9
$USERI1
 70
     0
  9
$USERI2
 70
     0
  9
$USERI3
 70
     0
  9
$USERI4
 70
     0
  9
$USERI5
 70
     0
  9
$USERR1
 40
0.0
  9
$USERR2
 40
0.0
  9
$USERR3
 40
0.0
  9
$USERR4
 40
0.0
  9
$USERR5
 40
0.0
  9
$WORLDVIEW
 70
     1
  9
$SHADEDGE
 70
     3
  9
$SHADEDIF
 70
    70
  9
$TILEMODE
 70
     1
  9
$MAXACTVP
 70
    64
  9
$PINSBASE
 10
0.0
 20
0.0
 30
0.0
  9
$PLIMCHECK
 70
     0
  9
$PEXTMIN
 10
1.0000000000E+20
 20
1.0000000000E+20
 30
1.0000000000E+20
  9
$PEXTMAX
 10
-1.0000000000E+20
 20
-1.0000000000E+20
 30
-1.0000000000E+20
  9
$PLIMMIN
 10
0.0
 20
0.0
  9
$PLIMMAX
 10
420.0
 20
297.0
  9
$UNITMODE
 70
     0
  9
$VISRETAIN
 70
     1
  9
$PLINEGEN
 70
     0
  9
$PSLTSCALE
 70
     1
  9
$TREEDEPTH
 70
  3020
  9
$CMLSTYLE
  2
Standard
  9
$CMLJUST
 70
     0
  9
$CMLSCALE
 40
20.0
  9
$PROXYGRAPHICS
 70
     1
  9
$MEASUREMENT
 70
     1
  9
$CELWEIGHT
370
    -1
  9
$ENDCAPS
280
     0
  9
$JOINSTYLE
280
     0
  9
$LWDISPLAY
290
     1
  9
$INSUNITS
 70
     4
  9
$HYPERLINKBASE
  1

  9
$STYLESHEET
  1

  9
$XEDIT
290
     1
  9
$CEPSNTYPE
380
     0
  9
$PSTYLEMODE
290
     1
  9
$FINGERPRINTGUID
  2
{e96fc000-1eeb-4841-ae25-5707a818ec56}
  9
$VERSIONGUID
  2
{FAEB1C32-E019-11D5-929B-00C0DF256EC4}
  9
$EXTNAMES
290
     1
  9
$PSVPSCALE
 40
0.0
  9
$OLESTARTUP
290
     0
  0
ENDSEC
  0
SECTION
  2
CLASSES
  0
CLASS
  1
ACDBDICTIONARYWDFLT
  2
AcDbDictionaryWithDefault
  3
ObjectDBX Classes
 90
        0
280
     0
281
     0
  0
CLASS
  1
VISUALSTYLE
  2
AcDbVisualStyle
  3
ObjectDBX Classes
 90
     4095
280
     0
281
     0
  0
CLASS
  1
MATERIAL
  2
AcDbMaterial
  3
ObjectDBX Classes
 90
     1153
280
     0
281
     0
  0
CLASS
  1
SCALE
  2
AcDbScale
  3
ObjectDBX Classes
 90
     1153
280
     0
281
     0
  0
CLASS
  1
TABLESTYLE
  2
AcDbTableStyle
  3
ObjectDBX Classes
 90
     4095
280
     0
281
     0
  0
CLASS
  1
MLEADERSTYLE
  2
AcDbMLeaderStyle
  3
ACDB_MLEADERSTYLE_CLASS
 90
     4095
280
     0
281
     0
  0
CLASS
  1
SUN
  2
AcDbSun
  3
SCENEOE
 90
     1153
280
     0
281
     0
  0
CLASS
  1
ACDBPLACEHOLDER
  2
AcDbPlaceHolder
  3
ObjectDBX Classes
 90
        0
280
     0
281
     0
  0
CLASS
  1
LAYOUT
  2
AcDbLayout
  3
ObjectDBX Classes
 90
        0
280
     0
281
     0
  0
ENDSEC
  0
SECTION
  2
TABLES
  0
TABLE
  2
VPORT
  5
8
330
0
100
AcDbSymbolTable
 70
     1
  0
VPORT
  5
29
330
8
100
AcDbSymbolTableRecord
100
AcDbViewportTableRecord
  2
*Active
 70
     0
 10
0.0
 20
0.0
 11
1.0
 21
1.0
 12
525.0
 22
742.5
 13
0.0
 23
0.0
 14
10.0
 24
10.0
 15
10.0
 25
10.0
 16
0.0
 26
0.0
 36
1.0
 17
0.0
 27
0.0
 37
0.0
 40
1485.0
 41
0.7070707071
 42
50.0
 43
0.0
 44
0.0
 50
0.0
 51
0.0
 71
     0
 72
  2000
 73
     1
 74
     3
 75
     0
 76
     0
 77
     0
 78
     0
281
     0
 65
     1
110
0.0
120
0.0
130
0.0
111
1.0
121
0.0
131
0.0
112
0.0
122
1.0
132
0.0
 79
     0
146
0.0
  0
ENDTAB
  0
TABLE
  2
LTYPE
  5
5
330
0
100
AcDbSymbolTable
 70
     6
  0
LTYPE
  5
14
330
5
100
AcDbSymbolTableRecord
100
AcDbLinetypeTableRecord
  2
ByBlock
 70
     0
  3

 72
    65
 73
     0
 40
0.0
  0
LTYPE
  5
15
330
5
100
AcDbSymbolTableRecord
100
AcDbLinetypeTableRecord
  2
ByLayer
 70
     0
  3

 72
    65
 73
     0
 40
0.0
  0
LTYPE
  5
16
330
5
100
AcDbSymbolTableRecord
100
AcDbLinetypeTableRecord
  2
Continuous
 70
     0
  3
Solid line
 72
    65
 73
     0
 40
0.0
  0
LTYPE
  5
5E
330
5
100
AcDbSymbolTableRecord
100
AcDbLinetypeTableRecord
  2
HIDDEN
 70
     0
  3
Hidden __ __ __ __ __ __ __ __ __ __ __ __ __ __
 72
    65
 73
     2
 40
1.905
 49
1.27
 74
     0
 49
-0.635
 74
     0
  0
LTYPE
  5
5F
330
5
100
AcDbSymbolTableRecord
100
AcDbLinetypeTableRecord
  2
PHANTOM
 70
     0
  3
Phantom ______  __  __  ______  __  __  ______
 72
    65
 73
     6
 40
12.7
 49
6.35
 74
     0
 49
-1.27
 74
     0
 49
1.27
 74
     0
 49
-1.27
 74
     0
 49
1.27
 74
     0
 49
-1.27
 74
     0
  0
LTYPE
  5
60
330
5
100
AcDbSymbolTableRecord
100
AcDbLinetypeTableRecord
  2
CENTER
 70
     0
  3
Center ____ _ ____ _ ____ _ ____ _ ____ _ ____
 72
    65
 73
     4
 40
10.16
 49
6.35
 74
     0
 49
-1.27
 74
     0
 49
1.27
 74
     0
 49
-1.27
 74
     0
  0
LTYPE
  5
61
330
5
100
AcDbSymbolTableRecord
100
AcDbLinetypeTableRecord
  2
CENTERX2
 70
     0
  3
Center (2x) ________  __  ________  __  _____
 72
    65
 73
     4
 40
20.32
 49
12.7
 74
     0
 49
-2.54
 74
     0
 49
2.54
 74
     0
 49
-2.54
 74
     0
  0
LTYPE
  5
62
330
5
100
AcDbSymbolTableRecord
100
AcDbLinetypeTableRecord
  2
DOT2
 70
     0
  3
Dot (.5x) ........................................
 72
    65
 73
     2
 40
0.635
 49
0.0
 74
     0
 49
-0.635
 74
     0
  0
ENDTAB
  0
TABLE
  2
LAYER
  5
2
330
0
100
AcDbSymbolTable
 70
     2
  0
LAYER
  5
10
330
2
100
AcDbSymbolTableRecord
100
AcDbLayerTableRecord
  2
0
 70
     0
 62
     7
  6
Continuous
370
    -3
390
F
  0
LAYER
  5
63
330
2
100
AcDbSymbolTableRecord
100
AcDbLayerTableRecord
  2
FORMAT
 70
     0
 62
     7
  6
Continuous
370
    -3
390
F
  0
ENDTAB
  0
TABLE
  2
STYLE
  5
3
330
0
100
AcDbSymbolTable
 70
     2
  0
STYLE
  5
11
330
3
100
AcDbSymbolTableRecord
100
AcDbTextStyleTableRecord
  2
Standard
 70
     0
 40
0.0
 41
1.0
 50
0.0
 71
     0
 42
17.5
  3
txt
  4
bigfont
  0
STYLE
  5
64
330
3
100
AcDbSymbolTableRecord
100
AcDbTextStyleTableRecord
  2
SLDTEXTSTYLE0
 70
     0
 40
0.0
 41
0.7
 50
0.0
 71
     0
 42
17.5
  3
TXT
  4
bigfont
  0
ENDTAB
  0
TABLE
  2
VIEW
  5
6
330
0
100
AcDbSymbolTable
 70
     0
  0
ENDTAB
  0
TABLE
  2
UCS
  5
7
330
0
100
AcDbSymbolTable
 70
     0
  0
ENDTAB
  0
TABLE
  2
APPID
  5
9
330
0
100
AcDbSymbolTable
 70
     1
  0
APPID
  5
12
330
9
100
AcDbSymbolTableRecord
100
AcDbRegAppTableRecord
  2
ACAD
 70
     0
  0
ENDTAB
  0
TABLE
  2
DIMSTYLE
  5
A
330
0
100
AcDbSymbolTable
 70
     1
100
AcDbDimStyleTable
  0
DIMSTYLE
105
27
330
A
100
AcDbSymbolTableRecord
100
AcDbDimStyleTableRecord
  2
ISO-25
 70
     0
 41
2.5
 42
0.625
 43
3.75
 44
1.25
 73
     0
 74
     0
 77
     1
 78
     8
140
2.5
141
2.5
143
0.0393700787
147
0.625
171
     3
172
     1
178
     0
271
     2
272
     2
274
     3
278
    44
283
     0
284
     8
340
11
  0
ENDTAB
  0
TABLE
  2
BLOCK_RECORD
  5
1
330
0
100
AcDbSymbolTable
 70
     1
  0
BLOCK_RECORD
  5
1F
330
1
100
AcDbSymbolTableRecord
100
AcDbBlockTableRecord
  2
*Model_Space
340
22
  0
BLOCK_RECORD
  5
1B
330
1
100
AcDbSymbolTableRecord
100
AcDbBlockTableRecord
  2
*Paper_Space
340
1E
  0
BLOCK_RECORD
  5
23
330
1
100
AcDbSymbolTableRecord
100
AcDbBlockTableRecord
  2
*Paper_Space0
340
26
  0
ENDTAB
  0
ENDSEC
  0
SECTION
  2
BLOCKS
  0
BLOCK
  5
20
330
1F
100
AcDbEntity
  8
0
100
AcDbBlockBegin
  2
*Model_Space
 70
     0
 10
0.0
 20
0.0
 30
0.0
  3
*Model_Space
  1

  0
ENDBLK
  5
21
330
1F
100
AcDbEntity
  8
0
100
AcDbBlockEnd
  0
BLOCK
  5
1C
330
1B
100
AcDbEntity
 67
     1
  8
0
100
AcDbBlockBegin
  2
*Paper_Space
 70
     0
 10
0.0
 20
0.0
 30
0.0
  3
*Paper_Space
  1

  0
ENDBLK
  5
1D
330
1B
100
AcDbEntity
 67
     1
  8
0
100
AcDbBlockEnd
  0
BLOCK
  5
24
330
23
100
AcDbEntity
  8
0
100
AcDbBlockBegin
  2
*Paper_Space0
 70
     0
 10
0.0
 20
0.0
 30
0.0
  3
*Paper_Space0
  1

  0
ENDBLK
  5
25
330
23
100
AcDbEntity
  8
0
100
AcDbBlockEnd
  0
ENDSEC
  0
SECTION
  2
ENTITIES
  0
MTEXT
  5
65
330
1F
100
AcDbEntity
  8
0
  6
Continuous
 62
     7
370
     0
100
AcDbMText
 10
686.8017694219
 20
614.081810593
 30
0.0
 40
17.5
 41
0.0
 71
     1
 72
     1
  1
HBF-D42C
  7
SLDTEXTSTYLE0
 73
     1
 44
1.0
  0
LINE
  5
66
330
1F
100
AcDbEntity
  8
0
  6
Continuous
 62
     7
370
    25
100
AcDbLine
 10
556.9774151436
 20
698.2450944681
 30
0.0
 11
556.9774151436
 21
725.2673891472
 31
0.0
  0
LINE
  5
67
330
1F
100
AcDbEntity
  8
0
  6
Continuous
 62
     7
370
    25
100
AcDbLine
 10
664.4774151436
 20
838.30433928
 30
0.0
 11
664.4774151436
 21
843.1339684115
 31
0.0
  0
LINE
  5
68
330
1F
100
AcDbEntity
  8
0
  6
Continuous
 62
     7
370
    25
100
AcDbLine
 10
389.4774151436
 20
843.1339684115
 30
0.0
 11
389.4774151436
 21
838.30433928
 31
0.0
  0
ARC
  5
69
330
1F
100
AcDbEntity
  8
0
  6
Continuous
 62
     7
370
    25
100
AcDbCircle
 10
526.9774151436
 20
932.4821073432
 30
0.0
 40
125.0
100
AcDbArc
 50
316.3553146503
 51
180.0
  0
ARC
  5
6A
330
1F
100
AcDbEntity
  8
0
  6
Continuous
 62
     7
370
    25
100
AcDbCircle
 10
526.9774151436
 20
932.4821073432
 30
0.0
 40
125.0
100
AcDbArc
 50
180.0
 51
223.6446853497
  0
SPLINE
  5
6B
330
1F
100
AcDbEntity
  8
0
  6
Continuous
 62
     7
370
    25
100
AcDbSpline
210
0.0
220
0.0
230
1.0
 70
     8
 71
     3
 72
    28
 73
    24
 74
     0
 42
0.00000001
 43
0.00000001
 40
0.0
 40
0.0
 40
0.0
 40
0.0
 40
0.0230329843678026
 40
0.0662850650483358
 40
0.1154096082161205
 40
0.1688008191835076
 40
0.2222989500564954
 40
0.2742993724658067
 40
0.3250056345650133
 40
0.3747839648099204
 40
0.4239135791281685
 40
0.472586783568288
 40
0.5209363500916127
 40
0.5690566604792059
 40
0.6170175245913089
 40
0.6648730920148787
 40
0.7126677881171923
 40
0.7604405175972858
 40
0.8082236218423149
 40
0.8560462497070966
 40
0.9039478951442219
 40
0.951973862336642
 40
1.0
 40
1.0
 40
1.0
 40
1.0
 10
436.9479519815325
 20
845.8550994095019
 30
0.0
 10
437.4542936268107
 20
845.3389554637655
 30
0.0
 10
438.9114599391741
 20
843.8535797750958
 30
0.0
 10
441.8148271172298
 20
841.7476978787147
 30
0.0
 10
445.7914863948628
 20
839.3648338695061
 30
0.0
 10
450.5355812566402
 20
837.1413601794477
 30
0.0
 10
455.8875373069682
 20
835.111484102372
 30
0.0
 10
461.6687820076632
 20
833.3183242455481
 30
0.0
 10
467.7931873837041
 20
831.7458632777386
 30
0.0
 10
474.2394306197446
 20
830.3725736493336
 30
0.0
 10
480.9879723072155
 20
829.1850142297018
 30
0.0
 10
488.0116595273722
 20
828.1770261532354
 30
0.0
 10
495.2757082517108
 20
827.3464775261434
 30
0.0
 10
502.7394179450185
 20
826.6933275319132
 30
0.0
 10
510.3576903195483
 20
826.2184036190731
 30
0.0
 10
518.0823115279952
 20
825.9226785760172
 30
0.0
 10
525.8629410740709
 20
825.8068776599687
 30
0.0
 10
533.648036774247
 20
825.8711170861691
 30
0.0
 10
541.3846208053455
 20
826.1152222283324
 30
0.0
 10
549.0228143073003
 20
826.5369841277212
 30
0.0
 10
556.5045566959145
 20
827.1386924430454
 30
0.0
 10
563.8016769382742
 20
827.902490612559
 30
0.0
 10
568.4345857540154
 20
828.5540951857573
 30
0.0
 10
570.7510442730729
 20
828.8798980505825
 30
0.0
  0
SPLINE
  5
6C
330
1F
100
AcDbEntity
  8
0
  6
Continuous
 62
     7
370
    25
100
AcDbSpline
210
0.0
220
0.0
230
1.0
 70
     8
 71
     3
 72
    17
 73
    13
 74
     0
 42
0.00000001
 43
0.00000001
 40
0.0
 40
0.0
 40
0.0
 40
0.0
 40
0.0575482522416819
 40
0.1683032634158353
 40
0.2798347965287749
 40
0.3926618543952298
 40
0.5073125349594351
 40
0.6245564922399299
 40
0.7454291680075781
 40
0.8707333796968141
 40
0.9728148413680106
 40
1.0
 40
1.0
 40
1.0
 40
1.0
 10
570.7510442730729
 20
828.8798980505825
 30
0.0
 10
571.9461775074737
 20
829.0643880788602
 30
0.0
 10
575.4414152554706
 20
829.6039400655378
 30
0.0
 10
580.9934710418125
 20
830.6279919607706
 30
0.0
 10
587.2658990482815
 20
832.0096899617926
 30
0.0
 10
593.1743484224726
 20
833.5756092648285
 30
0.0
 10
598.7158239112437
 20
835.3401873804794
 30
0.0
 10
603.8866651380639
 20
837.344327583963
 30
0.0
 10
608.7070031620692
 20
839.6393157208622
 30
0.0
 10
612.8096093085429
 20
842.2038766524523
 30
0.0
 10
615.5856009200203
 20
844.2890492355897
 30
0.0
 10
616.7946830164385
 20
845.616242378066
 30
0.0
 10
617.0489566140087
 20
845.8953550834874
 30
0.0
  0
LINE
  5
6D
330
1F
100
AcDbEntity
  8
0
  6
Continuous
 62
     7
370
    25
100
AcDbLine
 10
614.4774151436
 20
746.5413857826
 30
0.0
 11
614.4774151436
 21
810.8524339962
 31
0.0
  0
LINE
  5
6E
330
1F
100
AcDbEntity
  8
0
  6
Continuous
 62
     7
370
    25
100
AcDbLine
 10
439.4774151436
 20
810.8524339962
 30
0.0
 11
439.4774151436
 21
746.5413857826
 31
0.0
  0
LINE
  5
6F
330
1F
100
AcDbEntity
  8
0
  6
Continuous
 62
     7
370
    25
100
AcDbLine
 10
443.2274151436
 20
840.9881027934
 30
0.0
 11
443.2274151436
 21
839.3749614689
 31
0.0
  0
LINE
  5
70
330
1F
100
AcDbEntity
  8
0
  6
Continuous
 62
     7
370
    25
100
AcDbLine
 10
610.7274151436
 20
839.3749614689
 30
0.0
 11
610.7274151436
 21
841.0132093269
 31
0.0
  0
LINE
  5
71
330
1F
100
AcDbEntity
  8
0
  6
Continuous
 62
     7
370
    25
100
AcDbLine
 10
540.1658733034
 20
591.7775129308
 30
0.0
 11
550.0006455024
 21
577.1869997694
 31
0.0
  0
LINE
  5
72
330
1F
100
AcDbEntity
  8
0
  6
Continuous
 62
     7
370
    25
100
AcDbLine
 10
532.5088741572
 20
723.9400166166
 30
0.0
 11
540.1658733034
 21
591.7775129308
 31
0.0
  0
LINE
  5
73
330
1F
100
AcDbEntity
  8
0
  6
Continuous
 62
     7
370
    25
100
AcDbLine
 10
543.7506455024
 20
596.7044647759
 30
0.0
 11
536.3741319536
 21
724.0256882034
 31
0.0
  0
LINE
  5
74
330
1F
100
AcDbEntity
  8
0
  6
Continuous
 62
     7
370
    25
100
AcDbLine
 10
550.0006455024
 20
587.4321902978
 30
0.0
 11
543.7506455024
 21
596.7044647759
 31
0.0
  0
LINE
  5
75
330
1F
100
AcDbEntity
  8
0
  6
Continuous
 62
     7
370
    25
100
AcDbLine
 10
553.7506455024
 20
589.1132693081
 30
0.0
 11
550.0006455024
 21
587.4321902978
 31
0.0
  0
LINE
  5
76
330
1F
100
AcDbEntity
  8
0
  6
Continuous
 62
     7
370
    25
100
AcDbLine
 10
560.0006455024
 20
603.9891404873
 30
0.0
 11
553.7506455024
 21
589.1132693081
 31
0.0
  0
LINE
  5
77
330
1F
100
AcDbEntity
  8
0
  6
Continuous
 62
     7
370
    25
100
AcDbLine
 10
566.7407219654
 20
726.3682227631
 30
0.0
 11
560.0006455024
 21
603.9891404873
 31
0.0
  0
LINE
  5
78
330
1F
100
AcDbEntity
  8
0
  6
Continuous
 62
     7
370
    25
100
AcDbLine
 10
563.5854177014
 20
602.2762074691
 30
0.0
 11
570.448422159
 21
726.887284479
 31
0.0
  0
LINE
  5
79
330
1F
100
AcDbEntity
  8
0
  6
Continuous
 62
     7
370
    25
100
AcDbLine
 10
553.7506455024
 20
578.8680787797
 30
0.0
 11
563.5854177014
 21
602.2762074691
 31
0.0
  0
LINE
  5
7A
330
1F
100
AcDbEntity
  8
0
  6
Continuous
 62
     7
370
    25
100
AcDbLine
 10
553.7506455024
 20
502.1799449421
 30
0.0
 11
553.7506455024
 21
578.8680787797
 31
0.0
  0
LINE
  5
7B
330
1F
100
AcDbEntity
  8
0
  6
Continuous
 62
     7
370
    25
100
AcDbLine
 10
550.0006455024
 20
500.4988659318
 30
0.0
 11
553.7506455024
 21
502.1799449421
 31
0.0
  0
LINE
  5
7C
330
1F
100
AcDbEntity
  8
0
  6
Continuous
 62
     7
370
    25
100
AcDbLine
 10
550.0006455024
 20
577.1869997694
 30
0.0
 11
550.0006455024
 21
500.4988659318
 31
0.0
  0
LINE
  5
7D
330
1F
100
AcDbEntity
  8
0
  6
Continuous
 62
     7
370
    25
100
AcDbLine
 10
518.5152382088
 20
595.0127509946
 30
0.0
 11
511.0263150832
 21
724.2742033331
 31
0.0
  0
LINE
  5
7E
330
1F
100
AcDbEntity
  8
0
  6
Continuous
 62
     7
370
    25
100
AcDbLine
 10
540.1658733034
 20
591.7775129308
 30
0.0
 11
518.5152382088
 21
595.0127509946
 31
0.0
  0
LINE
  5
7F
330
1F
100
AcDbEntity
  8
0
  6
Continuous
 62
     7
370
    25
100
AcDbLine
 10
528.3500104078
 20
580.4222378332
 30
0.0
 11
518.5152382088
 21
595.0127509946
 31
0.0
  0
LINE
  5
80
330
1F
100
AcDbEntity
  8
0
  6
Continuous
 62
     7
370
    25
100
AcDbLine
 10
528.3500104078
 20
382.9933757094
 30
0.0
 11
528.3500104078
 21
580.4222378332
 31
0.0
  0
LINE
  5
81
330
1F
100
AcDbEntity
  8
0
  6
Continuous
 62
     7
370
    25
100
AcDbLine
 10
514.6000104078
 20
497.5701476244
 30
0.0
 11
528.3500104078
 21
382.9933757094
 31
0.0
  0
LINE
  5
82
330
1F
100
AcDbEntity
  8
0
  6
Continuous
 62
     7
370
    25
100
AcDbLine
 10
506.5187210518
 20
724.5224525515
 30
0.0
 11
514.6000104078
 21
497.5701476244
 31
0.0
  0
LINE
  5
83
330
1F
100
AcDbEntity
  8
0
  6
Continuous
 62
     7
370
    25
100
AcDbLine
 10
514.6000104078
 20
497.5701476244
 30
0.0
 11
508.1048198794
 21
498.5407190436
 31
0.0
  0
LINE
  5
84
330
1F
100
AcDbEntity
  8
0
  6
Continuous
 62
     7
370
    25
100
AcDbLine
 10
500.0412820907
 20
724.9944947218
 30
0.0
 11
508.1048198794
 21
498.5407190436
 31
0.0
  0
LWPOLYLINE
  5
85
330
1F
100
AcDbEntity
  8
0
  6
Continuous
 62
     7
370
    25
100
AcDbPolyline
 90
       10
 70
   128
 43
0.0
 10
538.2844380392
 20
691.0531319512
 10
538.9976049094
 20
691.1310301533
 10
543.1913183966
 20
691.7122364892
 10
546.9773424406
 20
692.4577078506
 10
550.2604796042
 20
693.3486997811
 10
552.9581772571
 20
694.3628087916
 10
555.0026033149
 20
695.4745356836
 10
556.3423518385
 20
696.655926712
 10
556.9437356077
 20
697.8772764664
 10
556.9774151436
 20
698.2450944681
  0
LINE
  5
86
330
1F
100
AcDbEntity
  8
0
  6
Continuous
 62
     7
370
    25
100
AcDbLine
 10
504.5955913396
 20
597.0927533219
 30
0.0
 11
490.3694125858
 21
599.2185604775
 31
0.0
  0
LINE
  5
87
330
1F
100
AcDbEntity
  8
0
  6
Continuous
 62
     7
370
    25
100
AcDbLine
 10
482.9681072478
 20
726.9676989237
 30
0.0
 11
490.3694125858
 21
599.2185604775
 31
0.0
  0
LINE
  5
88
330
1F
100
AcDbEntity
  8
0
  6
Continuous
 62
     7
370
    25
100
AcDbLine
 10
560.0006455024
 20
603.9891404873
 30
0.0
 11
543.1830021991
 21
606.5021882348
 31
0.0
  0
LINE
  5
89
330
1F
100
AcDbEntity
  8
0
  6
Continuous
 62
     7
370
    25
100
AcDbLine
 10
550.0006455024
 20
577.1869997694
 30
0.0
 11
528.3500104078
 21
580.4222378332
 31
0.0
  0
LINE
  5
8A
330
1F
100
AcDbEntity
  8
0
  6
Continuous
 62
     7
370
    25
100
AcDbLine
 10
505.0652983303
 20
583.9016547874
 30
0.0
 11
500.2041847848
 21
584.6280473161
 31
0.0
  0
LINE
  5
8B
330
1F
100
AcDbEntity
  8
0
  6
Continuous
 62
     7
370
    25
100
AcDbLine
 10
490.3694125858
 20
599.2185604775
 30
0.0
 11
500.2041847848
 21
584.6280473161
 31
0.0
  0
LINE
  5
8C
330
1F
100
AcDbEntity
  8
0
  6
Continuous
 62
     7
370
    25
100
AcDbLine
 10
553.7506455024
 20
589.1132693081
 30
0.0
 11
548.3205762194
 21
589.9246804634
 31
0.0
  0
LINE
  5
8D
330
1F
100
AcDbEntity
  8
0
  6
Continuous
 62
     7
370
    25
100
AcDbLine
 10
550.0006455024
 20
500.4988659318
 30
0.0
 11
528.3500104078
 21
382.9933757094
 31
0.0
  0
LINE
  5
8E
330
1F
100
AcDbEntity
  8
0
  6
Continuous
 62
     7
370
    25
100
AcDbLine
 10
528.3500104078
 20
382.9933757094
 30
0.0
 11
521.8548198794
 21
383.9639471286
 31
0.0
  0
LINE
  5
8F
330
1F
100
AcDbEntity
  8
0
  6
Continuous
 62
     7
370
    25
100
AcDbLine
 10
508.1048198794
 20
498.5407190436
 30
0.0
 11
521.8548198794
 21
383.9639471286
 31
0.0
  0
LINE
  5
90
330
1F
100
AcDbEntity
  8
0
  6
Continuous
 62
     7
370
    25
100
AcDbLine
 10
500.2041847848
 20
507.9399134785
 30
0.0
 11
521.8548198794
 21
383.9639471286
 31
0.0
  0
LINE
  5
91
330
1F
100
AcDbEntity
  8
0
  6
Continuous
 62
     7
370
    25
100
AcDbLine
 10
500.2041847848
 20
584.6280473161
 30
0.0
 11
500.2041847848
 21
507.9399134785
 31
0.0
  0
LINE
  5
92
330
1F
100
AcDbEntity
  8
0
  6
Continuous
 62
     7
370
    25
100
AcDbLine
 10
532.1000104078
 20
384.6744547198
 30
0.0
 11
528.3500104078
 21
382.9933757094
 31
0.0
  0
LINE
  5
93
330
1F
100
AcDbEntity
  8
0
  6
Continuous
 62
     7
370
    25
100
AcDbLine
 10
532.1000104078
 20
384.6744547198
 30
0.0
 11
553.7506455024
 21
502.1799449421
 31
0.0
  0
LWPOLYLINE
  5
94
330
1F
100
AcDbEntity
  8
0
  6
Continuous
 62
     7
370
    25
100
AcDbPolyline
 90
       22
 70
   128
 43
0.0
 10
495.7648033889
 20
822.6712612231
 10
503.2877514002
 20
822.0060261109
 10
511.017925902
 20
821.5256087056
 10
518.8877068152
 20
821.2342114821
 10
526.8282528471
 20
821.1343834517
 10
534.7701036834
 20
821.2269978651
 10
542.6437875963
 20
821.5112445731
 10
550.380429151
 20
821.9846371138
 10
557.9123516979
 20
822.6430344628
 10
565.1736693766
 20
823.4806772572
 10
572.1008634562
 20
824.4902381757
 10
578.6333379681
 20
825.6628860348
 10
584.7139497727
 20
826.9883630402
 10
590.2895084211
 20
828.455074517
 10
595.3112414418
 20
830.050190335
 10
599.7352209801
 20
831.7597571406
 10
603.5227480588
 20
833.5688204147
 10
606.6406910999
 20
835.4615552881
 10
609.0617757443
 20
837.4214049699
 10
610.764823436
 20
839.4312255794
 10
611.7349366821
 20
841.4734361126
 10
611.7773213538
 20
841.6253418198
  0
LWPOLYLINE
  5
95
330
1F
100
AcDbEntity
  8
0
  6
Continuous
 62
     7
370
    25
100
AcDbPolyline
 90
       10
 70
   128
 43
0.0
 10
442.2549070333
 20
841.35777155
 10
442.945945559
 20
839.8223777741
 10
444.5088663653
 20
837.8049448461
 10
446.7931848292
 20
835.834127812
 10
449.7789187635
 20
833.9271664901
 10
453.4399503146
 20
832.1007421175
 10
457.7442544304
 20
830.3708314307
 10
462.6541790004
 20
828.7525669079
 10
468.1267742197
 20
827.2601043971
 10
474.1141682943
 20
825.9064992869
  0
LINE
  5
96
330
1F
100
AcDbEntity
  8
0
  6
Continuous
 62
     7
370
    25
100
AcDbLine
 10
474.1141682943
 20
825.9064992869
 30
0.0
 11
472.2194431693
 21
825.0571172501
 31
0.0
  0
ARC
  5
97
330
1F
100
AcDbEntity
  8
0
  6
Continuous
 62
     7
370
    25
100
AcDbCircle
 10
516.8159446018
 20
1049.44066555
 30
0.0
 40
228.7724299116221
100
AcDbArc
 50
258.7588825499
 51
264.2435560432
  0
LINE
  5
98
330
1F
100
AcDbEntity
  8
0
  6
Continuous
 62
     7
370
    25
100
AcDbLine
 10
493.8700782639
 20
821.8218791864
 30
0.0
 11
495.7648033889
 21
822.6712612231
 31
0.0
  0
LWPOLYLINE
  5
99
330
1F
100
AcDbEntity
  8
0
  6
Continuous
 62
     7
370
    25
100
AcDbPolyline
 90
       64
 70
   128
 43
0.0
 10
421.2036259095
 20
865.8720066747
 10
420.9239453209
 20
865.7845708409
 10
414.7503396946
 20
863.6955632194
 10
409.1896794373
 20
861.4942552973
 10
404.272334947
 20
859.192669855
 10
400.0251630541
 20
856.8033773541
 10
396.4713603387
 20
854.3394272818
 10
393.6303364388
 20
851.8142768788
 10
391.5176080418
 20
849.2417176411
 10
390.1447141376
 20
846.635799995
 10
389.5191529966
 20
844.0107565592
 10
389.6443412169
 20
841.3809244106
 10
390.5195950637
 20
838.7606667804
 10
392.1401342041
 20
836.1642946072
 10
394.4971078153
 20
833.6059883754
 10
397.5776429247
 20
831.0997206665
 10
401.3649147177
 20
828.6591798457
 10
405.8382384293
 20
826.2976953006
 10
410.9731823165
 20
824.0281646409
 10
416.7417010963
 20
821.862983256
 10
423.1122891197
 20
819.8139766159
 10
430.050152444
 20
817.8923356842
 10
437.5173988655
 20
816.1085557975
 10
445.4732448738
 20
814.4723793427
 10
453.8742383967
 20
812.9927425485
 10
462.6744961209
 20
811.6777266778
 10
471.8259540904
 20
810.5345138913
 10
481.2786302152
 20
809.5693480208
 10
490.9808972562
 20
808.7875004676
 10
500.8797647954
 20
808.193241412
 10
510.9211686508
 20
807.7898164908
 10
521.0502661567
 20
807.5794290711
 10
531.2117356951
 20
807.5632282159
 10
541.3500788429
 20
807.7413024087
 10
551.4099234856
 20
808.1126790701
 10
561.3363262403
 20
808.6753298695
 10
571.0750725373
 20
809.4261818033
 10
580.5729727213
 20
810.3611339787
 10
589.7781525554
 20
811.475080011
 10
598.6403365391
 20
812.7619359134
 10
607.1111224969
 20
814.2146733251
 10
615.1442459332
 20
815.8253578982
 10
622.6958327135
 20
817.5851926321
 10
629.7246386895
 20
819.4845659197
 10
636.1922749602
 20
821.5131040428
 10
642.0634175393
 20
823.6597278296
 10
647.3060002818
 20
825.9127131653
 10
651.8913900188
 20
828.2597550253
 10
655.7945429417
 20
830.6880346808
 10
658.9941413826
 20
833.1842897105
 10
661.4727102445
 20
835.7348864351
 10
663.2167124437
 20
838.3258943795
 10
664.2166228449
 20
840.9431623571
 10
664.4669802844
 20
843.5723957576
 10
663.9664173965
 20
846.1992346199
 10
662.7176680822
 20
848.8093320612
 10
660.7275525772
 20
851.3884326343
 10
658.0069402023
 20
853.9224501862
 10
654.5706899989
 20
856.3975447918
 10
650.4375695739
 20
858.8001983426
 10
645.6301525979
 20
861.1172883782
 10
640.1746955153
 20
863.3361597562
 10
634.1009941409
 20
865.4446937706
 10
632.7512043777
 20
865.8720066747
  0
LWPOLYLINE
  5
9A
330
1F
100
AcDbEntity
  8
0
  6
Continuous
 62
     7
370
    25
100
AcDbPolyline
 90
       44
 70
   128
 43
0.0
 10
389.4774151436
 20
838.30433928
 10
389.6443412169
 20
836.5512952792
 10
390.5195950637
 20
833.931037649
 10
392.1401342041
 20
831.3346654757
 10
394.4971078153
 20
828.776359244
 10
397.5776429247
 20
826.2700915351
 10
401.3649147177
 20
823.8295507143
 10
405.8382384293
 20
821.4680661692
 10
410.9731823165
 20
819.1985355094
 10
416.7417010963
 20
817.0333541246
 10
423.1122891197
 20
814.9843474844
 10
430.050152444
 20
813.0627065528
 10
437.5173988655
 20
811.278926666
 10
445.4732448738
 20
809.6427502113
 10
453.8742383967
 20
808.163113417
 10
462.6744961209
 20
806.8480975463
 10
471.8259540904
 20
805.7048847598
 10
481.2786302152
 20
804.7397188894
 10
490.9808972562
 20
803.9578713362
 10
500.8797647954
 20
803.3636122806
 10
510.9211686508
 20
802.9601873594
 10
521.0502661567
 20
802.7497999396
 10
531.2117356951
 20
802.7335990844
 10
541.3500788429
 20
802.9116732773
 10
551.4099234856
 20
803.2830499387
 10
561.3363262403
 20
803.845700738
 10
571.0750725373
 20
804.5965526718
 10
580.5729727213
 20
805.5315048472
 10
589.7781525554
 20
806.6454508796
 10
598.6403365391
 20
807.932306782
 10
607.1111224969
 20
809.3850441937
 10
615.1442459332
 20
810.9957287668
 10
622.6958327135
 20
812.7555635007
 10
629.7246386895
 20
814.6549367883
 10
636.1922749602
 20
816.6834749114
 10
642.0634175393
 20
818.8300986981
 10
647.3060002818
 20
821.0830840338
 10
651.8913900188
 20
823.4301258938
 10
655.7945429417
 20
825.8584055494
 10
658.9941413826
 20
828.3546605791
 10
661.4727102445
 20
830.9052573036
 10
663.2167124437
 20
833.4962652481
 10
664.2166228449
 20
836.1135332256
 10
664.4774151436
 20
838.30433928
  0
LINE
  5
9B
330
1F
100
AcDbEntity
  8
0
  6
Continuous
 62
     7
370
    25
100
AcDbLine
 10
474.1141682943
 20
825.9064992869
 30
0.0
 11
474.1141682943
 21
825.2594516742
 31
0.0
  0
LWPOLYLINE
  5
9C
330
1F
100
AcDbEntity
  8
0
  6
Continuous
 62
     7
370
    25
100
AcDbPolyline
 90
        3
 70
   128
 43
0.0
 10
611.4637970629
 20
840.7191538458
 10
611.4489009979
 20
840.75381341
 10
611.2224445832
 20
841.2299679308
  0
LINE
  5
9D
330
1F
100
AcDbEntity
  8
0
  6
Continuous
 62
     7
370
    25
100
AcDbLine
 10
442.6726216368
 20
841.1122789186
 30
0.0
 11
442.4910332243
 21
840.7191538458
 31
0.0
  0
LINE
  5
9E
330
1F
100
AcDbEntity
  8
0
  6
Continuous
 62
     7
370
    25
100
AcDbLine
 10
436.7514239587
 20
845.9748460528
 30
0.0
 11
436.5231898309
 21
846.209092309
 31
0.0
  0
LINE
  5
9F
330
1F
100
AcDbEntity
  8
0
  6
Continuous
 62
     7
370
    25
100
AcDbLine
 10
617.4316404563
 20
846.209092309
 30
0.0
 11
617.2275926049
 21
845.9992078198
 31
0.0
  0
LWPOLYLINE
  5
A0
330
1F
100
AcDbEntity
  8
0
  6
Continuous
 62
     7
370
    25
100
AcDbPolyline
 90
       36
 70
   128
 43
0.0
 10
614.4774151436
 20
746.5413857826
 10
614.4696398006
 20
746.2394842033
 10
613.987936865
 20
744.1493165172
 10
612.7624138797
 20
742.0795977268
 10
610.8035473774
 20
740.0480210755
 10
608.1280829671
 20
738.0719537437
 10
604.7588921823
 20
736.1682883839
 10
600.7247769612
 20
734.3532987115
 10
596.0602234293
 20
732.6425003869
 10
590.8051070911
 20
731.0505183781
 10
585.0043519491
 20
729.5909619373
 10
578.7075464655
 20
728.2763082606
 10
571.9685196495
 20
727.1177958253
 10
564.8448808932
 20
726.125328316
 10
557.3975274907
 20
725.3073899623
 10
549.6901240502
 20
724.6709730098
 10
541.7885582494
 20
724.2215179464
 10
533.7603775867
 20
723.9628669935
 10
525.6742119428
 20
723.8972312604
 10
517.5991868903
 20
724.025171842
 10
509.604332765
 20
724.3455950227
 10
501.7579945518
 20
724.855761626
 10
494.1272476293
 20
725.5513104303
 10
486.7773243675
 20
726.4262954521
 10
479.7710564813
 20
727.4732367751
 10
473.1683379055
 20
728.683184494
 10
467.0256127846
 20
730.0457952231
 10
461.3953929531
 20
731.5494205185
 10
456.3258090313
 20
733.1812064562
 10
451.8601989753
 20
734.9272035152
 10
448.0367375969
 20
736.7724858268
 10
444.8881102217
 20
738.7012787703
 10
442.4412332746
 20
740.6970938242
 10
440.7170241813
 20
742.7428695202
 10
439.7302225535
 20
744.8211172953
 10
439.4774151436
 20
746.5413857826
  0
LINE
  5
A1
330
1F
100
AcDbEntity
  8
0
  6
Continuous
 62
     7
370
    25
100
AcDbLine
 10
473.8477433715
 20
824.7344999638
 30
0.0
 11
473.8477433715
 21
825.1400166487
 31
0.0
  0
ARC
  5
A2
330
1F
100
AcDbEntity
  8
0
  6
Continuous
 62
     7
370
    25
100
AcDbCircle
 10
516.927852788
 20
1046.781877395
 30
0.0
 40
225.7897479125973
100
AcDbArc
 50
259.0006735512
 51
264.0017650419
  0
LINE
  5
A3
330
1F
100
AcDbEntity
  8
0
  6
Continuous
 62
     7
370
    25
100
AcDbLine
 10
493.3333149567
 20
821.8782630395
 30
0.0
 11
493.3333149567
 21
822.2283023913
 31
0.0
  0
LINE
  5
A4
330
1F
100
AcDbEntity
  8
0
  6
Continuous
 62
     7
370
    25
100
AcDbLine
 10
475.7391476693
 20
825.9879099994
 30
0.0
 11
473.8477433715
 21
825.1400166487
 31
0.0
  0
LWPOLYLINE
  5
A5
330
1F
100
AcDbEntity
  8
0
  6
Continuous
 62
     7
370
    25
100
AcDbPolyline
 90
       21
 70
   128
 43
0.0
 10
495.2247192544
 20
823.076195742
 10
502.7556059618
 20
822.384223519
 10
510.5070295509
 20
821.8811754182
 10
518.408414171
 20
821.5716316364
 10
526.3878185929
 20
821.4584105355
 10
534.372591226
 20
821.542542981
 10
542.2900316024
 20
821.8232629563
 10
550.0680523071
 20
822.2980145373
 10
557.6358353257
 20
822.9624751635
 10
564.9244768345
 20
823.8105949947
 10
571.8676145624
 20
824.8346519942
 10
578.4020320118
 20
826.0253222367
 10
584.4682340375
 20
827.3717648019
 10
590.0109885443
 20
828.8617204799
 10
594.979829368
 20
830.4816233897
 10
599.3295157649
 20
832.2167244952
 10
603.0204443237
 20
834.0512258938
 10
606.0190095499
 20
835.968424654
 10
608.2979098401
 20
837.950864894
 10
609.8363960605
 20
839.9804967157
 10
610.065895809
 20
840.4149282977
  0
LWPOLYLINE
  5
A6
330
1F
100
AcDbEntity
  8
0
  6
Continuous
 62
     7
370
    25
100
AcDbPolyline
 90
       10
 70
   128
 43
0.0
 10
443.8879739251
 20
840.416895272
 10
444.1530731618
 20
839.9201186751
 10
445.713636083
 20
837.8916162037
 10
448.0140966846
 20
835.9108447668
 10
451.0335095282
 20
833.9958390682
 10
454.7443831954
 20
832.164035022
 10
459.1129305938
 20
830.4321110007
 10
464.0993765845
 20
828.8158359799
 10
469.6583201308
 20
827.3299259643
 10
475.7391476693
 20
825.9879099994
  0
LINE
  5
A7
330
1F
100
AcDbEntity
  8
0
  6
Continuous
 62
     7
370
    25
100
AcDbLine
 10
493.3333149567
 20
822.2283023913
 30
0.0
 11
495.2247192544
 21
823.076195742
 31
0.0
  0
LINE
  5
A8
330
1F
100
AcDbEntity
  8
0
  6
Continuous
 62
     7
370
    25
100
AcDbLine
 10
495.2247192544
 20
822.4291481292
 30
0.0
 11
495.2247192544
 21
823.076195742
 31
0.0
  0
LWPOLYLINE
  5
A9
330
1F
100
AcDbEntity
  8
0
  6
Continuous
 62
     7
370
    25
100
AcDbPolyline
 90
       22
 70
   128
 43
0.0
 10
573.5621646748
 20
831.1049165824
 10
566.1418875325
 20
830.1082039229
 10
558.4062810868
 20
829.287656839
 10
550.4176278924
 20
828.6498818933
 10
542.2402478876
 20
828.2000140748
 10
533.9399805279
 20
827.9416754546
 10
525.5836546857
 20
827.8769460233
 10
517.2385505832
 20
828.0063469442
 10
508.9718580917
 20
828.3288363574
 10
500.8501357586
 20
828.8418177675
 10
492.9387749164
 20
829.5411609499
 10
485.301473191
 20
830.4212352046
 10
477.9997216451
 20
831.474954691
 10
471.0923096888
 20
832.6938354796
 10
464.6348517418
 20
834.0680638588
 10
458.6793394584
 20
835.5865753497
 10
453.2737231218
 20
837.2371437908
 10
448.4615255763
 20
839.0064797754
 10
444.2814918071
 20
840.8803376506
 10
440.7672769881
 20
842.8436302146
 10
437.9471755108
 20
844.8805501899
 10
436.7514239587
 20
845.9748460528
  0
LWPOLYLINE
  5
AA
330
1F
100
AcDbEntity
  8
0
  6
Continuous
 62
     7
370
    25
100
AcDbPolyline
 90
       10
 70
   128
 43
0.0
 10
617.2275926049
 20
845.9992078198
 10
615.1462634413
 20
844.1943976254
 10
612.091987803
 20
842.1802244879
 10
608.3524196722
 20
840.2450201147
 10
603.9576678526
 20
838.4043656334
 10
598.9431163019
 20
836.6730809118
 10
593.3491392407
 20
835.0651052363
 10
587.2207760829
 20
833.5933850817
 10
580.6073688054
 20
832.2697698733
 10
573.5621646748
 20
831.1049165824
  0
ENDSEC
  0
SECTION
  2
OBJECTS
  0
DICTIONARY
  5
C
330
0
100
AcDbDictionary
281
     1
  3
ACAD_GROUP
350
D
  3
ACAD_LAYOUT
350
1A
  3
ACAD_MLINESTYLE
350
17
  3
ACAD_PLOTSETTINGS
350
19
  3
ACAD_PLOTSTYLENAME
350
E
  3
ACAD_SCALELIST
350
47
  3
DWGPROPS
350
AB
  0
DICTIONARY
  5
D
102
{ACAD_REACTORS
330
C
102
}
330
C
100
AcDbDictionary
281
     1
  0
DICTIONARY
  5
1A
102
{ACAD_REACTORS
330
C
102
}
330
C
100
AcDbDictionary
281
     1
  3
Layout1
350
1E
  3
Layout2
350
26
  3
Model
350
22
  0
DICTIONARY
  5
17
102
{ACAD_REACTORS
330
C
102
}
330
C
100
AcDbDictionary
281
     1
  3
Standard
350
18
  0
DICTIONARY
  5
19
102
{ACAD_REACTORS
330
C
102
}
330
C
100
AcDbDictionary
281
     1
  0
ACDBDICTIONARYWDFLT
  5
E
102
{ACAD_REACTORS
330
C
102
}
330
C
100
AcDbDictionary
281
     1
  3
Normal
350
F
100
AcDbDictionaryWithDefault
340
F
  0
DICTIONARY
  5
47
102
{ACAD_REACTORS
330
C
102
}
330
C
100
AcDbDictionary
281
     1
  3
A0
350
48
  3
A1
350
49
  3
A2
350
4A
  3
A3
350
4B
  3
A4
350
4C
  3
A5
350
4D
  3
A6
350
4E
  3
A7
350
4F
  3
A8
350
50
  3
A9
350
51
  3
B0
350
52
  3
B1
350
53
  3
B2
350
54
  3
B3
350
55
  3
B4
350
56
  3
B5
350
57
  3
B6
350
58
  0
XRECORD
  5
AB
102
{ACAD_REACTORS
330
C
102
}
330
C
100
AcDbXrecord
280
     1
  1
DWGPROPS COOKIE
  2

  3

  4

  6

  7

  8
9128
  9

300
=
301
=
302
=
303
=
304
=
305
=
306
=
307
=
308
=
309
=
 40
0.0
 41
2460151.215381563
 42
2460151.215381736
  1

 90
        0
  0
LAYOUT
  5
1E
102
{ACAD_REACTORS
330
1A
102
}
330
1A
100
AcDbPlotSettings
  1

  2
none_device
  4

  6

 40
0.0
 41
0.0
 42
0.0
 43
0.0
 44
0.0
 45
0.0
 46
0.0
 47
0.0
 48
0.0
 49
0.0
140
0.0
141
0.0
142
1.0
143
1.0
 70
   688
 72
     1
 73
     0
 74
     5
  7

 75
    16
147
1.0
148
0.0
149
0.0
100
AcDbLayout
  1
Layout1
 70
     1
 71
     1
 10
0.0
 20
0.0
 11
420.0
 21
297.0
 12
0.0
 22
0.0
 32
0.0
 14
1.0000000000E+20
 24
1.0000000000E+20
 34
1.0000000000E+20
 15
-1.0000000000E+20
 25
-1.0000000000E+20
 35
-1.0000000000E+20
146
0.0
 13
0.0
 23
0.0
 33
0.0
 16
1.0
 26
0.0
 36
0.0
 17
0.0
 27
1.0
 37
0.0
 76
     0
330
1B
  0
LAYOUT
  5
26
102
{ACAD_REACTORS
330
1A
102
}
330
1A
100
AcDbPlotSettings
  1

  2
none_device
  4

  6

 40
0.0
 41
0.0
 42
0.0
 43
0.0
 44
0.0
 45
0.0
 46
0.0
 47
0.0
 48
0.0
 49
0.0
140
0.0
141
0.0
142
1.0
143
1.0
 70
   688
 72
     1
 73
     0
 74
     5
  7

 75
    16
147
1.0
148
0.0
149
0.0
100
AcDbLayout
  1
Layout2
 70
     1
 71
     2
 10
0.0
 20
0.0
 11
0.0
 21
0.0
 12
0.0
 22
0.0
 32
0.0
 14
0.0
 24
0.0
 34
0.0
 15
0.0
 25
0.0
 35
0.0
146
0.0
 13
0.0
 23
0.0
 33
0.0
 16
1.0
 26
0.0
 36
0.0
 17
0.0
 27
1.0
 37
0.0
 76
     0
330
23
  0
LAYOUT
  5
22
102
{ACAD_REACTORS
330
1A
102
}
330
1A
100
AcDbPlotSettings
  1

  2
none_device
  4
Letter_(8.50_x_11.00_Inches)
  6

 40
6.35
 41
6.35
 42
6.35000508
 43
6.35000508
 44
215.9
 45
279.4
 46
0.0
 47
0.0
 48
0.0
 49
0.0
140
0.0
141
0.0
142
1.0
143
1.0
 70
  1712
 72
     1
 73
     0
 74
     0
  7

 75
     0
147
1.0
148
0.0
149
0.0
100
AcDbLayout
  1
Model
 70
     1
 71
     0
 10
0.0
 20
0.0
 11
1050.0
 21
1485.0
 12
0.0
 22
0.0
 32
0.0
 14
0.0
 24
0.0
 34
0.0
 15
1050.0
 25
1485.0
 35
0.0
146
0.0
 13
0.0
 23
0.0
 33
0.0
 16
1.0
 26
0.0
 36
0.0
 17
0.0
 27
1.0
 37
0.0
 76
     0
330
1F
331
29
  0
MLINESTYLE
  5
18
102
{ACAD_REACTORS
330
17
102
}
330
17
100
AcDbMlineStyle
  2
Standard
 70
     0
  3

 62
   256
 51
90.0
 52
90.0
 71
     2
 49
0.5
 62
   256
  6
BYLAYER
 49
-0.5
 62
   256
  6
BYLAYER
  0
ACDBPLACEHOLDER
  5
F
102
{ACAD_REACTORS
330
E
102
}
330
E
  0
SCALE
  5
48
102
{ACAD_REACTORS
330
47
102
}
330
47
100
AcDbScale
 70
     0
300
1:1
140
1.0
141
1.0
290
     1
  0
SCALE
  5
49
102
{ACAD_REACTORS
330
47
102
}
330
47
100
AcDbScale
 70
     0
300
1:2
140
1.0
141
2.0
290
     0
  0
SCALE
  5
4A
102
{ACAD_REACTORS
330
47
102
}
330
47
100
AcDbScale
 70
     0
300
1:4
140
1.0
141
4.0
290
     0
  0
SCALE
  5
4B
102
{ACAD_REACTORS
330
47
102
}
330
47
100
AcDbScale
 70
     0
300
1:5
140
1.0
141
5.0
290
     0
  0
SCALE
  5
4C
102
{ACAD_REACTORS
330
47
102
}
330
47
100
AcDbScale
 70
     0
300
1:8
140
1.0
141
8.0
290
     0
  0
SCALE
  5
4D
102
{ACAD_REACTORS
330
47
102
}
330
47
100
AcDbScale
 70
     0
300
1:10
140
1.0
141
10.0
290
     0
  0
SCALE
  5
4E
102
{ACAD_REACTORS
330
47
102
}
330
47
100
AcDbScale
 70
     0
300
1:16
140
1.0
141
16.0
290
     0
  0
SCALE
  5
4F
102
{ACAD_REACTORS
330
47
102
}
330
47
100
AcDbScale
 70
     0
300
1:20
140
1.0
141
20.0
290
     0
  0
SCALE
  5
50
102
{ACAD_REACTORS
330
47
102
}
330
47
100
AcDbScale
 70
     0
300
1:30
140
1.0
141
30.0
290
     0
  0
SCALE
  5
51
102
{ACAD_REACTORS
330
47
102
}
330
47
100
AcDbScale
 70
     0
300
1:40
140
1.0
141
40.0
290
     0
  0
SCALE
  5
52
102
{ACAD_REACTORS
330
47
102
}
330
47
100
AcDbScale
 70
     0
300
1:50
140
1.0
141
50.0
290
     0
  0
SCALE
  5
53
102
{ACAD_REACTORS
330
47
102
}
330
47
100
AcDbScale
 70
     0
300
1:100
140
1.0
141
100.0
290
     0
  0
SCALE
  5
54
102
{ACAD_REACTORS
330
47
102
}
330
47
100
AcDbScale
 70
     0
300
2:1
140
2.0
141
1.0
290
     0
  0
SCALE
  5
55
102
{ACAD_REACTORS
330
47
102
}
330
47
100
AcDbScale
 70
     0
300
4:1
140
4.0
141
1.0
290
     0
  0
SCALE
  5
56
102
{ACAD_REACTORS
330
47
102
}
330
47
100
AcDbScale
 70
     0
300
8:1
140
8.0
141
1.0
290
     0
  0
SCALE
  5
57
102
{ACAD_REACTORS
330
47
102
}
330
47
100
AcDbScale
 70
     0
300
10:1
140
10.0
141
1.0
290
     0
  0
SCALE
  5
58
102
{ACAD_REACTORS
330
47
102
}
330
47
100
AcDbScale
 70
     0
300
100:1
140
100.0
141
1.0
290
     0
  0
ENDSEC
  0
EOF
