  0
SECTION
  2
HEADER
  9
$ACADVER
  1
AC1015
  9
$ACADMAINTVER
 70
               6
  9
$DWGCODEPAGE
  3
ANSI_932
  9
$INSBASE
 10
0.0
 20
0.0
 30
0.0
  9
$EXTMIN
 10
175.06954388209999
 20
78.263333333333335
 30
0.0
  9
$EXTMAX
 10
297.1611111111111
 20
201.81623052798105
 30
0.0
  9
$LIMMIN
 10
0.0
 20
0.0
  9
$LIMMAX
 10
0.0
 20
0.0
  9
$ORTHOMODE
 70
               0
  9
$REGENMODE
 70
               1
  9
$FILLMODE
 70
               1
  9
$QTEXTMODE
 70
               0
  9
$MIRRTEXT
 70
               1
  9
$LTSCALE
 40
12.699999999999999
  9
$ATTMODE
 70
               1
  9
$TEXTSIZE
 40
0.2
  9
$TRACEWID
 40
1.0
  9
$TEXTSTYLE
  7
Standard
  9
$CLAYER
  8
0
  9
$CELTYPE
  6
Continuous
  9
$CECOLOR
 62
             256
  9
$CELTSCALE
 40
1.0
  9
$DISPSILH
 70
               0
  9
$DIMSCALE
 40
1.0
  9
$DIMASZ
 40
0.18
  9
$DIMEXO
 40
0.0625
  9
$DIMDLI
 40
0.38
  9
$DIMRND
 40
0.0
  9
$DIMDLE
 40
0.0
  9
$DIMEXE
 40
0.18
  9
$DIMTP
 40
0.0
  9
$DIMTM
 40
0.0
  9
$DIMTXT
 40
0.18
  9
$DIMCEN
 40
0.09
  9
$DIMTSZ
 40
0.0
  9
$DIMTOL
 70
               0
  9
$DIMLIM
 70
               0
  9
$DIMTIH
 70
               1
  9
$DIMTOH
 70
               1
  9
$DIMSE1
 70
               0
  9
$DIMSE2
 70
               0
  9
$DIMTAD
 70
               0
  9
$DIMZIN
 70
               0
  9
$DIMBLK
  1

  9
$DIMASO
 70
               1
  9
$DIMSHO
 70
               1
  9
$DIMPOST
  1

  9
$DIMAPOST
  1

  9
$DIMALT
 70
               0
  9
$DIMALTD
 70
               2
  9
$DIMALTF
 40
25.399999999999999
  9
$DIMLFAC
 40
1.0
  9
$DIMTOFL
 70
               0
  9
$DIMTVP
 40
0.0
  9
$DIMTIX
 70
               0
  9
$DIMSOXD
 70
               0
  9
$DIMSAH
 70
               0
  9
$DIMBLK1
  1

  9
$DIMBLK2
  1

  9
$DIMSTYLE
  2
Standard
  9
$DIMCLRD
 70
               0
  9
$DIMCLRE
 70
               0
  9
$DIMCLRT
 70
               0
  9
$DIMTFAC
 40
1.0
  9
$DIMGAP
 40
0.09
  9
$DIMJUST
 70
               0
  9
$DIMSD1
 70
               0
  9
$DIMSD2
 70
               0
  9
$DIMTOLJ
 70
               1
  9
$DIMTZIN
 70
               0
  9
$DIMALTZ
 70
               0
  9
$DIMALTTZ
 70
               0
  9
$DIMUPT
 70
               0
  9
$DIMDEC
 70
               4
  9
$DIMTDEC
 70
               4
  9
$DIMALTU
 70
               2
  9
$DIMALTTD
 70
               2
  9
$DIMTXSTY
  7
Standard
  9
$DIMAUNIT
 70
               0
  9
$DIMADEC
 70
               0
  9
$DIMALTRND
 40
0.0
  9
$DIMAZIN
 70
               0
  9
$DIMDSEP
 70
               0
  9
$DIMATFIT
 70
               3
  9
$DIMFRAC
 70
               0
  9
$DIMLDRBLK
  1

  9
$DIMLUNIT
 70
               2
  9
$DIMLWD
 70
               0
  9
$DIMLWE
 70
               0
  9
$DIMTMOVE
 70
               0
  9
$LUNITS
 70
               2
  9
$LUPREC
 70
               4
  9
$SKETCHINC
 40
0.1
  9
$FILLETRAD
 40
0.0
  9
$AUNITS
 70
               0
  9
$AUPREC
 70
               0
  9
$MENU
  1
acad
  9
$ELEVATION
 40
0.0
  9
$PELEVATION
 40
0.0
  9
$THICKNESS
 40
0.0
  9
$LIMCHECK
 70
               0
  9
$CHAMFERA
 40
0.0
  9
$CHAMFERB
 40
0.0
  9
$CHAMFERC
 40
0.0
  9
$CHAMFERD
 40
0.0
  9
$SKPOLY
 70
               0
  9
$TDCREATE
 40
2458072.491261574
  9
$TDUCREATE
 40
0.000000000
  9
$TDUPDATE
 40
2458072.491261574
  9
$TDUUPDATE
 40
0.000000000
  9
$TDINDWG
 40
0.0000000000
  9
$TDUSRTIMER
 40
0.0000000000
  9
$USRTIMER
 70
               1
  9
$ANGBASE
 50
0.0
  9
$ANGDIR
 70
               0
  9
$PDMODE
 70
               1
  9
$PDSIZE
 40
-2.0
  9
$PLINEWID
 40
0.0
  9
$SPLFRAME
 70
               0
  9
$SPLINETYPE
 70
               6
  9
$SPLINESEGS
 70
               8
  9
$HANDSEED
  5
27B
  9
$SURFTAB1
 70
               6
  9
$SURFTAB2
 70
               6
  9
$SURFTYPE
 70
               6
  9
$SURFU
 70
               6
  9
$SURFV
 70
               6
  9
$UCSBASE
  2

  9
$UCSNAME
  2

  9
$UCSORG
 10
0.0
 20
0.0
 30
0.0
  9
$UCSXDIR
 10
1.0
 20
0.0
 30
0.0
  9
$UCSYDIR
 10
0.0
 20
1.0
 30
0.0
  9
$UCSORTHOREF
  2

  9
$UCSORTHOVIEW
 70
               0
  9
$UCSORGTOP
 10
0.0
 20
0.0
 30
0.0
  9
$UCSORGBOTTOM
 10
0.0
 20
0.0
 30
0.0
  9
$UCSORGLEFT
 10
0.0
 20
0.0
 30
0.0
  9
$UCSORGRIGHT
 10
0.0
 20
0.0
 30
0.0
  9
$UCSORGFRONT
 10
0.0
 20
0.0
 30
0.0
  9
$UCSORGBACK
 10
0.0
 20
0.0
 30
0.0
  9
$PUCSBASE
  2

  9
$PUCSNAME
  2

  9
$PUCSORG
 10
0.0
 20
0.0
 30
0.0
  9
$PUCSXDIR
 10
1.0
 20
0.0
 30
0.0
  9
$PUCSYDIR
 10
0.0
 20
1.0
 30
0.0
  9
$PUCSORTHOREF
  2

  9
$PUCSORTHOVIEW
 70
               0
  9
$PUCSORGTOP
 10
0.0
 20
0.0
 30
0.0
  9
$PUCSORGBOTTOM
 10
0.0
 20
0.0
 30
0.0
  9
$PUCSORGLEFT
 10
0.0
 20
0.0
 30
0.0
  9
$PUCSORGRIGHT
 10
0.0
 20
0.0
 30
0.0
  9
$PUCSORGFRONT
 10
0.0
 20
0.0
 30
0.0
  9
$PUCSORGBACK
 10
0.0
 20
0.0
 30
0.0
  9
$USERI1
 70
               0
  9
$USERI2
 70
               0
  9
$USERI3
 70
               0
  9
$USERI4
 70
               0
  9
$USERI5
 70
               0
  9
$USERR1
 40
0.0
  9
$USERR2
 40
0.0
  9
$USERR3
 40
0.0
  9
$USERR4
 40
0.0
  9
$USERR5
 40
0.0
  9
$WORLDVIEW
 70
               1
  9
$SHADEDGE
 70
               3
  9
$SHADEDIF
 70
              70
  9
$TILEMODE
 70
               1
  9
$MAXACTVP
 70
              16
  9
$PINSBASE
 10
0.0
 20
0.0
 30
0.0
  9
$PLIMCHECK
 70
               0
  9
$PEXTMIN
 10
1.0000000000000000E+20
 20
1.0000000000000000E+20
 30
1.0000000000000000E+20
  9
$PEXTMAX
 10
-1.0000000000000000E+20
 20
-1.0000000000000000E+20
 30
-1.0000000000000000E+20
  9
$PLIMMIN
 10
0.0
 20
0.0
  9
$PLIMMAX
 10
12.0
 20
9.0
  9
$UNITMODE
 70
               0
  9
$VISRETAIN
 70
               0
  9
$PLINEGEN
 70
               1
  9
$PSLTSCALE
 70
               0
  9
$TREEDEPTH
 70
            3020
  9
$CMLSTYLE
  2
Standard
  9
$CMLJUST
 70
               0
  9
$CMLSCALE
 40
1.0
  9
$PROXYGRAPHICS
 70
               0
  9
$MEASUREMENT
 70
               1
  9
$CELWEIGHT
370
               0
  9
$ENDCAPS
280
               0
  9
$JOINSTYLE
280
               0
  9
$LWDISPLAY
290
               1
  9
$INSUNITS
 70
               4
  9
$HYPERLINKBASE
  1

  9
$STYLESHEET
  1

  9
$XEDIT
290
               1
  9
$CEPSNTYPE
380
               0
  9
$PSTYLEMODE
290
               1
  9
$FINGERPRINTGUID
  2

  9
$VERSIONGUID
  2

  9
$EXTNAMES
290
               1
  9
$PSVPSCALE
 40
0.0
  0
ENDSEC
  0
SECTION
  2
CLASSES
  0
CLASS
  1
LWPOLYLINE
  2
AcDbPolyline
  3
AutoCAD 2000
 90
    32768
280
               0
281
               1
  0
CLASS
  1
IMAGE
  2
AcDbRasterImage
  3
ISM
 90
    32895
280
               0
281
               1
  0
CLASS
  1
OLE2FRAME
  2
AcDbOle2Frame
  3
AutoCAD 2000
 90
    32768
280
               0
281
               1
  0
CLASS
  1
HATCH
  2
AcDbHatch
  3
AutoCAD 2000
 90
    32768
280
               0
281
               1
  0
CLASS
  1
DICTIONARYVAR
  2
AcDbDictionaryVar
  3
AutoCAD 2000
 90
    32768
280
               0
281
               0
  0
CLASS
  1
RASTERVARIABLES
  2
AcDbRasterVariables
  3
ISM
 90
    32768
280
               0
281
               0
  0
CLASS
  1
IMAGEDEF
  2
AcDbRasterImageDef
  3
ISM
 90
    32768
280
               0
281
               0
  0
CLASS
  1
IMAGEDEF_REACTOR
  2
AcDbRasterImageDefReactor
  3
ISM
 90
    32769
280
               0
281
               0
  0
CLASS
  1
IDBUFFER
  2
AcDbIdBuffer
  3
AutoCAD 2000
 90
    32768
280
               0
281
               0
  0
CLASS
  1
SPATIAL_FILTER
  2
AcDbSpatialFilter
  3
AutoCAD 2000
 90
    32768
280
               0
281
               0
  0
CLASS
  1
XRECORD
  2
AcDbXrecord
  3
AutoCAD 2000
 90
    32768
280
               0
281
               0
  0
CLASS
  1
SORTENTSTABLE
  2
AcDbSortentsTable
  3
AutoCAD 2000
 90
    32768
280
               0
281
               0
  0
CLASS
  1
LAYER_INDEX
  2
AcDbLayerIndex
  3
AutoCAD 2000
 90
    32768
280
               0
281
               0
  0
CLASS
  1
SPATIAL_INDEX
  2
AcDbSpatialIndex
  3
AutoCAD 2000
 90
    32768
280
               0
281
               0
  0
CLASS
  1
OBJECT_PTR
  2
CAseDLPNTableRecord
  3
"ASE-LPNTableRecord"
 90
    32769
280
               0
281
               0
  0
CLASS
  1
LAYOUT
  2
AcDbLayout
  3
AutoCAD 2000
 90
        0
280
               0
281
               0
  0
CLASS
  1
PLOTSETTINGS
  2
AcDbPlotSettings
  3
AutoCAD 2000
 90
    32768
280
               0
281
               0
  0
CLASS
  1
ACDBDICTIONARYWDFLT
  2
AcDbDictionaryWithDefault
  3
AutoCAD 2000
 90
        0
280
               0
281
               0
  0
CLASS
  1
ACDBPLACEHOLDER
  2
AcDbPlaceHolder
  3
AutoCAD 2000
 90
        0
280
               0
281
               0
  0
CLASS
  1
VBA_PROJECT
  2
AcDbVbaProject
  3
acadvba
 90
    32768
280
               0
281
               0
  0
CLASS
  1
WIPEOUT
  2
AcDbWipeout
  3
WipeOut|AutoCAD Express Tool|expresstools@autodesk.com
 90
    32895
280
               0
281
               1
  0
CLASS
  1
WIPEOUTVARIABLES
  2
AcDbWipeoutVariables
  3
WipeOut|AutoCAD Express Tool|expresstools@autodesk.com
 90
        0
280
               0
281
               0
  0
CLASS
  1
RTEXT
  2
RText
  3
RText|AutoCAD Express Tool|expresstools@autodesk.com
 90
    32768
280
               0
281
               1
  0
CLASS
  1
ARCALIGNEDTEXT
  2
AcDbArcAlignedText
  3
ATEXT|AutoCAD Express Tool|expresstools@autodesk.com
 90
    32768
280
               0
281
               1
  0
ENDSEC
  0
SECTION
  2
TABLES
  0
TABLE
  2
VPORT
  5
7
100
AcDbSymbolTable
 70
               1
  0
VPORT
  5
15
100
AcDbSymbolTableRecord
100
AcDbViewportTableRecord
  2
*ACTIVE
 70
               0
 10
0.0
 20
0.0
 11
1.0
 21
1.0
 12
236.11532749660554
 22
140.0397819306572
 13
0.0
 23
0.0
 14
1.0
 24
1.0
 15
0.0
 25
0.0
 16
0.0
 26
0.0
 36
1.0
 17
0.0
 27
0.0
 37
0.0
 40
123.55289719464771
 41
0.688564
 42
50.0
 43
0.0
 44
0.0
 50
0.0
 51
0.0
 71
               0
 72
             100
 73
               1
 74
               1
 75
               0
 76
               0
 77
               0
 78
               0
281
               0
 65
               0
110
0.0
120
0.0
130
0.0
111
1.0
121
0.0
131
0.0
112
0.0
122
1.0
132
0.0
345
0
346
0
 79
               0
146
0.0
  0
ENDTAB
  0
TABLE
  2
LTYPE
  5
4
100
AcDbSymbolTable
 70
              13
  0
LTYPE
  5
11
100
AcDbSymbolTableRecord
100
AcDbLinetypeTableRecord
  2
ByBlock
 70
              64
  3

 72
              65
 73
               0
 40
0.0
  0
LTYPE
  5
12
100
AcDbSymbolTableRecord
100
AcDbLinetypeTableRecord
  2
ByLayer
 70
              64
  3

 72
              65
 73
               0
 40
0.0
  0
LTYPE
  5
13
100
AcDbSymbolTableRecord
100
AcDbLinetypeTableRecord
  2
Continuous
 70
              64
  3
Solid line
 72
              65
 73
               0
 40
0.0
  0
LTYPE
  5
25
100
AcDbSymbolTableRecord
100
AcDbLinetypeTableRecord
  2
STYLE_01
 70
               0
  3

 72
              65
 73
               2
 40
0.15
 49
0.1
 74
               0
 49
-0.05
 74
               0
  0
LTYPE
  5
26
100
AcDbSymbolTableRecord
100
AcDbLinetypeTableRecord
  2
STYLE_02
 70
               0
  3

 72
              65
 73
               6
 40
0.9999999999999999
 49
0.4999999999999999
 74
               0
 49
-0.1
 74
               0
 49
0.1
 74
               0
 49
-0.1
 74
               0
 49
0.1
 74
               0
 49
-0.1
 74
               0
  0
LTYPE
  5
27
100
AcDbSymbolTableRecord
100
AcDbLinetypeTableRecord
  2
STYLE_03
 70
               0
  3

 72
              65
 73
               4
 40
0.7999999999999999
 49
0.4999999999999999
 74
               0
 49
-0.1
 74
               0
 49
0.1
 74
               0
 49
-0.1
 74
               0
  0
LTYPE
  5
28
100
AcDbSymbolTableRecord
100
AcDbLinetypeTableRecord
  2
STYLE_04
 70
               0
  3

 72
              65
 73
               4
 40
1.5999999999999999
 49
0.9999999999999999
 74
               0
 49
-0.2000000000000001
 74
               0
 49
0.2
 74
               0
 49
-0.2
 74
               0
  0
LTYPE
  5
29
100
AcDbSymbolTableRecord
100
AcDbLinetypeTableRecord
  2
STYLE_05
 70
               0
  3

 72
              65
 73
               2
 40
0.05
 49
0.0002
 74
               0
 49
-0.0498
 74
               0
  0
LTYPE
  5
2A
100
AcDbSymbolTableRecord
100
AcDbLinetypeTableRecord
  2
STYLE_06
 70
               0
  3

 72
              65
 73
               4
 40
0.416656
 49
0.25
 74
               0
 49
-0.083312
 74
               0
 49
0.027772
 74
               0
 49
-0.055572
 74
               0
  0
LTYPE
  5
2B
100
AcDbSymbolTableRecord
100
AcDbLinetypeTableRecord
  2
STYLE_07
 70
               0
  3

 72
              65
 73
               6
 40
0.75
 49
0.25
 74
               0
 49
-0.083312
 74
               0
 49
0.2500000000000001
 74
               0
 49
-0.083344
 74
               0
 49
0.027772
 74
               0
 49
-0.055572
 74
               0
  0
LTYPE
  5
2C
100
AcDbSymbolTableRecord
100
AcDbLinetypeTableRecord
  2
STYLE_08
 70
               0
  3

 72
              65
 73
               6
 40
0.5
 49
0.25
 74
               0
 49
-0.083312
 74
               0
 49
0.027772
 74
               0
 49
-0.055572
 74
               0
 49
0.027772
 74
               0
 49
-0.055572
 74
               0
  0
LTYPE
  5
2D
100
AcDbSymbolTableRecord
100
AcDbLinetypeTableRecord
  2
STYLE_09
 70
               0
  3

 72
              65
 73
               4
 40
2.0
 49
1.5
 74
               0
 49
-0.1111139999999999
 74
               0
 49
0.2777720000000001
 74
               0
 49
-0.1111139999999999
 74
               0
  0
LTYPE
  5
2E
100
AcDbSymbolTableRecord
100
AcDbLinetypeTableRecord
  2
STYLE_10
 70
               0
  3

 72
              65
 73
               6
 40
2.375
 49
1.5
 74
               0
 49
-0.1111139999999999
 74
               0
 49
0.2777720000000001
 74
               0
 49
-0.1111139999999999
 74
               0
 49
0.25
 74
               0
 49
-0.125
 74
               0
  0
ENDTAB
  0
TABLE
  2
LAYER
  5
2
100
AcDbSymbolTable
 70
               6
  0
LAYER
  5
14
100
AcDbSymbolTableRecord
100
AcDbLayerTableRecord
  2
0
 70
               0
 62
               7
  6
Continuous
290
               1
370
              15
390
1D
  0
LAYER
  5
2F
100
AcDbSymbolTableRecord
100
AcDbLayerTableRecord
  2
Defpoints
 70
               0
 62
               7
  6
Continuous
290
               0
370
              -3
390
1D
  0
LAYER
  5
30
100
AcDbSymbolTableRecord
100
AcDbLayerTableRecord
  2
一般
 70
               0
 62
               7
  6
Continuous
290
               1
370
               5
390
1D
  0
LAYER
  5
31
100
AcDbSymbolTableRecord
100
AcDbLayerTableRecord
  2
寸法
 70
               0
 62
               7
  6
Continuous
290
               1
370
               5
390
1D
  0
LAYER
  5
32
100
AcDbSymbolTableRecord
100
AcDbLayerTableRecord
  2
レイヤー_1
 70
               0
 62
              19
  6
Continuous
290
               1
370
              15
390
1D
  0
LAYER
  5
33
100
AcDbSymbolTableRecord
100
AcDbLayerTableRecord
  2
FORMAT
 70
               0
 62
               7
  6
Continuous
290
               1
370
              15
390
1D
  0
ENDTAB
  0
TABLE
  2
STYLE
  5
3
100
AcDbSymbolTable
 70
               2
  0
STYLE
  5
17
100
AcDbSymbolTableRecord
100
AcDbTextStyleTableRecord
  2
Standard
 70
               0
 40
0.0
 41
1.0
 50
0.0
 71
               0
 42
0.0
  3
txt
  4
BIGFONT.SHX
  0
STYLE
  5
24
100
AcDbSymbolTableRecord
100
AcDbTextStyleTableRecord
  2
Arial
 70
               0
 40
0.0
 41
1.0
 50
0.0
 71
               0
 42
0.0
  3
Arial
  4

1001
ACAD
1000
Arial
1071
        0
  0
ENDTAB
  0
TABLE
  2
VIEW
  5
5
100
AcDbSymbolTable
 70
               0
  0
ENDTAB
  0
TABLE
  2
UCS
  5
6
100
AcDbSymbolTable
 70
               0
  0
ENDTAB
  0
TABLE
  2
APPID
  5
8
100
AcDbSymbolTable
 70
               1
  0
APPID
  5
16
100
AcDbSymbolTableRecord
100
AcDbRegAppTableRecord
  2
ACAD
 70
               0
  0
ENDTAB
  0
TABLE
  2
DIMSTYLE
  5
9
100
AcDbSymbolTable
 70
               1
100
AcDbDimStyleTable
 71
               0
  0
DIMSTYLE
105
18
100
AcDbSymbolTableRecord
100
AcDbDimStyleTableRecord
  2
Standard
 70
               0
  3

  4

 40
1.0
 41
0.18
 42
0.0625
 43
0.38
 44
0.18
 45
0.0
 46
0.0
 47
0.0
 48
0.0
 71
               0
 72
               0
 73
               1
 74
               1
 75
               0
 76
               0
 77
               0
 78
               0
 79
               0
140
0.18
141
0.09
142
0.0
143
25.399999999999999
144
1.0
145
0.0
146
1.0
147
0.09
148
0.0
170
               0
171
               2
172
               0
173
               0
174
               0
175
               0
176
               0
177
               0
178
               0
179
               0
271
               4
272
               4
273
               2
274
               2
275
               0
276
               0
277
               2
278
              46
279
               0
280
               0
281
               0
282
               0
283
               1
284
               0
285
               0
286
               0
288
               0
340
17
341
0
342
0
343
0
344
0
371
              -2
372
              -2
  0
ENDTAB
  0
TABLE
  2
BLOCK_RECORD
  5
1
100
AcDbSymbolTable
 70
               0
  0
BLOCK_RECORD
  5
A
100
AcDbSymbolTableRecord
100
AcDbBlockTableRecord
  2
*MODEL_SPACE
340
20
  0
BLOCK_RECORD
  5
B
100
AcDbSymbolTableRecord
100
AcDbBlockTableRecord
  2
*PAPER_SPACE
340
21
  0
ENDTAB
  0
ENDSEC
  0
SECTION
  2
BLOCKS
  0
BLOCK
  5
D
100
AcDbEntity
  8
0
100
AcDbBlockBegin
  2
*MODEL_SPACE
 70
               0
 10
0.0
 20
0.0
 30
0.0
  3
*MODEL_SPACE
  1

  0
ENDBLK
  5
E
100
AcDbEntity
  8
0
100
AcDbBlockEnd
  0
BLOCK
  5
F
100
AcDbEntity
 67
               1
  8
0
100
AcDbBlockBegin
  2
*PAPER_SPACE
 70
               0
 10
0.0
 20
0.0
 30
0.0
  3
*PAPER_SPACE
  1

  0
ENDBLK
  5
10
100
AcDbEntity
 67
               1
  8
0
100
AcDbBlockEnd
  0
ENDSEC
  0
SECTION
  2
ENTITIES
  0
LINE
  5
34
100
AcDbEntity
  8
0
370
              25
  6
Continuous
 62
               7
100
AcDbLine
 10
227.36951538989999
 20
195.2905082103
 30
0.0
 11
227.37783345509999
 21
195.57153809740001
 31
0.0
  0
SPLINE
  5
35
100
AcDbEntity
  8
0
370
              25
  6
Continuous
 62
               7
100
AcDbSpline
210
0.0
220
0.0
230
1.0
 70
               8
 71
               2
 72
              16
 73
              13
 74
               0
 42
0.000001
 43
0.000001
 40
0.0
 40
0.0
 40
0.0
 40
1.0
 40
1.0
 40
2.0
 40
3.0
 40
4.0
 40
5.0
 40
6.0
 40
7.0
 40
8.0
 40
8.0
 40
9.0
 40
9.0
 40
9.0
 10
227.37147578043729
 20
195.61190711207189
 30
0.0
 10
227.37133804630167
 20
195.61442997277163
 30
0.0
 10
227.37120031216608
 20
195.61695283347137
 30
0.0
 10
227.36740397734886
 20
195.7333881765295
 30
0.0
 10
227.33195421859207
 20
195.96202289926282
 30
0.0
 10
227.25039890360756
 20
196.1490523842252
 30
0.0
 10
227.04292684528707
 20
196.4999004186289
 30
0.0
 10
226.43907429350432
 20
196.95994534869808
 30
0.0
 10
225.69471777059073
 20
197.21709698934245
 30
0.0
 10
225.09727254078877
 20
197.30988446894082
 30
0.0
 10
224.83166792103992
 20
197.3192357808334
 30
0.0
 10
224.83004783551257
 20
197.31930603585391
 30
0.0
 10
224.8284277499852
 20
197.3193762908744
 30
0.0
  0
LINE
  5
36
100
AcDbEntity
  8
0
370
              25
  6
Continuous
 62
               7
100
AcDbLine
 10
219.9666315831
 20
199.7792855779
 30
0.0
 11
219.9750771521
 21
200.06462324169999
 31
0.0
  0
SPLINE
  5
37
100
AcDbEntity
  8
0
370
              25
  6
Continuous
 62
               7
100
AcDbSpline
210
0.0
220
0.0
230
1.0
 70
               8
 71
               2
 72
              18
 73
              15
 74
               0
 42
0.000001
 43
0.000001
 40
0.0
 40
0.0
 40
0.0
 40
1.0
 40
1.0
 40
2.0
 40
3.0
 40
4.0
 40
5.0
 40
6.0
 40
7.0
 40
8.0
 40
9.0
 40
10.0
 40
10.0
 40
11.0
 40
11.0
 40
11.0
 10
219.96871963782931
 20
200.10499215889851
 30
0.0
 10
219.96856071380728
 20
200.10790315175271
 30
0.0
 10
219.96840178978522
 20
200.11081414460691
 30
0.0
 10
219.96440211602112
 20
200.19829121378245
 30
0.0
 10
219.92759643995788
 20
200.50863182110868
 30
0.0
 10
219.659062070966
 20
200.96292630324336
 30
0.0
 10
219.14648466111834
 20
201.38307918881657
 30
0.0
 10
218.58310650817475
 20
201.61759784901247
 30
0.0
 10
217.8606570613797
 20
201.81099061054474
 30
0.0
 10
216.93633725674584
 20
201.81623052798105
 30
0.0
 10
216.08188133444582
 20
201.65781242703198
 30
0.0
 10
215.48869546888807
 20
201.36048567165005
 30
0.0
 10
215.33804174548797
 20
201.22603124396056
 30
0.0
 10
215.33715909895147
 20
201.22526195864725
 30
0.0
 10
215.33627645241501
 20
201.22449267333391
 30
0.0
  0
LINE
  5
38
100
AcDbEntity
  8
0
370
              25
  6
Continuous
 62
               7
100
AcDbLine
 10
213.59180621569999
 20
199.0099485492
 30
0.0
 11
213.50637725780001
 21
198.9217836311
 31
0.0
  0
SPLINE
  5
39
100
AcDbEntity
  8
0
370
              25
  6
Continuous
 62
               7
100
AcDbSpline
210
0.0
220
0.0
230
1.0
 70
               8
 71
               2
 72
              15
 73
              12
 74
               0
 42
0.000001
 43
0.000001
 40
0.0
 40
0.0
 40
0.0
 40
1.0
 40
1.0
 40
2.0
 40
3.0
 40
4.0
 40
5.0
 40
6.0
 40
7.0
 40
7.0
 40
8.0
 40
8.0
 40
8.0
 10
230.40156313200831
 20
191.10363576766031
 30
0.0
 10
230.39751210696494
 20
191.11306833994939
 30
0.0
 10
230.3934610819216
 20
191.12250091223848
 30
0.0
 10
230.14101889061072
 20
191.73615950054398
 30
0.0
 10
229.25165373269627
 20
193.24114255305767
 30
0.0
 10
227.17289350879537
 20
195.66667777396648
 30
0.0
 10
222.76706748798335
 20
198.73630262379129
 30
0.0
 10
217.72312963025684
 20
200.63239928136522
 30
0.0
 10
214.59280831620617
 20
201.43208796658621
 30
0.0
 10
213.33612269664357
 20
201.65307063677957
 30
0.0
 10
213.33463981782029
 20
201.65332026134928
 30
0.0
 10
213.33315693899701
 20
201.65356988591901
 30
0.0
  0
LINE
  5
3A
100
AcDbEntity
  8
0
370
              25
  6
Continuous
 62
               7
100
AcDbLine
 10
229.36459777280001
 20
190.99295846839999
 30
0.0
 11
229.0825166553
 21
191.0056499598
 31
0.0
  0
LINE
  5
3B
100
AcDbEntity
  8
0
370
              25
  6
Continuous
 62
               7
100
AcDbLine
 10
233.6281104007
 20
165.0084602197
 30
0.0
 11
253.0285818182
 21
153.2333907256
 31
0.0
  0
LINE
  5
3C
100
AcDbEntity
  8
0
370
              25
  6
Continuous
 62
               7
100
AcDbLine
 10
256.5568037896
 20
159.0464498618
 30
0.0
 11
236.87271427569999
 21
170.99366067779999
 31
0.0
  0
LINE
  5
3D
100
AcDbEntity
  8
0
370
              25
  6
Continuous
 62
               7
100
AcDbLine
 10
230.65514928589999
 20
184.77037983010001
 30
0.0
 11
230.71694840859999
 21
186.8582933104
 31
0.0
  0
LINE
  5
3E
100
AcDbEntity
  8
0
370
              25
  6
Continuous
 62
               7
100
AcDbLine
 10
182.23818075240001
 20
188.29319202459999
 30
0.0
 11
182.17638162969999
 21
186.2052785443
 31
0.0
  0
LINE
  5
3F
100
AcDbEntity
  8
0
370
              25
  6
Continuous
 62
               7
100
AcDbLine
 10
189.9326962973
 20
197.84784939939999
 30
0.0
 11
188.80256866560001
 21
197.19879910220001
 31
0.0
  0
LINE
  5
40
100
AcDbEntity
  8
0
370
              25
  6
Continuous
 62
               7
100
AcDbLine
 10
175.11056640659999
 20
175.63523426579999
 30
0.0
 11
175.07373728889999
 21
174.39094457350001
 31
0.0
  0
LINE
  5
41
100
AcDbEntity
  8
0
370
              25
  6
Continuous
 62
               7
100
AcDbLine
 10
237.04659850229999
 20
172.5566399089
 30
0.0
 11
237.08342762000001
 21
173.80092960120001
 31
0.0
  0
LINE
  5
42
100
AcDbEntity
  8
0
370
              25
  6
Continuous
 62
               7
100
AcDbLine
 10
213.69333248480001
 20
191.55048362220001
 30
0.0
 11
213.6983922551
 21
191.33562655590001
 31
0.0
  0
ARC
  5
43
100
AcDbEntity
  8
0
370
              25
  6
Continuous
 62
               7
100
AcDbCircle
 10
206.154041079
 20
150.51971026000001
 30
0.0
 40
41.717685429670617
100
AcDbArc
 50
73.491480667200008
 51
79.58819987470001
  0
LINE
  5
44
100
AcDbEntity
  8
0
370
              25
  6
Continuous
 62
               7
100
AcDbLine
 10
218.0107710563
 20
190.47583499109999
 30
0.0
 11
218.00845133319999
 21
190.51768814799999
 31
0.0
  0
LINE
  5
45
100
AcDbEntity
  8
0
370
              25
  6
Continuous
 62
               7
100
AcDbLine
 10
218.86760098139999
 20
198.46188140929999
 30
0.0
 11
219.33518542479999
 21
190.05058890390001
 31
0.0
  0
SPLINE
  5
46
100
AcDbEntity
  8
0
370
              25
  6
Continuous
 62
               7
100
AcDbSpline
210
0.0
220
0.0
230
1.0
 70
               8
 71
               2
 72
              16
 73
              13
 74
               0
 42
0.000001
 43
0.000001
 40
0.0
 40
0.0
 40
0.0
 40
1.0
 40
1.0
 40
2.0
 40
3.0
 40
4.0
 40
5.0
 40
6.0
 40
7.0
 40
8.0
 40
8.0
 40
9.0
 40
9.0
 40
9.0
 10
217.94579110689969
 20
199.5012261271398
 30
0.0
 10
217.94776276404815
 20
199.50044445614554
 30
0.0
 10
217.94973442119661
 20
199.49966278515129
 30
0.0
 10
218.07266290351652
 20
199.45369809026766
 30
0.0
 10
218.25645773346284
 20
199.35983169717429
 30
0.0
 10
218.43861829258137
 20
199.23103327094077
 30
0.0
 10
218.63435742232127
 20
199.02630954198543
 30
0.0
 10
218.74362845721521
 20
198.85710139748826
 30
0.0
 10
218.82297995933178
 20
198.69950514515099
 30
0.0
 10
218.85905983024185
 20
198.53411964050406
 30
0.0
 10
218.86730783575157
 20
198.46414515696165
 30
0.0
 10
218.86745440858772
 20
198.46301328313569
 30
0.0
 10
218.86760098142389
 20
198.46188140930971
 30
0.0
  0
ARC
  5
47
100
AcDbEntity
  8
0
370
              25
  6
Continuous
 62
               7
100
AcDbCircle
 10
206.51805656479999
 20
162.6456529738
 30
0.0
 40
38.586608936584298
100
AcDbArc
 50
72.773008381599965
 51
79.605189402299999
  0
LINE
  5
48
100
AcDbEntity
  8
0
370
              25
  6
Continuous
 62
               7
100
AcDbLine
 10
213.46568731319999
 20
201.21695021170001
 30
0.0
 11
213.48024074279999
 21
200.59897141499999
 31
0.0
  0
POLYLINE
  5
49
100
AcDbEntity
  8
0
370
              25
  6
Continuous
 62
               7
100
AcDb2dPolyline
 66
               1
 10
0.0
 20
0.0
 30
0.0
 75
               5
  0
VERTEX
  5
4A
100
AcDbEntity
  8
0
370
              25
  6
Continuous
 62
               7
100
AcDbVertex
100
AcDb2dVertex
 10
230.47120397789999
 20
190.89549274800001
 30
0.0
  0
VERTEX
  5
4B
100
AcDbEntity
  8
0
370
              25
  6
Continuous
 62
               7
100
AcDbVertex
100
AcDb2dVertex
 10
230.00867339640001
 20
191.83075136119999
 30
0.0
  0
VERTEX
  5
4C
100
AcDbEntity
  8
0
370
              25
  6
Continuous
 62
               7
100
AcDbVertex
100
AcDb2dVertex
 10
229.43158528430001
 20
192.7480774503
 30
0.0
  0
VERTEX
  5
4D
100
AcDbEntity
  8
0
370
              25
  6
Continuous
 62
               7
100
AcDbVertex
100
AcDb2dVertex
 10
228.74275016830001
 20
193.64300128049999
 30
0.0
  0
VERTEX
  5
4E
100
AcDbEntity
  8
0
370
              25
  6
Continuous
 62
               7
100
AcDbVertex
100
AcDb2dVertex
 10
227.9455239813
 20
194.51116388489999
 30
0.0
  0
VERTEX
  5
4F
100
AcDbEntity
  8
0
370
              25
  6
Continuous
 62
               7
100
AcDbVertex
100
AcDb2dVertex
 10
227.0437910574
 20
195.3483349242
 30
0.0
  0
VERTEX
  5
50
100
AcDbEntity
  8
0
370
              25
  6
Continuous
 62
               7
100
AcDbVertex
100
AcDb2dVertex
 10
226.04194388720001
 20
196.1504355296
 30
0.0
  0
VERTEX
  5
51
100
AcDbEntity
  8
0
370
              25
  6
Continuous
 62
               7
100
AcDbVertex
100
AcDb2dVertex
 10
224.9448630638
 20
196.9135580139
 30
0.0
  0
VERTEX
  5
52
100
AcDbEntity
  8
0
370
              25
  6
Continuous
 62
               7
100
AcDbVertex
100
AcDb2dVertex
 10
223.7578950775
 20
197.6339853801
 30
0.0
  0
VERTEX
  5
53
100
AcDbEntity
  8
0
370
              25
  6
Continuous
 62
               7
100
AcDbVertex
100
AcDb2dVertex
 10
222.48682288500001
 20
198.30820767649999
 30
0.0
  0
VERTEX
  5
54
100
AcDbEntity
  8
0
370
              25
  6
Continuous
 62
               7
100
AcDbVertex
100
AcDb2dVertex
 10
221.137837346
 20
198.9329393333
 30
0.0
  0
VERTEX
  5
55
100
AcDbEntity
  8
0
370
              25
  6
Continuous
 62
               7
100
AcDbVertex
100
AcDb2dVertex
 10
219.71751049010001
 20
199.50513689580001
 30
0.0
  0
VERTEX
  5
56
100
AcDbEntity
  8
0
370
              25
  6
Continuous
 62
               7
100
AcDbVertex
100
AcDb2dVertex
 10
218.23276252119999
 20
200.02201302020001
 30
0.0
  0
VERTEX
  5
57
100
AcDbEntity
  8
0
370
              25
  6
Continuous
 62
               7
100
AcDbVertex
100
AcDb2dVertex
 10
216.69082827470001
 20
200.48104929249999
 30
0.0
  0
VERTEX
  5
58
100
AcDbEntity
  8
0
370
              25
  6
Continuous
 62
               7
100
AcDbVertex
100
AcDb2dVertex
 10
215.09921808920001
 20
200.8800094222
 30
0.0
  0
VERTEX
  5
59
100
AcDbEntity
  8
0
370
              25
  6
Continuous
 62
               7
100
AcDbVertex
100
AcDb2dVertex
 10
213.46568731319999
 20
201.21695021170001
 30
0.0
  0
SEQEND
  5
5A
100
AcDbEntity
  8
0
370
              25
  6
Continuous
 62
               7
  0
LINE
  5
5B
100
AcDbEntity
  8
0
370
              25
  6
Continuous
 62
               7
100
AcDbLine
 10
230.47120397789999
 20
190.89549274800001
 30
0.0
 11
230.5705860873
 21
190.22602738809999
 31
0.0
  0
ARC
  5
5C
100
AcDbEntity
  8
0
370
              25
  6
Continuous
 62
               7
100
AcDbCircle
 10
220.53206317569999
 20
185.82870454970001
 30
0.0
 40
10.959397355314035
100
AcDbArc
 50
23.655572771699955
 51
39.487517118600039
  0
SPLINE
  5
5D
100
AcDbEntity
  8
0
370
              25
  6
Continuous
 62
               7
100
AcDbSpline
210
0.0
220
0.0
230
1.0
 70
               8
 71
               2
 72
              17
 73
              14
 74
               0
 42
0.000001
 43
0.000001
 40
0.0
 40
0.0
 40
0.0
 40
1.0
 40
1.0
 40
2.0
 40
3.0
 40
4.0
 40
5.0
 40
6.0
 40
7.0
 40
8.0
 40
9.0
 40
9.0
 40
10.0
 40
10.0
 40
10.0
 10
228.6639764595337
 20
192.51599486031861
 30
0.0
 10
228.66386849628555
 20
192.51719438358248
 30
0.0
 10
228.66376053303736
 20
192.51839390684637
 30
0.0
 10
228.65644263728018
 20
192.59369548171185
 30
0.0
 10
228.65118954017987
 20
192.6970773561861
 30
0.0
 10
228.65490569363436
 20
192.82590710680256
 30
0.0
 10
228.70468387814606
 20
192.9258393062114
 30
0.0
 10
228.76181879837955
 20
192.95170144336259
 30
0.0
 10
228.82228368844824
 20
192.94555614631258
 30
0.0
 10
228.89655497665328
 20
192.89804656813919
 30
0.0
 10
228.96139396300362
 20
192.83027360863812
 30
0.0
 10
228.98922621159184
 20
192.79889678786591
 30
0.0
 10
228.98967418295979
 20
192.79839636645744
 30
0.0
 10
228.99012215432771
 20
192.79789594504899
 30
0.0
  0
LINE
  5
5E
100
AcDbEntity
  8
0
370
              25
  6
Continuous
 62
               7
100
AcDbLine
 10
229.65693379539999
 20
185.47141929520001
 30
0.0
 11
228.66397645949999
 21
192.5159948603
 31
0.0
  0
LINE
  5
5F
100
AcDbEntity
  8
0
370
              25
  6
Continuous
 62
               7
100
AcDbLine
 10
213.59343934110001
 20
191.6076566088
 30
0.0
 11
213.06316066562823
 21
196.5507333414738
 31
0.0
  0
LINE
  5
60
100
AcDbEntity
  8
0
370
              25
  6
Continuous
 62
               7
100
AcDbLine
 10
213.2729139596
 20
198.4107348311
 30
0.0
 11
213.06826915064423
 21
196.54616879334975
 31
0.0
  0
LINE
  5
61
100
AcDbEntity
  8
0
370
              25
  6
Continuous
 62
               7
100
AcDbLine
 10
213.2729139596
 20
198.4107348311
 30
0.0
 11
213.35209701220001
 21
198.49245266049999
 31
0.0
  0
LINE
  5
62
100
AcDbEntity
  8
0
370
              25
  6
Continuous
 62
               7
100
AcDbLine
 10
213.35209701220001
 20
198.49245266049999
 30
0.0
 11
213.15494476134123
 21
196.69583048904039
 31
0.0
  0
LINE
  5
63
100
AcDbEntity
  8
0
370
              25
  6
Continuous
 62
               7
100
AcDbLine
 10
213.15494476134126
 20
196.69583048904042
 30
0.0
 11
213.67499451640001
 21
191.8481107023
 31
0.0
  0
LINE
  5
64
100
AcDbEntity
  8
0
370
              25
  6
Continuous
 62
               7
100
AcDbLine
 10
213.67499451640001
 20
191.8481107023
 30
0.0
 11
213.69333248480001
 21
191.55048362220001
 31
0.0
  0
LINE
  5
65
100
AcDbEntity
  8
0
370
              25
  6
Continuous
 62
               7
100
AcDbLine
 10
213.59343934110001
 20
191.6076566088
 30
0.0
 11
213.60811066989999
 21
191.36955568990001
 31
0.0
  0
LINE
  5
66
100
AcDbEntity
  8
0
370
              25
  6
Continuous
 62
               7
100
AcDbLine
 10
213.60856991380001
 20
191.35006533090001
 30
0.0
 11
213.60811066989999
 21
191.36955568990001
 31
0.0
  0
ARC
  5
67
100
AcDbEntity
  8
0
370
              25
  6
Continuous
 62
               7
100
AcDbCircle
 10
206.16449419700001
 20
150.97406683130001
 30
0.0
 40
41.55833342927432
100
AcDbArc
 50
73.491498605200022
 51
79.588189670600016
  0
LINE
  5
68
100
AcDbEntity
  8
0
370
              25
  6
Continuous
 62
               7
100
AcDbLine
 10
218.00845133319999
 20
190.51768814799999
 30
0.0
 11
217.9736108454
 21
190.8192653049
 31
0.0
  0
LINE
  5
69
100
AcDbEntity
  8
0
370
              25
  6
Continuous
 62
               7
100
AcDbLine
 10
217.9736108454
 20
190.8192653049
 30
0.0
 11
217.05018396957678
 21
195.76352840911522
 31
0.0
  0
LINE
  5
6A
100
AcDbEntity
  8
0
370
              25
  6
Continuous
 62
               7
100
AcDbLine
 10
218.86760098139999
 20
198.46188140929999
 30
0.0
 11
218.73431183689999
 21
198.27916669769999
 31
0.0
  0
LINE
  5
6B
100
AcDbEntity
  8
0
370
              25
  6
Continuous
 62
               7
100
AcDbLine
 10
218.73431183689999
 20
198.27916669769999
 30
0.0
 11
219.1872313202
 21
190.1322154174
 31
0.0
  0
SPLINE
  5
6C
100
AcDbEntity
  8
0
370
              25
  6
Continuous
 62
               7
100
AcDbSpline
210
0.0
220
0.0
230
1.0
 70
               8
 71
               2
 72
              14
 73
              11
 74
               0
 42
0.000001
 43
0.000001
 40
0.0
 40
0.0
 40
0.0
 40
1.0
 40
1.0
 40
2.0
 40
3.0
 40
4.0
 40
5.0
 40
6.0
 40
6.0
 40
7.0
 40
7.0
 40
7.0
 10
225.45258206345721
 20
187.9847663124801
 30
0.0
 10
225.45225878285228
 20
187.98514523651994
 30
0.0
 10
225.45193550224735
 20
187.98552416055981
 30
0.0
 10
225.43164081474549
 20
188.00876598299376
 30
0.0
 10
225.39894012216183
 20
188.05190496040433
 30
0.0
 10
225.37601903361835
 20
188.09359152606197
 30
0.0
 10
225.35942307893538
 20
188.14160769465974
 30
0.0
 10
225.3456373133217
 20
188.20367497266932
 30
0.0
 10
225.33916203806666
 20
188.24074598257863
 30
0.0
 10
225.33905488557568
 20
188.24134118760392
 30
0.0
 10
225.33894773308469
 20
188.24193639262921
 30
0.0
  0
SPLINE
  5
6D
100
AcDbEntity
  8
0
370
              25
  6
Continuous
 62
               7
100
AcDbSpline
210
0.0
220
0.0
230
1.0
 70
               8
 71
               2
 72
              17
 73
              14
 74
               0
 42
0.000001
 43
0.000001
 40
0.0
 40
0.0
 40
0.0
 40
1.0
 40
1.0
 40
2.0
 40
3.0
 40
4.0
 40
5.0
 40
6.0
 40
7.0
 40
8.0
 40
9.0
 40
9.0
 40
10.0
 40
10.0
 40
10.0
 10
214.42069585729479
 20
199.2534650445759
 30
0.0
 10
214.41856689060867
 20
199.25369807632293
 30
0.0
 10
214.41643792392256
 20
199.25393110806996
 30
0.0
 10
214.35252597823791
 20
199.26125332648871
 30
0.0
 10
214.22527068934448
 20
199.27179800984899
 30
0.0
 10
214.08296567851821
 20
199.26719537207273
 30
0.0
 10
213.87925617615721
 20
199.21740430561542
 30
0.0
 10
213.65310308900484
 20
199.07949652002645
 30
0.0
 10
213.52136614204784
 20
198.9319636758004
 30
0.0
 10
213.42190040769384
 20
198.77928307260109
 30
0.0
 10
213.36778474292385
 20
198.58436398137519
 30
0.0
 10
213.35261841393384
 20
198.49531477504618
 30
0.0
 10
213.35235771307833
 20
198.49388371775888
 30
0.0
 10
213.3520970122228
 20
198.4924526604716
 30
0.0
  0
ARC
  5
6E
100
AcDbEntity
  8
0
370
              25
  6
Continuous
 62
               7
100
AcDbCircle
 10
206.42280192129999
 20
161.08862714279999
 30
0.0
 40
38.993860535762813
100
AcDbArc
 50
74.915419076099994
 51
78.164266953599991
  0
SPLINE
  5
6F
100
AcDbEntity
  8
0
370
              25
  6
Continuous
 62
               7
100
AcDbSpline
210
0.0
220
0.0
230
1.0
 70
               8
 71
               2
 72
              17
 73
              14
 74
               0
 42
0.000001
 43
0.000001
 40
0.0
 40
0.0
 40
0.0
 40
1.0
 40
1.0
 40
2.0
 40
3.0
 40
4.0
 40
5.0
 40
6.0
 40
7.0
 40
8.0
 40
9.0
 40
9.0
 40
10.0
 40
10.0
 40
10.0
 10
217.3348602759792
 20
197.5392051983784
 30
0.0
 10
217.33499755150581
 20
197.54133750007301
 30
0.0
 10
217.33513482703239
 20
197.54346980176763
 30
0.0
 10
217.33956155182972
 20
197.60743448930697
 30
0.0
 10
217.34459785169457
 20
197.73538030304968
 30
0.0
 10
217.33488954908552
 20
197.88084491500013
 30
0.0
 10
217.28053158372006
 20
198.0953816454014
 30
0.0
 10
217.14206199940486
 20
198.3457469832905
 30
0.0
 10
216.99721469174261
 20
198.50152858720546
 30
0.0
 10
216.84828322617403
 20
198.62524560902463
 30
0.0
 10
216.65957604722456
 20
198.70923375762646
 30
0.0
 10
216.57351329156856
 20
198.73790847908478
 30
0.0
 10
216.57212993333738
 20
198.73838652758894
 30
0.0
 10
216.5707465751062
 20
198.73886457609311
 30
0.0
  0
LINE
  5
70
100
AcDbEntity
  8
0
370
              25
  6
Continuous
 62
               7
100
AcDbLine
 10
217.05018396957678
 20
195.76352840911525
 30
0.0
 11
217.334860276
 21
197.5392051984
 31
0.0
  0
SPLINE
  5
71
100
AcDbEntity
  8
0
370
              25
  6
Continuous
 62
               7
100
AcDbSpline
210
0.0
220
0.0
230
1.0
 70
               8
 71
               2
 72
              14
 73
              11
 74
               0
 42
0.000001
 43
0.000001
 40
0.0
 40
0.0
 40
0.0
 40
1.0
 40
1.0
 40
2.0
 40
3.0
 40
4.0
 40
5.0
 40
6.0
 40
6.0
 40
7.0
 40
7.0
 40
7.0
 10
213.51648855839949
 20
198.92199175556669
 30
0.0
 10
213.51631369117479
 20
198.92185742916632
 30
0.0
 10
213.51613882395009
 20
198.92172310276595
 30
0.0
 10
213.47573741404312
 20
198.89229684187836
 30
0.0
 10
213.41168708037631
 20
198.81935366499934
 30
0.0
 10
213.36345793724342
 20
198.73459539911289
 30
0.0
 10
213.31702859268256
 20
198.61461194121276
 30
0.0
 10
213.2855171557633
 20
198.47693375905476
 30
0.0
 10
213.27331744922327
 20
198.41280217495887
 30
0.0
 10
213.27311570442055
 20
198.41176850303924
 30
0.0
 10
213.2729139596178
 20
198.41073483111961
 30
0.0
  0
LINE
  5
72
100
AcDbEntity
  8
0
370
              25
  6
Continuous
 62
               7
100
AcDbLine
 10
230.47120397789999
 20
190.89549274800001
 30
0.0
 11
230.39494857349999
 21
191.10098429920001
 31
0.0
  0
SPLINE
  5
73
100
AcDbEntity
  8
0
370
              25
  6
Continuous
 62
               7
100
AcDbSpline
210
0.0
220
0.0
230
1.0
 70
               8
 71
               2
 72
              18
 73
              15
 74
               0
 42
0.000001
 43
0.000001
 40
0.0
 40
0.0
 40
0.0
 40
1.0
 40
1.0
 40
2.0
 40
3.0
 40
4.0
 40
5.0
 40
6.0
 40
7.0
 40
8.0
 40
9.0
 40
10.0
 40
10.0
 40
11.0
 40
11.0
 40
11.0
 10
213.12963507839609
 20
201.4550395256492
 30
0.0
 10
213.13022561785817
 20
201.45598407345523
 30
0.0
 10
213.13081615732023
 20
201.45692862126126
 30
0.0
 10
213.14854925249185
 20
201.48542754795778
 30
0.0
 10
213.18380448681225
 20
201.54039842793813
 30
0.0
 10
213.22063014238211
 20
201.591707982012
 30
0.0
 10
213.26954272510068
 20
201.6443674126192
 30
0.0
 10
213.32189663791286
 20
201.6610416114255
 30
0.0
 10
213.40292832674072
 20
201.63002568620749
 30
0.0
 10
213.45100907838838
 20
201.43418853393064
 30
0.0
 10
213.46247621771752
 20
201.30488015123774
 30
0.0
 10
213.46500193069488
 20
201.2381998583374
 30
0.0
 10
213.46566545759791
 20
201.21761323259193
 30
0.0
 10
213.46567638537709
 20
201.21728172214287
 30
0.0
 10
213.46568731315631
 20
201.21695021169381
 30
0.0
  0
LINE
  5
74
100
AcDbEntity
  8
0
370
              25
  6
Continuous
 62
               7
100
AcDbLine
 10
213.48024074279999
 20
200.59897141499999
 30
0.0
 11
213.3953243995
 21
200.40505696970001
 31
0.0
  0
LINE
  5
75
100
AcDbEntity
  8
0
370
              25
  6
Continuous
 62
               7
100
AcDbLine
 10
217.81268183610001
 20
199.31881183230001
 30
0.0
 11
217.94579046499999
 21
199.5012265167
 31
0.0
  0
ARC
  5
76
100
AcDbEntity
  8
0
370
              25
  6
Continuous
 62
               7
100
AcDbCircle
 10
206.51727185749999
 20
162.9095573319
 30
0.0
 40
38.12112406349717
100
AcDbArc
 50
72.7643022747
 51
79.60540970800001
  0
LINE
  5
77
100
AcDbEntity
  8
0
370
              25
  6
Continuous
 62
               7
100
AcDbLine
 10
229.58560447599999
 20
191.4021043779
 30
0.0
 11
229.4497176246
 21
191.41521466099999
 31
0.0
  0
SPLINE
  5
78
100
AcDbEntity
  8
0
370
              25
  6
Continuous
 62
               7
100
AcDbSpline
210
0.0
220
0.0
230
1.0
 70
               8
 71
               2
 72
              17
 73
              14
 74
               0
 42
0.000001
 43
0.000001
 40
0.0
 40
0.0
 40
0.0
 40
1.0
 40
1.0
 40
2.0
 40
3.0
 40
4.0
 40
5.0
 40
6.0
 40
7.0
 40
8.0
 40
9.0
 40
9.0
 40
10.0
 40
10.0
 40
10.0
 10
213.38077099266411
 20
201.0230365390247
 30
0.0
 10
213.38070277755125
 20
201.02405839399918
 30
0.0
 10
213.38063456243839
 20
201.02508024897367
 30
0.0
 10
213.37669030955863
 20
201.08931204195153
 30
0.0
 10
213.36823792111772
 20
201.17666644791814
 30
0.0
 10
213.35795279973101
 20
201.24381174554176
 30
0.0
 10
213.33553751350038
 20
201.31303814708838
 30
0.0
 10
213.30591016863391
 20
201.3490565124952
 30
0.0
 10
213.25953318434711
 20
201.37091541678041
 30
0.0
 10
213.1809833109703
 20
201.30857693292302
 30
0.0
 10
213.13108398747957
 20
201.22222885335984
 30
0.0
 10
213.12245287424591
 20
201.20651443989408
 30
0.0
 10
213.12236107054906
 20
201.20634821633053
 30
0.0
 10
213.12226926685219
 20
201.206181992767
 30
0.0
  0
LINE
  5
79
100
AcDbEntity
  8
0
370
              25
  6
Continuous
 62
               7
100
AcDbLine
 10
213.12226926689999
 20
201.2061819928
 30
0.0
 11
212.94191943940001
 21
200.8681235288
 31
0.0
  0
LINE
  5
7A
100
AcDbEntity
  8
0
370
              25
  6
Continuous
 62
               7
100
AcDbLine
 10
212.8276896532
 20
200.8890575547
 30
0.0
 11
213.12963507840001
 21
201.4550395256
 31
0.0
  0
LINE
  5
7B
100
AcDbEntity
  8
0
370
              25
  6
Continuous
 62
               7
100
AcDbLine
 10
213.38077099270001
 20
201.023036539
 30
0.0
 11
213.3953243995
 21
200.40505696970001
 31
0.0
  0
SPLINE
  5
7C
100
AcDbEntity
  8
0
370
              25
  6
Continuous
 62
               7
100
AcDbSpline
210
0.0
220
0.0
230
1.0
 70
               8
 71
               2
 72
              17
 73
              14
 74
               0
 42
0.000001
 43
0.000001
 40
0.0
 40
0.0
 40
0.0
 40
1.0
 40
1.0
 40
2.0
 40
3.0
 40
4.0
 40
5.0
 40
6.0
 40
7.0
 40
8.0
 40
9.0
 40
9.0
 40
10.0
 40
10.0
 40
10.0
 10
218.7343118368982
 20
198.27916669772819
 30
0.0
 10
218.73403095532774
 20
198.28088901929414
 30
0.0
 10
218.73375007375728
 20
198.28261134086006
 30
0.0
 10
218.72560519648803
 20
198.33424868644104
 30
0.0
 10
218.70583800316598
 20
198.43789189706911
 30
0.0
 10
218.66931633365868
 20
198.55717525355755
 30
0.0
 10
218.57898187659185
 20
198.73687295585248
 30
0.0
 10
218.40498083340313
 20
198.95331905788004
 30
0.0
 10
218.2427467550512
 20
199.09286185369024
 30
0.0
 10
218.08317825078132
 20
199.20595666247291
 30
0.0
 10
217.89706755799395
 20
199.28837297473893
 30
0.0
 10
217.81531616399181
 20
199.31783792556058
 30
0.0
 10
217.81399900005655
 20
199.31832487894661
 30
0.0
 10
217.8126818361213
 20
199.31881183233261
 30
0.0
  0
LINE
  5
7D
100
AcDbEntity
  8
0
370
              25
  6
Continuous
 62
               7
100
AcDbLine
 10
229.70352104788969
 20
186.65170951921328
 30
0.0
 11
230.32565819519999
 21
185.01185509819999
 31
0.0
  0
SPLINE
  5
7E
100
AcDbEntity
  8
0
370
              25
  6
Continuous
 62
               7
100
AcDbSpline
210
0.0
220
0.0
230
1.0
 70
               8
 71
               2
 72
              17
 73
              14
 74
               0
 42
0.000001
 43
0.000001
 40
0.0
 40
0.0
 40
0.0
 40
1.0
 40
1.0
 40
2.0
 40
3.0
 40
4.0
 40
5.0
 40
6.0
 40
7.0
 40
8.0
 40
9.0
 40
9.0
 40
10.0
 40
10.0
 40
10.0
 10
229.58021738529899
 20
190.84279753857859
 30
0.0
 10
229.57949490578983
 20
190.84361241113714
 30
0.0
 10
229.57877242628064
 20
190.84442728369572
 30
0.0
 10
229.55713926063993
 20
190.86905633873249
 30
0.0
 10
229.5019640936417
 20
190.92937617835719
 30
0.0
 10
229.41709718993673
 20
190.98882063668856
 30
0.0
 10
229.33695921984804
 20
190.99667397650302
 30
0.0
 10
229.25202430901686
 20
190.9833721489895
 30
0.0
 10
229.11952407130249
 20
190.9011903043932
 30
0.0
 10
229.00489264964244
 20
190.74520344676267
 30
0.0
 10
228.95298080529216
 20
190.62264111693736
 30
0.0
 10
228.93728669177528
 20
190.58190169485749
 30
0.0
 10
228.93703202114739
 20
190.58124755262583
 30
0.0
 10
228.93677735051949
 20
190.58059341039419
 30
0.0
  0
ARC
  5
7F
100
AcDbEntity
  8
0
370
              25
  6
Continuous
 62
               7
100
AcDbCircle
 10
220.7092348907
 20
184.72742467570001
 30
0.0
 40
10.774605128325177
100
AcDbArc
 50
26.920716975700056
 51
34.581142954199997
  0
SPLINE
  5
80
100
AcDbEntity
  8
0
370
              25
  6
Continuous
 62
               7
100
AcDbSpline
210
0.0
220
0.0
230
1.0
 70
               8
 71
               2
 72
              16
 73
              13
 74
               0
 42
0.000001
 43
0.000001
 40
0.0
 40
0.0
 40
0.0
 40
1.0
 40
1.0
 40
2.0
 40
3.0
 40
4.0
 40
5.0
 40
6.0
 40
7.0
 40
8.0
 40
8.0
 40
9.0
 40
9.0
 40
9.0
 10
230.27251543348049
 20
188.2226461575616
 30
0.0
 10
230.27312903223253
 20
188.22460047458986
 30
0.0
 10
230.2737426309846
 20
188.22655479161816
 30
0.0
 10
230.29225570357312
 20
188.28507750339702
 30
0.0
 10
230.35046528495391
 20
188.47371630502295
 30
0.0
 10
230.38931517314188
 20
188.69114107451747
 30
0.0
 10
230.42288334730864
 20
188.97744425975293
 30
0.0
 10
230.40923209867
 20
189.23843590010858
 30
0.0
 10
230.3884370763881
 20
189.40475126216768
 30
0.0
 10
230.3412884946589
 20
189.54765829925557
 30
0.0
 10
230.31700851819122
 20
189.60386519357388
 30
0.0
 10
230.31662319368354
 20
189.60478461099518
 30
0.0
 10
230.31623786917589
 20
189.60570402841651
 30
0.0
  0
LINE
  5
81
100
AcDbEntity
  8
0
370
              25
  6
Continuous
 62
               7
100
AcDbLine
 10
229.70352104788969
 20
186.65170951921328
 30
0.0
 11
230.27251543349999
 21
188.2226461576
 31
0.0
  0
LINE
  5
82
100
AcDbEntity
  8
0
370
              25
  6
Continuous
 62
               7
100
AcDbLine
 10
228.9901221543
 20
192.79789594499999
 30
0.0
 11
228.7171512786
 21
192.70037031519999
 31
0.0
  0
SPLINE
  5
83
100
AcDbEntity
  8
0
370
              25
  6
Continuous
 62
               7
100
AcDbSpline
210
0.0
220
0.0
230
1.0
 70
               8
 71
               2
 72
              16
 73
              13
 74
               0
 42
0.000001
 43
0.000001
 40
0.0
 40
0.0
 40
0.0
 40
1.0
 40
1.0
 40
2.0
 40
3.0
 40
4.0
 40
5.0
 40
6.0
 40
7.0
 40
8.0
 40
8.0
 40
9.0
 40
9.0
 40
9.0
 10
229.09574230568029
 20
190.99093095996321
 30
0.0
 10
229.09548115084712
 20
190.99099252295329
 30
0.0
 10
229.09521999601395
 20
190.99105408594338
 30
0.0
 10
229.07902982218062
 20
190.99508341279233
 30
0.0
 10
229.05499290584874
 20
190.99915732315941
 30
0.0
 10
229.0279528060143
 20
191.00125363314299
 30
0.0
 10
228.99400251717324
 20
190.99201088667738
 30
0.0
 10
228.96348745580977
 20
190.97613712249557
 30
0.0
 10
228.93293682746153
 20
190.95496452989534
 30
0.0
 10
228.90427613350039
 20
190.93221307876718
 30
0.0
 10
228.88994299346598
 20
190.92042123940311
 30
0.0
 10
228.88946523187445
 20
190.92002962961112
 30
0.0
 10
228.8889874702829
 20
190.9196380198191
 30
0.0
  0
LINE
  5
84
100
AcDbEntity
  8
0
370
              25
  6
Continuous
 62
               7
100
AcDbLine
 10
230.28117920930001
 20
190.15622798129999
 30
0.0
 11
230.5705860873
 21
190.22602738809999
 31
0.0
  0
ARC
  5
85
100
AcDbEntity
  8
0
370
              25
  6
Continuous
 62
               7
100
AcDbCircle
 10
220.36080647750001
 20
185.8104340781
 30
0.0
 40
10.830499516965606
100
AcDbArc
 50
23.656668568800033
 51
39.506111528799984
  0
ARC
  5
86
100
AcDbEntity
  8
0
370
              25
  6
Continuous
 62
               7
100
AcDbCircle
 10
255.55844680449999
 20
157.65170813290001
 30
0.0
 40
1.7152321008816303
100
AcDbArc
 50
351.4913347472999
 51
54.404889470700823
  0
POLYLINE
  5
87
100
AcDbEntity
  8
0
370
              25
  6
Continuous
 62
               7
100
AcDb2dPolyline
 66
               1
 10
0.0
 20
0.0
 30
0.0
 75
               5
  0
VERTEX
  5
88
100
AcDbEntity
  8
0
370
              25
  6
Continuous
 62
               7
100
AcDbVertex
100
AcDb2dVertex
 10
253.0285818182
 20
153.2333907256
 30
0.0
  0
VERTEX
  5
89
100
AcDbEntity
  8
0
370
              25
  6
Continuous
 62
               7
100
AcDbVertex
100
AcDb2dVertex
 10
253.11726596950001
 20
153.18459417049999
 30
0.0
  0
VERTEX
  5
8A
100
AcDbEntity
  8
0
370
              25
  6
Continuous
 62
               7
100
AcDbVertex
100
AcDb2dVertex
 10
253.48934388149999
 20
153.06838897470001
 30
0.0
  0
VERTEX
  5
8B
100
AcDbEntity
  8
0
370
              25
  6
Continuous
 62
               7
100
AcDbVertex
100
AcDb2dVertex
 10
253.90852832409999
 20
153.0631961309
 30
0.0
  0
VERTEX
  5
8C
100
AcDbEntity
  8
0
370
              25
  6
Continuous
 62
               7
100
AcDbVertex
100
AcDb2dVertex
 10
254.3596687568
 20
153.16920511320001
 30
0.0
  0
VERTEX
  5
8D
100
AcDbEntity
  8
0
370
              25
  6
Continuous
 62
               7
100
AcDbVertex
100
AcDb2dVertex
 10
254.82645980949999
 20
153.3825830408
 30
0.0
  0
VERTEX
  5
8E
100
AcDbEntity
  8
0
370
              25
  6
Continuous
 62
               7
100
AcDbVertex
100
AcDb2dVertex
 10
255.29203042539999
 20
153.69561819809999
 30
0.0
  0
VERTEX
  5
8F
100
AcDbEntity
  8
0
370
              25
  6
Continuous
 62
               7
100
AcDbVertex
100
AcDb2dVertex
 10
255.7395536407
 20
154.0969965983
 30
0.0
  0
VERTEX
  5
90
100
AcDbEntity
  8
0
370
              25
  6
Continuous
 62
               7
100
AcDbVertex
100
AcDb2dVertex
 10
256.15285499399999
 20
154.57221176199999
 30
0.0
  0
VERTEX
  5
91
100
AcDbEntity
  8
0
370
              25
  6
Continuous
 62
               7
100
AcDbVertex
100
AcDb2dVertex
 10
256.51699641599998
 20
155.10408827099999
 30
0.0
  0
VERTEX
  5
92
100
AcDbEntity
  8
0
370
              25
  6
Continuous
 62
               7
100
AcDbVertex
100
AcDb2dVertex
 10
256.81881700410003
 20
155.67340199009999
 30
0.0
  0
VERTEX
  5
93
100
AcDbEntity
  8
0
370
              25
  6
Continuous
 62
               7
100
AcDbVertex
100
AcDb2dVertex
 10
257.04740825070002
 20
156.25957788509999
 30
0.0
  0
VERTEX
  5
94
100
AcDbEntity
  8
0
370
              25
  6
Continuous
 62
               7
100
AcDbVertex
100
AcDb2dVertex
 10
257.19450817450002
 20
156.8414278182
 30
0.0
  0
VERTEX
  5
95
100
AcDbEntity
  8
0
370
              25
  6
Continuous
 62
               7
100
AcDbVertex
100
AcDb2dVertex
 10
257.25480019939999
 20
157.39792413149999
 30
0.0
  0
SEQEND
  5
96
100
AcDbEntity
  8
0
370
              25
  6
Continuous
 62
               7
  0
POLYLINE
  5
97
100
AcDbEntity
  8
0
370
              25
  6
Continuous
 62
               7
100
AcDb2dPolyline
 66
               1
 10
0.0
 20
0.0
 30
0.0
 75
               5
  0
VERTEX
  5
98
100
AcDbEntity
  8
0
370
              25
  6
Continuous
 62
               7
100
AcDbVertex
100
AcDb2dVertex
 10
182.23818075240001
 20
188.29319202459999
 30
0.0
  0
VERTEX
  5
99
100
AcDbEntity
  8
0
370
              25
  6
Continuous
 62
               7
100
AcDbVertex
100
AcDb2dVertex
 10
182.2957741388
 20
189.0272477991
 30
0.0
  0
VERTEX
  5
9A
100
AcDbEntity
  8
0
370
              25
  6
Continuous
 62
               7
100
AcDbVertex
100
AcDb2dVertex
 10
182.47647723759999
 20
189.97081927369999
 30
0.0
  0
VERTEX
  5
9B
100
AcDbEntity
  8
0
370
              25
  6
Continuous
 62
               7
100
AcDbVertex
100
AcDb2dVertex
 10
182.77609151070001
 20
190.9025236745
 30
0.0
  0
VERTEX
  5
9C
100
AcDbEntity
  8
0
370
              25
  6
Continuous
 62
               7
100
AcDbVertex
100
AcDb2dVertex
 10
183.19313039529999
 20
191.81774679150001
 30
0.0
  0
VERTEX
  5
9D
100
AcDbEntity
  8
0
370
              25
  6
Continuous
 62
               7
100
AcDbVertex
100
AcDb2dVertex
 10
183.72553076459999
 20
192.7119529455
 30
0.0
  0
VERTEX
  5
9E
100
AcDbEntity
  8
0
370
              25
  6
Continuous
 62
               7
100
AcDbVertex
100
AcDb2dVertex
 10
184.37065281560001
 20
193.58071219760001
 30
0.0
  0
VERTEX
  5
9F
100
AcDbEntity
  8
0
370
              25
  6
Continuous
 62
               7
100
AcDbVertex
100
AcDb2dVertex
 10
185.12530075730001
 20
194.41972096539999
 30
0.0
  0
VERTEX
  5
A0
100
AcDbEntity
  8
0
370
              25
  6
Continuous
 62
               7
100
AcDbVertex
100
AcDb2dVertex
 10
185.98573654719999
 20
195.22482195730001
 30
0.0
  0
VERTEX
  5
A1
100
AcDbEntity
  8
0
370
              25
  6
Continuous
 62
               7
100
AcDbVertex
100
AcDb2dVertex
 10
186.94769700079999
 20
195.9920258304
 30
0.0
  0
VERTEX
  5
A2
100
AcDbEntity
  8
0
370
              25
  6
Continuous
 62
               7
100
AcDbVertex
100
AcDb2dVertex
 10
188.00641471329999
 20
196.71753336130001
 30
0.0
  0
VERTEX
  5
A3
100
AcDbEntity
  8
0
370
              25
  6
Continuous
 62
               7
100
AcDbVertex
100
AcDb2dVertex
 10
189.15664743470001
 20
197.39774758460001
 30
0.0
  0
VERTEX
  5
A4
100
AcDbEntity
  8
0
370
              25
  6
Continuous
 62
               7
100
AcDbVertex
100
AcDb2dVertex
 10
190.39269375360001
 20
198.0293004632
 30
0.0
  0
VERTEX
  5
A5
100
AcDbEntity
  8
0
370
              25
  6
Continuous
 62
               7
100
AcDbVertex
100
AcDb2dVertex
 10
191.708429631
 20
198.6090629439
 30
0.0
  0
VERTEX
  5
A6
100
AcDbEntity
  8
0
370
              25
  6
Continuous
 62
               7
100
AcDbVertex
100
AcDb2dVertex
 10
193.09733976000001
 20
199.13416098120001
 30
0.0
  0
VERTEX
  5
A7
100
AcDbEntity
  8
0
370
              25
  6
Continuous
 62
               7
100
AcDbVertex
100
AcDb2dVertex
 10
194.55253869539999
 20
199.6019949434
 30
0.0
  0
VERTEX
  5
A8
100
AcDbEntity
  8
0
370
              25
  6
Continuous
 62
               7
100
AcDbVertex
100
AcDb2dVertex
 10
196.06681991420001
 20
200.01024602390001
 30
0.0
  0
VERTEX
  5
A9
100
AcDbEntity
  8
0
370
              25
  6
Continuous
 62
               7
100
AcDbVertex
100
AcDb2dVertex
 10
197.63268005579999
 20
200.35689149679999
 30
0.0
  0
VERTEX
  5
AA
100
AcDbEntity
  8
0
370
              25
  6
Continuous
 62
               7
100
AcDbVertex
100
AcDb2dVertex
 10
199.24236038399999
 20
200.640214421
 30
0.0
  0
VERTEX
  5
AB
100
AcDbEntity
  8
0
370
              25
  6
Continuous
 62
               7
100
AcDbVertex
100
AcDb2dVertex
 10
200.8878870037
 20
200.85881127299999
 30
0.0
  0
VERTEX
  5
AC
100
AcDbEntity
  8
0
370
              25
  6
Continuous
 62
               7
100
AcDbVertex
100
AcDb2dVertex
 10
202.56110770469999
 20
201.01159785600001
 30
0.0
  0
VERTEX
  5
AD
100
AcDbEntity
  8
0
370
              25
  6
Continuous
 62
               7
100
AcDbVertex
100
AcDb2dVertex
 10
204.2537306225
 20
201.09781900819999
 30
0.0
  0
VERTEX
  5
AE
100
AcDbEntity
  8
0
370
              25
  6
Continuous
 62
               7
100
AcDbVertex
100
AcDb2dVertex
 10
205.95737290869999
 20
201.1170462037
 30
0.0
  0
VERTEX
  5
AF
100
AcDbEntity
  8
0
370
              25
  6
Continuous
 62
               7
100
AcDbVertex
100
AcDb2dVertex
 10
207.66359068860001
 20
201.0691842489
 30
0.0
  0
VERTEX
  5
B0
100
AcDbEntity
  8
0
370
              25
  6
Continuous
 62
               7
100
AcDbVertex
100
AcDb2dVertex
 10
209.36393441120001
 20
200.9544708615
 30
0.0
  0
VERTEX
  5
B1
100
AcDbEntity
  8
0
370
              25
  6
Continuous
 62
               7
100
AcDbVertex
100
AcDb2dVertex
 10
211.0499763933
 20
200.77347352250001
 30
0.0
  0
VERTEX
  5
B2
100
AcDbEntity
  8
0
370
              25
  6
Continuous
 62
               7
100
AcDbVertex
100
AcDb2dVertex
 10
212.7133655593
 20
200.5270901792
 30
0.0
  0
VERTEX
  5
B3
100
AcDbEntity
  8
0
370
              25
  6
Continuous
 62
               7
100
AcDbVertex
100
AcDb2dVertex
 10
213.39530568699999
 20
200.4058758571
 30
0.0
  0
SEQEND
  5
B4
100
AcDbEntity
  8
0
370
              25
  6
Continuous
 62
               7
  0
ARC
  5
B5
100
AcDbEntity
  8
0
370
              25
  6
Continuous
 62
               7
100
AcDbCircle
 10
206.66139305210001
 20
163.85954726560001
 30
0.0
 40
37.16070655128199
100
AcDbArc
 50
72.072912287099996
 51
78.853199469200021
  0
ARC
  5
B6
100
AcDbEntity
  8
0
370
              25
  6
Continuous
 62
               7
100
AcDbCircle
 10
220.55616291800001
 20
186.18138410099999
 30
0.0
 40
10.32742449861111
100
AcDbArc
 50
20.004245480699943
 51
38.196966559599971
  0
ARC
  5
B7
100
AcDbEntity
  8
0
370
              25
  6
Continuous
 62
               7
100
AcDbCircle
 10
222.95369762729999
 20
187.0724204542
 30
0.0
 40
7.7662032633359974
100
AcDbArc
 50
358.42005982059987
 51
14.849491586699912
  0
POLYLINE
  5
B8
100
AcDbEntity
  8
0
370
              25
  6
Continuous
 62
               7
100
AcDb2dPolyline
 66
               1
 10
0.0
 20
0.0
 30
0.0
 75
               5
  0
VERTEX
  5
B9
100
AcDbEntity
  8
0
370
              25
  6
Continuous
 62
               7
100
AcDbVertex
100
AcDb2dVertex
 10
183.7159451741
 20
187.14123249389999
 30
0.0
  0
VERTEX
  5
BA
100
AcDbEntity
  8
0
370
              25
  6
Continuous
 62
               7
100
AcDbVertex
100
AcDb2dVertex
 10
184.3667085747
 20
187.9743720914
 30
0.0
  0
VERTEX
  5
BB
100
AcDbEntity
  8
0
370
              25
  6
Continuous
 62
               7
100
AcDbVertex
100
AcDb2dVertex
 10
185.14893152080001
 20
188.80803044219999
 30
0.0
  0
VERTEX
  5
BC
100
AcDbEntity
  8
0
370
              25
  6
Continuous
 62
               7
100
AcDbVertex
100
AcDb2dVertex
 10
186.03655671289999
 20
189.60662104849999
 30
0.0
  0
VERTEX
  5
BD
100
AcDbEntity
  8
0
370
              25
  6
Continuous
 62
               7
100
AcDbVertex
100
AcDb2dVertex
 10
187.02516175459999
 20
190.3661650647
 30
0.0
  0
VERTEX
  5
BE
100
AcDbEntity
  8
0
370
              25
  6
Continuous
 62
               7
100
AcDbVertex
100
AcDb2dVertex
 10
188.10982140460001
 20
191.08287877250001
 30
0.0
  0
VERTEX
  5
BF
100
AcDbEntity
  8
0
370
              25
  6
Continuous
 62
               7
100
AcDbVertex
100
AcDb2dVertex
 10
189.285131863
 20
191.75319173049999
 30
0.0
  0
VERTEX
  5
C0
100
AcDbEntity
  8
0
370
              25
  6
Continuous
 62
               7
100
AcDbVertex
100
AcDb2dVertex
 10
190.5452384685
 20
192.37376379560001
 30
0.0
  0
VERTEX
  5
C1
100
AcDbEntity
  8
0
370
              25
  6
Continuous
 62
               7
100
AcDbVertex
100
AcDb2dVertex
 10
191.8838620921
 20
192.94150434989999
 30
0.0
  0
VERTEX
  5
C2
100
AcDbEntity
  8
0
370
              25
  6
Continuous
 62
               7
100
AcDbVertex
100
AcDb2dVertex
 10
193.29433539889999
 20
193.4535836524
 30
0.0
  0
VERTEX
  5
C3
100
AcDbEntity
  8
0
370
              25
  6
Continuous
 62
               7
100
AcDbVertex
100
AcDb2dVertex
 10
194.76962949529999
 20
193.9074521949
 30
0.0
  0
VERTEX
  5
C4
100
AcDbEntity
  8
0
370
              25
  6
Continuous
 62
               7
100
AcDbVertex
100
AcDb2dVertex
 10
196.30239696500001
 20
194.30084690530001
 30
0.0
  0
VERTEX
  5
C5
100
AcDbEntity
  8
0
370
              25
  6
Continuous
 62
               7
100
AcDbVertex
100
AcDb2dVertex
 10
197.8849995477
 20
194.6318095945
 30
0.0
  0
VERTEX
  5
C6
100
AcDbEntity
  8
0
370
              25
  6
Continuous
 62
               7
100
AcDbVertex
100
AcDb2dVertex
 10
199.50955359330001
 20
194.89869009079999
 30
0.0
  0
VERTEX
  5
C7
100
AcDbEntity
  8
0
370
              25
  6
Continuous
 62
               7
100
AcDbVertex
100
AcDb2dVertex
 10
201.16796655760001
 20
195.10015914569999
 30
0.0
  0
VERTEX
  5
C8
100
AcDbEntity
  8
0
370
              25
  6
Continuous
 62
               7
100
AcDbVertex
100
AcDb2dVertex
 10
202.85197384649999
 20
195.2352143446
 30
0.0
  0
VERTEX
  5
C9
100
AcDbEntity
  8
0
370
              25
  6
Continuous
 62
               7
100
AcDbVertex
100
AcDb2dVertex
 10
204.5531889653
 20
195.30318133290001
 30
0.0
  0
VERTEX
  5
CA
100
AcDbEntity
  8
0
370
              25
  6
Continuous
 62
               7
100
AcDbVertex
100
AcDb2dVertex
 10
206.26313482590001
 20
195.30372120199999
 30
0.0
  0
VERTEX
  5
CB
100
AcDbEntity
  8
0
370
              25
  6
Continuous
 62
               7
100
AcDbVertex
100
AcDb2dVertex
 10
207.9732920022
 20
195.2368336193
 30
0.0
  0
VERTEX
  5
CC
100
AcDbEntity
  8
0
370
              25
  6
Continuous
 62
               7
100
AcDbVertex
100
AcDb2dVertex
 10
209.67514190829999
 20
195.10284947
 30
0.0
  0
VERTEX
  5
CD
100
AcDbEntity
  8
0
370
              25
  6
Continuous
 62
               7
100
AcDbVertex
100
AcDb2dVertex
 10
211.3602052956
 20
194.90243689370001
 30
0.0
  0
VERTEX
  5
CE
100
AcDbEntity
  8
0
370
              25
  6
Continuous
 62
               7
100
AcDbVertex
100
AcDb2dVertex
 10
213.02008677929999
 20
194.636594616
 30
0.0
  0
VERTEX
  5
CF
100
AcDbEntity
  8
0
370
              25
  6
Continuous
 62
               7
100
AcDbVertex
100
AcDb2dVertex
 10
213.2735228793
 20
194.58981156569999
 30
0.0
  0
SEQEND
  5
D0
100
AcDbEntity
  8
0
370
              25
  6
Continuous
 62
               7
  0
POLYLINE
  5
D1
100
AcDbEntity
  8
0
370
              25
  6
Continuous
 62
               7
100
AcDb2dPolyline
 66
               1
 10
0.0
 20
0.0
 30
0.0
 75
               5
  0
VERTEX
  5
D2
100
AcDbEntity
  8
0
370
              25
  6
Continuous
 62
               7
100
AcDbVertex
100
AcDb2dVertex
 10
217.4622529099
 20
193.55720249550001
 30
0.0
  0
VERTEX
  5
D3
100
AcDbEntity
  8
0
370
              25
  6
Continuous
 62
               7
100
AcDbVertex
100
AcDb2dVertex
 10
217.7668230797
 20
193.46132118809999
 30
0.0
  0
VERTEX
  5
D4
100
AcDbEntity
  8
0
370
              25
  6
Continuous
 62
               7
100
AcDbVertex
100
AcDb2dVertex
 10
219.05977454500001
 20
193.01860246819999
 30
0.0
  0
SEQEND
  5
D5
100
AcDbEntity
  8
0
370
              25
  6
Continuous
 62
               7
  0
ARC
  5
D6
100
AcDbEntity
  8
0
370
              25
  6
Continuous
 62
               7
100
AcDbCircle
 10
205.817106975
 20
166.09619471529999
 30
0.0
 40
35.503268550293953
100
AcDbArc
 50
77.6900288394
 51
116.57744072300001
  0
POLYLINE
  5
D7
100
AcDbEntity
  8
0
370
              25
  6
Continuous
 62
               7
100
AcDb2dPolyline
 66
               1
 10
0.0
 20
0.0
 30
0.0
 75
               5
  0
VERTEX
  5
D8
100
AcDbEntity
  8
0
370
              25
  6
Continuous
 62
               7
100
AcDbVertex
100
AcDb2dVertex
 10
222.0221242975
 20
180.6838212474
 30
0.0
  0
VERTEX
  5
D9
100
AcDbEntity
  8
0
370
              25
  6
Continuous
 62
               7
100
AcDbVertex
100
AcDb2dVertex
 10
223.10240236050001
 20
179.97933388050001
 30
0.0
  0
VERTEX
  5
DA
100
AcDbEntity
  8
0
370
              25
  6
Continuous
 62
               7
100
AcDbVertex
100
AcDb2dVertex
 10
224.08944755909999
 20
179.23407198780001
 30
0.0
  0
VERTEX
  5
DB
100
AcDbEntity
  8
0
370
              25
  6
Continuous
 62
               7
100
AcDbVertex
100
AcDb2dVertex
 10
224.9778658724
 20
178.4521040951
 30
0.0
  0
VERTEX
  5
DC
100
AcDbEntity
  8
0
370
              25
  6
Continuous
 62
               7
100
AcDbVertex
100
AcDb2dVertex
 10
225.76280854870001
 20
177.63770306590001
 30
0.0
  0
VERTEX
  5
DD
100
AcDbEntity
  8
0
370
              25
  6
Continuous
 62
               7
100
AcDbVertex
100
AcDb2dVertex
 10
226.43998708149999
 20
176.79531590159999
 30
0.0
  0
VERTEX
  5
DE
100
AcDbEntity
  8
0
370
              25
  6
Continuous
 62
               7
100
AcDbVertex
100
AcDb2dVertex
 10
227.00570228379999
 20
175.92954307939999
 30
0.0
  0
VERTEX
  5
DF
100
AcDbEntity
  8
0
370
              25
  6
Continuous
 62
               7
100
AcDbVertex
100
AcDb2dVertex
 10
227.45686543100001
 20
175.04511365670001
 30
0.0
  0
VERTEX
  5
E0
100
AcDbEntity
  8
0
370
              25
  6
Continuous
 62
               7
100
AcDbVertex
100
AcDb2dVertex
 10
227.791011215
 20
174.14685780639999
 30
0.0
  0
VERTEX
  5
E1
100
AcDbEntity
  8
0
370
              25
  6
Continuous
 62
               7
100
AcDbVertex
100
AcDb2dVertex
 10
228.00631577280001
 20
173.2396823043
 30
0.0
  0
VERTEX
  5
E2
100
AcDbEntity
  8
0
370
              25
  6
Continuous
 62
               7
100
AcDbVertex
100
AcDb2dVertex
 10
228.10160328239999
 20
172.32854089200001
 30
0.0
  0
VERTEX
  5
E3
100
AcDbEntity
  8
0
370
              25
  6
Continuous
 62
               7
100
AcDbVertex
100
AcDb2dVertex
 10
228.0763514704
 20
171.4184098241
 30
0.0
  0
VERTEX
  5
E4
100
AcDbEntity
  8
0
370
              25
  6
Continuous
 62
               7
100
AcDbVertex
100
AcDb2dVertex
 10
227.93070161239999
 20
170.5142606883
 30
0.0
  0
VERTEX
  5
E5
100
AcDbEntity
  8
0
370
              25
  6
Continuous
 62
               7
100
AcDbVertex
100
AcDb2dVertex
 10
227.665446027
 20
169.6210310543
 30
0.0
  0
VERTEX
  5
E6
100
AcDbEntity
  8
0
370
              25
  6
Continuous
 62
               7
100
AcDbVertex
100
AcDb2dVertex
 10
227.282035541
 20
168.7435995861
 30
0.0
  0
VERTEX
  5
E7
100
AcDbEntity
  8
0
370
              25
  6
Continuous
 62
               7
100
AcDbVertex
100
AcDb2dVertex
 10
226.78256249009999
 20
167.88675941739999
 30
0.0
  0
VERTEX
  5
E8
100
AcDbEntity
  8
0
370
              25
  6
Continuous
 62
               7
100
AcDbVertex
100
AcDb2dVertex
 10
226.1697561101
 20
167.05518853039999
 30
0.0
  0
VERTEX
  5
E9
100
AcDbEntity
  8
0
370
              25
  6
Continuous
 62
               7
100
AcDbVertex
100
AcDb2dVertex
 10
225.44696319760001
 20
166.25342982870001
 30
0.0
  0
VERTEX
  5
EA
100
AcDbEntity
  8
0
370
              25
  6
Continuous
 62
               7
100
AcDbVertex
100
AcDb2dVertex
 10
224.61813101289999
 20
165.48586231019999
 30
0.0
  0
VERTEX
  5
EB
100
AcDbEntity
  8
0
370
              25
  6
Continuous
 62
               7
100
AcDbVertex
100
AcDb2dVertex
 10
223.68778646160001
 20
164.75667751430001
 30
0.0
  0
VERTEX
  5
EC
100
AcDbEntity
  8
0
370
              25
  6
Continuous
 62
               7
100
AcDbVertex
100
AcDb2dVertex
 10
222.661009804
 20
164.06985891330001
 30
0.0
  0
VERTEX
  5
ED
100
AcDbEntity
  8
0
370
              25
  6
Continuous
 62
               7
100
AcDbVertex
100
AcDb2dVertex
 10
221.543410655
 20
163.4291567338
 30
0.0
  0
VERTEX
  5
EE
100
AcDbEntity
  8
0
370
              25
  6
Continuous
 62
               7
100
AcDbVertex
100
AcDb2dVertex
 10
220.34109177740001
 20
162.83807089250001
 30
0.0
  0
VERTEX
  5
EF
100
AcDbEntity
  8
0
370
              25
  6
Continuous
 62
               7
100
AcDbVertex
100
AcDb2dVertex
 10
219.0606205581
 20
162.2998292458
 30
0.0
  0
VERTEX
  5
F0
100
AcDbEntity
  8
0
370
              25
  6
Continuous
 62
               7
100
AcDbVertex
100
AcDb2dVertex
 10
217.70899099120001
 20
161.81737103629999
 30
0.0
  0
VERTEX
  5
F1
100
AcDbEntity
  8
0
370
              25
  6
Continuous
 62
               7
100
AcDbVertex
100
AcDb2dVertex
 10
216.29358263250001
 20
161.39333309560001
 30
0.0
  0
VERTEX
  5
F2
100
AcDbEntity
  8
0
370
              25
  6
Continuous
 62
               7
100
AcDbVertex
100
AcDb2dVertex
 10
214.82212927539999
 20
161.03002953449999
 30
0.0
  0
VERTEX
  5
F3
100
AcDbEntity
  8
0
370
              25
  6
Continuous
 62
               7
100
AcDbVertex
100
AcDb2dVertex
 10
213.30266454080001
 20
160.72944546860001
 30
0.0
  0
VERTEX
  5
F4
100
AcDbEntity
  8
0
370
              25
  6
Continuous
 62
               7
100
AcDbVertex
100
AcDb2dVertex
 10
211.7434899077
 20
160.49322211840001
 30
0.0
  0
VERTEX
  5
F5
100
AcDbEntity
  8
0
370
              25
  6
Continuous
 62
               7
100
AcDbVertex
100
AcDb2dVertex
 10
210.15311937530001
 20
160.32265006169999
 30
0.0
  0
VERTEX
  5
F6
100
AcDbEntity
  8
0
370
              25
  6
Continuous
 62
               7
100
AcDbVertex
100
AcDb2dVertex
 10
208.5402382353
 20
160.21866108399999
 30
0.0
  0
VERTEX
  5
F7
100
AcDbEntity
  8
0
370
              25
  6
Continuous
 62
               7
100
AcDbVertex
100
AcDb2dVertex
 10
206.91365799229999
 20
160.18182236589999
 30
0.0
  0
VERTEX
  5
F8
100
AcDbEntity
  8
0
370
              25
  6
Continuous
 62
               7
100
AcDbVertex
100
AcDb2dVertex
 10
205.28226030799999
 20
160.21233582670001
 30
0.0
  0
VERTEX
  5
F9
100
AcDbEntity
  8
0
370
              25
  6
Continuous
 62
               7
100
AcDbVertex
100
AcDb2dVertex
 10
203.65495596790001
 20
160.3100343792
 30
0.0
  0
VERTEX
  5
FA
100
AcDbEntity
  8
0
370
              25
  6
Continuous
 62
               7
100
AcDbVertex
100
AcDb2dVertex
 10
202.04063425339999
 20
160.4743847634
 30
0.0
  0
VERTEX
  5
FB
100
AcDbEntity
  8
0
370
              25
  6
Continuous
 62
               7
100
AcDbVertex
100
AcDb2dVertex
 10
200.44810829919999
 20
160.70448904680001
 30
0.0
  0
VERTEX
  5
FC
100
AcDbEntity
  8
0
370
              25
  6
Continuous
 62
               7
100
AcDbVertex
100
AcDb2dVertex
 10
198.88607974909999
 20
160.99909024409999
 30
0.0
  0
VERTEX
  5
FD
100
AcDbEntity
  8
0
370
              25
  6
Continuous
 62
               7
100
AcDbVertex
100
AcDb2dVertex
 10
197.3630778246
 20
161.35658064980001
 30
0.0
  0
VERTEX
  5
FE
100
AcDbEntity
  8
0
370
              25
  6
Continuous
 62
               7
100
AcDbVertex
100
AcDb2dVertex
 10
195.88742195770001
 20
161.77500642449999
 30
0.0
  0
VERTEX
  5
FF
100
AcDbEntity
  8
0
370
              25
  6
Continuous
 62
               7
100
AcDbVertex
100
AcDb2dVertex
 10
194.4671700456
 20
162.25208241460001
 30
0.0
  0
VERTEX
  5
100
100
AcDbEntity
  8
0
370
              25
  6
Continuous
 62
               7
100
AcDbVertex
100
AcDb2dVertex
 10
193.11008005959999
 20
162.7852033913
 30
0.0
  0
VERTEX
  5
101
100
AcDbEntity
  8
0
370
              25
  6
Continuous
 62
               7
100
AcDbVertex
100
AcDb2dVertex
 10
191.82356333990001
 20
163.37145731960001
 30
0.0
  0
VERTEX
  5
102
100
AcDbEntity
  8
0
370
              25
  6
Continuous
 62
               7
100
AcDbVertex
100
AcDb2dVertex
 10
190.6146479338
 20
164.00764308640001
 30
0.0
  0
VERTEX
  5
103
100
AcDbEntity
  8
0
370
              25
  6
Continuous
 62
               7
100
AcDbVertex
100
AcDb2dVertex
 10
189.48993466850001
 20
164.69028509930001
 30
0.0
  0
VERTEX
  5
104
100
AcDbEntity
  8
0
370
              25
  6
Continuous
 62
               7
100
AcDbVertex
100
AcDb2dVertex
 10
188.45556635080001
 20
165.4156549965
 30
0.0
  0
VERTEX
  5
105
100
AcDbEntity
  8
0
370
              25
  6
Continuous
 62
               7
100
AcDbVertex
100
AcDb2dVertex
 10
187.51719422939999
 20
166.17979200240001
 30
0.0
  0
VERTEX
  5
106
100
AcDbEntity
  8
0
370
              25
  6
Continuous
 62
               7
100
AcDbVertex
100
AcDb2dVertex
 10
186.67994179940001
 20
166.97852188050001
 30
0.0
  0
VERTEX
  5
107
100
AcDbEntity
  8
0
370
              25
  6
Continuous
 62
               7
100
AcDbVertex
100
AcDb2dVertex
 10
185.94838245630001
 20
167.80748255949999
 30
0.0
  0
VERTEX
  5
108
100
AcDbEntity
  8
0
370
              25
  6
Continuous
 62
               7
100
AcDbVertex
100
AcDb2dVertex
 10
185.3265109271
 20
168.66214599610001
 30
0.0
  0
VERTEX
  5
109
100
AcDbEntity
  8
0
370
              25
  6
Continuous
 62
               7
100
AcDbVertex
100
AcDb2dVertex
 10
184.81772354220001
 20
169.53784522789999
 30
0.0
  0
VERTEX
  5
10A
100
AcDbEntity
  8
0
370
              25
  6
Continuous
 62
               7
100
AcDbVertex
100
AcDb2dVertex
 10
184.42480142490001
 20
170.4297966391
 30
0.0
  0
VERTEX
  5
10B
100
AcDbEntity
  8
0
370
              25
  6
Continuous
 62
               7
100
AcDbVertex
100
AcDb2dVertex
 10
184.14988842130001
 20
171.33312994229999
 30
0.0
  0
VERTEX
  5
10C
100
AcDbEntity
  8
0
370
              25
  6
Continuous
 62
               7
100
AcDbVertex
100
AcDb2dVertex
 10
183.99448610429999
 20
172.24290930519999
 30
0.0
  0
VERTEX
  5
10D
100
AcDbEntity
  8
0
370
              25
  6
Continuous
 62
               7
100
AcDbVertex
100
AcDb2dVertex
 10
183.95944409840001
 20
173.1541678717
 30
0.0
  0
VERTEX
  5
10E
100
AcDbEntity
  8
0
370
              25
  6
Continuous
 62
               7
100
AcDbVertex
100
AcDb2dVertex
 10
184.04495306059999
 20
174.06192785499999
 30
0.0
  0
VERTEX
  5
10F
100
AcDbEntity
  8
0
370
              25
  6
Continuous
 62
               7
100
AcDbVertex
100
AcDb2dVertex
 10
184.25054668940001
 20
174.96123098289999
 30
0.0
  0
VERTEX
  5
110
100
AcDbEntity
  8
0
370
              25
  6
Continuous
 62
               7
100
AcDbVertex
100
AcDb2dVertex
 10
184.57510100269999
 20
175.84716683139999
 30
0.0
  0
VERTEX
  5
111
100
AcDbEntity
  8
0
370
              25
  6
Continuous
 62
               7
100
AcDbVertex
100
AcDb2dVertex
 10
185.0168445612
 20
176.71489526889999
 30
0.0
  0
VERTEX
  5
112
100
AcDbEntity
  8
0
370
              25
  6
Continuous
 62
               7
100
AcDbVertex
100
AcDb2dVertex
 10
185.57336445830001
 20
177.55967750100001
 30
0.0
  0
VERTEX
  5
113
100
AcDbEntity
  8
0
370
              25
  6
Continuous
 62
               7
100
AcDbVertex
100
AcDb2dVertex
 10
186.2416205895
 20
178.3769005828
 30
0.0
  0
VERTEX
  5
114
100
AcDbEntity
  8
0
370
              25
  6
Continuous
 62
               7
100
AcDbVertex
100
AcDb2dVertex
 10
187.01796377279999
 20
179.16209959299999
 30
0.0
  0
VERTEX
  5
115
100
AcDbEntity
  8
0
370
              25
  6
Continuous
 62
               7
100
AcDbVertex
100
AcDb2dVertex
 10
187.89815257430001
 20
179.91098775739999
 30
0.0
  0
VERTEX
  5
116
100
AcDbEntity
  8
0
370
              25
  6
Continuous
 62
               7
100
AcDbVertex
100
AcDb2dVertex
 10
188.87738270989999
 20
180.61947290660001
 30
0.0
  0
VERTEX
  5
117
100
AcDbEntity
  8
0
370
              25
  6
Continuous
 62
               7
100
AcDbVertex
100
AcDb2dVertex
 10
189.95030294310001
 20
181.28368712540001
 30
0.0
  0
VERTEX
  5
118
100
AcDbEntity
  8
0
370
              25
  6
Continuous
 62
               7
100
AcDbVertex
100
AcDb2dVertex
 10
191.1110541116
 20
181.9000023879
 30
0.0
  0
VERTEX
  5
119
100
AcDbEntity
  8
0
370
              25
  6
Continuous
 62
               7
100
AcDbVertex
100
AcDb2dVertex
 10
192.3532973355
 20
182.46505214570001
 30
0.0
  0
VERTEX
  5
11A
100
AcDbEntity
  8
0
370
              25
  6
Continuous
 62
               7
100
AcDbVertex
100
AcDb2dVertex
 10
193.67024689869999
 20
182.9757509991
 30
0.0
  0
VERTEX
  5
11B
100
AcDbEntity
  8
0
370
              25
  6
Continuous
 62
               7
100
AcDbVertex
100
AcDb2dVertex
 10
195.05471161099999
 20
183.42930865490001
 30
0.0
  0
VERTEX
  5
11C
100
AcDbEntity
  8
0
370
              25
  6
Continuous
 62
               7
100
AcDbVertex
100
AcDb2dVertex
 10
196.49912844619999
 20
183.82324854940001
 30
0.0
  0
VERTEX
  5
11D
100
AcDbEntity
  8
0
370
              25
  6
Continuous
 62
               7
100
AcDbVertex
100
AcDb2dVertex
 10
197.99560965079999
 20
184.15541900189999
 30
0.0
  0
VERTEX
  5
11E
100
AcDbEntity
  8
0
370
              25
  6
Continuous
 62
               7
100
AcDbVertex
100
AcDb2dVertex
 10
199.53598187119999
 20
184.4240060317
 30
0.0
  0
VERTEX
  5
11F
100
AcDbEntity
  8
0
370
              25
  6
Continuous
 62
               7
100
AcDbVertex
100
AcDb2dVertex
 10
201.11183008
 20
184.62754288560001
 30
0.0
  0
VERTEX
  5
120
100
AcDbEntity
  8
0
370
              25
  6
Continuous
 62
               7
100
AcDbVertex
100
AcDb2dVertex
 10
202.71455061770001
 20
184.76491704879999
 30
0.0
  0
VERTEX
  5
121
100
AcDbEntity
  8
0
370
              25
  6
Continuous
 62
               7
100
AcDbVertex
100
AcDb2dVertex
 10
204.33538850479999
 20
184.8353792632
 30
0.0
  0
VERTEX
  5
122
100
AcDbEntity
  8
0
370
              25
  6
Continuous
 62
               7
100
AcDbVertex
100
AcDb2dVertex
 10
205.9654908325
 20
184.8385435406
 30
0.0
  0
VERTEX
  5
123
100
AcDbEntity
  8
0
370
              25
  6
Continuous
 62
               7
100
AcDbVertex
100
AcDb2dVertex
 10
207.59595585610001
 20
184.77439430819999
 30
0.0
  0
VERTEX
  5
124
100
AcDbEntity
  8
0
370
              25
  6
Continuous
 62
               7
100
AcDbVertex
100
AcDb2dVertex
 10
209.21787687950001
 20
184.643280129
 30
0.0
  0
VERTEX
  5
125
100
AcDbEntity
  8
0
370
              25
  6
Continuous
 62
               7
100
AcDbVertex
100
AcDb2dVertex
 10
210.822395841
 20
184.44591812030001
 30
0.0
  0
VERTEX
  5
126
100
AcDbEntity
  8
0
370
              25
  6
Continuous
 62
               7
100
AcDbVertex
100
AcDb2dVertex
 10
212.40075108159999
 20
184.1833860708
 30
0.0
  0
VERTEX
  5
127
100
AcDbEntity
  8
0
370
              25
  6
Continuous
 62
               7
100
AcDbVertex
100
AcDb2dVertex
 10
213.94432061960001
 20
183.85711728499999
 30
0.0
  0
VERTEX
  5
128
100
AcDbEntity
  8
0
370
              25
  6
Continuous
 62
               7
100
AcDbVertex
100
AcDb2dVertex
 10
215.4446746074
 20
183.46889437850001
 30
0.0
  0
VERTEX
  5
129
100
AcDbEntity
  8
0
370
              25
  6
Continuous
 62
               7
100
AcDbVertex
100
AcDb2dVertex
 10
216.8936176384
 20
183.02083717010001
 30
0.0
  0
VERTEX
  5
12A
100
AcDbEntity
  8
0
370
              25
  6
Continuous
 62
               7
100
AcDbVertex
100
AcDb2dVertex
 10
218.28323677130001
 20
182.5153931362
 30
0.0
  0
VERTEX
  5
12B
100
AcDbEntity
  8
0
370
              25
  6
Continuous
 62
               7
100
AcDbVertex
100
AcDb2dVertex
 10
219.6059442538
 20
181.955323542
 30
0.0
  0
VERTEX
  5
12C
100
AcDbEntity
  8
0
370
              25
  6
Continuous
 62
               7
100
AcDbVertex
100
AcDb2dVertex
 10
220.8545119929
 20
181.34368553589999
 30
0.0
  0
VERTEX
  5
12D
100
AcDbEntity
  8
0
370
              25
  6
Continuous
 62
               7
100
AcDbVertex
100
AcDb2dVertex
 10
222.0221242975
 20
180.6838212474
 30
0.0
  0
SEQEND
  5
12E
100
AcDbEntity
  8
0
370
              25
  6
Continuous
 62
               7
  0
POLYLINE
  5
12F
100
AcDbEntity
  8
0
370
              25
  6
Continuous
 62
               7
100
AcDb2dPolyline
 66
               1
 10
0.0
 20
0.0
 30
0.0
 75
               5
  0
VERTEX
  5
130
100
AcDbEntity
  8
0
370
              25
  6
Continuous
 62
               7
100
AcDbVertex
100
AcDb2dVertex
 10
184.6947788034
 20
186.44146379489999
 30
0.0
  0
VERTEX
  5
131
100
AcDbEntity
  8
0
370
              25
  6
Continuous
 62
               7
100
AcDbVertex
100
AcDb2dVertex
 10
183.34048477330001
 20
185.70329137819999
 30
0.0
  0
VERTEX
  5
132
100
AcDbEntity
  8
0
370
              25
  6
Continuous
 62
               7
100
AcDbVertex
100
AcDb2dVertex
 10
182.0740888018
 20
184.91780537689999
 30
0.0
  0
VERTEX
  5
133
100
AcDbEntity
  8
0
370
              25
  6
Continuous
 62
               7
100
AcDbVertex
100
AcDb2dVertex
 10
180.9004906074
 20
184.08804457159999
 30
0.0
  0
VERTEX
  5
134
100
AcDbEntity
  8
0
370
              25
  6
Continuous
 62
               7
100
AcDbVertex
100
AcDb2dVertex
 10
179.82423100969999
 20
183.21721883250001
 30
0.0
  0
VERTEX
  5
135
100
AcDbEntity
  8
0
370
              25
  6
Continuous
 62
               7
100
AcDbVertex
100
AcDb2dVertex
 10
178.84947144349999
 20
182.30869865279999
 30
0.0
  0
VERTEX
  5
136
100
AcDbEntity
  8
0
370
              25
  6
Continuous
 62
               7
100
AcDbVertex
100
AcDb2dVertex
 10
177.97998698550001
 20
181.36599723399999
 30
0.0
  0
VERTEX
  5
137
100
AcDbEntity
  8
0
370
              25
  6
Continuous
 62
               7
100
AcDbVertex
100
AcDb2dVertex
 10
177.2191375113
 20
180.39276292470001
 30
0.0
  0
VERTEX
  5
138
100
AcDbEntity
  8
0
370
              25
  6
Continuous
 62
               7
100
AcDbVertex
100
AcDb2dVertex
 10
176.5698688073
 20
179.392759697
 30
0.0
  0
VERTEX
  5
139
100
AcDbEntity
  8
0
370
              25
  6
Continuous
 62
               7
100
AcDbVertex
100
AcDb2dVertex
 10
176.0346930126
 20
178.3698571539
 30
0.0
  0
VERTEX
  5
13A
100
AcDbEntity
  8
0
370
              25
  6
Continuous
 62
               7
100
AcDbVertex
100
AcDb2dVertex
 10
175.61567994040001
 20
177.3280131786
 30
0.0
  0
VERTEX
  5
13B
100
AcDbEntity
  8
0
370
              25
  6
Continuous
 62
               7
100
AcDbVertex
100
AcDb2dVertex
 10
175.31445109660001
 20
176.2712579631
 30
0.0
  0
VERTEX
  5
13C
100
AcDbEntity
  8
0
370
              25
  6
Continuous
 62
               7
100
AcDbVertex
100
AcDb2dVertex
 10
175.13216849899999
 20
175.2036796843
 30
0.0
  0
VERTEX
  5
13D
100
AcDbEntity
  8
0
370
              25
  6
Continuous
 62
               7
100
AcDbVertex
100
AcDb2dVertex
 10
175.06954388209999
 20
174.12940911620001
 30
0.0
  0
VERTEX
  5
13E
100
AcDbEntity
  8
0
370
              25
  6
Continuous
 62
               7
100
AcDbVertex
100
AcDb2dVertex
 10
175.12681415750001
 20
173.05260135099999
 30
0.0
  0
VERTEX
  5
13F
100
AcDbEntity
  8
0
370
              25
  6
Continuous
 62
               7
100
AcDbVertex
100
AcDb2dVertex
 10
175.30376067079999
 20
171.97742411210001
 30
0.0
  0
VERTEX
  5
140
100
AcDbEntity
  8
0
370
              25
  6
Continuous
 62
               7
100
AcDbVertex
100
AcDb2dVertex
 10
175.59969634539999
 20
170.908035399
 30
0.0
  0
VERTEX
  5
141
100
AcDbEntity
  8
0
370
              25
  6
Continuous
 62
               7
100
AcDbVertex
100
AcDb2dVertex
 10
176.01347774839999
 20
169.848573149
 30
0.0
  0
VERTEX
  5
142
100
AcDbEntity
  8
0
370
              25
  6
Continuous
 62
               7
100
AcDbVertex
100
AcDb2dVertex
 10
176.54350424430001
 20
168.80313614880001
 30
0.0
  0
VERTEX
  5
143
100
AcDbEntity
  8
0
370
              25
  6
Continuous
 62
               7
100
AcDbVertex
100
AcDb2dVertex
 10
177.18772524190001
 20
167.77576908020001
 30
0.0
  0
VERTEX
  5
144
100
AcDbEntity
  8
0
370
              25
  6
Continuous
 62
               7
100
AcDbVertex
100
AcDb2dVertex
 10
177.9436487248
 20
166.77044678870001
 30
0.0
  0
VERTEX
  5
145
100
AcDbEntity
  8
0
370
              25
  6
Continuous
 62
               7
100
AcDbVertex
100
AcDb2dVertex
 10
178.8083491406
 20
165.79105893959999
 30
0.0
  0
VERTEX
  5
146
100
AcDbEntity
  8
0
370
              25
  6
Continuous
 62
               7
100
AcDbVertex
100
AcDb2dVertex
 10
179.77848080979999
 20
164.841392832
 30
0.0
  0
VERTEX
  5
147
100
AcDbEntity
  8
0
370
              25
  6
Continuous
 62
               7
100
AcDbVertex
100
AcDb2dVertex
 10
180.85029236880001
 20
163.92512463369999
 30
0.0
  0
VERTEX
  5
148
100
AcDbEntity
  8
0
370
              25
  6
Continuous
 62
               7
100
AcDbVertex
100
AcDb2dVertex
 10
182.0196348794
 20
163.04579787189999
 30
0.0
  0
VERTEX
  5
149
100
AcDbEntity
  8
0
370
              25
  6
Continuous
 62
               7
100
AcDbVertex
100
AcDb2dVertex
 10
183.2819856376
 20
162.20681501440001
 30
0.0
  0
VERTEX
  5
14A
100
AcDbEntity
  8
0
370
              25
  6
Continuous
 62
               7
100
AcDbVertex
100
AcDb2dVertex
 10
184.6324624762
 20
161.41142275679999
 30
0.0
  0
VERTEX
  5
14B
100
AcDbEntity
  8
0
370
              25
  6
Continuous
 62
               7
100
AcDbVertex
100
AcDb2dVertex
 10
186.06583691840001
 20
160.6626965003
 30
0.0
  0
VERTEX
  5
14C
100
AcDbEntity
  8
0
370
              25
  6
Continuous
 62
               7
100
AcDbVertex
100
AcDb2dVertex
 10
187.5765666165
 20
159.96353423330001
 30
0.0
  0
VERTEX
  5
14D
100
AcDbEntity
  8
0
370
              25
  6
Continuous
 62
               7
100
AcDbVertex
100
AcDb2dVertex
 10
189.15880496599999
 20
159.31664014130001
 30
0.0
  0
VERTEX
  5
14E
100
AcDbEntity
  8
0
370
              25
  6
Continuous
 62
               7
100
AcDbVertex
100
AcDb2dVertex
 10
190.806432075
 20
158.724517873
 30
0.0
  0
VERTEX
  5
14F
100
AcDbEntity
  8
0
370
              25
  6
Continuous
 62
               7
100
AcDbVertex
100
AcDb2dVertex
 10
192.5130733933
 20
158.18945772559999
 30
0.0
  0
VERTEX
  5
150
100
AcDbEntity
  8
0
370
              25
  6
Continuous
 62
               7
100
AcDbVertex
100
AcDb2dVertex
 10
194.27212410889999
 20
157.7135293764
 30
0.0
  0
VERTEX
  5
151
100
AcDbEntity
  8
0
370
              25
  6
Continuous
 62
               7
100
AcDbVertex
100
AcDb2dVertex
 10
196.07678176140001
 20
157.29857415129999
 30
0.0
  0
VERTEX
  5
152
100
AcDbEntity
  8
0
370
              25
  6
Continuous
 62
               7
100
AcDbVertex
100
AcDb2dVertex
 10
197.9200634476
 20
156.9461991053
 30
0.0
  0
VERTEX
  5
153
100
AcDbEntity
  8
0
370
              25
  6
Continuous
 62
               7
100
AcDbVertex
100
AcDb2dVertex
 10
199.79483689150001
 20
156.65776419599999
 30
0.0
  0
VERTEX
  5
154
100
AcDbEntity
  8
0
370
              25
  6
Continuous
 62
               7
100
AcDbVertex
100
AcDb2dVertex
 10
201.69385036989999
 20
156.43438824610001
 30
0.0
  0
VERTEX
  5
155
100
AcDbEntity
  8
0
370
              25
  6
Continuous
 62
               7
100
AcDbVertex
100
AcDb2dVertex
 10
203.60975582020001
 20
156.27693491799999
 30
0.0
  0
VERTEX
  5
156
100
AcDbEntity
  8
0
370
              25
  6
Continuous
 62
               7
100
AcDbVertex
100
AcDb2dVertex
 10
205.5351410726
 20
156.18601124489999
 30
0.0
  0
VERTEX
  5
157
100
AcDbEntity
  8
0
370
              25
  6
Continuous
 62
               7
100
AcDbVertex
100
AcDb2dVertex
 10
207.4625577207
 20
156.16197182490001
 30
0.0
  0
VERTEX
  5
158
100
AcDbEntity
  8
0
370
              25
  6
Continuous
 62
               7
100
AcDbVertex
100
AcDb2dVertex
 10
209.38454968869999
 20
156.2049090209
 30
0.0
  0
VERTEX
  5
159
100
AcDbEntity
  8
0
370
              25
  6
Continuous
 62
               7
100
AcDbVertex
100
AcDb2dVertex
 10
211.293679688
 20
156.31465499769999
 30
0.0
  0
VERTEX
  5
15A
100
AcDbEntity
  8
0
370
              25
  6
Continuous
 62
               7
100
AcDbVertex
100
AcDb2dVertex
 10
213.18256241660001
 20
156.4907872046
 30
0.0
  0
VERTEX
  5
15B
100
AcDbEntity
  8
0
370
              25
  6
Continuous
 62
               7
100
AcDbVertex
100
AcDb2dVertex
 10
215.04388934159999
 20
156.73262238160001
 30
0.0
  0
VERTEX
  5
15C
100
AcDbEntity
  8
0
370
              25
  6
Continuous
 62
               7
100
AcDbVertex
100
AcDb2dVertex
 10
216.8704601359
 20
157.03922688110001
 30
0.0
  0
VERTEX
  5
15D
100
AcDbEntity
  8
0
370
              25
  6
Continuous
 62
               7
100
AcDbVertex
100
AcDb2dVertex
 10
218.65520887380001
 20
157.40941283219999
 30
0.0
  0
VERTEX
  5
15E
100
AcDbEntity
  8
0
370
              25
  6
Continuous
 62
               7
100
AcDbVertex
100
AcDb2dVertex
 10
220.3912282453
 20
157.84174907689999
 30
0.0
  0
VERTEX
  5
15F
100
AcDbEntity
  8
0
370
              25
  6
Continuous
 62
               7
100
AcDbVertex
100
AcDb2dVertex
 10
222.07180424680001
 20
158.3345631096
 30
0.0
  0
VERTEX
  5
160
100
AcDbEntity
  8
0
370
              25
  6
Continuous
 62
               7
100
AcDbVertex
100
AcDb2dVertex
 10
223.69043554359999
 20
158.88594666509999
 30
0.0
  0
VERTEX
  5
161
100
AcDbEntity
  8
0
370
              25
  6
Continuous
 62
               7
100
AcDbVertex
100
AcDb2dVertex
 10
225.24085697160001
 20
159.49376916169999
 30
0.0
  0
VERTEX
  5
162
100
AcDbEntity
  8
0
370
              25
  6
Continuous
 62
               7
100
AcDbVertex
100
AcDb2dVertex
 10
226.7170736338
 20
160.15567646630001
 30
0.0
  0
VERTEX
  5
163
100
AcDbEntity
  8
0
370
              25
  6
Continuous
 62
               7
100
AcDbVertex
100
AcDb2dVertex
 10
228.11337202429999
 20
160.8691094941
 30
0.0
  0
VERTEX
  5
164
100
AcDbEntity
  8
0
370
              25
  6
Continuous
 62
               7
100
AcDbVertex
100
AcDb2dVertex
 10
229.4243499824
 20
161.63130803300001
 30
0.0
  0
VERTEX
  5
165
100
AcDbEntity
  8
0
370
              25
  6
Continuous
 62
               7
100
AcDbVertex
100
AcDb2dVertex
 10
230.6449384428
 20
162.4393218564
 30
0.0
  0
VERTEX
  5
166
100
AcDbEntity
  8
0
370
              25
  6
Continuous
 62
               7
100
AcDbVertex
100
AcDb2dVertex
 10
231.77041085010001
 20
163.29002701460001
 30
0.0
  0
VERTEX
  5
167
100
AcDbEntity
  8
0
370
              25
  6
Continuous
 62
               7
100
AcDbVertex
100
AcDb2dVertex
 10
232.7964173897
 20
164.18013040880001
 30
0.0
  0
VERTEX
  5
168
100
AcDbEntity
  8
0
370
              25
  6
Continuous
 62
               7
100
AcDbVertex
100
AcDb2dVertex
 10
233.71898570760001
 20
165.1061888152
 30
0.0
  0
VERTEX
  5
169
100
AcDbEntity
  8
0
370
              25
  6
Continuous
 62
               7
100
AcDbVertex
100
AcDb2dVertex
 10
234.53454697870001
 20
166.0646207696
 30
0.0
  0
VERTEX
  5
16A
100
AcDbEntity
  8
0
370
              25
  6
Continuous
 62
               7
100
AcDbVertex
100
AcDb2dVertex
 10
235.2399475675
 20
167.05171683040001
 30
0.0
  0
VERTEX
  5
16B
100
AcDbEntity
  8
0
370
              25
  6
Continuous
 62
               7
100
AcDbVertex
100
AcDb2dVertex
 10
235.83245547640001
 20
168.06365865940001
 30
0.0
  0
VERTEX
  5
16C
100
AcDbEntity
  8
0
370
              25
  6
Continuous
 62
               7
100
AcDbVertex
100
AcDb2dVertex
 10
236.30978199200001
 20
169.0965315169
 30
0.0
  0
VERTEX
  5
16D
100
AcDbEntity
  8
0
370
              25
  6
Continuous
 62
               7
100
AcDbVertex
100
AcDb2dVertex
 10
236.6700770711
 20
170.14633912549999
 30
0.0
  0
VERTEX
  5
16E
100
AcDbEntity
  8
0
370
              25
  6
Continuous
 62
               7
100
AcDbVertex
100
AcDb2dVertex
 10
236.91195050760001
 20
171.20902022569999
 30
0.0
  0
VERTEX
  5
16F
100
AcDbEntity
  8
0
370
              25
  6
Continuous
 62
               7
100
AcDbVertex
100
AcDb2dVertex
 10
237.0344633373
 20
172.28046283980001
 30
0.0
  0
VERTEX
  5
170
100
AcDbEntity
  8
0
370
              25
  6
Continuous
 62
               7
100
AcDbVertex
100
AcDb2dVertex
 10
237.0371404974
 20
173.35652222179999
 30
0.0
  0
VERTEX
  5
171
100
AcDbEntity
  8
0
370
              25
  6
Continuous
 62
               7
100
AcDbVertex
100
AcDb2dVertex
 10
236.91997674309999
 20
174.4330353606
 30
0.0
  0
VERTEX
  5
172
100
AcDbEntity
  8
0
370
              25
  6
Continuous
 62
               7
100
AcDbVertex
100
AcDb2dVertex
 10
236.68342156790001
 20
175.50583767169999
 30
0.0
  0
VERTEX
  5
173
100
AcDbEntity
  8
0
370
              25
  6
Continuous
 62
               7
100
AcDbVertex
100
AcDb2dVertex
 10
236.32838910090001
 20
176.5707781003
 30
0.0
  0
VERTEX
  5
174
100
AcDbEntity
  8
0
370
              25
  6
Continuous
 62
               7
100
AcDbVertex
100
AcDb2dVertex
 10
235.8562582463
 20
177.6237371304
 30
0.0
  0
VERTEX
  5
175
100
AcDbEntity
  8
0
370
              25
  6
Continuous
 62
               7
100
AcDbVertex
100
AcDb2dVertex
 10
235.26884957550001
 20
178.6606408104
 30
0.0
  0
VERTEX
  5
176
100
AcDbEntity
  8
0
370
              25
  6
Continuous
 62
               7
100
AcDbVertex
100
AcDb2dVertex
 10
234.56843856450001
 20
179.67747684439999
 30
0.0
  0
VERTEX
  5
177
100
AcDbEntity
  8
0
370
              25
  6
Continuous
 62
               7
100
AcDbVertex
100
AcDb2dVertex
 10
233.757735314
 20
180.67031293209999
 30
0.0
  0
VERTEX
  5
178
100
AcDbEntity
  8
0
370
              25
  6
Continuous
 62
               7
100
AcDbVertex
100
AcDb2dVertex
 10
232.8398754378
 20
181.63530682289999
 30
0.0
  0
VERTEX
  5
179
100
AcDbEntity
  8
0
370
              25
  6
Continuous
 62
               7
100
AcDbVertex
100
AcDb2dVertex
 10
231.8184090293
 20
182.56872507520001
 30
0.0
  0
VERTEX
  5
17A
100
AcDbEntity
  8
0
370
              25
  6
Continuous
 62
               7
100
AcDbVertex
100
AcDb2dVertex
 10
230.69728975480001
 20
183.466957216
 30
0.0
  0
VERTEX
  5
17B
100
AcDbEntity
  8
0
370
              25
  6
Continuous
 62
               7
100
AcDbVertex
100
AcDb2dVertex
 10
229.48085352589999
 20
184.326527177
 30
0.0
  0
VERTEX
  5
17C
100
AcDbEntity
  8
0
370
              25
  6
Continuous
 62
               7
100
AcDbVertex
100
AcDb2dVertex
 10
228.1738091112
 20
185.14411105630001
 30
0.0
  0
VERTEX
  5
17D
100
AcDbEntity
  8
0
370
              25
  6
Continuous
 62
               7
100
AcDbVertex
100
AcDb2dVertex
 10
226.78120963929999
 20
185.9165438592
 30
0.0
  0
VERTEX
  5
17E
100
AcDbEntity
  8
0
370
              25
  6
Continuous
 62
               7
100
AcDbVertex
100
AcDb2dVertex
 10
225.30844443859999
 20
186.64083802190001
 30
0.0
  0
VERTEX
  5
17F
100
AcDbEntity
  8
0
370
              25
  6
Continuous
 62
               7
100
AcDbVertex
100
AcDb2dVertex
 10
223.76121239560001
 20
187.3141920425
 30
0.0
  0
VERTEX
  5
180
100
AcDbEntity
  8
0
370
              25
  6
Continuous
 62
               7
100
AcDbVertex
100
AcDb2dVertex
 10
222.14549686140001
 20
187.9339996795
 30
0.0
  0
VERTEX
  5
181
100
AcDbEntity
  8
0
370
              25
  6
Continuous
 62
               7
100
AcDbVertex
100
AcDb2dVertex
 10
220.46755263380001
 20
188.4978638849
 30
0.0
  0
VERTEX
  5
182
100
AcDbEntity
  8
0
370
              25
  6
Continuous
 62
               7
100
AcDbVertex
100
AcDb2dVertex
 10
218.73386817310001
 20
189.00360315059999
 30
0.0
  0
VERTEX
  5
183
100
AcDbEntity
  8
0
370
              25
  6
Continuous
 62
               7
100
AcDbVertex
100
AcDb2dVertex
 10
216.9511511597
 20
189.44926027419999
 30
0.0
  0
VERTEX
  5
184
100
AcDbEntity
  8
0
370
              25
  6
Continuous
 62
               7
100
AcDbVertex
100
AcDb2dVertex
 10
215.1262988986
 20
189.83311127510001
 30
0.0
  0
VERTEX
  5
185
100
AcDbEntity
  8
0
370
              25
  6
Continuous
 62
               7
100
AcDbVertex
100
AcDb2dVertex
 10
213.26637154689999
 20
190.1536710885
 30
0.0
  0
VERTEX
  5
186
100
AcDbEntity
  8
0
370
              25
  6
Continuous
 62
               7
100
AcDbVertex
100
AcDb2dVertex
 10
211.37856469970001
 20
190.40969964999999
 30
0.0
  0
VERTEX
  5
187
100
AcDbEntity
  8
0
370
              25
  6
Continuous
 62
               7
100
AcDbVertex
100
AcDb2dVertex
 10
209.47018325920001
 20
190.60020720009999
 30
0.0
  0
VERTEX
  5
188
100
AcDbEntity
  8
0
370
              25
  6
Continuous
 62
               7
100
AcDbVertex
100
AcDb2dVertex
 10
207.5486072114
 20
190.7244554543
 30
0.0
  0
VERTEX
  5
189
100
AcDbEntity
  8
0
370
              25
  6
Continuous
 62
               7
100
AcDbVertex
100
AcDb2dVertex
 10
205.62127416530001
 20
190.78196518510001
 30
0.0
  0
VERTEX
  5
18A
100
AcDbEntity
  8
0
370
              25
  6
Continuous
 62
               7
100
AcDbVertex
100
AcDb2dVertex
 10
203.69563825509999
 20
190.77251100890001
 30
0.0
  0
VERTEX
  5
18B
100
AcDbEntity
  8
0
370
              25
  6
Continuous
 62
               7
100
AcDbVertex
100
AcDb2dVertex
 10
201.77915088399999
 20
190.69613307399999
 30
0.0
  0
VERTEX
  5
18C
100
AcDbEntity
  8
0
370
              25
  6
Continuous
 62
               7
100
AcDbVertex
100
AcDb2dVertex
 10
199.87922591469999
 20
190.55312501500001
 30
0.0
  0
VERTEX
  5
18D
100
AcDbEntity
  8
0
370
              25
  6
Continuous
 62
               7
100
AcDbVertex
100
AcDb2dVertex
 10
198.0032129297
 20
190.3440403816
 30
0.0
  0
VERTEX
  5
18E
100
AcDbEntity
  8
0
370
              25
  6
Continuous
 62
               7
100
AcDbVertex
100
AcDb2dVertex
 10
196.15837064530001
 20
190.06968766470001
 30
0.0
  0
VERTEX
  5
18F
100
AcDbEntity
  8
0
370
              25
  6
Continuous
 62
               7
100
AcDbVertex
100
AcDb2dVertex
 10
194.3518378226
 20
189.73112835020001
 30
0.0
  0
VERTEX
  5
190
100
AcDbEntity
  8
0
370
              25
  6
Continuous
 62
               7
100
AcDbVertex
100
AcDb2dVertex
 10
192.59060148180001
 20
189.3296735932
 30
0.0
  0
VERTEX
  5
191
100
AcDbEntity
  8
0
370
              25
  6
Continuous
 62
               7
100
AcDbVertex
100
AcDb2dVertex
 10
190.88147734379999
 20
188.86687422520001
 30
0.0
  0
VERTEX
  5
192
100
AcDbEntity
  8
0
370
              25
  6
Continuous
 62
               7
100
AcDbVertex
100
AcDb2dVertex
 10
189.23107499739999
 20
188.3445230474
 30
0.0
  0
VERTEX
  5
193
100
AcDbEntity
  8
0
370
              25
  6
Continuous
 62
               7
100
AcDbVertex
100
AcDb2dVertex
 10
187.64578189380001
 20
187.76463947760001
 30
0.0
  0
VERTEX
  5
194
100
AcDbEntity
  8
0
370
              25
  6
Continuous
 62
               7
100
AcDbVertex
100
AcDb2dVertex
 10
186.13173069800001
 20
187.12946721930001
 30
0.0
  0
VERTEX
  5
195
100
AcDbEntity
  8
0
370
              25
  6
Continuous
 62
               7
100
AcDbVertex
100
AcDb2dVertex
 10
184.6947788034
 20
186.44146379489999
 30
0.0
  0
SEQEND
  5
196
100
AcDbEntity
  8
0
370
              25
  6
Continuous
 62
               7
  0
POLYLINE
  5
197
100
AcDbEntity
  8
0
370
              25
  6
Continuous
 62
               7
100
AcDb2dPolyline
 66
               1
 10
0.0
 20
0.0
 30
0.0
 75
               5
  0
VERTEX
  5
198
100
AcDbEntity
  8
0
370
              25
  6
Continuous
 62
               7
100
AcDbVertex
100
AcDb2dVertex
 10
228.54562260220001
 20
186.18811658620001
 30
0.0
  0
VERTEX
  5
199
100
AcDbEntity
  8
0
370
              25
  6
Continuous
 62
               7
100
AcDbVertex
100
AcDb2dVertex
 10
227.17391973150001
 20
186.97212456650001
 30
0.0
  0
VERTEX
  5
19A
100
AcDbEntity
  8
0
370
              25
  6
Continuous
 62
               7
100
AcDbVertex
100
AcDb2dVertex
 10
225.72067429130001
 20
187.70872402730001
 30
0.0
  0
VERTEX
  5
19B
100
AcDbEntity
  8
0
370
              25
  6
Continuous
 62
               7
100
AcDbVertex
100
AcDb2dVertex
 10
224.19150841539999
 20
188.3950650566
 30
0.0
  0
VERTEX
  5
19C
100
AcDbEntity
  8
0
370
              25
  6
Continuous
 62
               7
100
AcDbVertex
100
AcDb2dVertex
 10
222.59233760309999
 20
189.0284921244
 30
0.0
  0
VERTEX
  5
19D
100
AcDbEntity
  8
0
370
              25
  6
Continuous
 62
               7
100
AcDbVertex
100
AcDb2dVertex
 10
220.92935122259999
 20
189.60655591599999
 30
0.0
  0
VERTEX
  5
19E
100
AcDbEntity
  8
0
370
              25
  6
Continuous
 62
               7
100
AcDbVertex
100
AcDb2dVertex
 10
219.2089801674
 20
190.12701788449999
 30
0.0
  0
VERTEX
  5
19F
100
AcDbEntity
  8
0
370
              25
  6
Continuous
 62
               7
100
AcDbVertex
100
AcDb2dVertex
 10
217.43788225829999
 20
190.58786665
 30
0.0
  0
VERTEX
  5
1A0
100
AcDbEntity
  8
0
370
              25
  6
Continuous
 62
               7
100
AcDbVertex
100
AcDb2dVertex
 10
215.6229073129
 20
190.98731809099999
 30
0.0
  0
VERTEX
  5
1A1
100
AcDbEntity
  8
0
370
              25
  6
Continuous
 62
               7
100
AcDbVertex
100
AcDb2dVertex
 10
213.771078531
 20
191.32382664190001
 30
0.0
  0
VERTEX
  5
1A2
100
AcDbEntity
  8
0
370
              25
  6
Continuous
 62
               7
100
AcDbVertex
100
AcDb2dVertex
 10
211.8895610994
 20
191.5960907784
 30
0.0
  0
VERTEX
  5
1A3
100
AcDbEntity
  8
0
370
              25
  6
Continuous
 62
               7
100
AcDbVertex
100
AcDb2dVertex
 10
209.98563336320001
 20
191.80305694360001
 30
0.0
  0
VERTEX
  5
1A4
100
AcDbEntity
  8
0
370
              25
  6
Continuous
 62
               7
100
AcDbVertex
100
AcDb2dVertex
 10
208.06666076089999
 20
191.94392632149999
 30
0.0
  0
VERTEX
  5
1A5
100
AcDbEntity
  8
0
370
              25
  6
Continuous
 62
               7
100
AcDbVertex
100
AcDb2dVertex
 10
206.14006859579999
 20
192.01815025299999
 30
0.0
  0
VERTEX
  5
1A6
100
AcDbEntity
  8
0
370
              25
  6
Continuous
 62
               7
100
AcDbVertex
100
AcDb2dVertex
 10
204.21330839870001
 20
192.0254446207
 30
0.0
  0
VERTEX
  5
1A7
100
AcDbEntity
  8
0
370
              25
  6
Continuous
 62
               7
100
AcDbVertex
100
AcDb2dVertex
 10
202.29383769500001
 20
191.9657795114
 30
0.0
  0
VERTEX
  5
1A8
100
AcDbEntity
  8
0
370
              25
  6
Continuous
 62
               7
100
AcDbVertex
100
AcDb2dVertex
 10
200.389079493
 20
191.8393872183
 30
0.0
  0
VERTEX
  5
1A9
100
AcDbEntity
  8
0
370
              25
  6
Continuous
 62
               7
100
AcDbVertex
100
AcDb2dVertex
 10
198.50640420479999
 20
191.64675587389999
 30
0.0
  0
VERTEX
  5
1AA
100
AcDbEntity
  8
0
370
              25
  6
Continuous
 62
               7
100
AcDbVertex
100
AcDb2dVertex
 10
196.6530954223
 20
191.38863061960001
 30
0.0
  0
VERTEX
  5
1AB
100
AcDbEntity
  8
0
370
              25
  6
Continuous
 62
               7
100
AcDbVertex
100
AcDb2dVertex
 10
194.83632339670001
 20
191.06601010080001
 30
0.0
  0
VERTEX
  5
1AC
100
AcDbEntity
  8
0
370
              25
  6
Continuous
 62
               7
100
AcDbVertex
100
AcDb2dVertex
 10
193.0631171684
 20
190.68014227219999
 30
0.0
  0
VERTEX
  5
1AD
100
AcDbEntity
  8
0
370
              25
  6
Continuous
 62
               7
100
AcDbVertex
100
AcDb2dVertex
 10
191.3403373713
 20
190.23252054829999
 30
0.0
  0
VERTEX
  5
1AE
100
AcDbEntity
  8
0
370
              25
  6
Continuous
 62
               7
100
AcDbVertex
100
AcDb2dVertex
 10
189.67464593790001
 20
189.72487693459999
 30
0.0
  0
VERTEX
  5
1AF
100
AcDbEntity
  8
0
370
              25
  6
Continuous
 62
               7
100
AcDbVertex
100
AcDb2dVertex
 10
188.07249092430001
 20
189.1591742741
 30
0.0
  0
VERTEX
  5
1B0
100
AcDbEntity
  8
0
370
              25
  6
Continuous
 62
               7
100
AcDbVertex
100
AcDb2dVertex
 10
186.54006827910001
 20
188.53760249920001
 30
0.0
  0
VERTEX
  5
1B1
100
AcDbEntity
  8
0
370
              25
  6
Continuous
 62
               7
100
AcDbVertex
100
AcDb2dVertex
 10
185.08330763090001
 20
187.8625656298
 30
0.0
  0
VERTEX
  5
1B2
100
AcDbEntity
  8
0
370
              25
  6
Continuous
 62
               7
100
AcDbVertex
100
AcDb2dVertex
 10
183.7078464569
 20
187.13667431479999
 30
0.0
  0
VERTEX
  5
1B3
100
AcDbEntity
  8
0
370
              25
  6
Continuous
 62
               7
100
AcDbVertex
100
AcDb2dVertex
 10
182.4190027578
 20
186.36273904609999
 30
0.0
  0
VERTEX
  5
1B4
100
AcDbEntity
  8
0
370
              25
  6
Continuous
 62
               7
100
AcDbVertex
100
AcDb2dVertex
 10
181.22176528259999
 20
185.5437522483
 30
0.0
  0
VERTEX
  5
1B5
100
AcDbEntity
  8
0
370
              25
  6
Continuous
 62
               7
100
AcDbVertex
100
AcDb2dVertex
 10
180.12076452069999
 20
184.68288350270001
 30
0.0
  0
VERTEX
  5
1B6
100
AcDbEntity
  8
0
370
              25
  6
Continuous
 62
               7
100
AcDbVertex
100
AcDb2dVertex
 10
179.1202617703
 20
183.78346248130001
 30
0.0
  0
VERTEX
  5
1B7
100
AcDbEntity
  8
0
370
              25
  6
Continuous
 62
               7
100
AcDbVertex
100
AcDb2dVertex
 10
178.22412686300001
 20
182.84896899989999
 30
0.0
  0
VERTEX
  5
1B8
100
AcDbEntity
  8
0
370
              25
  6
Continuous
 62
               7
100
AcDbVertex
100
AcDb2dVertex
 10
177.43582603620001
 20
181.88301964679999
 30
0.0
  0
VERTEX
  5
1B9
100
AcDbEntity
  8
0
370
              25
  6
Continuous
 62
               7
100
AcDbVertex
100
AcDb2dVertex
 10
176.7584092731
 20
180.88934983280001
 30
0.0
  0
VERTEX
  5
1BA
100
AcDbEntity
  8
0
370
              25
  6
Continuous
 62
               7
100
AcDbVertex
100
AcDb2dVertex
 10
176.194500328
 20
179.87180438999999
 30
0.0
  0
VERTEX
  5
1BB
100
AcDbEntity
  8
0
370
              25
  6
Continuous
 62
               7
100
AcDbVertex
100
AcDb2dVertex
 10
175.74627488499999
 20
178.83432067129999
 30
0.0
  0
VERTEX
  5
1BC
100
AcDbEntity
  8
0
370
              25
  6
Continuous
 62
               7
100
AcDbVertex
100
AcDb2dVertex
 10
175.41547233060001
 20
177.7809116041
 30
0.0
  0
VERTEX
  5
1BD
100
AcDbEntity
  8
0
370
              25
  6
Continuous
 62
               7
100
AcDbVertex
100
AcDb2dVertex
 10
175.20337147410001
 20
176.71565328489999
 30
0.0
  0
VERTEX
  5
1BE
100
AcDbEntity
  8
0
370
              25
  6
Continuous
 62
               7
100
AcDbVertex
100
AcDb2dVertex
 10
175.11078909290001
 20
175.642667015
 30
0.0
  0
VERTEX
  5
1BF
100
AcDbEntity
  8
0
370
              25
  6
Continuous
 62
               7
100
AcDbVertex
100
AcDb2dVertex
 10
175.11056640659999
 20
175.63523426579999
 30
0.0
  0
SEQEND
  5
1C0
100
AcDbEntity
  8
0
370
              25
  6
Continuous
 62
               7
  0
POLYLINE
  5
1C1
100
AcDbEntity
  8
0
370
              25
  6
Continuous
 62
               7
100
AcDb2dPolyline
 66
               1
 10
0.0
 20
0.0
 30
0.0
 75
               5
  0
VERTEX
  5
1C2
100
AcDbEntity
  8
0
370
              25
  6
Continuous
 62
               7
100
AcDbVertex
100
AcDb2dVertex
 10
237.08342762000001
 20
173.80092960120001
 30
0.0
  0
VERTEX
  5
1C3
100
AcDbEntity
  8
0
370
              25
  6
Continuous
 62
               7
100
AcDbVertex
100
AcDb2dVertex
 10
237.0845444194
 20
174.33159158500001
 30
0.0
  0
VERTEX
  5
1C4
100
AcDbEntity
  8
0
370
              25
  6
Continuous
 62
               7
100
AcDbVertex
100
AcDb2dVertex
 10
236.99731406230001
 20
175.40838227099999
 30
0.0
  0
VERTEX
  5
1C5
100
AcDbEntity
  8
0
370
              25
  6
Continuous
 62
               7
100
AcDbVertex
100
AcDb2dVertex
 10
236.79053931289999
 20
176.48250190589999
 30
0.0
  0
VERTEX
  5
1C6
100
AcDbEntity
  8
0
370
              25
  6
Continuous
 62
               7
100
AcDbVertex
100
AcDb2dVertex
 10
236.46501679260001
 20
177.5497953631
 30
0.0
  0
VERTEX
  5
1C7
100
AcDbEntity
  8
0
370
              25
  6
Continuous
 62
               7
100
AcDbVertex
100
AcDb2dVertex
 10
236.02200635380001
 20
178.6061339611
 30
0.0
  0
VERTEX
  5
1C8
100
AcDbEntity
  8
0
370
              25
  6
Continuous
 62
               7
100
AcDbVertex
100
AcDb2dVertex
 10
235.46322119999999
 20
179.6474305067
 30
0.0
  0
VERTEX
  5
1C9
100
AcDbEntity
  8
0
370
              25
  6
Continuous
 62
               7
100
AcDbVertex
100
AcDb2dVertex
 10
234.79082333669999
 20
180.66965562679999
 30
0.0
  0
VERTEX
  5
1CA
100
AcDbEntity
  8
0
370
              25
  6
Continuous
 62
               7
100
AcDbVertex
100
AcDb2dVertex
 10
234.0074164552
 20
181.66885565870001
 30
0.0
  0
VERTEX
  5
1CB
100
AcDbEntity
  8
0
370
              25
  6
Continuous
 62
               7
100
AcDbVertex
100
AcDb2dVertex
 10
233.11602731759999
 20
182.64116394780001
 30
0.0
  0
VERTEX
  5
1CC
100
AcDbEntity
  8
0
370
              25
  6
Continuous
 62
               7
100
AcDbVertex
100
AcDb2dVertex
 10
232.12010859419999
 20
183.582820236
 30
0.0
  0
VERTEX
  5
1CD
100
AcDbEntity
  8
0
370
              25
  6
Continuous
 62
               7
100
AcDbVertex
100
AcDb2dVertex
 10
231.02351077649999
 20
184.49018016900001
 30
0.0
  0
VERTEX
  5
1CE
100
AcDbEntity
  8
0
370
              25
  6
Continuous
 62
               7
100
AcDbVertex
100
AcDb2dVertex
 10
229.83047681100001
 20
185.3597336327
 30
0.0
  0
VERTEX
  5
1CF
100
AcDbEntity
  8
0
370
              25
  6
Continuous
 62
               7
100
AcDbVertex
100
AcDb2dVertex
 10
228.54562260220001
 20
186.18811658620001
 30
0.0
  0
SEQEND
  5
1D0
100
AcDbEntity
  8
0
370
              25
  6
Continuous
 62
               7
  0
POLYLINE
  5
1D1
100
AcDbEntity
  8
0
370
              25
  6
Continuous
 62
               7
100
AcDb2dPolyline
 66
               1
 10
0.0
 20
0.0
 30
0.0
 75
               5
  0
VERTEX
  5
1D2
100
AcDbEntity
  8
0
370
              25
  6
Continuous
 62
               7
100
AcDbVertex
100
AcDb2dVertex
 10
219.05686280699999
 20
192.76811474339999
 30
0.0
  0
VERTEX
  5
1D3
100
AcDbEntity
  8
0
370
              25
  6
Continuous
 62
               7
100
AcDbVertex
100
AcDb2dVertex
 10
217.7594572568
 20
193.2124632689
 30
0.0
  0
VERTEX
  5
1D4
100
AcDbEntity
  8
0
370
              25
  6
Continuous
 62
               7
100
AcDbVertex
100
AcDb2dVertex
 10
217.5120482929
 20
193.29058389510001
 30
0.0
  0
SEQEND
  5
1D5
100
AcDbEntity
  8
0
370
              25
  6
Continuous
 62
               7
  0
POLYLINE
  5
1D6
100
AcDbEntity
  8
0
370
              25
  6
Continuous
 62
               7
100
AcDb2dPolyline
 66
               1
 10
0.0
 20
0.0
 30
0.0
 75
               5
  0
VERTEX
  5
1D7
100
AcDbEntity
  8
0
370
              25
  6
Continuous
 62
               7
100
AcDbVertex
100
AcDb2dVertex
 10
213.30092259209999
 20
194.33440506560001
 30
0.0
  0
VERTEX
  5
1D8
100
AcDbEntity
  8
0
370
              25
  6
Continuous
 62
               7
100
AcDbVertex
100
AcDb2dVertex
 10
213.0127209563
 20
194.3877366968
 30
0.0
  0
VERTEX
  5
1D9
100
AcDbEntity
  8
0
370
              25
  6
Continuous
 62
               7
100
AcDbVertex
100
AcDb2dVertex
 10
211.3528394727
 20
194.65357897460001
 30
0.0
  0
VERTEX
  5
1DA
100
AcDbEntity
  8
0
370
              25
  6
Continuous
 62
               7
100
AcDbVertex
100
AcDb2dVertex
 10
209.66777608530001
 20
194.8539915508
 30
0.0
  0
VERTEX
  5
1DB
100
AcDbEntity
  8
0
370
              25
  6
Continuous
 62
               7
100
AcDbVertex
100
AcDb2dVertex
 10
207.96592617920001
 20
194.9879757002
 30
0.0
  0
VERTEX
  5
1DC
100
AcDbEntity
  8
0
370
              25
  6
Continuous
 62
               7
100
AcDbVertex
100
AcDb2dVertex
 10
206.2557690029
 20
195.0548632828
 30
0.0
  0
VERTEX
  5
1DD
100
AcDbEntity
  8
0
370
              25
  6
Continuous
 62
               7
100
AcDbVertex
100
AcDb2dVertex
 10
204.5458231424
 20
195.05432341369999
 30
0.0
  0
VERTEX
  5
1DE
100
AcDbEntity
  8
0
370
              25
  6
Continuous
 62
               7
100
AcDbVertex
100
AcDb2dVertex
 10
202.8446080235
 20
194.98635642549999
 30
0.0
  0
VERTEX
  5
1DF
100
AcDbEntity
  8
0
370
              25
  6
Continuous
 62
               7
100
AcDbVertex
100
AcDb2dVertex
 10
201.1606007346
 20
194.85130122659999
 30
0.0
  0
VERTEX
  5
1E0
100
AcDbEntity
  8
0
370
              25
  6
Continuous
 62
               7
100
AcDbVertex
100
AcDb2dVertex
 10
199.5021877703
 20
194.6498321716
 30
0.0
  0
VERTEX
  5
1E1
100
AcDbEntity
  8
0
370
              25
  6
Continuous
 62
               7
100
AcDbVertex
100
AcDb2dVertex
 10
197.87763372469999
 20
194.38295167539999
 30
0.0
  0
VERTEX
  5
1E2
100
AcDbEntity
  8
0
370
              25
  6
Continuous
 62
               7
100
AcDbVertex
100
AcDb2dVertex
 10
196.29503114209999
 20
194.05198898610001
 30
0.0
  0
VERTEX
  5
1E3
100
AcDbEntity
  8
0
370
              25
  6
Continuous
 62
               7
100
AcDbVertex
100
AcDb2dVertex
 10
194.76226367230001
 20
193.6585942758
 30
0.0
  0
VERTEX
  5
1E4
100
AcDbEntity
  8
0
370
              25
  6
Continuous
 62
               7
100
AcDbVertex
100
AcDb2dVertex
 10
193.28696957599999
 20
193.20472573329999
 30
0.0
  0
VERTEX
  5
1E5
100
AcDbEntity
  8
0
370
              25
  6
Continuous
 62
               7
100
AcDbVertex
100
AcDb2dVertex
 10
191.87649626909999
 20
192.69264643080001
 30
0.0
  0
VERTEX
  5
1E6
100
AcDbEntity
  8
0
370
              25
  6
Continuous
 62
               7
100
AcDbVertex
100
AcDb2dVertex
 10
190.53787264549999
 20
192.12490587650001
 30
0.0
  0
VERTEX
  5
1E7
100
AcDbEntity
  8
0
370
              25
  6
Continuous
 62
               7
100
AcDbVertex
100
AcDb2dVertex
 10
189.27776603999999
 20
191.5043338113
 30
0.0
  0
VERTEX
  5
1E8
100
AcDbEntity
  8
0
370
              25
  6
Continuous
 62
               7
100
AcDbVertex
100
AcDb2dVertex
 10
188.1024555816
 20
190.83402085340001
 30
0.0
  0
VERTEX
  5
1E9
100
AcDbEntity
  8
0
370
              25
  6
Continuous
 62
               7
100
AcDbVertex
100
AcDb2dVertex
 10
187.01779593160001
 20
190.11730714550001
 30
0.0
  0
VERTEX
  5
1EA
100
AcDbEntity
  8
0
370
              25
  6
Continuous
 62
               7
100
AcDbVertex
100
AcDb2dVertex
 10
186.02919089
 20
189.3577631293
 30
0.0
  0
VERTEX
  5
1EB
100
AcDbEntity
  8
0
370
              25
  6
Continuous
 62
               7
100
AcDbVertex
100
AcDb2dVertex
 10
185.14156569790001
 20
188.559172523
 30
0.0
  0
VERTEX
  5
1EC
100
AcDbEntity
  8
0
370
              25
  6
Continuous
 62
               7
100
AcDbVertex
100
AcDb2dVertex
 10
184.35934275170001
 20
187.7255141723
 30
0.0
  0
VERTEX
  5
1ED
100
AcDbEntity
  8
0
370
              25
  6
Continuous
 62
               7
100
AcDbVertex
100
AcDb2dVertex
 10
184.0184182742
 20
187.30891738579999
 30
0.0
  0
SEQEND
  5
1EE
100
AcDbEntity
  8
0
370
              25
  6
Continuous
 62
               7
  0
POLYLINE
  5
1EF
100
AcDbEntity
  8
0
370
              25
  6
Continuous
 62
               7
100
AcDb2dPolyline
 66
               1
 10
0.0
 20
0.0
 30
0.0
 75
               5
  0
VERTEX
  5
1F0
100
AcDbEntity
  8
0
370
              25
  6
Continuous
 62
               7
100
AcDbVertex
100
AcDb2dVertex
 10
191.3237373879
 20
182.00314974259999
 30
0.0
  0
VERTEX
  5
1F1
100
AcDbEntity
  8
0
370
              25
  6
Continuous
 62
               7
100
AcDbVertex
100
AcDb2dVertex
 10
191.2158185303
 20
181.9389105555
 30
0.0
  0
VERTEX
  5
1F2
100
AcDbEntity
  8
0
370
              25
  6
Continuous
 62
               7
100
AcDbVertex
100
AcDb2dVertex
 10
190.2243465414
 20
181.2935916141
 30
0.0
  0
VERTEX
  5
1F3
100
AcDbEntity
  8
0
370
              25
  6
Continuous
 62
               7
100
AcDbVertex
100
AcDb2dVertex
 10
189.3282365673
 20
180.60543864900001
 30
0.0
  0
VERTEX
  5
1F4
100
AcDbEntity
  8
0
370
              25
  6
Continuous
 62
               7
100
AcDbVertex
100
AcDb2dVertex
 10
188.5328790735
 20
179.87858932520001
 30
0.0
  0
VERTEX
  5
1F5
100
AcDbEntity
  8
0
370
              25
  6
Continuous
 62
               7
100
AcDbVertex
100
AcDb2dVertex
 10
187.8430579393
 20
179.11741527500001
 30
0.0
  0
VERTEX
  5
1F6
100
AcDbEntity
  8
0
370
              25
  6
Continuous
 62
               7
100
AcDbVertex
100
AcDb2dVertex
 10
187.2629197572
 20
178.3264949304
 30
0.0
  0
VERTEX
  5
1F7
100
AcDbEntity
  8
0
370
              25
  6
Continuous
 62
               7
100
AcDbVertex
100
AcDb2dVertex
 10
186.79595393450001
 20
177.5105847005
 30
0.0
  0
VERTEX
  5
1F8
100
AcDbEntity
  8
0
370
              25
  6
Continuous
 62
               7
100
AcDbVertex
100
AcDb2dVertex
 10
186.444970396
 20
176.674591792
 30
0.0
  0
VERTEX
  5
1F9
100
AcDbEntity
  8
0
370
              25
  6
Continuous
 62
               7
100
AcDbVertex
100
AcDb2dVertex
 10
186.2120790818
 20
175.8235429257
 30
0.0
  0
VERTEX
  5
1FA
100
AcDbEntity
  8
0
370
              25
  6
Continuous
 62
               7
100
AcDbVertex
100
AcDb2dVertex
 10
186.09868084620001
 20
174.96255744179999
 30
0.0
  0
VERTEX
  5
1FB
100
AcDbEntity
  8
0
370
              25
  6
Continuous
 62
               7
100
AcDbVertex
100
AcDb2dVertex
 10
186.1054567134
 20
174.09681310849999
 30
0.0
  0
VERTEX
  5
1FC
100
AcDbEntity
  8
0
370
              25
  6
Continuous
 62
               7
100
AcDbVertex
100
AcDb2dVertex
 10
186.2323678926
 20
173.2315167102
 30
0.0
  0
VERTEX
  5
1FD
100
AcDbEntity
  8
0
370
              25
  6
Continuous
 62
               7
100
AcDbVertex
100
AcDb2dVertex
 10
186.4786490807
 20
172.37187192409999
 30
0.0
  0
VERTEX
  5
1FE
100
AcDbEntity
  8
0
370
              25
  6
Continuous
 62
               7
100
AcDbVertex
100
AcDb2dVertex
 10
186.84282096519999
 20
171.5230491133
 30
0.0
  0
VERTEX
  5
1FF
100
AcDbEntity
  8
0
370
              25
  6
Continuous
 62
               7
100
AcDbVertex
100
AcDb2dVertex
 10
187.3226914251
 20
170.69015293320001
 30
0.0
  0
VERTEX
  5
200
100
AcDbEntity
  8
0
370
              25
  6
Continuous
 62
               7
100
AcDbVertex
100
AcDb2dVertex
 10
187.91537564320001
 20
169.87819278449999
 30
0.0
  0
VERTEX
  5
201
100
AcDbEntity
  8
0
370
              25
  6
Continuous
 62
               7
100
AcDbVertex
100
AcDb2dVertex
 10
188.6173082231
 20
169.09205133250001
 30
0.0
  0
VERTEX
  5
202
100
AcDbEntity
  8
0
370
              25
  6
Continuous
 62
               7
100
AcDbVertex
100
AcDb2dVertex
 10
189.42426882500001
 20
168.3364568856
 30
0.0
  0
VERTEX
  5
203
100
AcDbEntity
  8
0
370
              25
  6
Continuous
 62
               7
100
AcDbVertex
100
AcDb2dVertex
 10
190.33140502320001
 20
167.6159544425
 30
0.0
  0
VERTEX
  5
204
100
AcDbEntity
  8
0
370
              25
  6
Continuous
 62
               7
100
AcDbVertex
100
AcDb2dVertex
 10
191.33325895990001
 20
166.93487594460001
 30
0.0
  0
VERTEX
  5
205
100
AcDbEntity
  8
0
370
              25
  6
Continuous
 62
               7
100
AcDbVertex
100
AcDb2dVertex
 10
192.42380652439999
 20
166.29731800420001
 30
0.0
  0
VERTEX
  5
206
100
AcDbEntity
  8
0
370
              25
  6
Continuous
 62
               7
100
AcDbVertex
100
AcDb2dVertex
 10
193.5964890413
 20
165.7071151319
 30
0.0
  0
VERTEX
  5
207
100
AcDbEntity
  8
0
370
              25
  6
Continuous
 62
               7
100
AcDbVertex
100
AcDb2dVertex
 10
194.84425377330001
 20
165.1678166616
 30
0.0
  0
VERTEX
  5
208
100
AcDbEntity
  8
0
370
              25
  6
Continuous
 62
               7
100
AcDbVertex
100
AcDb2dVertex
 10
196.15959595890001
 20
164.68266575920001
 30
0.0
  0
VERTEX
  5
209
100
AcDbEntity
  8
0
370
              25
  6
Continuous
 62
               7
100
AcDbVertex
100
AcDb2dVertex
 10
197.53460505629999
 20
164.25458040219999
 30
0.0
  0
VERTEX
  5
20A
100
AcDbEntity
  8
0
370
              25
  6
Continuous
 62
               7
100
AcDbVertex
100
AcDb2dVertex
 10
198.9610135655
 20
163.8861358099
 30
0.0
  0
VERTEX
  5
20B
100
AcDbEntity
  8
0
370
              25
  6
Continuous
 62
               7
100
AcDbVertex
100
AcDb2dVertex
 10
200.43024074499999
 20
163.5795469569
 30
0.0
  0
VERTEX
  5
20C
100
AcDbEntity
  8
0
370
              25
  6
Continuous
 62
               7
100
AcDbVertex
100
AcDb2dVertex
 10
201.93345180790001
 20
163.3366582779
 30
0.0
  0
VERTEX
  5
20D
100
AcDbEntity
  8
0
370
              25
  6
Continuous
 62
               7
100
AcDbVertex
100
AcDb2dVertex
 10
203.461604755
 20
163.15892956650001
 30
0.0
  0
VERTEX
  5
20E
100
AcDbEntity
  8
0
370
              25
  6
Continuous
 62
               7
100
AcDbVertex
100
AcDb2dVertex
 10
205.00550979869999
 20
163.04743081929999
 30
0.0
  0
VERTEX
  5
20F
100
AcDbEntity
  8
0
370
              25
  6
Continuous
 62
               7
100
AcDbVertex
100
AcDb2dVertex
 10
206.55588229840001
 20
163.00283197069999
 30
0.0
  0
VERTEX
  5
210
100
AcDbEntity
  8
0
370
              25
  6
Continuous
 62
               7
100
AcDbVertex
100
AcDb2dVertex
 10
208.10339740289999
 20
163.02540139269999
 30
0.0
  0
VERTEX
  5
211
100
AcDbEntity
  8
0
370
              25
  6
Continuous
 62
               7
100
AcDbVertex
100
AcDb2dVertex
 10
209.6387486415
 20
163.11500426000001
 30
0.0
  0
VERTEX
  5
212
100
AcDbEntity
  8
0
370
              25
  6
Continuous
 62
               7
100
AcDbVertex
100
AcDb2dVertex
 10
211.15270185930001
 20
163.27109997069999
 30
0.0
  0
VERTEX
  5
213
100
AcDbEntity
  8
0
370
              25
  6
Continuous
 62
               7
100
AcDbVertex
100
AcDb2dVertex
 10
212.63615227330001
 20
163.4927504904
 30
0.0
  0
VERTEX
  5
214
100
AcDbEntity
  8
0
370
              25
  6
Continuous
 62
               7
100
AcDbVertex
100
AcDb2dVertex
 10
214.08017833080001
 20
163.77862347440001
 30
0.0
  0
VERTEX
  5
215
100
AcDbEntity
  8
0
370
              25
  6
Continuous
 62
               7
100
AcDbVertex
100
AcDb2dVertex
 10
215.47609441469999
 20
164.12699910539999
 30
0.0
  0
VERTEX
  5
216
100
AcDbEntity
  8
0
370
              25
  6
Continuous
 62
               7
100
AcDbVertex
100
AcDb2dVertex
 10
216.8155072186
 20
164.53578167800001
 30
0.0
  0
VERTEX
  5
217
100
AcDbEntity
  8
0
370
              25
  6
Continuous
 62
               7
100
AcDbVertex
100
AcDb2dVertex
 10
218.0903598683
 20
165.0025135308
 30
0.0
  0
VERTEX
  5
218
100
AcDbEntity
  8
0
370
              25
  6
Continuous
 62
               7
100
AcDbVertex
100
AcDb2dVertex
 10
219.2929848867
 20
165.52438775850001
 30
0.0
  0
VERTEX
  5
219
100
AcDbEntity
  8
0
370
              25
  6
Continuous
 62
               7
100
AcDbVertex
100
AcDb2dVertex
 10
220.41615107780001
 20
166.0982649913
 30
0.0
  0
VERTEX
  5
21A
100
AcDbEntity
  8
0
370
              25
  6
Continuous
 62
               7
100
AcDbVertex
100
AcDb2dVertex
 10
221.4531034858
 20
166.72069381169999
 30
0.0
  0
VERTEX
  5
21B
100
AcDbEntity
  8
0
370
              25
  6
Continuous
 62
               7
100
AcDbVertex
100
AcDb2dVertex
 10
222.3976045343
 20
167.38793177470001
 30
0.0
  0
VERTEX
  5
21C
100
AcDbEntity
  8
0
370
              25
  6
Continuous
 62
               7
100
AcDbVertex
100
AcDb2dVertex
 10
223.2439739859
 20
168.09596582489999
 30
0.0
  0
VERTEX
  5
21D
100
AcDbEntity
  8
0
370
              25
  6
Continuous
 62
               7
100
AcDbVertex
100
AcDb2dVertex
 10
223.98712298789999
 20
168.8405368672
 30
0.0
  0
VERTEX
  5
21E
100
AcDbEntity
  8
0
370
              25
  6
Continuous
 62
               7
100
AcDbVertex
100
AcDb2dVertex
 10
224.6225813632
 20
169.6171680624
 30
0.0
  0
VERTEX
  5
21F
100
AcDbEntity
  8
0
370
              25
  6
Continuous
 62
               7
100
AcDbVertex
100
AcDb2dVertex
 10
225.14652632580001
 20
170.42118810950001
 30
0.0
  0
VERTEX
  5
220
100
AcDbEntity
  8
0
370
              25
  6
Continuous
 62
               7
100
AcDbVertex
100
AcDb2dVertex
 10
225.55580804709999
 20
171.24776152960001
 30
0.0
  0
VERTEX
  5
221
100
AcDbEntity
  8
0
370
              25
  6
Continuous
 62
               7
100
AcDbVertex
100
AcDb2dVertex
 10
225.84796641560001
 20
172.09191732119999
 30
0.0
  0
VERTEX
  5
222
100
AcDbEntity
  8
0
370
              25
  6
Continuous
 62
               7
100
AcDbVertex
100
AcDb2dVertex
 10
226.021241248
 20
172.94857857310001
 30
0.0
  0
VERTEX
  5
223
100
AcDbEntity
  8
0
370
              25
  6
Continuous
 62
               7
100
AcDbVertex
100
AcDb2dVertex
 10
226.07459211680001
 20
173.812593405
 30
0.0
  0
VERTEX
  5
224
100
AcDbEntity
  8
0
370
              25
  6
Continuous
 62
               7
100
AcDbVertex
100
AcDb2dVertex
 10
226.00769836820001
 20
174.67876511290001
 30
0.0
  0
VERTEX
  5
225
100
AcDbEntity
  8
0
370
              25
  6
Continuous
 62
               7
100
AcDbVertex
100
AcDb2dVertex
 10
225.82096122830001
 20
175.54188481770001
 30
0.0
  0
VERTEX
  5
226
100
AcDbEntity
  8
0
370
              25
  6
Continuous
 62
               7
100
AcDbVertex
100
AcDb2dVertex
 10
225.51550581199999
 20
176.3967619108
 30
0.0
  0
VERTEX
  5
227
100
AcDbEntity
  8
0
370
              25
  6
Continuous
 62
               7
100
AcDbVertex
100
AcDb2dVertex
 10
225.09316730360001
 20
177.23825430549999
 30
0.0
  0
VERTEX
  5
228
100
AcDbEntity
  8
0
370
              25
  6
Continuous
 62
               7
100
AcDbVertex
100
AcDb2dVertex
 10
224.5564868349
 20
178.0613018496
 30
0.0
  0
VERTEX
  5
229
100
AcDbEntity
  8
0
370
              25
  6
Continuous
 62
               7
100
AcDbVertex
100
AcDb2dVertex
 10
223.90869028040001
 20
178.8609535208
 30
0.0
  0
VERTEX
  5
22A
100
AcDbEntity
  8
0
370
              25
  6
Continuous
 62
               7
100
AcDbVertex
100
AcDb2dVertex
 10
223.15367492109999
 20
179.6324011538
 30
0.0
  0
VERTEX
  5
22B
100
AcDbEntity
  8
0
370
              25
  6
Continuous
 62
               7
100
AcDbVertex
100
AcDb2dVertex
 10
222.2959819136
 20
180.3710051976
 30
0.0
  0
VERTEX
  5
22C
100
AcDbEntity
  8
0
370
              25
  6
Continuous
 62
               7
100
AcDbVertex
100
AcDb2dVertex
 10
221.34076905009999
 20
181.07232331169999
 30
0.0
  0
VERTEX
  5
22D
100
AcDbEntity
  8
0
370
              25
  6
Continuous
 62
               7
100
AcDbVertex
100
AcDb2dVertex
 10
221.2752714282
 20
181.11662914030001
 30
0.0
  0
SEQEND
  5
22E
100
AcDbEntity
  8
0
370
              25
  6
Continuous
 62
               7
  0
POLYLINE
  5
22F
100
AcDbEntity
  8
0
370
              25
  6
Continuous
 62
               7
100
AcDb2dPolyline
 66
               1
 10
0.0
 20
0.0
 30
0.0
 75
               5
  0
VERTEX
  5
230
100
AcDbEntity
  8
0
370
              25
  6
Continuous
 62
               7
100
AcDbVertex
100
AcDb2dVertex
 10
191.62628922350001
 20
167.7328229005
 30
0.0
  0
VERTEX
  5
231
100
AcDbEntity
  8
0
370
              25
  6
Continuous
 62
               7
100
AcDbVertex
100
AcDb2dVertex
 10
192.7380053023
 20
167.1067550166
 30
0.0
  0
VERTEX
  5
232
100
AcDbEntity
  8
0
370
              25
  6
Continuous
 62
               7
100
AcDbVertex
100
AcDb2dVertex
 10
193.93013792240001
 20
166.52895701899999
 30
0.0
  0
VERTEX
  5
233
100
AcDbEntity
  8
0
370
              25
  6
Continuous
 62
               7
100
AcDbVertex
100
AcDb2dVertex
 10
195.1955165478
 20
166.00290347750001
 30
0.0
  0
VERTEX
  5
234
100
AcDbEntity
  8
0
370
              25
  6
Continuous
 62
               7
100
AcDbVertex
100
AcDb2dVertex
 10
196.52653273390001
 20
165.53175874999999
 30
0.0
  0
VERTEX
  5
235
100
AcDbEntity
  8
0
370
              25
  6
Continuous
 62
               7
100
AcDbVertex
100
AcDb2dVertex
 10
197.91518108189999
 20
165.11835664930001
 30
0.0
  0
VERTEX
  5
236
100
AcDbEntity
  8
0
370
              25
  6
Continuous
 62
               7
100
AcDbVertex
100
AcDb2dVertex
 10
199.35310902340001
 20
164.76518228879999
 30
0.0
  0
VERTEX
  5
237
100
AcDbEntity
  8
0
370
              25
  6
Continuous
 62
               7
100
AcDbVertex
100
AcDb2dVertex
 10
200.83166917619999
 20
164.47435990739999
 30
0.0
  0
VERTEX
  5
238
100
AcDbEntity
  8
0
370
              25
  6
Continuous
 62
               7
100
AcDbVertex
100
AcDb2dVertex
 10
202.3419688434
 20
164.24763941270001
 30
0.0
  0
VERTEX
  5
239
100
AcDbEntity
  8
0
370
              25
  6
Continuous
 62
               7
100
AcDbVertex
100
AcDb2dVertex
 10
203.8749267995
 20
164.08638377849999
 30
0.0
  0
VERTEX
  5
23A
100
AcDbEntity
  8
0
370
              25
  6
Continuous
 62
               7
100
AcDbVertex
100
AcDb2dVertex
 10
205.42132179839999
 20
163.99156297490001
 30
0.0
  0
VERTEX
  5
23B
100
AcDbEntity
  8
0
370
              25
  6
Continuous
 62
               7
100
AcDbVertex
100
AcDb2dVertex
 10
206.97185421059999
 20
163.9637467144
 30
0.0
  0
VERTEX
  5
23C
100
AcDbEntity
  8
0
370
              25
  6
Continuous
 62
               7
100
AcDbVertex
100
AcDb2dVertex
 10
208.517198708
 20
164.00310338649999
 30
0.0
  0
VERTEX
  5
23D
100
AcDbEntity
  8
0
370
              25
  6
Continuous
 62
               7
100
AcDbVertex
100
AcDb2dVertex
 10
210.04806204990001
 20
164.10939514099999
 30
0.0
  0
VERTEX
  5
23E
100
AcDbEntity
  8
0
370
              25
  6
Continuous
 62
               7
100
AcDbVertex
100
AcDb2dVertex
 10
211.5552367347
 20
164.2819837751
 30
0.0
  0
VERTEX
  5
23F
100
AcDbEntity
  8
0
370
              25
  6
Continuous
 62
               7
100
AcDbVertex
100
AcDb2dVertex
 10
213.02965898209999
 20
164.51983022140001
 30
0.0
  0
VERTEX
  5
240
100
AcDbEntity
  8
0
370
              25
  6
Continuous
 62
               7
100
AcDbVertex
100
AcDb2dVertex
 10
214.46246092530001
 20
164.82150471290001
 30
0.0
  0
VERTEX
  5
241
100
AcDbEntity
  8
0
370
              25
  6
Continuous
 62
               7
100
AcDbVertex
100
AcDb2dVertex
 10
215.8450265589
 20
165.18519240699999
 30
0.0
  0
VERTEX
  5
242
100
AcDbEntity
  8
0
370
              25
  6
Continuous
 62
               7
100
AcDbVertex
100
AcDb2dVertex
 10
217.16904028139999
 20
165.6087067075
 30
0.0
  0
VERTEX
  5
243
100
AcDbEntity
  8
0
370
              25
  6
Continuous
 62
               7
100
AcDbVertex
100
AcDb2dVertex
 10
218.42653792159999
 20
166.08950098599999
 30
0.0
  0
VERTEX
  5
244
100
AcDbEntity
  8
0
370
              25
  6
Continuous
 62
               7
100
AcDbVertex
100
AcDb2dVertex
 10
219.6099590524
 20
166.6246823946
 30
0.0
  0
VERTEX
  5
245
100
AcDbEntity
  8
0
370
              25
  6
Continuous
 62
               7
100
AcDbVertex
100
AcDb2dVertex
 10
220.71218545560001
 20
167.2110329555
 30
0.0
  0
VERTEX
  5
246
100
AcDbEntity
  8
0
370
              25
  6
Continuous
 62
               7
100
AcDbVertex
100
AcDb2dVertex
 10
221.726587921
 20
167.84502629639999
 30
0.0
  0
VERTEX
  5
247
100
AcDbEntity
  8
0
370
              25
  6
Continuous
 62
               7
100
AcDbVertex
100
AcDb2dVertex
 10
222.64706610249999
 20
168.52284945069999
 30
0.0
  0
VERTEX
  5
248
100
AcDbEntity
  8
0
370
              25
  6
Continuous
 62
               7
100
AcDbVertex
100
AcDb2dVertex
 10
223.46808458340001
 20
169.24042558950001
 30
0.0
  0
VERTEX
  5
249
100
AcDbEntity
  8
0
370
              25
  6
Continuous
 62
               7
100
AcDbVertex
100
AcDb2dVertex
 10
224.1847052601
 20
169.99343917900001
 30
0.0
  0
VERTEX
  5
24A
100
AcDbEntity
  8
0
370
              25
  6
Continuous
 62
               7
100
AcDbVertex
100
AcDb2dVertex
 10
224.79261703079999
 20
170.77736263040001
 30
0.0
  0
VERTEX
  5
24B
100
AcDbEntity
  8
0
370
              25
  6
Continuous
 62
               7
100
AcDbVertex
100
AcDb2dVertex
 10
225.28816552329999
 20
171.5874800997
 30
0.0
  0
VERTEX
  5
24C
100
AcDbEntity
  8
0
370
              25
  6
Continuous
 62
               7
100
AcDbVertex
100
AcDb2dVertex
 10
225.66836937619999
 20
172.4189202028
 30
0.0
  0
VERTEX
  5
24D
100
AcDbEntity
  8
0
370
              25
  6
Continuous
 62
               7
100
AcDbVertex
100
AcDb2dVertex
 10
225.9309437867
 20
173.26668168110001
 30
0.0
  0
VERTEX
  5
24E
100
AcDbEntity
  8
0
370
              25
  6
Continuous
 62
               7
100
AcDbVertex
100
AcDb2dVertex
 10
226.0677059098
 20
174.0608986714
 30
0.0
  0
SEQEND
  5
24F
100
AcDbEntity
  8
0
370
              25
  6
Continuous
 62
               7
  0
POLYLINE
  5
250
100
AcDbEntity
  8
0
370
              25
  6
Continuous
 62
               7
100
AcDb2dPolyline
 66
               1
 10
0.0
 20
0.0
 30
0.0
 75
               5
  0
VERTEX
  5
251
100
AcDbEntity
  8
0
370
              25
  6
Continuous
 62
               7
100
AcDbVertex
100
AcDb2dVertex
 10
186.1223795221
 20
175.24322094909999
 30
0.0
  0
VERTEX
  5
252
100
AcDbEntity
  8
0
370
              25
  6
Continuous
 62
               7
100
AcDbVertex
100
AcDb2dVertex
 10
186.15440060770001
 20
174.841814556
 30
0.0
  0
VERTEX
  5
253
100
AcDbEntity
  8
0
370
              25
  6
Continuous
 62
               7
100
AcDbVertex
100
AcDb2dVertex
 10
186.31125346850001
 20
173.9774435766
 30
0.0
  0
VERTEX
  5
254
100
AcDbEntity
  8
0
370
              25
  6
Continuous
 62
               7
100
AcDbVertex
100
AcDb2dVertex
 10
186.5871739744
 20
173.12002203079999
 30
0.0
  0
VERTEX
  5
255
100
AcDbEntity
  8
0
370
              25
  6
Continuous
 62
               7
100
AcDbVertex
100
AcDb2dVertex
 10
186.98050352819999
 20
172.2747054543
 30
0.0
  0
VERTEX
  5
256
100
AcDbEntity
  8
0
370
              25
  6
Continuous
 62
               7
100
AcDbVertex
100
AcDb2dVertex
 10
187.488875087
 20
171.44657801130001
 30
0.0
  0
VERTEX
  5
257
100
AcDbEntity
  8
0
370
              25
  6
Continuous
 62
               7
100
AcDbVertex
100
AcDb2dVertex
 10
188.10923083310001
 20
170.6406199061
 30
0.0
  0
VERTEX
  5
258
100
AcDbEntity
  8
0
370
              25
  6
Continuous
 62
               7
100
AcDbVertex
100
AcDb2dVertex
 10
188.83784199749999
 20
169.86167876389999
 30
0.0
  0
VERTEX
  5
259
100
AcDbEntity
  8
0
370
              25
  6
Continuous
 62
               7
100
AcDbVertex
100
AcDb2dVertex
 10
189.67032614690001
 20
169.11443953680001
 30
0.0
  0
VERTEX
  5
25A
100
AcDbEntity
  8
0
370
              25
  6
Continuous
 62
               7
100
AcDbVertex
100
AcDb2dVertex
 10
190.601675387
 20
168.40339532359999
 30
0.0
  0
VERTEX
  5
25B
100
AcDbEntity
  8
0
370
              25
  6
Continuous
 62
               7
100
AcDbVertex
100
AcDb2dVertex
 10
191.62628922350001
 20
167.7328229005
 30
0.0
  0
SEQEND
  5
25C
100
AcDbEntity
  8
0
370
              25
  6
Continuous
 62
               7
  0
POLYLINE
  5
25D
100
AcDbEntity
  8
0
370
              25
  6
Continuous
 62
               8
100
AcDb2dPolyline
 66
               1
 10
0.0
 20
0.0
 30
0.0
 75
               5
  0
VERTEX
  5
25E
100
AcDbEntity
  8
0
370
              25
  6
Continuous
 62
               8
100
AcDbVertex
100
AcDb2dVertex
 10
227.37783345509999
 20
195.57153809740001
 30
0.0
  0
VERTEX
  5
25F
100
AcDbEntity
  8
0
370
              25
  6
Continuous
 62
               8
100
AcDbVertex
100
AcDb2dVertex
 10
227.34294573279999
 20
195.83434636280001
 30
0.0
  0
VERTEX
  5
260
100
AcDbEntity
  8
0
370
              25
  6
Continuous
 62
               8
100
AcDbVertex
100
AcDb2dVertex
 10
227.19130157379999
 20
196.1395725353
 30
0.0
  0
VERTEX
  5
261
100
AcDbEntity
  8
0
370
              25
  6
Continuous
 62
               8
100
AcDbVertex
100
AcDb2dVertex
 10
226.92686023319999
 20
196.42183510960001
 30
0.0
  0
VERTEX
  5
262
100
AcDbEntity
  8
0
370
              25
  6
Continuous
 62
               8
100
AcDbVertex
100
AcDb2dVertex
 10
226.5619851571
 20
196.6679349657
 30
0.0
  0
VERTEX
  5
263
100
AcDbEntity
  8
0
370
              25
  6
Continuous
 62
               8
100
AcDbVertex
100
AcDb2dVertex
 10
226.11373870329999
 20
196.8663656558
 30
0.0
  0
VERTEX
  5
264
100
AcDbEntity
  8
0
370
              25
  6
Continuous
 62
               8
100
AcDbVertex
100
AcDb2dVertex
 10
225.6030802777
 20
197.00784834429999
 30
0.0
  0
VERTEX
  5
265
100
AcDbEntity
  8
0
370
              25
  6
Continuous
 62
               8
100
AcDbVertex
100
AcDb2dVertex
 10
225.18960890689999
 20
197.07291734059999
 30
0.0
  0
SEQEND
  5
266
100
AcDbEntity
  8
0
370
              25
  6
Continuous
 62
               8
  0
POLYLINE
  5
267
100
AcDbEntity
  8
0
370
              25
  6
Continuous
 62
               8
100
AcDb2dPolyline
 66
               1
 10
0.0
 20
0.0
 30
0.0
 75
               5
  0
VERTEX
  5
268
100
AcDbEntity
  8
0
370
              25
  6
Continuous
 62
               8
100
AcDbVertex
100
AcDb2dVertex
 10
219.9750771521
 20
200.06462324169999
 30
0.0
  0
VERTEX
  5
269
100
AcDbEntity
  8
0
370
              25
  6
Continuous
 62
               8
100
AcDbVertex
100
AcDb2dVertex
 10
219.94018959019999
 20
200.3274314096
 30
0.0
  0
VERTEX
  5
26A
100
AcDbEntity
  8
0
370
              25
  6
Continuous
 62
               8
100
AcDbVertex
100
AcDb2dVertex
 10
219.78854543119999
 20
200.63265758209999
 30
0.0
  0
VERTEX
  5
26B
100
AcDbEntity
  8
0
370
              25
  6
Continuous
 62
               8
100
AcDbVertex
100
AcDb2dVertex
 10
219.52410409059999
 20
200.9149201564
 30
0.0
  0
VERTEX
  5
26C
100
AcDbEntity
  8
0
370
              25
  6
Continuous
 62
               8
100
AcDbVertex
100
AcDb2dVertex
 10
219.1592290145
 20
201.16102001260001
 30
0.0
  0
VERTEX
  5
26D
100
AcDbEntity
  8
0
370
              25
  6
Continuous
 62
               8
100
AcDbVertex
100
AcDb2dVertex
 10
218.71098256069999
 20
201.35945070259999
 30
0.0
  0
VERTEX
  5
26E
100
AcDbEntity
  8
0
370
              25
  6
Continuous
 62
               8
100
AcDbVertex
100
AcDb2dVertex
 10
218.2003241351
 20
201.50093339110001
 30
0.0
  0
VERTEX
  5
26F
100
AcDbEntity
  8
0
370
              25
  6
Continuous
 62
               8
100
AcDbVertex
100
AcDb2dVertex
 10
217.6511312408
 20
201.57885270259999
 30
0.0
  0
VERTEX
  5
270
100
AcDbEntity
  8
0
370
              25
  6
Continuous
 62
               8
100
AcDbVertex
100
AcDb2dVertex
 10
217.08908304019999
 20
201.58956491719999
 30
0.0
  0
VERTEX
  5
271
100
AcDbEntity
  8
0
370
              25
  6
Continuous
 62
               8
100
AcDbVertex
100
AcDb2dVertex
 10
216.5404610683
 20
201.53256947739999
 30
0.0
  0
VERTEX
  5
272
100
AcDbEntity
  8
0
370
              25
  6
Continuous
 62
               8
100
AcDbVertex
100
AcDb2dVertex
 10
216.03091762290001
 20
201.4105312344
 30
0.0
  0
VERTEX
  5
273
100
AcDbEntity
  8
0
370
              25
  6
Continuous
 62
               8
100
AcDbVertex
100
AcDb2dVertex
 10
215.58428021879999
 20
201.22915716040001
 30
0.0
  0
SEQEND
  5
274
100
AcDbEntity
  8
0
370
              25
  6
Continuous
 62
               8
  0
SPLINE
  5
275
100
AcDbEntity
  8
0
370
              25
  6
Continuous
 62
               8
100
AcDbSpline
210
0.0
220
0.0
230
1.0
 70
               8
 71
               2
 72
              14
 73
              11
 74
               0
 42
0.000001
 43
0.000001
 40
0.0
 40
0.0
 40
0.0
 40
1.0
 40
1.0
 40
2.0
 40
3.0
 40
4.0
 40
5.0
 40
6.0
 40
6.0
 40
7.0
 40
7.0
 40
7.0
 10
225.33894908191149
 20
188.24193708181369
 30
0.0
 10
225.3420932344564
 20
188.23976135240275
 30
0.0
 10
225.3452373870013
 20
188.23758562299184
 30
0.0
 10
225.43977710578363
 20
188.17287711260491
 30
0.0
 10
225.62616066819379
 20
188.03640067365905
 30
0.0
 10
225.81965518844876
 20
187.86030106117005
 30
0.0
 10
225.95516192336547
 20
187.68988217996838
 30
0.0
 10
226.03750614706439
 20
187.57633247649011
 30
0.0
 10
226.07831232725724
 20
187.51859939618421
 30
0.0
 10
226.07967380071614
 20
187.51667827912476
 30
0.0
 10
226.08103527417501
 20
187.51475716206531
 30
0.0
  0
SPLINE
  5
276
100
AcDbEntity
  8
0
370
              25
  6
Continuous
 62
               8
100
AcDbSpline
210
0.0
220
0.0
230
1.0
 70
               8
 71
               2
 72
              16
 73
              13
 74
               0
 42
0.000001
 43
0.000001
 40
0.0
 40
0.0
 40
0.0
 40
1.0
 40
1.0
 40
2.0
 40
3.0
 40
4.0
 40
5.0
 40
6.0
 40
7.0
 40
8.0
 40
8.0
 40
9.0
 40
9.0
 40
9.0
 10
224.36210864995019
 20
188.2818715924918
 30
0.0
 10
224.36251690274318
 20
188.28243607913208
 30
0.0
 10
224.36292515553617
 20
188.28300056577237
 30
0.0
 10
224.38754688410015
 20
188.31883707217963
 30
0.0
 10
224.46544874785587
 20
188.40498124087208
 30
0.0
 10
224.57430419012147
 20
188.44112639370664
 30
0.0
 10
224.69458099527441
 20
188.45628670977055
 30
0.0
 10
224.87505463566197
 20
188.42950810350442
 30
0.0
 10
225.06289745080682
 20
188.36644083462426
 30
0.0
 10
225.24261465787202
 20
188.28721806605751
 30
0.0
 10
225.33293117543312
 20
188.24474844895576
 30
0.0
 10
225.33594012867229
 20
188.24334276538474
 30
0.0
 10
225.33894908191149
 20
188.24193708181369
 30
0.0
  0
SPLINE
  5
277
100
AcDbEntity
  8
0
370
              25
  6
Continuous
 62
               8
100
AcDbSpline
210
0.0
220
0.0
230
1.0
 70
               8
 71
               2
 72
              16
 73
              13
 74
               0
 42
0.000001
 43
0.000001
 40
0.0
 40
0.0
 40
0.0
 40
1.0
 40
1.0
 40
2.0
 40
3.0
 40
4.0
 40
5.0
 40
6.0
 40
7.0
 40
8.0
 40
8.0
 40
9.0
 40
9.0
 40
9.0
 10
225.45258762651929
 20
187.98477407923119
 30
0.0
 10
225.45040871901023
 20
187.98587417634747
 30
0.0
 10
225.44822981150114
 20
187.98697427346374
 30
0.0
 10
225.37397115001721
 20
188.02490815466052
 30
0.0
 10
225.23644898620057
 20
188.08949595890346
 30
0.0
 10
225.13821486422313
 20
188.12312608029868
 30
0.0
 10
225.04405369579857
 20
188.14551062633706
 30
0.0
 10
224.96367652079738
 20
188.14298607255381
 30
0.0
 10
224.89603252221804
 20
188.13436794632503
 30
0.0
 10
224.82015427843515
 20
188.11513955204956
 30
0.0
 10
224.78524523188673
 20
188.1052459135056
 30
0.0
 10
224.78390145010312
 20
188.10486878763402
 30
0.0
 10
224.7825576683195
 20
188.10449166176241
 30
0.0
  0
LINE
  5
278
100
AcDbEntity
  8
0
370
              25
  6
Continuous
 62
               8
100
AcDbLine
 10
225.85617398459999
 20
187.6535746941
 30
0.0
 11
225.45258762649999
 21
187.98477407920001
 31
0.0
  0
LINE
  5
279
100
AcDbEntity
  8
0
370
              25
  6
Continuous
 62
               8
100
AcDbLine
 10
213.36710818509999
 20
201.15450683520001
 30
0.0
 11
213.12226926689999
 21
201.2061819928
 31
0.0
  0
MTEXT
  5
27A
100
AcDbEntity
  8
0
 62
               7
100
AcDbMText
 10
264.0
 20
87.221684027777769
 30
0.0
 40
3.0316840277777768
 41
0.0
 71
               1
 72
               1
  1
HBH-D03B^I\PHBH-D03G^I
  7
Arial
 73
               1
 44
0.9673603504928806
  0
ENDSEC
  0
SECTION
  2
OBJECTS
  0
DICTIONARY
  5
19
100
AcDbDictionary
280
               0
281
               1
  3
ACAD_GROUP
350
1A
  3
ACAD_MLINESTYLE
350
1B
  3
ACAD_LAYOUT
350
1E
  3
ACAD_PLOTSETTINGS
350
22
  3
ACAD_PLOTSTYLENAME
350
1F
  3
ACAD_WIPEOUT_VARS
350
23
  0
DICTIONARY
  5
1A
102
{ACAD_REACTORS
330
19
102
}
100
AcDbDictionary
280
               0
281
               1
  0
DICTIONARY
  5
1B
102
{ACAD_REACTORS
330
19
102
}
100
AcDbDictionary
280
               0
281
               1
  3
Standard
350
1C
  0
MLINESTYLE
  5
1C
102
{ACAD_REACTORS
330
1B
102
}
100
AcDbMlineStyle
  2
Standard
 70
               0
  3

 62
               0
 51
90.0
 52
90.0
 71
               2
 49
0.5
 62
             256
  6
ByLayer
 49
-0.5
 62
             256
  6
ByLayer
  0
ACDBDICTIONARYWDFLT
  5
1F
102
{ACAD_REACTORS
330
19
102
}
100
AcDbDictionary
281
               1
  3
Normal
350
1D
100
AcDbDictionaryWithDefault
340
1D
  0
ACDBPLACEHOLDER
  5
1D
102
{ACAD_REACTORS
330
1F
102
}
  0
LAYOUT
  5
20
102
{ACAD_REACTORS
330
1E
102
}
100
AcDbPlotSettings
  1

  2

  4

  6

 40
0.0
 41
0.0
 42
0.0
 43
0.0
 44
0.0
 45
0.0
 46
0.0
 47
0.0
 48
0.0
 49
0.0
140
0.0
141
0.0
142
1.0
143
1.0
 70
            1024
 72
               0
 73
               0
 74
               0
  7

 75
               0
147
1.0
148
0.0
149
0.0
100
AcDbLayout
  1
Model
 70
               0
 71
               0
 10
0.0
 20
0.0
 11
0.0
 21
0.0
 12
0.0
 22
0.0
 32
0.0
 14
0.0
 24
0.0
 34
0.0
 15
0.0
 25
0.0
 35
0.0
146
0.0
 13
0.0
 23
0.0
 33
0.0
 16
0.0
 26
0.0
 36
0.0
 17
0.0
 27
0.0
 37
0.0
 76
               0
330
A
331
0
345
0
346
0
  0
LAYOUT
  5
21
102
{ACAD_REACTORS
330
1E
102
}
100
AcDbPlotSettings
  1

  2

  4

  6

 40
0.0
 41
0.0
 42
0.0
 43
0.0
 44
0.0
 45
0.0
 46
0.0
 47
0.0
 48
0.0
 49
0.0
140
0.0
141
0.0
142
1.0
143
1.0
 70
               0
 72
               0
 73
               0
 74
               0
  7

 75
               0
147
1.0
148
0.0
149
0.0
100
AcDbLayout
  1
Layout1
 70
               0
 71
               0
 10
0.0
 20
0.0
 11
0.0
 21
0.0
 12
0.0
 22
0.0
 32
0.0
 14
0.0
 24
0.0
 34
0.0
 15
0.0
 25
0.0
 35
0.0
146
0.0
 13
0.0
 23
0.0
 33
0.0
 16
0.0
 26
0.0
 36
0.0
 17
0.0
 27
0.0
 37
0.0
 76
               0
330
B
331
0
345
0
346
0
  0
DICTIONARY
  5
1E
102
{ACAD_REACTORS
330
19
102
}
100
AcDbDictionary
280
               0
281
               1
  3
Layout1
350
21
  3
Model
350
20
  0
DICTIONARY
  5
22
102
{ACAD_REACTORS
330
19
102
}
100
AcDbDictionary
280
               0
281
               1
  0
WIPEOUTVARIABLES
  5
23
100
AcDbWipeoutVariables
 70
               1
  0
ENDSEC
  0
EOF
