  0
SECTION
  2
HEADER
  9
$ACADVER
  1
AC1015
  9
$ACADMAINTVER
 70
               6
  9
$DWGCODEPAGE
  3
ANSI_932
  9
$INSBASE
 10
0.0
 20
0.0
 30
0.0
  9
$EXTMIN
 10
46.347797811199996
 20
-48.945532373166657
 30
0.0
  9
$EXTMAX
 10
66.45613114453333
 20
-40.478865706499988
 30
0.0
  9
$LIMMIN
 10
0.0
 20
0.0
  9
$LIMMAX
 10
0.0
 20
0.0
  9
$ORTHOMODE
 70
               0
  9
$REGENMODE
 70
               1
  9
$FILLMODE
 70
               1
  9
$QTEXTMODE
 70
               0
  9
$MIRRTEXT
 70
               1
  9
$LTSCALE
 40
5.0800000000000001
  9
$ATTMODE
 70
               1
  9
$TEXTSIZE
 40
0.2
  9
$TRACEWID
 40
1.0
  9
$TEXTSTYLE
  7
Standard
  9
$CLAYER
  8
一般
  9
$CELTYPE
  6
Continuous
  9
$CECOLOR
 62
             256
  9
$CELTSCALE
 40
1.0
  9
$DISPSILH
 70
               0
  9
$DIMSCALE
 40
1.0
  9
$DIMASZ
 40
0.18
  9
$DIMEXO
 40
0.0625
  9
$DIMDLI
 40
0.38
  9
$DIMRND
 40
0.0
  9
$DIMDLE
 40
0.0
  9
$DIMEXE
 40
0.18
  9
$DIMTP
 40
0.0
  9
$DIMTM
 40
0.0
  9
$DIMTXT
 40
0.18
  9
$DIMCEN
 40
0.09
  9
$DIMTSZ
 40
0.0
  9
$DIMTOL
 70
               0
  9
$DIMLIM
 70
               0
  9
$DIMTIH
 70
               1
  9
$DIMTOH
 70
               1
  9
$DIMSE1
 70
               0
  9
$DIMSE2
 70
               0
  9
$DIMTAD
 70
               0
  9
$DIMZIN
 70
               0
  9
$DIMBLK
  1

  9
$DIMASO
 70
               1
  9
$DIMSHO
 70
               1
  9
$DIMPOST
  1

  9
$DIMAPOST
  1

  9
$DIMALT
 70
               0
  9
$DIMALTD
 70
               2
  9
$DIMALTF
 40
25.399999999999999
  9
$DIMLFAC
 40
1.0
  9
$DIMTOFL
 70
               0
  9
$DIMTVP
 40
0.0
  9
$DIMTIX
 70
               0
  9
$DIMSOXD
 70
               0
  9
$DIMSAH
 70
               0
  9
$DIMBLK1
  1

  9
$DIMBLK2
  1

  9
$DIMSTYLE
  2
Standard
  9
$DIMCLRD
 70
               0
  9
$DIMCLRE
 70
               0
  9
$DIMCLRT
 70
               0
  9
$DIMTFAC
 40
1.0
  9
$DIMGAP
 40
0.09
  9
$DIMJUST
 70
               0
  9
$DIMSD1
 70
               0
  9
$DIMSD2
 70
               0
  9
$DIMTOLJ
 70
               1
  9
$DIMTZIN
 70
               0
  9
$DIMALTZ
 70
               0
  9
$DIMALTTZ
 70
               0
  9
$DIMUPT
 70
               0
  9
$DIMDEC
 70
               4
  9
$DIMTDEC
 70
               4
  9
$DIMALTU
 70
               2
  9
$DIMALTTD
 70
               2
  9
$DIMTXSTY
  7
Standard
  9
$DIMAUNIT
 70
               0
  9
$DIMADEC
 70
               0
  9
$DIMALTRND
 40
0.0
  9
$DIMAZIN
 70
               0
  9
$DIMDSEP
 70
               0
  9
$DIMATFIT
 70
               3
  9
$DIMFRAC
 70
               0
  9
$DIMLDRBLK
  1

  9
$DIMLUNIT
 70
               2
  9
$DIMLWD
 70
               0
  9
$DIMLWE
 70
               0
  9
$DIMTMOVE
 70
               0
  9
$LUNITS
 70
               2
  9
$LUPREC
 70
               4
  9
$SKETCHINC
 40
0.1
  9
$FILLETRAD
 40
0.0
  9
$AUNITS
 70
               0
  9
$AUPREC
 70
               0
  9
$MENU
  1
acad
  9
$ELEVATION
 40
0.0
  9
$PELEVATION
 40
0.0
  9
$THICKNESS
 40
0.0
  9
$LIMCHECK
 70
               0
  9
$CHAMFERA
 40
0.0
  9
$CHAMFERB
 40
0.0
  9
$CHAMFERC
 40
0.0
  9
$CHAMFERD
 40
0.0
  9
$SKPOLY
 70
               0
  9
$TDCREATE
 40
2458270.401342593
  9
$TDUCREATE
 40
0.000000000
  9
$TDUPDATE
 40
2458270.401342593
  9
$TDUUPDATE
 40
0.000000000
  9
$TDINDWG
 40
0.0000000000
  9
$TDUSRTIMER
 40
0.0000000000
  9
$USRTIMER
 70
               1
  9
$ANGBASE
 50
0.0
  9
$ANGDIR
 70
               0
  9
$PDMODE
 70
               1
  9
$PDSIZE
 40
-2.0
  9
$PLINEWID
 40
0.0
  9
$SPLFRAME
 70
               0
  9
$SPLINETYPE
 70
               6
  9
$SPLINESEGS
 70
               8
  9
$HANDSEED
  5
327
  9
$SURFTAB1
 70
               6
  9
$SURFTAB2
 70
               6
  9
$SURFTYPE
 70
               6
  9
$SURFU
 70
               6
  9
$SURFV
 70
               6
  9
$UCSBASE
  2

  9
$UCSNAME
  2

  9
$UCSORG
 10
0.0
 20
0.0
 30
0.0
  9
$UCSXDIR
 10
1.0
 20
0.0
 30
0.0
  9
$UCSYDIR
 10
0.0
 20
1.0
 30
0.0
  9
$UCSORTHOREF
  2

  9
$UCSORTHOVIEW
 70
               0
  9
$UCSORGTOP
 10
0.0
 20
0.0
 30
0.0
  9
$UCSORGBOTTOM
 10
0.0
 20
0.0
 30
0.0
  9
$UCSORGLEFT
 10
0.0
 20
0.0
 30
0.0
  9
$UCSORGRIGHT
 10
0.0
 20
0.0
 30
0.0
  9
$UCSORGFRONT
 10
0.0
 20
0.0
 30
0.0
  9
$UCSORGBACK
 10
0.0
 20
0.0
 30
0.0
  9
$PUCSBASE
  2

  9
$PUCSNAME
  2

  9
$PUCSORG
 10
0.0
 20
0.0
 30
0.0
  9
$PUCSXDIR
 10
1.0
 20
0.0
 30
0.0
  9
$PUCSYDIR
 10
0.0
 20
1.0
 30
0.0
  9
$PUCSORTHOREF
  2

  9
$PUCSORTHOVIEW
 70
               0
  9
$PUCSORGTOP
 10
0.0
 20
0.0
 30
0.0
  9
$PUCSORGBOTTOM
 10
0.0
 20
0.0
 30
0.0
  9
$PUCSORGLEFT
 10
0.0
 20
0.0
 30
0.0
  9
$PUCSORGRIGHT
 10
0.0
 20
0.0
 30
0.0
  9
$PUCSORGFRONT
 10
0.0
 20
0.0
 30
0.0
  9
$PUCSORGBACK
 10
0.0
 20
0.0
 30
0.0
  9
$USERI1
 70
               0
  9
$USERI2
 70
               0
  9
$USERI3
 70
               0
  9
$USERI4
 70
               0
  9
$USERI5
 70
               0
  9
$USERR1
 40
0.0
  9
$USERR2
 40
0.0
  9
$USERR3
 40
0.0
  9
$USERR4
 40
0.0
  9
$USERR5
 40
0.0
  9
$WORLDVIEW
 70
               1
  9
$SHADEDGE
 70
               3
  9
$SHADEDIF
 70
              70
  9
$TILEMODE
 70
               1
  9
$MAXACTVP
 70
              16
  9
$PINSBASE
 10
0.0
 20
0.0
 30
0.0
  9
$PLIMCHECK
 70
               0
  9
$PEXTMIN
 10
1.0000000000000000E+20
 20
1.0000000000000000E+20
 30
1.0000000000000000E+20
  9
$PEXTMAX
 10
-1.0000000000000000E+20
 20
-1.0000000000000000E+20
 30
-1.0000000000000000E+20
  9
$PLIMMIN
 10
0.0
 20
0.0
  9
$PLIMMAX
 10
12.0
 20
9.0
  9
$UNITMODE
 70
               0
  9
$VISRETAIN
 70
               0
  9
$PLINEGEN
 70
               1
  9
$PSLTSCALE
 70
               0
  9
$TREEDEPTH
 70
            3020
  9
$CMLSTYLE
  2
Standard
  9
$CMLJUST
 70
               0
  9
$CMLSCALE
 40
1.0
  9
$PROXYGRAPHICS
 70
               0
  9
$MEASUREMENT
 70
               1
  9
$CELWEIGHT
370
               0
  9
$ENDCAPS
280
               0
  9
$JOINSTYLE
280
               0
  9
$LWDISPLAY
290
               1
  9
$INSUNITS
 70
               4
  9
$HYPERLINKBASE
  1

  9
$STYLESHEET
  1

  9
$XEDIT
290
               1
  9
$CEPSNTYPE
380
               0
  9
$PSTYLEMODE
290
               1
  9
$FINGERPRINTGUID
  2

  9
$VERSIONGUID
  2

  9
$EXTNAMES
290
               1
  9
$PSVPSCALE
 40
0.0
  0
ENDSEC
  0
SECTION
  2
CLASSES
  0
CLASS
  1
LWPOLYLINE
  2
AcDbPolyline
  3
AutoCAD 2000
 90
    32768
280
               0
281
               1
  0
CLASS
  1
IMAGE
  2
AcDbRasterImage
  3
ISM
 90
    32895
280
               0
281
               1
  0
CLASS
  1
OLE2FRAME
  2
AcDbOle2Frame
  3
AutoCAD 2000
 90
    32768
280
               0
281
               1
  0
CLASS
  1
HATCH
  2
AcDbHatch
  3
AutoCAD 2000
 90
    32768
280
               0
281
               1
  0
CLASS
  1
DICTIONARYVAR
  2
AcDbDictionaryVar
  3
AutoCAD 2000
 90
    32768
280
               0
281
               0
  0
CLASS
  1
RASTERVARIABLES
  2
AcDbRasterVariables
  3
ISM
 90
    32768
280
               0
281
               0
  0
CLASS
  1
IMAGEDEF
  2
AcDbRasterImageDef
  3
ISM
 90
    32768
280
               0
281
               0
  0
CLASS
  1
IMAGEDEF_REACTOR
  2
AcDbRasterImageDefReactor
  3
ISM
 90
    32769
280
               0
281
               0
  0
CLASS
  1
IDBUFFER
  2
AcDbIdBuffer
  3
AutoCAD 2000
 90
    32768
280
               0
281
               0
  0
CLASS
  1
SPATIAL_FILTER
  2
AcDbSpatialFilter
  3
AutoCAD 2000
 90
    32768
280
               0
281
               0
  0
CLASS
  1
XRECORD
  2
AcDbXrecord
  3
AutoCAD 2000
 90
    32768
280
               0
281
               0
  0
CLASS
  1
SORTENTSTABLE
  2
AcDbSortentsTable
  3
AutoCAD 2000
 90
    32768
280
               0
281
               0
  0
CLASS
  1
LAYER_INDEX
  2
AcDbLayerIndex
  3
AutoCAD 2000
 90
    32768
280
               0
281
               0
  0
CLASS
  1
SPATIAL_INDEX
  2
AcDbSpatialIndex
  3
AutoCAD 2000
 90
    32768
280
               0
281
               0
  0
CLASS
  1
OBJECT_PTR
  2
CAseDLPNTableRecord
  3
"ASE-LPNTableRecord"
 90
    32769
280
               0
281
               0
  0
CLASS
  1
LAYOUT
  2
AcDbLayout
  3
AutoCAD 2000
 90
        0
280
               0
281
               0
  0
CLASS
  1
PLOTSETTINGS
  2
AcDbPlotSettings
  3
AutoCAD 2000
 90
    32768
280
               0
281
               0
  0
CLASS
  1
ACDBDICTIONARYWDFLT
  2
AcDbDictionaryWithDefault
  3
AutoCAD 2000
 90
        0
280
               0
281
               0
  0
CLASS
  1
ACDBPLACEHOLDER
  2
AcDbPlaceHolder
  3
AutoCAD 2000
 90
        0
280
               0
281
               0
  0
CLASS
  1
VBA_PROJECT
  2
AcDbVbaProject
  3
acadvba
 90
    32768
280
               0
281
               0
  0
CLASS
  1
WIPEOUT
  2
AcDbWipeout
  3
WipeOut|AutoCAD Express Tool|expresstools@autodesk.com
 90
    32895
280
               0
281
               1
  0
CLASS
  1
WIPEOUTVARIABLES
  2
AcDbWipeoutVariables
  3
WipeOut|AutoCAD Express Tool|expresstools@autodesk.com
 90
        0
280
               0
281
               0
  0
CLASS
  1
RTEXT
  2
RText
  3
RText|AutoCAD Express Tool|expresstools@autodesk.com
 90
    32768
280
               0
281
               1
  0
CLASS
  1
ARCALIGNEDTEXT
  2
AcDbArcAlignedText
  3
ATEXT|AutoCAD Express Tool|expresstools@autodesk.com
 90
    32768
280
               0
281
               1
  0
ENDSEC
  0
SECTION
  2
TABLES
  0
TABLE
  2
VPORT
  5
7
100
AcDbSymbolTable
 70
               1
  0
VPORT
  5
15
100
AcDbSymbolTableRecord
100
AcDbViewportTableRecord
  2
*ACTIVE
 70
               0
 10
0.0
 20
0.0
 11
1.0
 21
1.0
 12
56.401964477866663
 22
-44.712199039833322
 13
0.0
 23
0.0
 14
1.0
 24
1.0
 15
0.0
 25
0.0
 16
0.0
 26
0.0
 36
1.0
 17
0.0
 27
0.0
 37
0.0
 40
8.4666666666666686
 41
0.688564
 42
50.0
 43
0.0
 44
0.0
 50
0.0
 51
0.0
 71
               0
 72
             100
 73
               1
 74
               1
 75
               0
 76
               0
 77
               0
 78
               0
281
               0
 65
               0
110
0.0
120
0.0
130
0.0
111
1.0
121
0.0
131
0.0
112
0.0
122
1.0
132
0.0
345
0
346
0
 79
               0
146
0.0
  0
ENDTAB
  0
TABLE
  2
LTYPE
  5
4
100
AcDbSymbolTable
 70
              13
  0
LTYPE
  5
11
100
AcDbSymbolTableRecord
100
AcDbLinetypeTableRecord
  2
ByBlock
 70
              64
  3

 72
              65
 73
               0
 40
0.0
  0
LTYPE
  5
12
100
AcDbSymbolTableRecord
100
AcDbLinetypeTableRecord
  2
ByLayer
 70
              64
  3

 72
              65
 73
               0
 40
0.0
  0
LTYPE
  5
13
100
AcDbSymbolTableRecord
100
AcDbLinetypeTableRecord
  2
Continuous
 70
              64
  3
Solid line
 72
              65
 73
               0
 40
0.0
  0
LTYPE
  5
26
100
AcDbSymbolTableRecord
100
AcDbLinetypeTableRecord
  2
STYLE_01
 70
               0
  3

 72
              65
 73
               2
 40
0.41664
 49
0.20828
 74
               0
 49
-0.20836
 74
               0
  0
LTYPE
  5
27
100
AcDbSymbolTableRecord
100
AcDbLinetypeTableRecord
  2
STYLE_02
 70
               0
  3

 72
              65
 73
               2
 40
0.6944250000000001
 49
0.48607
 74
               0
 49
-0.2083550000000001
 74
               0
  0
LTYPE
  5
28
100
AcDbSymbolTableRecord
100
AcDbLinetypeTableRecord
  2
STYLE_03
 70
               0
  3

 72
              65
 73
               2
 40
1.25
 49
1.0416400000000001
 74
               0
 49
-0.2083599999999999
 74
               0
  0
LTYPE
  5
29
100
AcDbSymbolTableRecord
100
AcDbLinetypeTableRecord
  2
STYLE_04
 70
               0
  3

 72
              65
 73
               2
 40
1.5277099999999999
 49
1.3194249999999998
 74
               0
 49
-0.208285
 74
               0
  0
LTYPE
  5
2A
100
AcDbSymbolTableRecord
100
AcDbLinetypeTableRecord
  2
STYLE_05
 70
               0
  3

 72
              65
 73
               2
 40
0.20828
 49
0.069425
 74
               0
 49
-0.138855
 74
               0
  0
LTYPE
  5
2B
100
AcDbSymbolTableRecord
100
AcDbLinetypeTableRecord
  2
STYLE_06
 70
               0
  3

 72
              65
 73
               4
 40
1.0416400000000001
 49
0.625
 74
               0
 49
-0.20828
 74
               0
 49
0.06943
 74
               0
 49
-0.13893
 74
               0
  0
LTYPE
  5
2C
100
AcDbSymbolTableRecord
100
AcDbLinetypeTableRecord
  2
STYLE_07
 70
               0
  3

 72
              65
 73
               6
 40
1.875
 49
0.625
 74
               0
 49
-0.20828
 74
               0
 49
0.6250000000000001
 74
               0
 49
-0.2083599999999999
 74
               0
 49
0.06943
 74
               0
 49
-0.1389299999999999
 74
               0
  0
LTYPE
  5
2D
100
AcDbSymbolTableRecord
100
AcDbLinetypeTableRecord
  2
STYLE_08
 70
               0
  3

 72
              65
 73
               6
 40
1.25
 49
0.625
 74
               0
 49
-0.20828
 74
               0
 49
0.06943
 74
               0
 49
-0.13893
 74
               0
 49
0.0694299999999999
 74
               0
 49
-0.13893
 74
               0
  0
LTYPE
  5
2E
100
AcDbSymbolTableRecord
100
AcDbLinetypeTableRecord
  2
STYLE_09
 70
               0
  3

 72
              65
 73
               4
 40
5.0
 49
3.75
 74
               0
 49
-0.2777849999999998
 74
               0
 49
0.6944300000000003
 74
               0
 49
-0.2777849999999998
 74
               0
  0
LTYPE
  5
2F
100
AcDbSymbolTableRecord
100
AcDbLinetypeTableRecord
  2
STYLE_10
 70
               0
  3

 72
              65
 73
               6
 40
5.9375
 49
3.75
 74
               0
 49
-0.2777849999999998
 74
               0
 49
0.6944300000000003
 74
               0
 49
-0.2777849999999998
 74
               0
 49
0.625
 74
               0
 49
-0.3125
 74
               0
  0
ENDTAB
  0
TABLE
  2
LAYER
  5
2
100
AcDbSymbolTable
 70
               4
  0
LAYER
  5
14
100
AcDbSymbolTableRecord
100
AcDbLayerTableRecord
  2
0
 70
               0
 62
               7
  6
Continuous
290
               1
370
              15
390
1D
  0
LAYER
  5
30
100
AcDbSymbolTableRecord
100
AcDbLayerTableRecord
  2
Defpoints
 70
               0
 62
               7
  6
Continuous
290
               0
370
              -3
390
1D
  0
LAYER
  5
31
100
AcDbSymbolTableRecord
100
AcDbLayerTableRecord
  2
一般
 70
               0
 62
               7
  6
Continuous
290
               1
370
               5
390
1D
  0
LAYER
  5
32
100
AcDbSymbolTableRecord
100
AcDbLayerTableRecord
  2
寸法
 70
               0
 62
               7
  6
Continuous
290
               1
370
               5
390
1D
  0
ENDTAB
  0
TABLE
  2
STYLE
  5
3
100
AcDbSymbolTable
 70
               2
  0
STYLE
  5
17
100
AcDbSymbolTableRecord
100
AcDbTextStyleTableRecord
  2
Standard
 70
               0
 40
0.0
 41
1.0
 50
0.0
 71
               0
 42
0.0
  3
txt
  4
BIGFONT.SHX
  0
STYLE
  5
25
100
AcDbSymbolTableRecord
100
AcDbTextStyleTableRecord
  2
ＭＳ Ｐゴシック
 70
               0
 40
0.0
 41
1.0
 50
0.0
 71
               0
 42
0.0
  3
ＭＳ Ｐゴシック
  4

1001
ACAD
1000
ＭＳ Ｐゴシック
1071
        0
  0
ENDTAB
  0
TABLE
  2
VIEW
  5
5
100
AcDbSymbolTable
 70
               0
  0
ENDTAB
  0
TABLE
  2
UCS
  5
6
100
AcDbSymbolTable
 70
               0
  0
ENDTAB
  0
TABLE
  2
APPID
  5
8
100
AcDbSymbolTable
 70
               1
  0
APPID
  5
16
100
AcDbSymbolTableRecord
100
AcDbRegAppTableRecord
  2
ACAD
 70
               0
  0
ENDTAB
  0
TABLE
  2
DIMSTYLE
  5
9
100
AcDbSymbolTable
 70
               1
100
AcDbDimStyleTable
 71
               0
  0
DIMSTYLE
105
18
100
AcDbSymbolTableRecord
100
AcDbDimStyleTableRecord
  2
Standard
 70
               0
  3

  4

 40
1.0
 41
0.18
 42
0.0625
 43
0.38
 44
0.18
 45
0.0
 46
0.0
 47
0.0
 48
0.0
 71
               0
 72
               0
 73
               1
 74
               1
 75
               0
 76
               0
 77
               0
 78
               0
 79
               0
140
0.18
141
0.09
142
0.0
143
25.399999999999999
144
1.0
145
0.0
146
1.0
147
0.09
148
0.0
170
               0
171
               2
172
               0
173
               0
174
               0
175
               0
176
               0
177
               0
178
               0
179
               0
271
               4
272
               4
273
               2
274
               2
275
               0
276
               0
277
               2
278
              46
279
               0
280
               0
281
               0
282
               0
283
               1
284
               0
285
               0
286
               0
288
               0
340
17
341
0
342
0
343
0
344
0
371
              -2
372
              -2
  0
ENDTAB
  0
TABLE
  2
BLOCK_RECORD
  5
1
100
AcDbSymbolTable
 70
               1
  0
BLOCK_RECORD
  5
A
100
AcDbSymbolTableRecord
100
AcDbBlockTableRecord
  2
*MODEL_SPACE
340
20
  0
BLOCK_RECORD
  5
B
100
AcDbSymbolTableRecord
100
AcDbBlockTableRecord
  2
*PAPER_SPACE
340
21
  0
BLOCK_RECORD
  5
24
100
AcDbSymbolTableRecord
100
AcDbBlockTableRecord
  2
*U0
340
0
102
{BLKREFS
331
325
102
}
  0
ENDTAB
  0
ENDSEC
  0
SECTION
  2
BLOCKS
  0
BLOCK
  5
D
100
AcDbEntity
  8
0
100
AcDbBlockBegin
  2
*MODEL_SPACE
 70
               0
 10
0.0
 20
0.0
 30
0.0
  3
*MODEL_SPACE
  1

  0
ENDBLK
  5
E
100
AcDbEntity
  8
0
100
AcDbBlockEnd
  0
BLOCK
  5
F
100
AcDbEntity
 67
               1
  8
0
100
AcDbBlockBegin
  2
*PAPER_SPACE
 70
               0
 10
0.0
 20
0.0
 30
0.0
  3
*PAPER_SPACE
  1

  0
ENDBLK
  5
10
100
AcDbEntity
 67
               1
  8
0
100
AcDbBlockEnd
  0
BLOCK
  5
33
100
AcDbEntity
  8
一般
100
AcDbBlockBegin
  2
*U0
 70
               1
 10
0.0
 20
0.0
 30
0.0
  3
*U0
  1

  0
LINE
  5
34
100
AcDbEntity
  8
0
370
              18
  6
Continuous
 62
               7
100
AcDbLine
 10
-29.223395213999993
 20
-30.483512327199989
 30
0.0
 11
-28.566480909099994
 21
-30.848959297999997
 31
0.0
  0
LINE
  5
35
100
AcDbEntity
  8
0
370
              18
  6
Continuous
 62
               7
100
AcDbLine
 10
21.871264669699997
 20
-31.812673562799986
 30
0.0
 11
22.5416595481
 21
-31.472588455099995
 31
0.0
  0
LINE
  5
36
100
AcDbEntity
  8
0
370
              18
  6
Continuous
 62
               7
100
AcDbLine
 10
35.985766275299994
 20
-14.255608870099993
 30
0.0
 11
36.2458323054
 21
-0.6445893037000037
 31
0.0
  0
LINE
  5
37
100
AcDbEntity
  8
0
370
              18
  6
Continuous
 62
               7
100
AcDbLine
 10
-41.73993397000001
 20
0.84548614250002
 30
0.0
 11
-42.0
 21
-12.765533423799981
 31
0.0
  0
LINE
  5
38
100
AcDbEntity
  8
0
370
              18
  6
Continuous
 62
               7
100
AcDbLine
 10
-38.717431952200002
 20
-11.092059263199987
 30
0.0
 11
-38.765891373100004
 21
-13.628269494799982
 31
0.0
  0
LINE
  5
39
100
AcDbEntity
  8
0
370
              18
  6
Continuous
 62
               7
100
AcDbLine
 10
32.721061584500006
 20
-14.994172376699995
 30
0.0
 11
32.769521005400009
 21
-12.4579621451
 31
0.0
  0
LINE
  5
3A
100
AcDbEntity
  8
0
370
              18
  6
Continuous
 62
               7
100
AcDbLine
 10
-40.997980929499988
 20
39.676921954000022
 30
0.0
 11
-41.709337963100012
 21
2.4467827374999995
 31
0.0
  0
LINE
  5
3B
100
AcDbEntity
  8
0
370
              18
  6
Continuous
 62
               7
100
AcDbLine
 10
36.276428312200011
 20
0.9567072913000043
 30
0.0
 11
36.987785345899994
 21
38.186846507700011
 31
0.0
  0
SPLINE
  5
3C
100
AcDbEntity
  8
0
370
              18
  6
Continuous
 62
               7
100
AcDbSpline
210
0.0
220
0.0
230
1.0
 70
               8
 71
               2
 72
              15
 73
              12
 74
               0
 42
0.000001
 43
0.000001
 40
0.0
 40
0.0
 40
0.0
 40
1.0
 40
1.0
 40
2.0
 40
3.0
 40
4.0
 40
5.0
 40
6.0
 40
7.0
 40
7.0
 40
8.0
 40
8.0
 40
8.0
 10
-1.5512027746727877
 20
62.687248363900721
 30
0.0
 10
-1.6056220019537899
 20
62.687687580769165
 30
0.0
 10
-1.6600412292347921
 20
62.688126797637608
 30
0.0
 10
-4.8913573136315449
 20
62.733918848769264
 30
0.0
 10
-13.379339193767862
 20
62.044334329445945
 30
0.0
 10
-23.737252839052474
 20
59.274924562572721
 30
0.0
 10
-32.691851764591888
 20
54.470357085811315
 30
0.0
 10
-38.400387324316625
 20
48.514649683410227
 30
0.0
 10
-40.269139699786621
 20
44.139796966062676
 30
0.0
 10
-40.594434307903981
 20
42.803293673264193
 30
0.0
 10
-40.601571678601246
 20
42.775304492860798
 30
0.0
 10
-40.608709049298511
 20
42.747315312457403
 30
0.0
  0
SPLINE
  5
3D
100
AcDbEntity
  8
0
370
              18
  6
Continuous
 62
               7
100
AcDbSpline
210
0.0
220
0.0
230
1.0
 70
               8
 71
               2
 72
              16
 73
              13
 74
               0
 42
0.000001
 43
0.000001
 40
0.0
 40
0.0
 40
0.0
 40
1.0
 40
1.0
 40
2.0
 40
3.0
 40
4.0
 40
5.0
 40
6.0
 40
7.0
 40
8.0
 40
8.0
 40
9.0
 40
9.0
 40
9.0
 10
36.706798397072106
 20
41.343314254532601
 30
0.0
 10
36.706773399381461
 20
41.343488421877169
 30
0.0
 10
36.706748401690817
 20
41.343662589221736
 30
0.0
 10
36.635903029924691
 20
41.814292961419568
 30
0.0
 10
35.637337960655998
 20
45.439629838089473
 30
0.0
 10
30.859989592023737
 20
51.946318920884977
 30
0.0
 10
24.364177487062022
 20
56.258250381206608
 30
0.0
 10
19.378470216316657
 20
58.659689992661384
 30
0.0
 10
11.225161533195944
 20
61.439562198959862
 30
0.0
 10
1.9217580236990561
 20
62.610084653505254
 30
0.0
 10
-1.4928446538432634
 20
62.685763014849556
 30
0.0
 10
-1.5220237142580255
 20
62.686505689375139
 30
0.0
 10
-1.5512027746727877
 20
62.687248363900721
 30
0.0
  0
POLYLINE
  5
3E
100
AcDbEntity
  8
0
370
              18
  6
Continuous
 62
               7
100
AcDb2dPolyline
 66
               1
 10
0.0
 20
0.0
 30
0.0
 75
               5
  0
VERTEX
  5
3F
100
AcDbEntity
  8
0
370
              18
  6
Continuous
 62
               7
100
AcDbVertex
100
AcDb2dVertex
 10
-12.259514979699986
 20
63.233147878600022
 30
0.0
  0
VERTEX
  5
40
100
AcDbEntity
  8
0
370
              18
  6
Continuous
 62
               7
100
AcDbVertex
100
AcDb2dVertex
 10
-14.703214633800002
 20
62.774923387100017
 30
0.0
  0
VERTEX
  5
41
100
AcDbEntity
  8
0
370
              18
  6
Continuous
 62
               7
100
AcDbVertex
100
AcDb2dVertex
 10
-17.083347498199998
 20
62.213869124799999
 30
0.0
  0
VERTEX
  5
42
100
AcDbEntity
  8
0
370
              18
  6
Continuous
 62
               7
100
AcDbVertex
100
AcDb2dVertex
 10
-19.388053966999991
 20
61.552779392700018
 30
0.0
  0
VERTEX
  5
43
100
AcDbEntity
  8
0
370
              18
  6
Continuous
 62
               7
100
AcDbVertex
100
AcDb2dVertex
 10
-21.605856212600003
 20
60.794948889799997
 30
0.0
  0
VERTEX
  5
44
100
AcDbEntity
  8
0
370
              18
  6
Continuous
 62
               7
100
AcDbVertex
100
AcDb2dVertex
 10
-23.725701793599995
 20
59.944152724600002
 30
0.0
  0
VERTEX
  5
45
100
AcDbEntity
  8
0
370
              18
  6
Continuous
 62
               7
100
AcDbVertex
100
AcDb2dVertex
 10
-25.737033719300001
 20
59.004630228600007
 30
0.0
  0
VERTEX
  5
46
100
AcDbEntity
  8
0
370
              18
  6
Continuous
 62
               7
100
AcDbVertex
100
AcDb2dVertex
 10
-27.629828827599994
 20
57.981061295399996
 30
0.0
  0
VERTEX
  5
47
100
AcDbEntity
  8
0
370
              18
  6
Continuous
 62
               7
100
AcDbVertex
100
AcDb2dVertex
 10
-29.394659058600013
 20
56.878545735399996
 30
0.0
  0
VERTEX
  5
48
100
AcDbEntity
  8
0
370
              18
  6
Continuous
 62
               7
100
AcDbVertex
100
AcDb2dVertex
 10
-31.022729313599996
 20
55.702575451200005
 30
0.0
  0
VERTEX
  5
49
100
AcDbEntity
  8
0
370
              18
  6
Continuous
 62
               7
100
AcDbVertex
100
AcDb2dVertex
 10
-32.505929609300011
 20
54.459009698800003
 30
0.0
  0
VERTEX
  5
4A
100
AcDbEntity
  8
0
370
              18
  6
Continuous
 62
               7
100
AcDbVertex
100
AcDb2dVertex
 10
-33.768428460600006
 20
53.226582268100003
 30
0.0
  0
SEQEND
  5
4B
100
AcDbEntity
  8
0
370
              18
  6
Continuous
 62
               7
  0
POLYLINE
  5
4C
100
AcDbEntity
  8
0
370
              18
  6
Continuous
 62
               7
100
AcDb2dPolyline
 66
               1
 10
0.0
 20
0.0
 30
0.0
 75
               5
  0
VERTEX
  5
4D
100
AcDbEntity
  8
0
370
              18
  6
Continuous
 62
               7
100
AcDbVertex
100
AcDb2dVertex
 10
30.51013837299999
 20
51.737618991400012
 30
0.0
  0
VERTEX
  5
4E
100
AcDbEntity
  8
0
370
              18
  6
Continuous
 62
               7
100
AcDbVertex
100
AcDb2dVertex
 10
29.800061948999996
 20
52.533314518600008
 30
0.0
  0
VERTEX
  5
4F
100
AcDbEntity
  8
0
370
              18
  6
Continuous
 62
               7
100
AcDbVertex
100
AcDb2dVertex
 10
28.45078008370001
 20
53.864424036100019
 30
0.0
  0
VERTEX
  5
50
100
AcDbEntity
  8
0
370
              18
  6
Continuous
 62
               7
100
AcDbVertex
100
AcDb2dVertex
 10
26.950074237299987
 20
55.137095963000007
 30
0.0
  0
VERTEX
  5
51
100
AcDbEntity
  8
0
370
              18
  6
Continuous
 62
               7
100
AcDbVertex
100
AcDb2dVertex
 10
25.305419442899989
 20
56.344988619800006
 30
0.0
  0
VERTEX
  5
52
100
AcDbEntity
  8
0
370
              18
  6
Continuous
 62
               7
100
AcDbVertex
100
AcDb2dVertex
 10
23.525009963600013
 20
57.482085645500007
 30
0.0
  0
VERTEX
  5
53
100
AcDbEntity
  8
0
370
              18
  6
Continuous
 62
               7
100
AcDbVertex
100
AcDb2dVertex
 10
21.617715808300005
 20
58.542721811800021
 30
0.0
  0
VERTEX
  5
54
100
AcDbEntity
  8
0
370
              18
  6
Continuous
 62
               7
100
AcDbVertex
100
AcDb2dVertex
 10
19.5930378674
 20
59.521611822799997
 30
0.0
  0
VERTEX
  5
55
100
AcDbEntity
  8
0
370
              18
  6
Continuous
 62
               7
100
AcDbVertex
100
AcDb2dVertex
 10
17.461064828199994
 20
60.413881053900013
 30
0.0
  0
VERTEX
  5
56
100
AcDbEntity
  8
0
370
              18
  6
Continuous
 62
               7
100
AcDbVertex
100
AcDb2dVertex
 10
15.23241709780001
 20
61.215082898300011
 30
0.0
  0
VERTEX
  5
57
100
AcDbEntity
  8
0
370
              18
  6
Continuous
 62
               7
100
AcDbVertex
100
AcDb2dVertex
 10
12.918197874899988
 20
61.921226386699999
 30
0.0
  0
VERTEX
  5
58
100
AcDbEntity
  8
0
370
              18
  6
Continuous
 62
               7
100
AcDbVertex
100
AcDb2dVertex
 10
10.529937252400003
 20
62.5287934742
 30
0.0
  0
VERTEX
  5
59
100
AcDbEntity
  8
0
370
              18
  6
Continuous
 62
               7
100
AcDbVertex
100
AcDb2dVertex
 10
8.0795313094000107
 20
63.034756724600015
 30
0.0
  0
VERTEX
  5
5A
100
AcDbEntity
  8
0
370
              18
  6
Continuous
 62
               7
100
AcDbVertex
100
AcDb2dVertex
 10
5.5791898850999928
 20
63.436595379300002
 30
0.0
  0
VERTEX
  5
5B
100
AcDbEntity
  8
0
370
              18
  6
Continuous
 62
               7
100
AcDbVertex
100
AcDb2dVertex
 10
3.0413675352000102
 20
63.732308154200012
 30
0.0
  0
VERTEX
  5
5C
100
AcDbEntity
  8
0
370
              18
  6
Continuous
 62
               7
100
AcDbVertex
100
AcDb2dVertex
 10
0.4787089209999924
 20
63.9204225119
 30
0.0
  0
VERTEX
  5
5D
100
AcDbEntity
  8
0
370
              18
  6
Continuous
 62
               7
100
AcDbVertex
100
AcDb2dVertex
 10
-2.0960168121999909
 20
64.0
 30
0.0
  0
VERTEX
  5
5E
100
AcDbEntity
  8
0
370
              18
  6
Continuous
 62
               7
100
AcDbVertex
100
AcDb2dVertex
 10
-4.6699873535000052
 20
63.970644745100003
 30
0.0
  0
VERTEX
  5
5F
100
AcDbEntity
  8
0
370
              18
  6
Continuous
 62
               7
100
AcDbVertex
100
AcDb2dVertex
 10
-7.2303756498999974
 20
63.832501819000015
 30
0.0
  0
VERTEX
  5
60
100
AcDbEntity
  8
0
370
              18
  6
Continuous
 62
               7
100
AcDbVertex
100
AcDb2dVertex
 10
-9.7644256078000069
 20
63.586260864300016
 30
0.0
  0
VERTEX
  5
61
100
AcDbEntity
  8
0
370
              18
  6
Continuous
 62
               7
100
AcDbVertex
100
AcDb2dVertex
 10
-12.259514979699986
 20
63.233147878600022
 30
0.0
  0
SEQEND
  5
62
100
AcDbEntity
  8
0
370
              18
  6
Continuous
 62
               7
  0
POLYLINE
  5
63
100
AcDbEntity
  8
0
370
              18
  6
Continuous
 62
               7
100
AcDb2dPolyline
 66
               1
 10
0.0
 20
0.0
 30
0.0
 75
               5
  0
VERTEX
  5
64
100
AcDbEntity
  8
0
370
              18
  6
Continuous
 62
               7
100
AcDbVertex
100
AcDb2dVertex
 10
-20.9519762141
 20
5.9770954435000174
 30
0.0
  0
VERTEX
  5
65
100
AcDbEntity
  8
0
370
              18
  6
Continuous
 62
               7
100
AcDbVertex
100
AcDb2dVertex
 10
-18.598109853099999
 20
6.6414898149999981
 30
0.0
  0
VERTEX
  5
66
100
AcDbEntity
  8
0
370
              18
  6
Continuous
 62
               7
100
AcDbVertex
100
AcDb2dVertex
 10
-16.170019741700003
 20
7.2060347635999999
 30
0.0
  0
VERTEX
  5
67
100
AcDbEntity
  8
0
370
              18
  6
Continuous
 62
               7
100
AcDbVertex
100
AcDb2dVertex
 10
-13.679274918999994
 20
7.6680406284000053
 30
0.0
  0
VERTEX
  5
68
100
AcDbEntity
  8
0
370
              18
  6
Continuous
 62
               7
100
AcDbVertex
100
AcDb2dVertex
 10
-11.137744258299989
 20
8.0253048614000004
 30
0.0
  0
VERTEX
  5
69
100
AcDbEntity
  8
0
370
              18
  6
Continuous
 62
               7
100
AcDbVertex
100
AcDb2dVertex
 10
-8.5575412485999891
 20
8.2761259492000061
 30
0.0
  0
VERTEX
  5
6A
100
AcDbEntity
  8
0
370
              18
  6
Continuous
 62
               7
100
AcDbVertex
100
AcDb2dVertex
 10
-5.9509604508000109
 20
8.4193076163000153
 30
0.0
  0
VERTEX
  5
6B
100
AcDbEntity
  8
0
370
              18
  6
Continuous
 62
               7
100
AcDbVertex
100
AcDb2dVertex
 10
-3.3304224995000022
 20
8.454167761900008
 30
0.0
  0
VERTEX
  5
6C
100
AcDbEntity
  8
0
370
              18
  6
Continuous
 62
               7
100
AcDbVertex
100
AcDb2dVertex
 10
-0.7084185578000013
 20
8.3805408908000043
 30
0.0
  0
VERTEX
  5
6D
100
AcDbEntity
  8
0
370
              18
  6
Continuous
 62
               7
100
AcDbVertex
100
AcDb2dVertex
 10
1.9025571683999947
 20
8.1987772157000034
 30
0.0
  0
VERTEX
  5
6E
100
AcDbEntity
  8
0
370
              18
  6
Continuous
 62
               7
100
AcDbVertex
100
AcDb2dVertex
 10
4.4900658233999877
 20
7.9097435106000074
 30
0.0
  0
VERTEX
  5
6F
100
AcDbEntity
  8
0
370
              18
  6
Continuous
 62
               7
100
AcDbVertex
100
AcDb2dVertex
 10
7.0417736375000004
 20
7.5148167218000008
 30
0.0
  0
VERTEX
  5
70
100
AcDbEntity
  8
0
370
              18
  6
Continuous
 62
               7
100
AcDbVertex
100
AcDb2dVertex
 10
9.5455191927999863
 20
7.0158780838000023
 30
0.0
  0
VERTEX
  5
71
100
AcDbEntity
  8
0
370
              18
  6
Continuous
 62
               7
100
AcDbVertex
100
AcDb2dVertex
 10
11.989374005000002
 20
6.4153069236999993
 30
0.0
  0
VERTEX
  5
72
100
AcDbEntity
  8
0
370
              18
  6
Continuous
 62
               7
100
AcDbVertex
100
AcDb2dVertex
 10
14.36169099739999
 20
5.7159645741000116
 30
0.0
  0
VERTEX
  5
73
100
AcDbEntity
  8
0
370
              18
  6
Continuous
 62
               7
100
AcDbVertex
100
AcDb2dVertex
 10
16.651164862900004
 20
4.9211831923000187
 30
0.0
  0
VERTEX
  5
74
100
AcDbEntity
  8
0
370
              18
  6
Continuous
 62
               7
100
AcDbVertex
100
AcDb2dVertex
 10
18.846884755600001
 20
4.0347508018000138
 30
0.0
  0
VERTEX
  5
75
100
AcDbEntity
  8
0
370
              18
  6
Continuous
 62
               7
100
AcDbVertex
100
AcDb2dVertex
 10
20.938387455999987
 20
3.0608911193999955
 30
0.0
  0
VERTEX
  5
76
100
AcDbEntity
  8
0
370
              18
  6
Continuous
 62
               7
100
AcDbVertex
100
AcDb2dVertex
 10
22.915706431500013
 20
2.0042460074000115
 30
0.0
  0
VERTEX
  5
77
100
AcDbEntity
  8
0
370
              18
  6
Continuous
 62
               7
100
AcDbVertex
100
AcDb2dVertex
 10
24.769418174900011
 20
0.8698499789000191
 30
0.0
  0
VERTEX
  5
78
100
AcDbEntity
  8
0
370
              18
  6
Continuous
 62
               7
100
AcDbVertex
100
AcDb2dVertex
 10
26.490688400099998
 20
-0.3368914575000037
 30
0.0
  0
VERTEX
  5
79
100
AcDbEntity
  8
0
370
              18
  6
Continuous
 62
               7
100
AcDbVertex
100
AcDb2dVertex
 10
28.071315736000003
 20
-1.6102264155999837
 30
0.0
  0
VERTEX
  5
7A
100
AcDbEntity
  8
0
370
              18
  6
Continuous
 62
               7
100
AcDbVertex
100
AcDb2dVertex
 10
29.503768876999999
 20
-2.9440866652999791
 30
0.0
  0
VERTEX
  5
7B
100
AcDbEntity
  8
0
370
              18
  6
Continuous
 62
               7
100
AcDbVertex
100
AcDb2dVertex
 10
30.781218208799999
 20
-4.332117098200003
 30
0.0
  0
VERTEX
  5
7C
100
AcDbEntity
  8
0
370
              18
  6
Continuous
 62
               7
100
AcDbVertex
100
AcDb2dVertex
 10
31.897577980499989
 20
-5.7677023697000056
 30
0.0
  0
VERTEX
  5
7D
100
AcDbEntity
  8
0
370
              18
  6
Continuous
 62
               7
100
AcDbVertex
100
AcDb2dVertex
 10
32.8475285074
 20
-7.2440020891999968
 30
0.0
  0
VERTEX
  5
7E
100
AcDbEntity
  8
0
370
              18
  6
Continuous
 62
               7
100
AcDbVertex
100
AcDb2dVertex
 10
33.626542402300004
 20
-8.7539797592999964
 30
0.0
  0
VERTEX
  5
7F
100
AcDbEntity
  8
0
370
              18
  6
Continuous
 62
               7
100
AcDbVertex
100
AcDb2dVertex
 10
34.230907517100007
 20
-10.290440108300006
 30
0.0
  0
VERTEX
  5
80
100
AcDbEntity
  8
0
370
              18
  6
Continuous
 62
               7
100
AcDbVertex
100
AcDb2dVertex
 10
34.657742600700004
 20
-11.846061476100006
 30
0.0
  0
VERTEX
  5
81
100
AcDbEntity
  8
0
370
              18
  6
Continuous
 62
               7
100
AcDbVertex
100
AcDb2dVertex
 10
34.905015367099992
 20
-13.413430263899984
 30
0.0
  0
VERTEX
  5
82
100
AcDbEntity
  8
0
370
              18
  6
Continuous
 62
               7
100
AcDbVertex
100
AcDb2dVertex
 10
34.971545881499992
 20
-14.985077467999988
 30
0.0
  0
VERTEX
  5
83
100
AcDbEntity
  8
0
370
              18
  6
Continuous
 62
               7
100
AcDbVertex
100
AcDb2dVertex
 10
34.857019698100004
 20
-16.553513863799992
 30
0.0
  0
VERTEX
  5
84
100
AcDbEntity
  8
0
370
              18
  6
Continuous
 62
               7
100
AcDbVertex
100
AcDb2dVertex
 10
34.561978484200012
 20
-18.111264122199998
 30
0.0
  0
VERTEX
  5
85
100
AcDbEntity
  8
0
370
              18
  6
Continuous
 62
               7
100
AcDbVertex
100
AcDb2dVertex
 10
34.087831896799997
 20
-19.650905764599997
 30
0.0
  0
VERTEX
  5
86
100
AcDbEntity
  8
0
370
              18
  6
Continuous
 62
               7
100
AcDbVertex
100
AcDb2dVertex
 10
33.436837306299992
 20
-21.16510116249998
 30
0.0
  0
VERTEX
  5
87
100
AcDbEntity
  8
0
370
              18
  6
Continuous
 62
               7
100
AcDbVertex
100
AcDb2dVertex
 10
32.612098144100003
 20
-22.646634927500003
 30
0.0
  0
VERTEX
  5
88
100
AcDbEntity
  8
0
370
              18
  6
Continuous
 62
               7
100
AcDbVertex
100
AcDb2dVertex
 10
31.617545214300009
 20
-24.088446517099982
 30
0.0
  0
VERTEX
  5
89
100
AcDbEntity
  8
0
370
              18
  6
Continuous
 62
               7
100
AcDbVertex
100
AcDb2dVertex
 10
30.457915814800003
 20
-25.483665274099991
 30
0.0
  0
VERTEX
  5
8A
100
AcDbEntity
  8
0
370
              18
  6
Continuous
 62
               7
100
AcDbVertex
100
AcDb2dVertex
 10
29.138737953099991
 20
-26.825642178699979
 30
0.0
  0
VERTEX
  5
8B
100
AcDbEntity
  8
0
370
              18
  6
Continuous
 62
               7
100
AcDbVertex
100
AcDb2dVertex
 10
27.666299114600008
 20
-28.107982163900004
 30
0.0
  0
VERTEX
  5
8C
100
AcDbEntity
  8
0
370
              18
  6
Continuous
 62
               7
100
AcDbVertex
100
AcDb2dVertex
 10
26.04761196390001
 20
-29.324575096499984
 30
0.0
  0
VERTEX
  5
8D
100
AcDbEntity
  8
0
370
              18
  6
Continuous
 62
               7
100
AcDbVertex
100
AcDb2dVertex
 10
24.290393194199993
 20
-30.469621638299998
 30
0.0
  0
VERTEX
  5
8E
100
AcDbEntity
  8
0
370
              18
  6
Continuous
 62
               7
100
AcDbVertex
100
AcDb2dVertex
 10
22.403017067099995
 20
-31.537665881399988
 30
0.0
  0
VERTEX
  5
8F
100
AcDbEntity
  8
0
370
              18
  6
Continuous
 62
               7
100
AcDbVertex
100
AcDb2dVertex
 10
20.394477720200001
 20
-32.523618248799991
 30
0.0
  0
VERTEX
  5
90
100
AcDbEntity
  8
0
370
              18
  6
Continuous
 62
               7
100
AcDbVertex
100
AcDb2dVertex
 10
18.274345557499998
 20
-33.422780223399997
 30
0.0
  0
VERTEX
  5
91
100
AcDbEntity
  8
0
370
              18
  6
Continuous
 62
               7
100
AcDbVertex
100
AcDb2dVertex
 10
16.052725393600014
 20
-34.230867131399989
 30
0.0
  0
VERTEX
  5
92
100
AcDbEntity
  8
0
370
              18
  6
Continuous
 62
               7
100
AcDbVertex
100
AcDb2dVertex
 10
13.740203862300007
 20
-34.944028626299996
 30
0.0
  0
VERTEX
  5
93
100
AcDbEntity
  8
0
370
              18
  6
Continuous
 62
               7
100
AcDbVertex
100
AcDb2dVertex
 10
11.347797811199996
 20
-35.558865706499986
 30
0.0
  0
VERTEX
  5
94
100
AcDbEntity
  8
0
370
              18
  6
Continuous
 62
               7
100
AcDbVertex
100
AcDb2dVertex
 10
8.8869144202000143
 20
-36.072446565899995
 30
0.0
  0
VERTEX
  5
95
100
AcDbEntity
  8
0
370
              18
  6
Continuous
 62
               7
100
AcDbVertex
100
AcDb2dVertex
 10
6.3692761510999958
 20
-36.482325947199996
 30
0.0
  0
VERTEX
  5
96
100
AcDbEntity
  8
0
370
              18
  6
Continuous
 62
               7
100
AcDbVertex
100
AcDb2dVertex
 10
3.806882183099987
 20
-36.786550047899993
 30
0.0
  0
VERTEX
  5
97
100
AcDbEntity
  8
0
370
              18
  6
Continuous
 62
               7
100
AcDbVertex
100
AcDb2dVertex
 10
1.2119445390000014
 20
-36.983668201899988
 30
0.0
  0
VERTEX
  5
98
100
AcDbEntity
  8
0
370
              18
  6
Continuous
 62
               7
100
AcDbVertex
100
AcDb2dVertex
 10
-1.4031732130999894
 20
-37.07274288619999
 30
0.0
  0
VERTEX
  5
99
100
AcDbEntity
  8
0
370
              18
  6
Continuous
 62
               7
100
AcDbVertex
100
AcDb2dVertex
 10
-4.0260067380000066
 20
-37.053348044299995
 30
0.0
  0
VERTEX
  5
9A
100
AcDbEntity
  8
0
370
              18
  6
Continuous
 62
               7
100
AcDbVertex
100
AcDb2dVertex
 10
-6.6440562299999897
 20
-36.925575236799986
 30
0.0
  0
VERTEX
  5
9B
100
AcDbEntity
  8
0
370
              18
  6
Continuous
 62
               7
100
AcDbVertex
100
AcDb2dVertex
 10
-9.2448477915000069
 20
-36.690036034199991
 30
0.0
  0
VERTEX
  5
9C
100
AcDbEntity
  8
0
370
              18
  6
Continuous
 62
               7
100
AcDbVertex
100
AcDb2dVertex
 10
-11.815987372199999
 20
-36.347851702999989
 30
0.0
  0
VERTEX
  5
9D
100
AcDbEntity
  8
0
370
              18
  6
Continuous
 62
               7
100
AcDbVertex
100
AcDb2dVertex
 10
-14.345221781499987
 20
-35.900653191199993
 30
0.0
  0
VERTEX
  5
9E
100
AcDbEntity
  8
0
370
              18
  6
Continuous
 62
               7
100
AcDbVertex
100
AcDb2dVertex
 10
-16.820498128899999
 20
-35.350571517599988
 30
0.0
  0
VERTEX
  5
9F
100
AcDbEntity
  8
0
370
              18
  6
Continuous
 62
               7
100
AcDbVertex
100
AcDb2dVertex
 10
-19.230019510200009
 20
-34.70022687849999
 30
0.0
  0
VERTEX
  5
A0
100
AcDbEntity
  8
0
370
              18
  6
Continuous
 62
               7
100
AcDbVertex
100
AcDb2dVertex
 10
-21.56230367789999
 20
-33.952719293099989
 30
0.0
  0
VERTEX
  5
A1
100
AcDbEntity
  8
0
370
              18
  6
Continuous
 62
               7
100
AcDbVertex
100
AcDb2dVertex
 10
-23.806237215200014
 20
-33.111610624299985
 30
0.0
  0
VERTEX
  5
A2
100
AcDbEntity
  8
0
370
              18
  6
Continuous
 62
               7
100
AcDbVertex
100
AcDb2dVertex
 10
-25.951126635999998
 20
-32.180910148399988
 30
0.0
  0
VERTEX
  5
A3
100
AcDbEntity
  8
0
370
              18
  6
Continuous
 62
               7
100
AcDbVertex
100
AcDb2dVertex
 10
-27.986749924700007
 20
-31.165052392299998
 30
0.0
  0
VERTEX
  5
A4
100
AcDbEntity
  8
0
370
              18
  6
Continuous
 62
               7
100
AcDbVertex
100
AcDb2dVertex
 10
-29.903408296799995
 20
-30.068879954599993
 30
0.0
  0
VERTEX
  5
A5
100
AcDbEntity
  8
0
370
              18
  6
Continuous
 62
               7
100
AcDbVertex
100
AcDb2dVertex
 10
-31.69196486300001
 20
-28.897612969400001
 30
0.0
  0
VERTEX
  5
A6
100
AcDbEntity
  8
0
370
              18
  6
Continuous
 62
               7
100
AcDbVertex
100
AcDb2dVertex
 10
-33.343899897200004
 20
-27.6568358225
 30
0.0
  0
VERTEX
  5
A7
100
AcDbEntity
  8
0
370
              18
  6
Continuous
 62
               7
100
AcDbVertex
100
AcDb2dVertex
 10
-34.851336736000007
 20
-26.352460733899989
 30
0.0
  0
VERTEX
  5
A8
100
AcDbEntity
  8
0
370
              18
  6
Continuous
 62
               7
100
AcDbVertex
100
AcDb2dVertex
 10
-36.207095673299989
 20
-24.990702284399987
 30
0.0
  0
VERTEX
  5
A9
100
AcDbEntity
  8
0
370
              18
  6
Continuous
 62
               7
100
AcDbVertex
100
AcDb2dVertex
 10
-37.404712907299995
 20
-23.578053421899995
 30
0.0
  0
VERTEX
  5
AA
100
AcDbEntity
  8
0
370
              18
  6
Continuous
 62
               7
100
AcDbVertex
100
AcDb2dVertex
 10
-38.438483693699993
 20
-22.121243319099989
 30
0.0
  0
VERTEX
  5
AB
100
AcDbEntity
  8
0
370
              18
  6
Continuous
 62
               7
100
AcDbVertex
100
AcDb2dVertex
 10
-39.3034830462
 20
-20.627215327299979
 30
0.0
  0
VERTEX
  5
AC
100
AcDbEntity
  8
0
370
              18
  6
Continuous
 62
               7
100
AcDbVertex
100
AcDb2dVertex
 10
-39.995584022000003
 20
-19.103088028499997
 30
0.0
  0
VERTEX
  5
AD
100
AcDbEntity
  8
0
370
              18
  6
Continuous
 62
               7
100
AcDbVertex
100
AcDb2dVertex
 10
-40.511491346700012
 20
-17.556123841899989
 30
0.0
  0
VERTEX
  5
AE
100
AcDbEntity
  8
0
370
              18
  6
Continuous
 62
               7
100
AcDbVertex
100
AcDb2dVertex
 10
-40.848746775199999
 20
-15.993699422899995
 30
0.0
  0
VERTEX
  5
AF
100
AcDbEntity
  8
0
370
              18
  6
Continuous
 62
               7
100
AcDbVertex
100
AcDb2dVertex
 10
-41.005742662899991
 20
-14.423254368999979
 30
0.0
  0
VERTEX
  5
B0
100
AcDbEntity
  8
0
370
              18
  6
Continuous
 62
               7
100
AcDbVertex
100
AcDb2dVertex
 10
-40.981730507099996
 20
-12.852277003199989
 30
0.0
  0
VERTEX
  5
B1
100
AcDbEntity
  8
0
370
              18
  6
Continuous
 62
               7
100
AcDbVertex
100
AcDb2dVertex
 10
-40.776824439600006
 20
-11.288251365799995
 30
0.0
  0
VERTEX
  5
B2
100
AcDbEntity
  8
0
370
              18
  6
Continuous
 62
               7
100
AcDbVertex
100
AcDb2dVertex
 10
-40.392000123900004
 20
-9.7386322879999927
 30
0.0
  0
VERTEX
  5
B3
100
AcDbEntity
  8
0
370
              18
  6
Continuous
 62
               7
100
AcDbVertex
100
AcDb2dVertex
 10
-39.829095402200011
 20
-8.210803445399991
 30
0.0
  0
VERTEX
  5
B4
100
AcDbEntity
  8
0
370
              18
  6
Continuous
 62
               7
100
AcDbVertex
100
AcDb2dVertex
 10
-39.090789690200012
 20
-6.7120449928999921
 30
0.0
  0
VERTEX
  5
B5
100
AcDbEntity
  8
0
370
              18
  6
Continuous
 62
               7
100
AcDbVertex
100
AcDb2dVertex
 10
-38.180600463500014
 20
-5.2495012188999812
 30
0.0
  0
VERTEX
  5
B6
100
AcDbEntity
  8
0
370
              18
  6
Continuous
 62
               7
100
AcDbVertex
100
AcDb2dVertex
 10
-37.102868127800008
 20
-3.8301400403999839
 30
0.0
  0
VERTEX
  5
B7
100
AcDbEntity
  8
0
370
              18
  6
Continuous
 62
               7
100
AcDbVertex
100
AcDb2dVertex
 10
-35.862724022700007
 20
-2.4607269480999907
 30
0.0
  0
VERTEX
  5
B8
100
AcDbEntity
  8
0
370
              18
  6
Continuous
 62
               7
100
AcDbVertex
100
AcDb2dVertex
 10
-34.466084714099992
 20
-1.1477854846999964
 30
0.0
  0
VERTEX
  5
B9
100
AcDbEntity
  8
0
370
              18
  6
Continuous
 62
               7
100
AcDbVertex
100
AcDb2dVertex
 10
-32.919597868700009
 20
0.1024249435999973
 30
0.0
  0
VERTEX
  5
BA
100
AcDbEntity
  8
0
370
              18
  6
Continuous
 62
               7
100
AcDbVertex
100
AcDb2dVertex
 10
-31.230640599899999
 20
1.2839488275000104
 30
0.0
  0
VERTEX
  5
BB
100
AcDbEntity
  8
0
370
              18
  6
Continuous
 62
               7
100
AcDbVertex
100
AcDb2dVertex
 10
-29.407255353300002
 20
2.3911536154000128
 30
0.0
  0
VERTEX
  5
BC
100
AcDbEntity
  8
0
370
              18
  6
Continuous
 62
               7
100
AcDbVertex
100
AcDb2dVertex
 10
-27.458135757399987
 20
3.4187643888000121
 30
0.0
  0
VERTEX
  5
BD
100
AcDbEntity
  8
0
370
              18
  6
Continuous
 62
               7
100
AcDbVertex
100
AcDb2dVertex
 10
-25.3925698834
 20
4.3618842140999998
 30
0.0
  0
VERTEX
  5
BE
100
AcDbEntity
  8
0
370
              18
  6
Continuous
 62
               7
100
AcDbVertex
100
AcDb2dVertex
 10
-23.220401332699993
 20
5.2160183966000186
 30
0.0
  0
VERTEX
  5
BF
100
AcDbEntity
  8
0
370
              18
  6
Continuous
 62
               7
100
AcDbVertex
100
AcDb2dVertex
 10
-20.9519762141
 20
5.9770954435000174
 30
0.0
  0
SEQEND
  5
C0
100
AcDbEntity
  8
0
370
              18
  6
Continuous
 62
               7
  0
POLYLINE
  5
C1
100
AcDbEntity
  8
0
370
              18
  6
Continuous
 62
               7
100
AcDb2dPolyline
 66
               1
 10
0.0
 20
0.0
 30
0.0
 75
               5
  0
VERTEX
  5
C2
100
AcDbEntity
  8
0
370
              18
  6
Continuous
 62
               7
100
AcDbVertex
100
AcDb2dVertex
 10
-29.223395213999993
 20
-30.483512327199989
 30
0.0
  0
VERTEX
  5
C3
100
AcDbEntity
  8
0
370
              18
  6
Continuous
 62
               7
100
AcDbVertex
100
AcDb2dVertex
 10
-29.240460189499998
 20
-30.474014491299997
 30
0.0
  0
VERTEX
  5
C4
100
AcDbEntity
  8
0
370
              18
  6
Continuous
 62
               7
100
AcDbVertex
100
AcDb2dVertex
 10
-31.148254807600011
 20
-29.337857733699991
 30
0.0
  0
VERTEX
  5
C5
100
AcDbEntity
  8
0
370
              18
  6
Continuous
 62
               7
100
AcDbVertex
100
AcDb2dVertex
 10
-32.924842296599991
 20
-28.127907651499982
 30
0.0
  0
VERTEX
  5
C6
100
AcDbEntity
  8
0
370
              18
  6
Continuous
 62
               7
100
AcDbVertex
100
AcDb2dVertex
 10
-34.561940459400006
 20
-26.849803848099981
 30
0.0
  0
VERTEX
  5
C7
100
AcDbEntity
  8
0
370
              18
  6
Continuous
 62
               7
100
AcDbVertex
100
AcDb2dVertex
 10
-36.051914871200012
 20
-25.509507139899995
 30
0.0
  0
VERTEX
  5
C8
100
AcDbEntity
  8
0
370
              18
  6
Continuous
 62
               7
100
AcDbVertex
100
AcDb2dVertex
 10
-37.387820830500004
 20
-24.113267929399996
 30
0.0
  0
VERTEX
  5
C9
100
AcDbEntity
  8
0
370
              18
  6
Continuous
 62
               7
100
AcDbVertex
100
AcDb2dVertex
 10
-38.563426794799994
 20
-22.667590605299978
 30
0.0
  0
VERTEX
  5
CA
100
AcDbEntity
  8
0
370
              18
  6
Continuous
 62
               7
100
AcDbVertex
100
AcDb2dVertex
 10
-39.573252173399993
 20
-21.179220999999984
 30
0.0
  0
VERTEX
  5
CB
100
AcDbEntity
  8
0
370
              18
  6
Continuous
 62
               7
100
AcDbVertex
100
AcDb2dVertex
 10
-40.412590102299987
 20
-19.655095834500003
 30
0.0
  0
VERTEX
  5
CC
100
AcDbEntity
  8
0
370
              18
  6
Continuous
 62
               7
100
AcDbVertex
100
AcDb2dVertex
 10
-41.077528253699995
 20
-18.102323165499996
 30
0.0
  0
VERTEX
  5
CD
100
AcDbEntity
  8
0
370
              18
  6
Continuous
 62
               7
100
AcDbVertex
100
AcDb2dVertex
 10
-41.564961972300011
 20
-16.528140087999986
 30
0.0
  0
VERTEX
  5
CE
100
AcDbEntity
  8
0
370
              18
  6
Continuous
 62
               7
100
AcDbVertex
100
AcDb2dVertex
 10
-41.872619904700002
 20
-14.939889053099991
 30
0.0
  0
VERTEX
  5
CF
100
AcDbEntity
  8
0
370
              18
  6
Continuous
 62
               7
100
AcDbVertex
100
AcDb2dVertex
 10
-41.999071218500006
 20
-13.344973740999992
 30
0.0
  0
VERTEX
  5
D0
100
AcDbEntity
  8
0
370
              18
  6
Continuous
 62
               7
100
AcDbVertex
100
AcDb2dVertex
 10
-41.943724279799994
 20
-11.750829148199985
 30
0.0
  0
VERTEX
  5
D1
100
AcDbEntity
  8
0
370
              18
  6
Continuous
 62
               7
100
AcDbVertex
100
AcDb2dVertex
 10
-41.706836943599995
 20
-10.164890351699997
 30
0.0
  0
VERTEX
  5
D2
100
AcDbEntity
  8
0
370
              18
  6
Continuous
 62
               7
100
AcDbVertex
100
AcDb2dVertex
 10
-41.289513036699987
 20
-8.5945506786000028
 30
0.0
  0
VERTEX
  5
D3
100
AcDbEntity
  8
0
370
              18
  6
Continuous
 62
               7
100
AcDbVertex
100
AcDb2dVertex
 10
-40.693700158799999
 20
-7.0471308212000014
 30
0.0
  0
VERTEX
  5
D4
100
AcDbEntity
  8
0
370
              18
  6
Continuous
 62
               7
100
AcDbVertex
100
AcDb2dVertex
 10
-39.922174117499992
 20
-5.5298473284999847
 30
0.0
  0
VERTEX
  5
D5
100
AcDbEntity
  8
0
370
              18
  6
Continuous
 62
               7
100
AcDbVertex
100
AcDb2dVertex
 10
-38.978533440399985
 20
-4.0497733279999881
 30
0.0
  0
VERTEX
  5
D6
100
AcDbEntity
  8
0
370
              18
  6
Continuous
 62
               7
100
AcDbVertex
100
AcDb2dVertex
 10
-37.867174827399992
 20
-2.6138112628999881
 30
0.0
  0
VERTEX
  5
D7
100
AcDbEntity
  8
0
370
              18
  6
Continuous
 62
               7
100
AcDbVertex
100
AcDb2dVertex
 10
-36.5932835001
 20
-1.2286537309999819
 30
0.0
  0
VERTEX
  5
D8
100
AcDbEntity
  8
0
370
              18
  6
Continuous
 62
               7
100
AcDbVertex
100
AcDb2dVertex
 10
-35.162799452600012
 20
0.0992397758000134
 30
0.0
  0
VERTEX
  5
D9
100
AcDbEntity
  8
0
370
              18
  6
Continuous
 62
               7
100
AcDbVertex
100
AcDb2dVertex
 10
-33.582390272800012
 20
1.3636777963000082
 30
0.0
  0
VERTEX
  5
DA
100
AcDbEntity
  8
0
370
              18
  6
Continuous
 62
               7
100
AcDbVertex
100
AcDb2dVertex
 10
-31.859425389499989
 20
2.5587655015000035
 30
0.0
  0
VERTEX
  5
DB
100
AcDbEntity
  8
0
370
              18
  6
Continuous
 62
               7
100
AcDbVertex
100
AcDb2dVertex
 10
-30.001939419699994
 20
3.6789311799000171
 30
0.0
  0
VERTEX
  5
DC
100
AcDbEntity
  8
0
370
              18
  6
Continuous
 62
               7
100
AcDbVertex
100
AcDb2dVertex
 10
-28.018588833100011
 20
4.7189506631000011
 30
0.0
  0
VERTEX
  5
DD
100
AcDbEntity
  8
0
370
              18
  6
Continuous
 62
               7
100
AcDbVertex
100
AcDb2dVertex
 10
-25.918622364599997
 20
5.6739754444999999
 30
0.0
  0
VERTEX
  5
DE
100
AcDbEntity
  8
0
370
              18
  6
Continuous
 62
               7
100
AcDbVertex
100
AcDb2dVertex
 10
-23.711832805600011
 20
6.5395530378000029
 30
0.0
  0
VERTEX
  5
DF
100
AcDbEntity
  8
0
370
              18
  6
Continuous
 62
               7
100
AcDbVertex
100
AcDb2dVertex
 10
-21.40850808159999
 20
7.3116481252999943
 30
0.0
  0
VERTEX
  5
E0
100
AcDbEntity
  8
0
370
              18
  6
Continuous
 62
               7
100
AcDbVertex
100
AcDb2dVertex
 10
-19.019389233400005
 20
7.9866607817999959
 30
0.0
  0
VERTEX
  5
E1
100
AcDbEntity
  8
0
370
              18
  6
Continuous
 62
               7
100
AcDbVertex
100
AcDb2dVertex
 10
-16.555612896700012
 20
8.561442951400009
 30
0.0
  0
VERTEX
  5
E2
100
AcDbEntity
  8
0
370
              18
  6
Continuous
 62
               7
100
AcDbVertex
100
AcDb2dVertex
 10
-14.028666379700013
 20
9.0333151542999968
 30
0.0
  0
VERTEX
  5
E3
100
AcDbEntity
  8
0
370
              18
  6
Continuous
 62
               7
100
AcDbVertex
100
AcDb2dVertex
 10
-11.450331788200003
 20
9.4000763966999994
 30
0.0
  0
VERTEX
  5
E4
100
AcDbEntity
  8
0
370
              18
  6
Continuous
 62
               7
100
AcDbVertex
100
AcDb2dVertex
 10
-8.8326324489000001
 20
9.6600186376000163
 30
0.0
  0
VERTEX
  5
E5
100
AcDbEntity
  8
0
370
              18
  6
Continuous
 62
               7
100
AcDbVertex
100
AcDb2dVertex
 10
-6.1877723249999974
 20
9.8119300771000137
 30
0.0
  0
VERTEX
  5
E6
100
AcDbEntity
  8
0
370
              18
  6
Continuous
 62
               7
100
AcDbVertex
100
AcDb2dVertex
 10
-3.5280807995000028
 20
9.8550995939999932
 30
0.0
  0
VERTEX
  5
E7
100
AcDbEntity
  8
0
370
              18
  6
Continuous
 62
               7
100
AcDbVertex
100
AcDb2dVertex
 10
-0.8659621671000077
 20
9.789327805200001
 30
0.0
  0
VERTEX
  5
E8
100
AcDbEntity
  8
0
370
              18
  6
Continuous
 62
               7
100
AcDbVertex
100
AcDb2dVertex
 10
1.7861757935999951
 20
9.6149210642000167
 30
0.0
  0
VERTEX
  5
E9
100
AcDbEntity
  8
0
370
              18
  6
Continuous
 62
               7
100
AcDbVertex
100
AcDb2dVertex
 10
4.4159635611999875
 20
9.3326927836999953
 30
0.0
  0
VERTEX
  5
EA
100
AcDbEntity
  8
0
370
              18
  6
Continuous
 62
               7
100
AcDbVertex
100
AcDb2dVertex
 10
7.0111405328999865
 20
8.943958953600001
 30
0.0
  0
VERTEX
  5
EB
100
AcDbEntity
  8
0
370
              18
  6
Continuous
 62
               7
100
AcDbVertex
100
AcDb2dVertex
 10
9.5596097456999871
 20
8.4505313616000119
 30
0.0
  0
VERTEX
  5
EC
100
AcDbEntity
  8
0
370
              18
  6
Continuous
 62
               7
100
AcDbVertex
100
AcDb2dVertex
 10
12.049486790999993
 20
7.8547114767000021
 30
0.0
  0
VERTEX
  5
ED
100
AcDbEntity
  8
0
370
              18
  6
Continuous
 62
               7
100
AcDbVertex
100
AcDb2dVertex
 10
14.469161709199994
 20
7.1592762298000121
 30
0.0
  0
VERTEX
  5
EE
100
AcDbEntity
  8
0
370
              18
  6
Continuous
 62
               7
100
AcDbVertex
100
AcDb2dVertex
 10
16.807355709700005
 20
6.367469307199995
 30
0.0
  0
VERTEX
  5
EF
100
AcDbEntity
  8
0
370
              18
  6
Continuous
 62
               7
100
AcDbVertex
100
AcDb2dVertex
 10
19.053165316399998
 20
5.4829814408000157
 30
0.0
  0
VERTEX
  5
F0
100
AcDbEntity
  8
0
370
              18
  6
Continuous
 62
               7
100
AcDbVertex
100
AcDb2dVertex
 10
21.196119021100003
 20
4.5099366644000138
 30
0.0
  0
VERTEX
  5
F1
100
AcDbEntity
  8
0
370
              18
  6
Continuous
 62
               7
100
AcDbVertex
100
AcDb2dVertex
 10
23.226225588099993
 20
3.4528712238000008
 30
0.0
  0
VERTEX
  5
F2
100
AcDbEntity
  8
0
370
              18
  6
Continuous
 62
               7
100
AcDbVertex
100
AcDb2dVertex
 10
25.134021082900006
 20
2.3167154399000065
 30
0.0
  0
VERTEX
  5
F3
100
AcDbEntity
  8
0
370
              18
  6
Continuous
 62
               7
100
AcDbVertex
100
AcDb2dVertex
 10
26.91060939350001
 20
1.1067650850000046
 30
0.0
  0
VERTEX
  5
F4
100
AcDbEntity
  8
0
370
              18
  6
Continuous
 62
               7
100
AcDbVertex
100
AcDb2dVertex
 10
28.5477076114
 20
-0.1713374720999941
 30
0.0
  0
VERTEX
  5
F5
100
AcDbEntity
  8
0
370
              18
  6
Continuous
 62
               7
100
AcDbVertex
100
AcDb2dVertex
 10
30.03768202309999
 20
-1.5116341802999802
 30
0.0
  0
VERTEX
  5
F6
100
AcDbEntity
  8
0
370
              18
  6
Continuous
 62
               7
100
AcDbVertex
100
AcDb2dVertex
 10
31.373587050699996
 20
-2.9078756108000068
 30
0.0
  0
VERTEX
  5
F7
100
AcDbEntity
  8
0
370
              18
  6
Continuous
 62
               7
100
AcDbVertex
100
AcDb2dVertex
 10
32.549193946700001
 20
-4.3535507148999972
 30
0.0
  0
VERTEX
  5
F8
100
AcDbEntity
  8
0
370
              18
  6
Continuous
 62
               7
100
AcDbVertex
100
AcDb2dVertex
 10
33.559018448699987
 20
-5.841921293899988
 30
0.0
  0
VERTEX
  5
F9
100
AcDbEntity
  8
0
370
              18
  6
Continuous
 62
               7
100
AcDbVertex
100
AcDb2dVertex
 10
34.398357254300009
 20
-7.3660454857000008
 30
0.0
  0
VERTEX
  5
FA
100
AcDbEntity
  8
0
370
              18
  6
Continuous
 62
               7
100
AcDbVertex
100
AcDb2dVertex
 10
35.06329409060001
 20
-8.918819615099979
 30
0.0
  0
VERTEX
  5
FB
100
AcDbEntity
  8
0
370
              18
  6
Continuous
 62
               7
100
AcDbVertex
100
AcDb2dVertex
 10
35.550728686000014
 20
-10.493001719099995
 30
0.0
  0
VERTEX
  5
FC
100
AcDbEntity
  8
0
370
              18
  6
Continuous
 62
               7
100
AcDbVertex
100
AcDb2dVertex
 10
35.858388261500011
 20
-12.081253299299989
 30
0.0
  0
VERTEX
  5
FD
100
AcDbEntity
  8
0
370
              18
  6
Continuous
 62
               7
100
AcDbVertex
100
AcDb2dVertex
 10
35.984839136999994
 20
-13.67616909819998
 30
0.0
  0
VERTEX
  5
FE
100
AcDbEntity
  8
0
370
              18
  6
Continuous
 62
               7
100
AcDbVertex
100
AcDb2dVertex
 10
35.929492636600003
 20
-15.270313204099979
 30
0.0
  0
VERTEX
  5
FF
100
AcDbEntity
  8
0
370
              18
  6
Continuous
 62
               7
100
AcDbVertex
100
AcDb2dVertex
 10
35.692605081300002
 20
-16.856252244099977
 30
0.0
  0
VERTEX
  5
100
100
AcDbEntity
  8
0
370
              18
  6
Continuous
 62
               7
100
AcDbVertex
100
AcDb2dVertex
 10
35.275281078500001
 20
-18.426592023699982
 30
0.0
  0
VERTEX
  5
101
100
AcDbEntity
  8
0
370
              18
  6
Continuous
 62
               7
100
AcDbVertex
100
AcDb2dVertex
 10
34.679466872400013
 20
-19.974010985799993
 30
0.0
  0
VERTEX
  5
102
100
AcDbEntity
  8
0
370
              18
  6
Continuous
 62
               7
100
AcDbVertex
100
AcDb2dVertex
 10
33.907940612000004
 20
-21.491294721900005
 30
0.0
  0
VERTEX
  5
103
100
AcDbEntity
  8
0
370
              18
  6
Continuous
 62
               7
100
AcDbVertex
100
AcDb2dVertex
 10
32.964298510800006
 20
-22.97136793369998
 30
0.0
  0
VERTEX
  5
104
100
AcDbEntity
  8
0
370
              18
  6
Continuous
 62
               7
100
AcDbVertex
100
AcDb2dVertex
 10
31.852942745900009
 20
-24.407331576299981
 30
0.0
  0
VERTEX
  5
105
100
AcDbEntity
  8
0
370
              18
  6
Continuous
 62
               7
100
AcDbVertex
100
AcDb2dVertex
 10
30.579051856999996
 20
-25.792488621399997
 30
0.0
  0
VERTEX
  5
106
100
AcDbEntity
  8
0
370
              18
  6
Continuous
 62
               7
100
AcDbVertex
100
AcDb2dVertex
 10
29.14856759029999
 20
-27.120382371599987
 30
0.0
  0
VERTEX
  5
107
100
AcDbEntity
  8
0
370
              18
  6
Continuous
 62
               7
100
AcDbVertex
100
AcDb2dVertex
 10
27.568158629599992
 20
-28.384820148599999
 30
0.0
  0
VERTEX
  5
108
100
AcDbEntity
  8
0
370
              18
  6
Continuous
 62
               7
100
AcDbVertex
100
AcDb2dVertex
 10
25.845193636700003
 20
-29.57990797559998
 30
0.0
  0
VERTEX
  5
109
100
AcDbEntity
  8
0
370
              18
  6
Continuous
 62
               7
100
AcDbVertex
100
AcDb2dVertex
 10
23.987706078600013
 20
-30.700073047799989
 30
0.0
  0
VERTEX
  5
10A
100
AcDbEntity
  8
0
370
              18
  6
Continuous
 62
               7
100
AcDbVertex
100
AcDb2dVertex
 10
22.5416595481
 20
-31.472588455099995
 30
0.0
  0
SEQEND
  5
10B
100
AcDbEntity
  8
0
370
              18
  6
Continuous
 62
               7
  0
POLYLINE
  5
10C
100
AcDbEntity
  8
0
370
              18
  6
Continuous
 62
               7
100
AcDb2dPolyline
 66
               1
 10
0.0
 20
0.0
 30
0.0
 75
               5
  0
VERTEX
  5
10D
100
AcDbEntity
  8
0
370
              18
  6
Continuous
 62
               7
100
AcDbVertex
100
AcDb2dVertex
 10
36.2458323054
 20
-0.6445893037000037
 30
0.0
  0
VERTEX
  5
10E
100
AcDbEntity
  8
0
370
              18
  6
Continuous
 62
               7
100
AcDbVertex
100
AcDb2dVertex
 10
36.244905167000013
 20
-0.0651495319000066
 30
0.0
  0
VERTEX
  5
10F
100
AcDbEntity
  8
0
370
              18
  6
Continuous
 62
               7
100
AcDbVertex
100
AcDb2dVertex
 10
36.118454291599988
 20
1.5297662670999994
 30
0.0
  0
VERTEX
  5
110
100
AcDbEntity
  8
0
370
              18
  6
Continuous
 62
               7
100
AcDbVertex
100
AcDb2dVertex
 10
35.810794716000004
 20
3.1180178472000062
 30
0.0
  0
VERTEX
  5
111
100
AcDbEntity
  8
0
370
              18
  6
Continuous
 62
               7
100
AcDbVertex
100
AcDb2dVertex
 10
35.323360120699988
 20
4.6921999511999939
 30
0.0
  0
VERTEX
  5
112
100
AcDbEntity
  8
0
370
              18
  6
Continuous
 62
               7
100
AcDbVertex
100
AcDb2dVertex
 10
34.6584232843
 20
6.2449740806000005
 30
0.0
  0
VERTEX
  5
113
100
AcDbEntity
  8
0
370
              18
  6
Continuous
 62
               7
100
AcDbVertex
100
AcDb2dVertex
 10
33.819084478799994
 20
7.7690982724000133
 30
0.0
  0
VERTEX
  5
114
100
AcDbEntity
  8
0
370
              18
  6
Continuous
 62
               7
100
AcDbVertex
100
AcDb2dVertex
 10
32.809259976800007
 20
9.2574688514000041
 30
0.0
  0
VERTEX
  5
115
100
AcDbEntity
  8
0
370
              18
  6
Continuous
 62
               7
100
AcDbVertex
100
AcDb2dVertex
 10
31.633653080700014
 20
10.703143955499995
 30
0.0
  0
VERTEX
  5
116
100
AcDbEntity
  8
0
370
              18
  6
Continuous
 62
               7
100
AcDbVertex
100
AcDb2dVertex
 10
30.297748053199996
 20
12.099385386100009
 30
0.0
  0
VERTEX
  5
117
100
AcDbEntity
  8
0
370
              18
  6
Continuous
 62
               7
100
AcDbVertex
100
AcDb2dVertex
 10
28.80777364139999
 20
13.439682094200007
 30
0.0
  0
VERTEX
  5
118
100
AcDbEntity
  8
0
370
              18
  6
Continuous
 62
               7
100
AcDbVertex
100
AcDb2dVertex
 10
27.170675423500001
 20
14.717784651300006
 30
0.0
  0
VERTEX
  5
119
100
AcDbEntity
  8
0
370
              18
  6
Continuous
 62
               7
100
AcDbVertex
100
AcDb2dVertex
 10
25.394087113000012
 20
15.927735006200008
 30
0.0
  0
VERTEX
  5
11A
100
AcDbEntity
  8
0
370
              18
  6
Continuous
 62
               7
100
AcDbVertex
100
AcDb2dVertex
 10
23.486291618100012
 20
17.063890790100004
 30
0.0
  0
VERTEX
  5
11B
100
AcDbEntity
  8
0
370
              18
  6
Continuous
 62
               7
100
AcDbVertex
100
AcDb2dVertex
 10
21.456185051099993
 20
18.120956230700017
 30
0.0
  0
VERTEX
  5
11C
100
AcDbEntity
  8
0
370
              18
  6
Continuous
 62
               7
100
AcDbVertex
100
AcDb2dVertex
 10
19.313231346500004
 20
19.094001007100019
 30
0.0
  0
VERTEX
  5
11D
100
AcDbEntity
  8
0
370
              18
  6
Continuous
 62
               7
100
AcDbVertex
100
AcDb2dVertex
 10
17.067421739699995
 20
19.978488873499998
 30
0.0
  0
VERTEX
  5
11E
100
AcDbEntity
  8
0
370
              18
  6
Continuous
 62
               7
100
AcDbVertex
100
AcDb2dVertex
 10
14.729227739200013
 20
20.770295796100015
 30
0.0
  0
VERTEX
  5
11F
100
AcDbEntity
  8
0
370
              18
  6
Continuous
 62
               7
100
AcDbVertex
100
AcDb2dVertex
 10
12.309552821000011
 20
21.465731043000005
 30
0.0
  0
VERTEX
  5
120
100
AcDbEntity
  8
0
370
              18
  6
Continuous
 62
               7
100
AcDbVertex
100
AcDb2dVertex
 10
9.8196757757999933
 20
22.061550928000003
 30
0.0
  0
VERTEX
  5
121
100
AcDbEntity
  8
0
370
              18
  6
Continuous
 62
               7
100
AcDbVertex
100
AcDb2dVertex
 10
7.2712065629000051
 20
22.554978519900004
 30
0.0
  0
VERTEX
  5
122
100
AcDbEntity
  8
0
370
              18
  6
Continuous
 62
               7
100
AcDbVertex
100
AcDb2dVertex
 10
4.6760295912000061
 20
22.943712349999998
 30
0.0
  0
VERTEX
  5
123
100
AcDbEntity
  8
0
370
              18
  6
Continuous
 62
               7
100
AcDbVertex
100
AcDb2dVertex
 10
2.0462418236000137
 20
23.22594063050002
 30
0.0
  0
VERTEX
  5
124
100
AcDbEntity
  8
0
370
              18
  6
Continuous
 62
               7
100
AcDbVertex
100
AcDb2dVertex
 10
-0.6058961370999891
 20
23.40034737160002
 30
0.0
  0
VERTEX
  5
125
100
AcDbEntity
  8
0
370
              18
  6
Continuous
 62
               7
100
AcDbVertex
100
AcDb2dVertex
 10
-3.2680147695000126
 20
23.466119160400012
 30
0.0
  0
VERTEX
  5
126
100
AcDbEntity
  8
0
370
              18
  6
Continuous
 62
               7
100
AcDbVertex
100
AcDb2dVertex
 10
-5.9277062950000072
 20
23.422949643400017
 30
0.0
  0
VERTEX
  5
127
100
AcDbEntity
  8
0
370
              18
  6
Continuous
 62
               7
100
AcDbVertex
100
AcDb2dVertex
 10
-8.5725664187999939
 20
23.271038203900019
 30
0.0
  0
VERTEX
  5
128
100
AcDbEntity
  8
0
370
              18
  6
Continuous
 62
               7
100
AcDbVertex
100
AcDb2dVertex
 10
-11.190265758200013
 20
23.011095963000002
 30
0.0
  0
VERTEX
  5
129
100
AcDbEntity
  8
0
370
              18
  6
Continuous
 62
               7
100
AcDbVertex
100
AcDb2dVertex
 10
-13.768600349699994
 20
22.6443347206
 30
0.0
  0
VERTEX
  5
12A
100
AcDbEntity
  8
0
370
              18
  6
Continuous
 62
               7
100
AcDbVertex
100
AcDb2dVertex
 10
-16.295546866600006
 20
22.172462517700012
 30
0.0
  0
VERTEX
  5
12B
100
AcDbEntity
  8
0
370
              18
  6
Continuous
 62
               7
100
AcDbVertex
100
AcDb2dVertex
 10
-18.759323203399987
 20
21.597680348099999
 30
0.0
  0
VERTEX
  5
12C
100
AcDbEntity
  8
0
370
              18
  6
Continuous
 62
               7
100
AcDbVertex
100
AcDb2dVertex
 10
-21.148442051500012
 20
20.922667691700013
 30
0.0
  0
VERTEX
  5
12D
100
AcDbEntity
  8
0
370
              18
  6
Continuous
 62
               7
100
AcDbVertex
100
AcDb2dVertex
 10
-23.451766775500005
 20
20.150572604100006
 30
0.0
  0
VERTEX
  5
12E
100
AcDbEntity
  8
0
370
              18
  6
Continuous
 62
               7
100
AcDbVertex
100
AcDb2dVertex
 10
-25.658556334600007
 20
19.284995010800003
 30
0.0
  0
VERTEX
  5
12F
100
AcDbEntity
  8
0
370
              18
  6
Continuous
 62
               7
100
AcDbVertex
100
AcDb2dVertex
 10
-27.758522803000005
 20
18.329970229400004
 30
0.0
  0
VERTEX
  5
130
100
AcDbEntity
  8
0
370
              18
  6
Continuous
 62
               7
100
AcDbVertex
100
AcDb2dVertex
 10
-29.741873389700004
 20
17.289950746300008
 30
0.0
  0
VERTEX
  5
131
100
AcDbEntity
  8
0
370
              18
  6
Continuous
 62
               7
100
AcDbVertex
100
AcDb2dVertex
 10
-31.599359359499999
 20
16.169785067800007
 30
0.0
  0
VERTEX
  5
132
100
AcDbEntity
  8
0
370
              18
  6
Continuous
 62
               7
100
AcDbVertex
100
AcDb2dVertex
 10
-33.322324242700006
 20
14.974697362600009
 30
0.0
  0
VERTEX
  5
133
100
AcDbEntity
  8
0
370
              18
  6
Continuous
 62
               7
100
AcDbVertex
100
AcDb2dVertex
 10
-34.902733422599994
 20
13.710259342100015
 30
0.0
  0
VERTEX
  5
134
100
AcDbEntity
  8
0
370
              18
  6
Continuous
 62
               7
100
AcDbVertex
100
AcDb2dVertex
 10
-36.33321747010001
 20
12.382365835400007
 30
0.0
  0
VERTEX
  5
135
100
AcDbEntity
  8
0
370
              18
  6
Continuous
 62
               7
100
AcDbVertex
100
AcDb2dVertex
 10
-37.607108797400002
 20
10.997208303400013
 30
0.0
  0
VERTEX
  5
136
100
AcDbEntity
  8
0
370
              18
  6
Continuous
 62
               7
100
AcDbVertex
100
AcDb2dVertex
 10
-38.718467410399995
 20
9.5612462384000008
 30
0.0
  0
VERTEX
  5
137
100
AcDbEntity
  8
0
370
              18
  6
Continuous
 62
               7
100
AcDbVertex
100
AcDb2dVertex
 10
-39.662108087500002
 20
8.0811722378000166
 30
0.0
  0
VERTEX
  5
138
100
AcDbEntity
  8
0
370
              18
  6
Continuous
 62
               7
100
AcDbVertex
100
AcDb2dVertex
 10
-40.433634128800009
 20
6.5638887450999999
 30
0.0
  0
VERTEX
  5
139
100
AcDbEntity
  8
0
370
              18
  6
Continuous
 62
               7
100
AcDbVertex
100
AcDb2dVertex
 10
-41.029447006699996
 20
5.0164688876999985
 30
0.0
  0
VERTEX
  5
13A
100
AcDbEntity
  8
0
370
              18
  6
Continuous
 62
               7
100
AcDbVertex
100
AcDb2dVertex
 10
-41.446770913600005
 20
3.4461292146000044
 30
0.0
  0
VERTEX
  5
13B
100
AcDbEntity
  8
0
370
              18
  6
Continuous
 62
               7
100
AcDbVertex
100
AcDb2dVertex
 10
-41.683658249800004
 20
1.8601904181000162
 30
0.0
  0
VERTEX
  5
13C
100
AcDbEntity
  8
0
370
              18
  6
Continuous
 62
               7
100
AcDbVertex
100
AcDb2dVertex
 10
-41.73993397000001
 20
0.84548614250002
 30
0.0
  0
SEQEND
  5
13D
100
AcDbEntity
  8
0
370
              18
  6
Continuous
 62
               7
  0
POLYLINE
  5
13E
100
AcDbEntity
  8
0
370
              18
  6
Continuous
 62
               7
100
AcDb2dPolyline
 66
               1
 10
0.0
 20
0.0
 30
0.0
 75
               5
  0
VERTEX
  5
13F
100
AcDbEntity
  8
0
370
              18
  6
Continuous
 62
               7
100
AcDbVertex
100
AcDb2dVertex
 10
13.96348706500001
 20
-33.531731042299995
 30
0.0
  0
VERTEX
  5
140
100
AcDbEntity
  8
0
370
              18
  6
Continuous
 62
               7
100
AcDbVertex
100
AcDb2dVertex
 10
16.184231592600014
 20
-32.784555740799988
 30
0.0
  0
VERTEX
  5
141
100
AcDbEntity
  8
0
370
              18
  6
Continuous
 62
               7
100
AcDbVertex
100
AcDb2dVertex
 10
18.307102255100006
 20
-31.94324435179999
 30
0.0
  0
VERTEX
  5
142
100
AcDbEntity
  8
0
370
              18
  6
Continuous
 62
               7
100
AcDbVertex
100
AcDb2dVertex
 10
20.321283883099994
 20
-31.01208354389999
 30
0.0
  0
VERTEX
  5
143
100
AcDbEntity
  8
0
370
              18
  6
Continuous
 62
               7
100
AcDbVertex
100
AcDb2dVertex
 10
22.216512030199993
 20
-29.995819709699987
 30
0.0
  0
VERTEX
  5
144
100
AcDbEntity
  8
0
370
              18
  6
Continuous
 62
               7
100
AcDbVertex
100
AcDb2dVertex
 10
23.983128413900005
 20
-28.899630575499998
 30
0.0
  0
VERTEX
  5
145
100
AcDbEntity
  8
0
370
              18
  6
Continuous
 62
               7
100
AcDbVertex
100
AcDb2dVertex
 10
25.612129455499996
 20
-27.72910210729998
 30
0.0
  0
VERTEX
  5
146
100
AcDbEntity
  8
0
370
              18
  6
Continuous
 62
               7
100
AcDbVertex
100
AcDb2dVertex
 10
27.09521591539999
 20
-26.49019945789999
 30
0.0
  0
VERTEX
  5
147
100
AcDbEntity
  8
0
370
              18
  6
Continuous
 62
               7
100
AcDbVertex
100
AcDb2dVertex
 10
28.424830150300011
 20
-25.189235070400002
 30
0.0
  0
VERTEX
  5
148
100
AcDbEntity
  8
0
370
              18
  6
Continuous
 62
               7
100
AcDbVertex
100
AcDb2dVertex
 10
29.594195779800003
 20
-23.832838845799984
 30
0.0
  0
VERTEX
  5
149
100
AcDbEntity
  8
0
370
              18
  6
Continuous
 62
               7
100
AcDbVertex
100
AcDb2dVertex
 10
30.5973554917
 20
-22.427923267099999
 30
0.0
  0
VERTEX
  5
14A
100
AcDbEntity
  8
0
370
              18
  6
Continuous
 62
               7
100
AcDbVertex
100
AcDb2dVertex
 10
31.429195811499994
 20
-20.981646409299998
 30
0.0
  0
VERTEX
  5
14B
100
AcDbEntity
  8
0
370
              18
  6
Continuous
 62
               7
100
AcDbVertex
100
AcDb2dVertex
 10
32.085479210199992
 20
-19.501378650799978
 30
0.0
  0
VERTEX
  5
14C
100
AcDbEntity
  8
0
370
              18
  6
Continuous
 62
               7
100
AcDbVertex
100
AcDb2dVertex
 10
32.562860547899987
 20
-17.994663078399981
 30
0.0
  0
VERTEX
  5
14D
100
AcDbEntity
  8
0
370
              18
  6
Continuous
 62
               7
100
AcDbVertex
100
AcDb2dVertex
 10
32.85890822799999
 20
-16.469177772400002
 30
0.0
  0
VERTEX
  5
14E
100
AcDbEntity
  8
0
370
              18
  6
Continuous
 62
               7
100
AcDbVertex
100
AcDb2dVertex
 10
32.972112424100004
 20
-14.932695856199986
 30
0.0
  0
VERTEX
  5
14F
100
AcDbEntity
  8
0
370
              18
  6
Continuous
 62
               7
100
AcDbVertex
100
AcDb2dVertex
 10
32.901896373699998
 20
-13.393046880100004
 30
0.0
  0
VERTEX
  5
150
100
AcDbEntity
  8
0
370
              18
  6
Continuous
 62
               7
100
AcDbVertex
100
AcDb2dVertex
 10
32.648618471100008
 20
-11.858076573700005
 30
0.0
  0
VERTEX
  5
151
100
AcDbEntity
  8
0
370
              18
  6
Continuous
 62
               7
100
AcDbVertex
100
AcDb2dVertex
 10
32.213567675799993
 20
-10.335606909700006
 30
0.0
  0
VERTEX
  5
152
100
AcDbEntity
  8
0
370
              18
  6
Continuous
 62
               7
100
AcDbVertex
100
AcDb2dVertex
 10
31.598965056699996
 20
-8.8333964650999821
 30
0.0
  0
VERTEX
  5
153
100
AcDbEntity
  8
0
370
              18
  6
Continuous
 62
               7
100
AcDbVertex
100
AcDb2dVertex
 10
30.807938934300012
 20
-7.359099290699989
 30
0.0
  0
VERTEX
  5
154
100
AcDbEntity
  8
0
370
              18
  6
Continuous
 62
               7
100
AcDbVertex
100
AcDb2dVertex
 10
29.844520014099999
 20
-5.9202288361999837
 30
0.0
  0
VERTEX
  5
155
100
AcDbEntity
  8
0
370
              18
  6
Continuous
 62
               7
100
AcDbVertex
100
AcDb2dVertex
 10
28.713619432200005
 20
-4.5241171511999898
 30
0.0
  0
VERTEX
  5
156
100
AcDbEntity
  8
0
370
              18
  6
Continuous
 62
               7
100
AcDbVertex
100
AcDb2dVertex
 10
27.420999951699997
 20
-3.177878136599988
 30
0.0
  0
VERTEX
  5
157
100
AcDbEntity
  8
0
370
              18
  6
Continuous
 62
               7
100
AcDbVertex
100
AcDb2dVertex
 10
25.973247542100012
 20
-1.888371555699992
 30
0.0
  0
VERTEX
  5
158
100
AcDbEntity
  8
0
370
              18
  6
Continuous
 62
               7
100
AcDbVertex
100
AcDb2dVertex
 10
24.377739097500012
 20
-0.6621695574999951
 30
0.0
  0
VERTEX
  5
159
100
AcDbEntity
  8
0
370
              18
  6
Continuous
 62
               7
100
AcDbVertex
100
AcDb2dVertex
 10
22.642605689699991
 20
0.4944795465000009
 30
0.0
  0
VERTEX
  5
15A
100
AcDbEntity
  8
0
370
              18
  6
Continuous
 62
               7
100
AcDbVertex
100
AcDb2dVertex
 10
20.776690001199995
 20
1.5756831145000074
 30
0.0
  0
VERTEX
  5
15B
100
AcDbEntity
  8
0
370
              18
  6
Continuous
 62
               7
100
AcDbVertex
100
AcDb2dVertex
 10
18.7894990108
 20
2.5759299933999937
 30
0.0
  0
VERTEX
  5
15C
100
AcDbEntity
  8
0
370
              18
  6
Continuous
 62
               7
100
AcDbVertex
100
AcDb2dVertex
 10
16.6911599405
 20
3.4901241084999963
 30
0.0
  0
VERTEX
  5
15D
100
AcDbEntity
  8
0
370
              18
  6
Continuous
 62
               7
100
AcDbVertex
100
AcDb2dVertex
 10
14.492364758500003
 20
4.3136066760000045
 30
0.0
  0
VERTEX
  5
15E
100
AcDbEntity
  8
0
370
              18
  6
Continuous
 62
               7
100
AcDbVertex
100
AcDb2dVertex
 10
12.204318804600007
 20
5.0421821053000127
 30
0.0
  0
VERTEX
  5
15F
100
AcDbEntity
  8
0
370
              18
  6
Continuous
 62
               7
100
AcDbVertex
100
AcDb2dVertex
 10
9.8386801901000069
 20
5.672135581700017
 30
0.0
  0
VERTEX
  5
160
100
AcDbEntity
  8
0
370
              18
  6
Continuous
 62
               7
100
AcDbVertex
100
AcDb2dVertex
 10
7.4075050344000033
 20
6.2002600936999936
 30
0.0
  0
VERTEX
  5
161
100
AcDbEntity
  8
0
370
              18
  6
Continuous
 62
               7
100
AcDbVertex
100
AcDb2dVertex
 10
4.9231814322999981
 20
6.6238619079000198
 30
0.0
  0
VERTEX
  5
162
100
AcDbEntity
  8
0
370
              18
  6
Continuous
 62
               7
100
AcDbVertex
100
AcDb2dVertex
 10
2.398368766400012
 20
6.9407832393000017
 30
0.0
  0
VERTEX
  5
163
100
AcDbEntity
  8
0
370
              18
  6
Continuous
 62
               7
100
AcDbVertex
100
AcDb2dVertex
 10
-0.1540678597999938
 20
7.1494088363000099
 30
0.0
  0
VERTEX
  5
164
100
AcDbEntity
  8
0
370
              18
  6
Continuous
 62
               7
100
AcDbVertex
100
AcDb2dVertex
 10
-2.7211205035999906
 20
7.248676732900007
 30
0.0
  0
VERTEX
  5
165
100
AcDbEntity
  8
0
370
              18
  6
Continuous
 62
               7
100
AcDbVertex
100
AcDb2dVertex
 10
-5.2897083334000001
 20
7.2380799656999937
 30
0.0
  0
VERTEX
  5
166
100
AcDbEntity
  8
0
370
              18
  6
Continuous
 62
               7
100
AcDbVertex
100
AcDb2dVertex
 10
-7.8467423740999891
 20
7.1176728857000153
 30
0.0
  0
VERTEX
  5
167
100
AcDbEntity
  8
0
370
              18
  6
Continuous
 62
               7
100
AcDbVertex
100
AcDb2dVertex
 10
-10.379193102699986
 20
6.8880695649000057
 30
0.0
  0
VERTEX
  5
168
100
AcDbEntity
  8
0
370
              18
  6
Continuous
 62
               7
100
AcDbVertex
100
AcDb2dVertex
 10
-12.874156072999995
 20
6.5504396511000191
 30
0.0
  0
VERTEX
  5
169
100
AcDbEntity
  8
0
370
              18
  6
Continuous
 62
               7
100
AcDbVertex
100
AcDb2dVertex
 10
-15.318914691999993
 20
6.1065026450000044
 30
0.0
  0
VERTEX
  5
16A
100
AcDbEntity
  8
0
370
              18
  6
Continuous
 62
               7
100
AcDbVertex
100
AcDb2dVertex
 10
-17.701015923499995
 20
5.5585220419000034
 30
0.0
  0
VERTEX
  5
16B
100
AcDbEntity
  8
0
370
              18
  6
Continuous
 62
               7
100
AcDbVertex
100
AcDb2dVertex
 10
-20.008316415199999
 20
4.9092896575999969
 30
0.0
  0
VERTEX
  5
16C
100
AcDbEntity
  8
0
370
              18
  6
Continuous
 62
               7
100
AcDbVertex
100
AcDb2dVertex
 10
-22.229061161999994
 20
4.1621141127000083
 30
0.0
  0
VERTEX
  5
16D
100
AcDbEntity
  8
0
370
              18
  6
Continuous
 62
               7
100
AcDbVertex
100
AcDb2dVertex
 10
-24.351930619600012
 20
3.3208016915000069
 30
0.0
  0
VERTEX
  5
16E
100
AcDbEntity
  8
0
370
              18
  6
Continuous
 62
               7
100
AcDbVertex
100
AcDb2dVertex
 10
-26.366113507299985
 20
2.3896418549000185
 30
0.0
  0
VERTEX
  5
16F
100
AcDbEntity
  8
0
370
              18
  6
Continuous
 62
               7
100
AcDbVertex
100
AcDb2dVertex
 10
-28.261341654400013
 20
1.3733780207000148
 30
0.0
  0
VERTEX
  5
170
100
AcDbEntity
  8
0
370
              18
  6
Continuous
 62
               7
100
AcDbVertex
100
AcDb2dVertex
 10
-30.027957873699989
 20
0.2771890691000163
 30
0.0
  0
VERTEX
  5
171
100
AcDbEntity
  8
0
370
              18
  6
Continuous
 62
               7
100
AcDbVertex
100
AcDb2dVertex
 10
-31.656959024900004
 20
-0.8933395207999997
 30
0.0
  0
VERTEX
  5
172
100
AcDbEntity
  8
0
370
              18
  6
Continuous
 62
               7
100
AcDbVertex
100
AcDb2dVertex
 10
-33.140045703999988
 20
-2.1322424135999842
 30
0.0
  0
VERTEX
  5
173
100
AcDbEntity
  8
0
370
              18
  6
Continuous
 62
               7
100
AcDbVertex
100
AcDb2dVertex
 10
-34.469659500599988
 20
-3.4332063142999818
 30
0.0
  0
VERTEX
  5
174
100
AcDbEntity
  8
0
370
              18
  6
Continuous
 62
               7
100
AcDbVertex
100
AcDb2dVertex
 10
-35.639025129999993
 20
-4.7896025389000005
 30
0.0
  0
VERTEX
  5
175
100
AcDbEntity
  8
0
370
              18
  6
Continuous
 62
               7
100
AcDbVertex
100
AcDb2dVertex
 10
-36.642183198800012
 20
-6.1945186629999984
 30
0.0
  0
VERTEX
  5
176
100
AcDbEntity
  8
0
370
              18
  6
Continuous
 62
               7
100
AcDbVertex
100
AcDb2dVertex
 10
-37.474023737700008
 20
-7.6407957641999946
 30
0.0
  0
VERTEX
  5
177
100
AcDbEntity
  8
0
370
              18
  6
Continuous
 62
               7
100
AcDbVertex
100
AcDb2dVertex
 10
-38.130308998700002
 20
-9.121063220799984
 30
0.0
  0
VERTEX
  5
178
100
AcDbEntity
  8
0
370
              18
  6
Continuous
 62
               7
100
AcDbVertex
100
AcDb2dVertex
 10
-38.607688583699996
 20
-10.627779216799981
 30
0.0
  0
VERTEX
  5
179
100
AcDbEntity
  8
0
370
              18
  6
Continuous
 62
               7
100
AcDbVertex
100
AcDb2dVertex
 10
-38.903738016599988
 20
-12.153264099100001
 30
0.0
  0
VERTEX
  5
17A
100
AcDbEntity
  8
0
370
              18
  6
Continuous
 62
               7
100
AcDbVertex
100
AcDb2dVertex
 10
-39.01694078860001
 20
-13.689746804099999
 30
0.0
  0
VERTEX
  5
17B
100
AcDbEntity
  8
0
370
              18
  6
Continuous
 62
               7
100
AcDbVertex
100
AcDb2dVertex
 10
-38.946724738299991
 20
-15.229395780199981
 30
0.0
  0
VERTEX
  5
17C
100
AcDbEntity
  8
0
370
              18
  6
Continuous
 62
               7
100
AcDbVertex
100
AcDb2dVertex
 10
-38.693448259700006
 20
-16.764365297799998
 30
0.0
  0
VERTEX
  5
17D
100
AcDbEntity
  8
0
370
              18
  6
Continuous
 62
               7
100
AcDbVertex
100
AcDb2dVertex
 10
-38.258397026000011
 20
-18.286834474999978
 30
0.0
  0
VERTEX
  5
17E
100
AcDbEntity
  8
0
370
              18
  6
Continuous
 62
               7
100
AcDbVertex
100
AcDb2dVertex
 10
-37.643793202099999
 20
-19.789045951799977
 30
0.0
  0
VERTEX
  5
17F
100
AcDbEntity
  8
0
370
              18
  6
Continuous
 62
               7
100
AcDbVertex
100
AcDb2dVertex
 10
-36.85276784620001
 20
-21.263341607200005
 30
0.0
  0
VERTEX
  5
180
100
AcDbEntity
  8
0
370
              18
  6
Continuous
 62
               7
100
AcDbVertex
100
AcDb2dVertex
 10
-35.889348981099999
 20
-22.702213307999983
 30
0.0
  0
VERTEX
  5
181
100
AcDbEntity
  8
0
370
              18
  6
Continuous
 62
               7
100
AcDbVertex
100
AcDb2dVertex
 10
-34.758449220800003
 20
-24.098324720299985
 30
0.0
  0
VERTEX
  5
182
100
AcDbEntity
  8
0
370
              18
  6
Continuous
 62
               7
100
AcDbVertex
100
AcDb2dVertex
 10
-33.465828097100001
 20
-25.4445642803
 30
0.0
  0
VERTEX
  5
183
100
AcDbEntity
  8
0
370
              18
  6
Continuous
 62
               7
100
AcDbVertex
100
AcDb2dVertex
 10
-32.018076509100013
 20
-26.734070588500003
 30
0.0
  0
VERTEX
  5
184
100
AcDbEntity
  8
0
370
              18
  6
Continuous
 62
               7
100
AcDbVertex
100
AcDb2dVertex
 10
-30.422566776999986
 20
-27.960271749299977
 30
0.0
  0
VERTEX
  5
185
100
AcDbEntity
  8
0
370
              18
  6
Continuous
 62
               7
100
AcDbVertex
100
AcDb2dVertex
 10
-28.687434245899993
 20
-29.116921827099986
 30
0.0
  0
VERTEX
  5
186
100
AcDbEntity
  8
0
370
              18
  6
Continuous
 62
               7
100
AcDbVertex
100
AcDb2dVertex
 10
-26.821519995199992
 20
-30.198124917900003
 30
0.0
  0
VERTEX
  5
187
100
AcDbEntity
  8
0
370
              18
  6
Continuous
 62
               7
100
AcDbVertex
100
AcDb2dVertex
 10
-24.834328285800012
 20
-31.198372035299997
 30
0.0
  0
VERTEX
  5
188
100
AcDbEntity
  8
0
370
              18
  6
Continuous
 62
               7
100
AcDbVertex
100
AcDb2dVertex
 10
-22.735989318200012
 20
-32.112566116299988
 30
0.0
  0
VERTEX
  5
189
100
AcDbEntity
  8
0
370
              18
  6
Continuous
 62
               7
100
AcDbVertex
100
AcDb2dVertex
 10
-20.537193725500003
 20
-32.936048820199986
 30
0.0
  0
VERTEX
  5
18A
100
AcDbEntity
  8
0
370
              18
  6
Continuous
 62
               7
100
AcDbVertex
100
AcDb2dVertex
 10
-18.249147305700006
 20
-33.664623139499994
 30
0.0
  0
VERTEX
  5
18B
100
AcDbEntity
  8
0
370
              18
  6
Continuous
 62
               7
100
AcDbVertex
100
AcDb2dVertex
 10
-15.883510033800007
 20
-34.294578699599995
 30
0.0
  0
VERTEX
  5
18C
100
AcDbEntity
  8
0
370
              18
  6
Continuous
 62
               7
100
AcDbVertex
100
AcDb2dVertex
 10
-13.452334283800013
 20
-34.822702144199994
 30
0.0
  0
VERTEX
  5
18D
100
AcDbEntity
  8
0
370
              18
  6
Continuous
 62
               7
100
AcDbVertex
100
AcDb2dVertex
 10
-10.968009522599999
 20
-35.246303078499992
 30
0.0
  0
VERTEX
  5
18E
100
AcDbEntity
  8
0
370
              18
  6
Continuous
 62
               7
100
AcDbVertex
100
AcDb2dVertex
 10
-8.4431973225999855
 20
-35.563225519899987
 30
0.0
  0
VERTEX
  5
18F
100
AcDbEntity
  8
0
370
              18
  6
Continuous
 62
               7
100
AcDbVertex
100
AcDb2dVertex
 10
-5.8907611072000066
 20
-35.771850980499991
 30
0.0
  0
VERTEX
  5
190
100
AcDbEntity
  8
0
370
              18
  6
Continuous
 62
               7
100
AcDbVertex
100
AcDb2dVertex
 10
-3.3237075867000097
 20
-35.871117903499993
 30
0.0
  0
VERTEX
  5
191
100
AcDbEntity
  8
0
370
              18
  6
Continuous
 62
               7
100
AcDbVertex
100
AcDb2dVertex
 10
-0.7551197569000006
 20
-35.860521136199992
 30
0.0
  0
VERTEX
  5
192
100
AcDbEntity
  8
0
370
              18
  6
Continuous
 62
               7
100
AcDbVertex
100
AcDb2dVertex
 10
1.8019134070999887
 20
-35.740115029899997
 30
0.0
  0
VERTEX
  5
193
100
AcDbEntity
  8
0
370
              18
  6
Continuous
 62
               7
100
AcDbVertex
100
AcDb2dVertex
 10
4.3343650124000135
 20
-35.510510735499992
 30
0.0
  0
VERTEX
  5
194
100
AcDbEntity
  8
0
370
              18
  6
Continuous
 62
               7
100
AcDbVertex
100
AcDb2dVertex
 10
6.829325846100005
 20
-35.172882009499986
 30
0.0
  0
VERTEX
  5
195
100
AcDbEntity
  8
0
370
              18
  6
Continuous
 62
               7
100
AcDbVertex
100
AcDb2dVertex
 10
9.2740853416999869
 20
-34.728944029699989
 30
0.0
  0
VERTEX
  5
196
100
AcDbEntity
  8
0
370
              18
  6
Continuous
 62
               7
100
AcDbVertex
100
AcDb2dVertex
 10
11.656186134899997
 20
-34.180963913399992
 30
0.0
  0
VERTEX
  5
197
100
AcDbEntity
  8
0
370
              18
  6
Continuous
 62
               7
100
AcDbVertex
100
AcDb2dVertex
 10
13.96348706500001
 20
-33.531731042299995
 30
0.0
  0
SEQEND
  5
198
100
AcDbEntity
  8
0
370
              18
  6
Continuous
 62
               7
  0
LINE
  5
199
100
AcDbEntity
  8
0
370
              18
  6
Continuous
 62
               7
100
AcDbLine
 10
32.733793938699989
 20
-14.327785612300007
 30
0.0
 11
32.902179824299992
 21
-13.395751251899982
 31
0.0
  0
POLYLINE
  5
19A
100
AcDbEntity
  8
0
370
              18
  6
Continuous
 62
               7
100
AcDb2dPolyline
 66
               1
 10
0.0
 20
0.0
 30
0.0
 75
               5
  0
VERTEX
  5
19B
100
AcDbEntity
  8
0
370
              18
  6
Continuous
 62
               7
100
AcDbVertex
100
AcDb2dVertex
 10
-38.885815767699995
 20
-12.024097227699999
 30
0.0
  0
VERTEX
  5
19C
100
AcDbEntity
  8
0
370
              18
  6
Continuous
 62
               7
100
AcDbVertex
100
AcDb2dVertex
 10
-38.885532724499996
 20
-12.026802590199994
 30
0.0
  0
VERTEX
  5
19D
100
AcDbEntity
  8
0
370
              18
  6
Continuous
 62
               7
100
AcDbVertex
100
AcDb2dVertex
 10
-38.753159621599991
 20
-12.961883399800003
 30
0.0
  0
SEQEND
  5
19E
100
AcDbEntity
  8
0
370
              18
  6
Continuous
 62
               7
  0
POLYLINE
  5
19F
100
AcDbEntity
  8
0
370
              18
  6
Continuous
 62
               7
100
AcDb2dPolyline
 66
               1
 10
0.0
 20
0.0
 30
0.0
 75
               5
  0
VERTEX
  5
1A0
100
AcDbEntity
  8
0
370
              18
  6
Continuous
 62
               7
100
AcDbVertex
100
AcDb2dVertex
 10
-27.282264624100009
 20
-6.2598547524999919
 30
0.0
  0
VERTEX
  5
1A1
100
AcDbEntity
  8
0
370
              18
  6
Continuous
 62
               7
100
AcDbVertex
100
AcDb2dVertex
 10
-26.146530846100006
 20
-5.1149483453999967
 30
0.0
  0
VERTEX
  5
1A2
100
AcDbEntity
  8
0
370
              18
  6
Continuous
 62
               7
100
AcDbVertex
100
AcDb2dVertex
 10
-24.856910939399995
 20
-4.0312410501999825
 30
0.0
  0
VERTEX
  5
1A3
100
AcDbEntity
  8
0
370
              18
  6
Continuous
 62
               7
100
AcDbVertex
100
AcDb2dVertex
 10
-23.421983175999998
 20
-3.0159465363999818
 30
0.0
  0
VERTEX
  5
1A4
100
AcDbEntity
  8
0
370
              18
  6
Continuous
 62
               7
100
AcDbVertex
100
AcDb2dVertex
 10
-21.851303595399997
 20
-2.0758189743999953
 30
0.0
  0
VERTEX
  5
1A5
100
AcDbEntity
  8
0
370
              18
  6
Continuous
 62
               7
100
AcDbVertex
100
AcDb2dVertex
 10
-20.155317912899989
 20
-1.2171168274999804
 30
0.0
  0
VERTEX
  5
1A6
100
AcDbEntity
  8
0
370
              18
  6
Continuous
 62
               7
100
AcDbVertex
100
AcDb2dVertex
 10
-18.345316972700004
 20
-0.445553378200005
 30
0.0
  0
VERTEX
  5
1A7
100
AcDbEntity
  8
0
370
              18
  6
Continuous
 62
               7
100
AcDbVertex
100
AcDb2dVertex
 10
-16.433343343899992
 20
0.233735899000008
 30
0.0
  0
VERTEX
  5
1A8
100
AcDbEntity
  8
0
370
              18
  6
Continuous
 62
               7
100
AcDbVertex
100
AcDb2dVertex
 10
-14.432124591500013
 20
0.816231892800003
 30
0.0
  0
VERTEX
  5
1A9
100
AcDbEntity
  8
0
370
              18
  6
Continuous
 62
               7
100
AcDbVertex
100
AcDb2dVertex
 10
-12.354974341799988
 20
1.2980564025000074
 30
0.0
  0
VERTEX
  5
1AA
100
AcDbEntity
  8
0
370
              18
  6
Continuous
 62
               7
100
AcDbVertex
100
AcDb2dVertex
 10
-10.21571706520001
 20
1.6760035290999991
 30
0.0
  0
VERTEX
  5
1AB
100
AcDbEntity
  8
0
370
              18
  6
Continuous
 62
               7
100
AcDbVertex
100
AcDb2dVertex
 10
-8.028591717300003
 20
1.9475589918000065
 30
0.0
  0
VERTEX
  5
1AC
100
AcDbEntity
  8
0
370
              18
  6
Continuous
 62
               7
100
AcDbVertex
100
AcDb2dVertex
 10
-5.8081490820999875
 20
2.1109145877000213
 30
0.0
  0
VERTEX
  5
1AD
100
AcDbEntity
  8
0
370
              18
  6
Continuous
 62
               7
100
AcDbVertex
100
AcDb2dVertex
 10
-3.5691677400000112
 20
2.1649832996999958
 30
0.0
  0
VERTEX
  5
1AE
100
AcDbEntity
  8
0
370
              18
  6
Continuous
 62
               7
100
AcDbVertex
100
AcDb2dVertex
 10
-1.3265495502000131
 20
2.109406341999998
 30
0.0
  0
VERTEX
  5
1AF
100
AcDbEntity
  8
0
370
              18
  6
Continuous
 62
               7
100
AcDbVertex
100
AcDb2dVertex
 10
0.9047840977000026
 20
1.9445522399000179
 30
0.0
  0
VERTEX
  5
1B0
100
AcDbEntity
  8
0
370
              18
  6
Continuous
 62
               7
100
AcDbVertex
100
AcDb2dVertex
 10
3.1099828309999968
 20
1.6715190265000199
 30
0.0
  0
VERTEX
  5
1B1
100
AcDbEntity
  8
0
370
              18
  6
Continuous
 62
               7
100
AcDbVertex
100
AcDb2dVertex
 10
5.2743714229000034
 20
1.2921230800000085
 30
0.0
  0
VERTEX
  5
1B2
100
AcDbEntity
  8
0
370
              18
  6
Continuous
 62
               7
100
AcDbVertex
100
AcDb2dVertex
 10
7.3835456511000075
 20
0.8088894406000105
 30
0.0
  0
VERTEX
  5
1B3
100
AcDbEntity
  8
0
370
              18
  6
Continuous
 62
               7
100
AcDbVertex
100
AcDb2dVertex
 10
9.4234702891000097
 20
0.2250338324000136
 30
0.0
  0
VERTEX
  5
1B4
100
AcDbEntity
  8
0
370
              18
  6
Continuous
 62
               7
100
AcDbVertex
100
AcDb2dVertex
 10
11.380570305899994
 20
-0.4555581196999885
 30
0.0
  0
VERTEX
  5
1B5
100
AcDbEntity
  8
0
370
              18
  6
Continuous
 62
               7
100
AcDbVertex
100
AcDb2dVertex
 10
13.241820379300009
 20
-1.228356803699997
 30
0.0
  0
VERTEX
  5
1B6
100
AcDbEntity
  8
0
370
              18
  6
Continuous
 62
               7
100
AcDbVertex
100
AcDb2dVertex
 10
14.994834366199996
 20
-2.088220210700003
 30
0.0
  0
VERTEX
  5
1B7
100
AcDbEntity
  8
0
370
              18
  6
Continuous
 62
               7
100
AcDbVertex
100
AcDb2dVertex
 10
16.627946858099989
 20
-3.0294254279999979
 30
0.0
  0
VERTEX
  5
1B8
100
AcDbEntity
  8
0
370
              18
  6
Continuous
 62
               7
100
AcDbVertex
100
AcDb2dVertex
 10
18.130289544600004
 20
-4.0457091577000046
 30
0.0
  0
VERTEX
  5
1B9
100
AcDbEntity
  8
0
370
              18
  6
Continuous
 62
               7
100
AcDbVertex
100
AcDb2dVertex
 10
19.491864233900003
 20
-5.1303083910999892
 30
0.0
  0
VERTEX
  5
1BA
100
AcDbEntity
  8
0
370
              18
  6
Continuous
 62
               7
100
AcDbVertex
100
AcDb2dVertex
 10
20.703610081499988
 20
-6.2760048509999837
 30
0.0
  0
VERTEX
  5
1BB
100
AcDbEntity
  8
0
370
              18
  6
Continuous
 62
               7
100
AcDbVertex
100
AcDb2dVertex
 10
21.757463092300014
 20
-7.4751744575999926
 30
0.0
  0
VERTEX
  5
1BC
100
AcDbEntity
  8
0
370
              18
  6
Continuous
 62
               7
100
AcDbVertex
100
AcDb2dVertex
 10
22.646410406299992
 20
-8.7198369605999932
 30
0.0
  0
VERTEX
  5
1BD
100
AcDbEntity
  8
0
370
              18
  6
Continuous
 62
               7
100
AcDbVertex
100
AcDb2dVertex
 10
23.364535475800011
 20
-10.001708870699987
 30
0.0
  0
VERTEX
  5
1BE
100
AcDbEntity
  8
0
370
              18
  6
Continuous
 62
               7
100
AcDbVertex
100
AcDb2dVertex
 10
23.907060366699994
 20
-11.312260179400001
 30
0.0
  0
VERTEX
  5
1BF
100
AcDbEntity
  8
0
370
              18
  6
Continuous
 62
               7
100
AcDbVertex
100
AcDb2dVertex
 10
24.27037357079999
 20
-12.642768798999983
 30
0.0
  0
VERTEX
  5
1C0
100
AcDbEntity
  8
0
370
              18
  6
Continuous
 62
               7
100
AcDbVertex
100
AcDb2dVertex
 10
24.452057872199987
 20
-13.984380869999997
 30
0.0
  0
VERTEX
  5
1C1
100
AcDbEntity
  8
0
370
              18
  6
Continuous
 62
               7
100
AcDbVertex
100
AcDb2dVertex
 10
24.450903958100014
 20
-15.328167937399998
 30
0.0
  0
VERTEX
  5
1C2
100
AcDbEntity
  8
0
370
              18
  6
Continuous
 62
               7
100
AcDbVertex
100
AcDb2dVertex
 10
24.266919126400012
 20
-16.665187202699997
 30
0.0
  0
VERTEX
  5
1C3
100
AcDbEntity
  8
0
370
              18
  6
Continuous
 62
               7
100
AcDbVertex
100
AcDb2dVertex
 10
23.901329653200008
 20
-17.986541706699995
 30
0.0
  0
VERTEX
  5
1C4
100
AcDbEntity
  8
0
370
              18
  6
Continuous
 62
               7
100
AcDbVertex
100
AcDb2dVertex
 10
23.356566727099988
 20
-19.28343743009998
 30
0.0
  0
VERTEX
  5
1C5
100
AcDbEntity
  8
0
370
              18
  6
Continuous
 62
               7
100
AcDbVertex
100
AcDb2dVertex
 10
22.636254971499994
 20
-20.547243445699991
 30
0.0
  0
VERTEX
  5
1C6
100
AcDbEntity
  8
0
370
              18
  6
Continuous
 62
               7
100
AcDbVertex
100
AcDb2dVertex
 10
21.745190148999995
 20
-21.769549864399977
 30
0.0
  0
VERTEX
  5
1C7
100
AcDbEntity
  8
0
370
              18
  6
Continuous
 62
               7
100
AcDbVertex
100
AcDb2dVertex
 10
20.689300419200009
 20
-22.9422227126
 30
0.0
  0
VERTEX
  5
1C8
100
AcDbEntity
  8
0
370
              18
  6
Continuous
 62
               7
100
AcDbVertex
100
AcDb2dVertex
 10
19.475612910600006
 20
-24.057457650099991
 30
0.0
  0
VERTEX
  5
1C9
100
AcDbEntity
  8
0
370
              18
  6
Continuous
 62
               7
100
AcDbVertex
100
AcDb2dVertex
 10
18.112206159999999
 20
-25.107832790299994
 30
0.0
  0
VERTEX
  5
1CA
100
AcDbEntity
  8
0
370
              18
  6
Continuous
 62
               7
100
AcDbVertex
100
AcDb2dVertex
 10
16.608150830699998
 20
-26.086357947899984
 30
0.0
  0
VERTEX
  5
1CB
100
AcDbEntity
  8
0
370
              18
  6
Continuous
 62
               7
100
AcDbVertex
100
AcDb2dVertex
 10
14.973456346400013
 20
-26.986522054599988
 30
0.0
  0
VERTEX
  5
1CC
100
AcDbEntity
  8
0
370
              18
  6
Continuous
 62
               7
100
AcDbVertex
100
AcDb2dVertex
 10
13.219004052799988
 20
-27.8023342077
 30
0.0
  0
VERTEX
  5
1CD
100
AcDbEntity
  8
0
370
              18
  6
Continuous
 62
               7
100
AcDbVertex
100
AcDb2dVertex
 10
11.3564674502
 20
-28.528364853999989
 30
0.0
  0
VERTEX
  5
1CE
100
AcDbEntity
  8
0
370
              18
  6
Continuous
 62
               7
100
AcDbVertex
100
AcDb2dVertex
 10
9.3982413569000016
 20
-29.159782981399985
 30
0.0
  0
VERTEX
  5
1CF
100
AcDbEntity
  8
0
370
              18
  6
Continuous
 62
               7
100
AcDbVertex
100
AcDb2dVertex
 10
7.3573580370999991
 20
-29.692386455800005
 30
0.0
  0
VERTEX
  5
1D0
100
AcDbEntity
  8
0
370
              18
  6
Continuous
 62
               7
100
AcDbVertex
100
AcDb2dVertex
 10
5.2473992760000101
 20
-30.1226297483
 30
0.0
  0
VERTEX
  5
1D1
100
AcDbEntity
  8
0
370
              18
  6
Continuous
 62
               7
100
AcDbVertex
100
AcDb2dVertex
 10
3.0824068109999989
 20
-30.447651116599985
 30
0.0
  0
VERTEX
  5
1D2
100
AcDbEntity
  8
0
370
              18
  6
Continuous
 62
               7
100
AcDbVertex
100
AcDb2dVertex
 10
0.8767866324000129
 20
-30.665287634699993
 30
0.0
  0
VERTEX
  5
1D3
100
AcDbEntity
  8
0
370
              18
  6
Continuous
 62
               7
100
AcDbVertex
100
AcDb2dVertex
 10
-1.3547826093999897
 20
-30.774091586299988
 30
0.0
  0
VERTEX
  5
1D4
100
AcDbEntity
  8
0
370
              18
  6
Continuous
 62
               7
100
AcDbVertex
100
AcDb2dVertex
 10
-3.5974486700999928
 20
-30.773336788899996
 30
0.0
  0
VERTEX
  5
1D5
100
AcDbEntity
  8
0
370
              18
  6
Continuous
 62
               7
100
AcDbVertex
100
AcDb2dVertex
 10
-5.8362878746000035
 20
-30.663028950199987
 30
0.0
  0
VERTEX
  5
1D6
100
AcDbEntity
  8
0
370
              18
  6
Continuous
 62
               7
100
AcDbVertex
100
AcDb2dVertex
 10
-8.0564023595999856
 20
-30.443903745299991
 30
0.0
  0
VERTEX
  5
1D7
100
AcDbEntity
  8
0
370
              18
  6
Continuous
 62
               7
100
AcDbVertex
100
AcDb2dVertex
 10
-10.243014206200002
 20
-30.117415809899995
 30
0.0
  0
VERTEX
  5
1D8
100
AcDbEntity
  8
0
370
              18
  6
Continuous
 62
               7
100
AcDbVertex
100
AcDb2dVertex
 10
-12.381576063799997
 20
-29.685742494199985
 30
0.0
  0
VERTEX
  5
1D9
100
AcDbEntity
  8
0
370
              18
  6
Continuous
 62
               7
100
AcDbVertex
100
AcDb2dVertex
 10
-14.457853815100009
 20
-29.151753898399988
 30
0.0
  0
VERTEX
  5
1DA
100
AcDbEntity
  8
0
370
              18
  6
Continuous
 62
               7
100
AcDbVertex
100
AcDb2dVertex
 10
-16.458030993400001
 20
-28.519003511600005
 30
0.0
  0
VERTEX
  5
1DB
100
AcDbEntity
  8
0
370
              18
  6
Continuous
 62
               7
100
AcDbVertex
100
AcDb2dVertex
 10
-18.368795159400008
 20
-27.791702073500005
 30
0.0
  0
VERTEX
  5
1DC
100
AcDbEntity
  8
0
370
              18
  6
Continuous
 62
               7
100
AcDbVertex
100
AcDb2dVertex
 10
-20.177432194099993
 20
-26.974691339299994
 30
0.0
  0
VERTEX
  5
1DD
100
AcDbEntity
  8
0
370
              18
  6
Continuous
 62
               7
100
AcDbVertex
100
AcDb2dVertex
 10
-21.871906168500004
 20
-26.073407455599977
 30
0.0
  0
VERTEX
  5
1DE
100
AcDbEntity
  8
0
370
              18
  6
Continuous
 62
               7
100
AcDbVertex
100
AcDb2dVertex
 10
-23.440938706999987
 20
-25.093847033499998
 30
0.0
  0
VERTEX
  5
1DF
100
AcDbEntity
  8
0
370
              18
  6
Continuous
 62
               7
100
AcDbVertex
100
AcDb2dVertex
 10
-24.874091637800007
 20
-24.042532131000002
 30
0.0
  0
VERTEX
  5
1E0
100
AcDbEntity
  8
0
370
              18
  6
Continuous
 62
               7
100
AcDbVertex
100
AcDb2dVertex
 10
-26.161821207600013
 20
-22.926454321499989
 30
0.0
  0
VERTEX
  5
1E1
100
AcDbEntity
  8
0
370
              18
  6
Continuous
 62
               7
100
AcDbVertex
100
AcDb2dVertex
 10
-27.295565992299998
 20
-21.753045518499988
 30
0.0
  0
VERTEX
  5
1E2
100
AcDbEntity
  8
0
370
              18
  6
Continuous
 62
               7
100
AcDbVertex
100
AcDb2dVertex
 10
-28.267774760700007
 20
-20.530110555499988
 30
0.0
  0
VERTEX
  5
1E3
100
AcDbEntity
  8
0
370
              18
  6
Continuous
 62
               7
100
AcDbVertex
100
AcDb2dVertex
 10
-29.071979977300003
 20
-19.265792675
 30
0.0
  0
VERTEX
  5
1E4
100
AcDbEntity
  8
0
370
              18
  6
Continuous
 62
               7
100
AcDbVertex
100
AcDb2dVertex
 10
-29.702830430299997
 20
-17.968500734399981
 30
0.0
  0
VERTEX
  5
1E5
100
AcDbEntity
  8
0
370
              18
  6
Continuous
 62
               7
100
AcDbVertex
100
AcDb2dVertex
 10
-30.156127046400002
 20
-16.646870762199995
 30
0.0
  0
VERTEX
  5
1E6
100
AcDbEntity
  8
0
370
              18
  6
Continuous
 62
               7
100
AcDbVertex
100
AcDb2dVertex
 10
-30.428851576200003
 20
-15.309698266099987
 30
0.0
  0
VERTEX
  5
1E7
100
AcDbEntity
  8
0
370
              18
  6
Continuous
 62
               7
100
AcDbVertex
100
AcDb2dVertex
 10
-30.519193201500002
 20
-13.965880082599996
 30
0.0
  0
VERTEX
  5
1E8
100
AcDbEntity
  8
0
370
              18
  6
Continuous
 62
               7
100
AcDbVertex
100
AcDb2dVertex
 10
-30.426546986599988
 20
-12.624360512500006
 30
0.0
  0
VERTEX
  5
1E9
100
AcDbEntity
  8
0
370
              18
  6
Continuous
 62
               7
100
AcDbVertex
100
AcDb2dVertex
 10
-30.151531829300012
 20
-11.294065926700002
 30
0.0
  0
VERTEX
  5
1EA
100
AcDbEntity
  8
0
370
              18
  6
Continuous
 62
               7
100
AcDbVertex
100
AcDb2dVertex
 10
-29.695973903200013
 20
-9.9838508242000064
 30
0.0
  0
VERTEX
  5
1EB
100
AcDbEntity
  8
0
370
              18
  6
Continuous
 62
               7
100
AcDbVertex
100
AcDb2dVertex
 10
-29.062912119299995
 20
-8.7024327892999924
 30
0.0
  0
VERTEX
  5
1EC
100
AcDbEntity
  8
0
370
              18
  6
Continuous
 62
               7
100
AcDbVertex
100
AcDb2dVertex
 10
-28.256552537299996
 20
-7.4583418613999886
 30
0.0
  0
VERTEX
  5
1ED
100
AcDbEntity
  8
0
370
              18
  6
Continuous
 62
               7
100
AcDbVertex
100
AcDb2dVertex
 10
-27.282264624100009
 20
-6.2598547524999919
 30
0.0
  0
SEQEND
  5
1EE
100
AcDbEntity
  8
0
370
              18
  6
Continuous
 62
               7
  0
POLYLINE
  5
1EF
100
AcDbEntity
  8
0
370
              18
  6
Continuous
 62
               7
100
AcDb2dPolyline
 66
               1
 10
0.0
 20
0.0
 30
0.0
 75
               5
  0
VERTEX
  5
1F0
100
AcDbEntity
  8
0
370
              18
  6
Continuous
 62
               7
100
AcDbVertex
100
AcDb2dVertex
 10
-34.560217653400002
 20
-3.8444455245999922
 30
0.0
  0
VERTEX
  5
1F1
100
AcDbEntity
  8
0
370
              18
  6
Continuous
 62
               7
100
AcDbVertex
100
AcDb2dVertex
 10
-33.279475733699996
 20
-2.5379619018000046
 30
0.0
  0
VERTEX
  5
1F2
100
AcDbEntity
  8
0
370
              18
  6
Continuous
 62
               7
100
AcDbVertex
100
AcDb2dVertex
 10
-31.844551573300009
 20
-1.2914715323999832
 30
0.0
  0
VERTEX
  5
1F3
100
AcDbEntity
  8
0
370
              18
  6
Continuous
 62
               7
100
AcDbVertex
100
AcDb2dVertex
 10
-30.26275698469999
 20
-0.1113267135999951
 30
0.0
  0
VERTEX
  5
1F4
100
AcDbEntity
  8
0
370
              18
  6
Continuous
 62
               7
100
AcDbVertex
100
AcDb2dVertex
 10
-28.542149870999992
 20
0.9964578157999977
 30
0.0
  0
VERTEX
  5
1F5
100
AcDbEntity
  8
0
370
              18
  6
Continuous
 62
               7
100
AcDbVertex
100
AcDb2dVertex
 10
-26.691500063299998
 20
2.0262380754000144
 30
0.0
  0
VERTEX
  5
1F6
100
AcDbEntity
  8
0
370
              18
  6
Continuous
 62
               7
100
AcDbVertex
100
AcDb2dVertex
 10
-24.720240096600008
 20
2.9727670692000157
 30
0.0
  0
VERTEX
  5
1F7
100
AcDbEntity
  8
0
370
              18
  6
Continuous
 62
               7
100
AcDbVertex
100
AcDb2dVertex
 10
-22.638408837399993
 20
3.8312194684000058
 30
0.0
  0
VERTEX
  5
1F8
100
AcDbEntity
  8
0
370
              18
  6
Continuous
 62
               7
100
AcDbVertex
100
AcDb2dVertex
 10
-20.45662304550001
 20
4.5972231944000139
 30
0.0
  0
VERTEX
  5
1F9
100
AcDbEntity
  8
0
370
              18
  6
Continuous
 62
               7
100
AcDbVertex
100
AcDb2dVertex
 10
-18.185995779899997
 20
5.2668741900999958
 30
0.0
  0
VERTEX
  5
1FA
100
AcDbEntity
  8
0
370
              18
  6
Continuous
 62
               7
100
AcDbVertex
100
AcDb2dVertex
 10
-15.838098897200013
 20
5.8367591062000184
 30
0.0
  0
VERTEX
  5
1FB
100
AcDbEntity
  8
0
370
              18
  6
Continuous
 62
               7
100
AcDbVertex
100
AcDb2dVertex
 10
-13.424894574999996
 20
6.3039744657000067
 30
0.0
  0
VERTEX
  5
1FC
100
AcDbEntity
  8
0
370
              18
  6
Continuous
 62
               7
100
AcDbVertex
100
AcDb2dVertex
 10
-10.958680969
 20
6.666139611800018
 30
0.0
  0
VERTEX
  5
1FD
100
AcDbEntity
  8
0
370
              18
  6
Continuous
 62
               7
100
AcDbVertex
100
AcDb2dVertex
 10
-8.4520281210000121
 20
6.9214086322999986
 30
0.0
  0
VERTEX
  5
1FE
100
AcDbEntity
  8
0
370
              18
  6
Continuous
 62
               7
100
AcDbVertex
100
AcDb2dVertex
 10
-5.9177057585000057
 20
7.0684818077000084
 30
0.0
  0
VERTEX
  5
1FF
100
AcDbEntity
  8
0
370
              18
  6
Continuous
 62
               7
100
AcDbVertex
100
AcDb2dVertex
 10
-3.3686293933000111
 20
7.1066085883000181
 30
0.0
  0
VERTEX
  5
200
100
AcDbEntity
  8
0
370
              18
  6
Continuous
 62
               7
100
AcDbVertex
100
AcDb2dVertex
 10
-0.8177899851999935
 20
7.0355946013000032
 30
0.0
  0
VERTEX
  5
201
100
AcDbEntity
  8
0
370
              18
  6
Continuous
 62
               7
100
AcDbVertex
100
AcDb2dVertex
 10
1.721815296399996
 20
6.8558027001000124
 30
0.0
  0
VERTEX
  5
202
100
AcDbEntity
  8
0
370
              18
  6
Continuous
 62
               7
100
AcDbVertex
100
AcDb2dVertex
 10
4.2372461754999904
 20
6.5681471967000089
 30
0.0
  0
VERTEX
  5
203
100
AcDbEntity
  8
0
370
              18
  6
Continuous
 62
               7
100
AcDbVertex
100
AcDb2dVertex
 10
6.7156827565000015
 20
6.1740968192000008
 30
0.0
  0
VERTEX
  5
204
100
AcDbEntity
  8
0
370
              18
  6
Continuous
 62
               7
100
AcDbVertex
100
AcDb2dVertex
 10
9.14449645709999
 20
5.6756574942000082
 30
0.0
  0
VERTEX
  5
205
100
AcDbEntity
  8
0
370
              18
  6
Continuous
 62
               7
100
AcDbVertex
100
AcDb2dVertex
 10
11.511309057200009
 20
5.0753691887000212
 30
0.0
  0
VERTEX
  5
206
100
AcDbEntity
  8
0
370
              18
  6
Continuous
 62
               7
100
AcDbVertex
100
AcDb2dVertex
 10
13.804062509099992
 20
4.3762915945000014
 30
0.0
  0
VERTEX
  5
207
100
AcDbEntity
  8
0
370
              18
  6
Continuous
 62
               7
100
AcDbVertex
100
AcDb2dVertex
 10
16.01107151970001
 20
3.5819866770000015
 30
0.0
  0
VERTEX
  5
208
100
AcDbEntity
  8
0
370
              18
  6
Continuous
 62
               7
100
AcDbVertex
100
AcDb2dVertex
 10
18.121090990200003
 20
2.6965026160000019
 30
0.0
  0
VERTEX
  5
209
100
AcDbEntity
  8
0
370
              18
  6
Continuous
 62
               7
100
AcDbVertex
100
AcDb2dVertex
 10
20.123367296400005
 20
1.7243504645000183
 30
0.0
  0
VERTEX
  5
20A
100
AcDbEntity
  8
0
370
              18
  6
Continuous
 62
               7
100
AcDbVertex
100
AcDb2dVertex
 10
22.007697853299987
 20
0.6704843795000084
 30
0.0
  0
VERTEX
  5
20B
100
AcDbEntity
  8
0
370
              18
  6
Continuous
 62
               7
100
AcDbVertex
100
AcDb2dVertex
 10
23.764481668200006
 20
-0.4597240072999984
 30
0.0
  0
VERTEX
  5
20C
100
AcDbEntity
  8
0
370
              18
  6
Continuous
 62
               7
100
AcDbVertex
100
AcDb2dVertex
 10
25.384764839199988
 20
-1.6605171297999863
 30
0.0
  0
VERTEX
  5
20D
100
AcDbEntity
  8
0
370
              18
  6
Continuous
 62
               7
100
AcDbVertex
100
AcDb2dVertex
 10
26.86029142320001
 20
-2.9257746922999974
 30
0.0
  0
VERTEX
  5
20E
100
AcDbEntity
  8
0
370
              18
  6
Continuous
 62
               7
100
AcDbVertex
100
AcDb2dVertex
 10
28.183543057999998
 20
-4.2490508475999906
 30
0.0
  0
VERTEX
  5
20F
100
AcDbEntity
  8
0
370
              18
  6
Continuous
 62
               7
100
AcDbVertex
100
AcDb2dVertex
 10
29.347775683500004
 20
-5.6236015584999866
 30
0.0
  0
VERTEX
  5
210
100
AcDbEntity
  8
0
370
              18
  6
Continuous
 62
               7
100
AcDbVertex
100
AcDb2dVertex
 10
30.347057520100009
 20
-7.0424212305999863
 30
0.0
  0
VERTEX
  5
211
100
AcDbEntity
  8
0
370
              18
  6
Continuous
 62
               7
100
AcDbVertex
100
AcDb2dVertex
 10
31.1762969129
 20
-8.4982823032999892
 30
0.0
  0
VERTEX
  5
212
100
AcDbEntity
  8
0
370
              18
  6
Continuous
 62
               7
100
AcDbVertex
100
AcDb2dVertex
 10
31.831265659400003
 20
-9.9837638584999997
 30
0.0
  0
VERTEX
  5
213
100
AcDbEntity
  8
0
370
              18
  6
Continuous
 62
               7
100
AcDbVertex
100
AcDb2dVertex
 10
32.308630330299991
 20
-11.491297423899995
 30
0.0
  0
VERTEX
  5
214
100
AcDbEntity
  8
0
370
              18
  6
Continuous
 62
               7
100
AcDbVertex
100
AcDb2dVertex
 10
32.605953904100005
 20
-13.013200712100003
 30
0.0
  0
VERTEX
  5
215
100
AcDbEntity
  8
0
370
              18
  6
Continuous
 62
               7
100
AcDbVertex
100
AcDb2dVertex
 10
32.7217252266
 20
-14.541718380299985
 30
0.0
  0
VERTEX
  5
216
100
AcDbEntity
  8
0
370
              18
  6
Continuous
 62
               7
100
AcDbVertex
100
AcDb2dVertex
 10
32.655351331899993
 20
-16.069061372299984
 30
0.0
  0
VERTEX
  5
217
100
AcDbEntity
  8
0
370
              18
  6
Continuous
 62
               7
100
AcDbVertex
100
AcDb2dVertex
 10
32.407172523100002
 20
-17.58744705609999
 30
0.0
  0
VERTEX
  5
218
100
AcDbEntity
  8
0
370
              18
  6
Continuous
 62
               7
100
AcDbVertex
100
AcDb2dVertex
 10
31.97845307770001
 20
-19.089137989600005
 30
0.0
  0
VERTEX
  5
219
100
AcDbEntity
  8
0
370
              18
  6
Continuous
 62
               7
100
AcDbVertex
100
AcDb2dVertex
 10
31.371375814099991
 20
-20.566481138599983
 30
0.0
  0
VERTEX
  5
21A
100
AcDbEntity
  8
0
370
              18
  6
Continuous
 62
               7
100
AcDbVertex
100
AcDb2dVertex
 10
30.589036657799994
 20
-22.011949465399994
 30
0.0
  0
VERTEX
  5
21B
100
AcDbEntity
  8
0
370
              18
  6
Continuous
 62
               7
100
AcDbVertex
100
AcDb2dVertex
 10
29.635421708199999
 20
-23.418176879699985
 30
0.0
  0
VERTEX
  5
21C
100
AcDbEntity
  8
0
370
              18
  6
Continuous
 62
               7
100
AcDbVertex
100
AcDb2dVertex
 10
28.515389507999998
 20
-24.77799689219998
 30
0.0
  0
VERTEX
  5
21D
100
AcDbEntity
  8
0
370
              18
  6
Continuous
 62
               7
100
AcDbVertex
100
AcDb2dVertex
 10
27.234647588299993
 20
-26.084480514999996
 30
0.0
  0
VERTEX
  5
21E
100
AcDbEntity
  8
0
370
              18
  6
Continuous
 62
               7
100
AcDbVertex
100
AcDb2dVertex
 10
25.799721784700012
 20
-27.330970339099991
 30
0.0
  0
VERTEX
  5
21F
100
AcDbEntity
  8
0
370
              18
  6
Continuous
 62
               7
100
AcDbVertex
100
AcDb2dVertex
 10
24.217925991300007
 20
-28.511114125799992
 30
0.0
  0
VERTEX
  5
220
100
AcDbEntity
  8
0
370
              18
  6
Continuous
 62
               7
100
AcDbVertex
100
AcDb2dVertex
 10
22.497320191999989
 20
-29.618899565600003
 30
0.0
  0
VERTEX
  5
221
100
AcDbEntity
  8
0
370
              18
  6
Continuous
 62
               7
100
AcDbVertex
100
AcDb2dVertex
 10
20.646670576100007
 20
-30.648679612299986
 30
0.0
  0
VERTEX
  5
222
100
AcDbEntity
  8
0
370
              18
  6
Continuous
 62
               7
100
AcDbVertex
100
AcDb2dVertex
 10
18.675409212799991
 20
-31.595207786899991
 30
0.0
  0
VERTEX
  5
223
100
AcDbEntity
  8
0
370
              18
  6
Continuous
 62
               7
100
AcDbVertex
100
AcDb2dVertex
 10
16.593581349499999
 20
-32.453661154999992
 30
0.0
  0
VERTEX
  5
224
100
AcDbEntity
  8
0
370
              18
  6
Continuous
 62
               7
100
AcDbVertex
100
AcDb2dVertex
 10
14.411793476100001
 20
-33.219664822499993
 30
0.0
  0
VERTEX
  5
225
100
AcDbEntity
  8
0
370
              18
  6
Continuous
 62
               7
100
AcDbVertex
100
AcDb2dVertex
 10
12.141165553000008
 20
-33.889316548399989
 30
0.0
  0
VERTEX
  5
226
100
AcDbEntity
  8
0
370
              18
  6
Continuous
 62
               7
100
AcDbVertex
100
AcDb2dVertex
 10
9.7932679038000003
 20
-34.459199945499989
 30
0.0
  0
VERTEX
  5
227
100
AcDbEntity
  8
0
370
              18
  6
Continuous
 62
               7
100
AcDbVertex
100
AcDb2dVertex
 10
7.3800647863999984
 20
-34.926416337199996
 30
0.0
  0
VERTEX
  5
228
100
AcDbEntity
  8
0
370
              18
  6
Continuous
 62
               7
100
AcDbVertex
100
AcDb2dVertex
 10
4.9138511804999894
 20
-35.288581483299993
 30
0.0
  0
VERTEX
  5
229
100
AcDbEntity
  8
0
370
              18
  6
Continuous
 62
               7
100
AcDbVertex
100
AcDb2dVertex
 10
2.4071983324000148
 20
-35.543850503799987
 30
0.0
  0
VERTEX
  5
22A
100
AcDbEntity
  8
0
370
              18
  6
Continuous
 62
               7
100
AcDbVertex
100
AcDb2dVertex
 10
-0.1271231533999919
 20
-35.690922705599988
 30
0.0
  0
VERTEX
  5
22B
100
AcDbEntity
  8
0
370
              18
  6
Continuous
 62
               7
100
AcDbVertex
100
AcDb2dVertex
 10
-2.6762003952999858
 20
-35.729050459799993
 30
0.0
  0
VERTEX
  5
22C
100
AcDbEntity
  8
0
370
              18
  6
Continuous
 62
               7
100
AcDbVertex
100
AcDb2dVertex
 10
-5.2270393924999894
 20
-35.658036609199996
 30
0.0
  0
VERTEX
  5
22D
100
AcDbEntity
  8
0
370
              18
  6
Continuous
 62
               7
100
AcDbVertex
100
AcDb2dVertex
 10
-7.7666442082999936
 20
-35.478243597999992
 30
0.0
  0
VERTEX
  5
22E
100
AcDbEntity
  8
0
370
              18
  6
Continuous
 62
               7
100
AcDbVertex
100
AcDb2dVertex
 10
-10.282074731699993
 20
-35.190589477199993
 30
0.0
  0
VERTEX
  5
22F
100
AcDbEntity
  8
0
370
              18
  6
Continuous
 62
               7
100
AcDbVertex
100
AcDb2dVertex
 10
-12.760511723500002
 20
-34.796538963399996
 30
0.0
  0
VERTEX
  5
230
100
AcDbEntity
  8
0
370
              18
  6
Continuous
 62
               7
100
AcDbVertex
100
AcDb2dVertex
 10
-15.189324341999992
 20
-34.298098732899987
 30
0.0
  0
VERTEX
  5
231
100
AcDbEntity
  8
0
370
              18
  6
Continuous
 62
               7
100
AcDbVertex
100
AcDb2dVertex
 10
-17.556139311599992
 20
-33.697812170199995
 30
0.0
  0
VERTEX
  5
232
100
AcDbEntity
  8
0
370
              18
  6
Continuous
 62
               7
100
AcDbVertex
100
AcDb2dVertex
 10
-19.848890599399994
 20
-32.998732764999986
 30
0.0
  0
VERTEX
  5
233
100
AcDbEntity
  8
0
370
              18
  6
Continuous
 62
               7
100
AcDbVertex
100
AcDb2dVertex
 10
-22.055901774200009
 20
-32.20442965849999
 30
0.0
  0
VERTEX
  5
234
100
AcDbEntity
  8
0
370
              18
  6
Continuous
 62
               7
100
AcDbVertex
100
AcDb2dVertex
 10
-24.165918875100004
 20
-31.318943854699995
 30
0.0
  0
VERTEX
  5
235
100
AcDbEntity
  8
0
370
              18
  6
Continuous
 62
               7
100
AcDbVertex
100
AcDb2dVertex
 10
-26.168196263400006
 20
-30.346792608699985
 30
0.0
  0
VERTEX
  5
236
100
AcDbEntity
  8
0
370
              18
  6
Continuous
 62
               7
100
AcDbVertex
100
AcDb2dVertex
 10
-28.05252640949999
 20
-29.292926660099994
 30
0.0
  0
VERTEX
  5
237
100
AcDbEntity
  8
0
370
              18
  6
Continuous
 62
               7
100
AcDbVertex
100
AcDb2dVertex
 10
-29.809310580100004
 20
-28.162716890599995
 30
0.0
  0
VERTEX
  5
238
100
AcDbEntity
  8
0
370
              18
  6
Continuous
 62
               7
100
AcDbVertex
100
AcDb2dVertex
 10
-31.429594216999988
 20
-26.961924878099978
 30
0.0
  0
VERTEX
  5
239
100
AcDbEntity
  8
0
370
              18
  6
Continuous
 62
               7
100
AcDbVertex
100
AcDb2dVertex
 10
-32.905121211800008
 20
-25.696667179199977
 30
0.0
  0
VERTEX
  5
23A
100
AcDbEntity
  8
0
370
              18
  6
Continuous
 62
               7
100
AcDbVertex
100
AcDb2dVertex
 10
-34.228371969899996
 20
-24.373390050300003
 30
0.0
  0
VERTEX
  5
23B
100
AcDbEntity
  8
0
370
              18
  6
Continuous
 62
               7
100
AcDbVertex
100
AcDb2dVertex
 10
-35.392605472100001
 20
-22.998840313100004
 30
0.0
  0
VERTEX
  5
23C
100
AcDbEntity
  8
0
370
              18
  6
Continuous
 62
               7
100
AcDbVertex
100
AcDb2dVertex
 10
-36.391887308599991
 20
-21.580020641000004
 30
0.0
  0
VERTEX
  5
23D
100
AcDbEntity
  8
0
370
              18
  6
Continuous
 62
               7
100
AcDbVertex
100
AcDb2dVertex
 10
-37.22112670140001
 20
-20.124159568199985
 30
0.0
  0
VERTEX
  5
23E
100
AcDbEntity
  8
0
370
              18
  6
Continuous
 62
               7
100
AcDbVertex
100
AcDb2dVertex
 10
-37.876096652799987
 20
-18.638676980899987
 30
0.0
  0
VERTEX
  5
23F
100
AcDbEntity
  8
0
370
              18
  6
Continuous
 62
               7
100
AcDbVertex
100
AcDb2dVertex
 10
-38.353460557299996
 20
-17.131144934399998
 30
0.0
  0
VERTEX
  5
240
100
AcDbEntity
  8
0
370
              18
  6
Continuous
 62
               7
100
AcDbVertex
100
AcDb2dVertex
 10
-38.650783473500013
 20
-15.609240916000006
 30
0.0
  0
VERTEX
  5
241
100
AcDbEntity
  8
0
370
              18
  6
Continuous
 62
               7
100
AcDbVertex
100
AcDb2dVertex
 10
-38.766552714499994
 20
-14.080723306300003
 30
0.0
  0
VERTEX
  5
242
100
AcDbEntity
  8
0
370
              18
  6
Continuous
 62
               7
100
AcDbVertex
100
AcDb2dVertex
 10
-38.700182215700011
 20
-12.553379345299989
 30
0.0
  0
VERTEX
  5
243
100
AcDbEntity
  8
0
370
              18
  6
Continuous
 62
               7
100
AcDbVertex
100
AcDb2dVertex
 10
-38.452002010400008
 20
-11.034994480699995
 30
0.0
  0
VERTEX
  5
244
100
AcDbEntity
  8
0
370
              18
  6
Continuous
 62
               7
100
AcDbVertex
100
AcDb2dVertex
 10
-38.023282756700013
 20
-9.5333037602000008
 30
0.0
  0
VERTEX
  5
245
100
AcDbEntity
  8
0
370
              18
  6
Continuous
 62
               7
100
AcDbVertex
100
AcDb2dVertex
 10
-37.416206807500004
 20
-8.0559597006999883
 30
0.0
  0
VERTEX
  5
246
100
AcDbEntity
  8
0
370
              18
  6
Continuous
 62
               7
100
AcDbVertex
100
AcDb2dVertex
 10
-36.633866446399992
 20
-6.610492406099981
 30
0.0
  0
VERTEX
  5
247
100
AcDbEntity
  8
0
370
              18
  6
Continuous
 62
               7
100
AcDbVertex
100
AcDb2dVertex
 10
-35.680249853600003
 20
-5.2042655372000031
 30
0.0
  0
VERTEX
  5
248
100
AcDbEntity
  8
0
370
              18
  6
Continuous
 62
               7
100
AcDbVertex
100
AcDb2dVertex
 10
-34.560217653400002
 20
-3.8444455245999922
 30
0.0
  0
SEQEND
  5
249
100
AcDbEntity
  8
0
370
              18
  6
Continuous
 62
               7
  0
POLYLINE
  5
24A
100
AcDbEntity
  8
0
370
              18
  6
Continuous
 62
               7
100
AcDb2dPolyline
 66
               1
 10
0.0
 20
0.0
 30
0.0
 75
               5
  0
VERTEX
  5
24B
100
AcDbEntity
  8
0
370
              18
  6
Continuous
 62
               7
100
AcDbVertex
100
AcDb2dVertex
 10
-27.282264624100009
 20
-6.2598547524999919
 30
0.0
  0
VERTEX
  5
24C
100
AcDbEntity
  8
0
370
              18
  6
Continuous
 62
               7
100
AcDbVertex
100
AcDb2dVertex
 10
-26.146530846100006
 20
-5.1149483453999967
 30
0.0
  0
VERTEX
  5
24D
100
AcDbEntity
  8
0
370
              18
  6
Continuous
 62
               7
100
AcDbVertex
100
AcDb2dVertex
 10
-24.856910939399995
 20
-4.0312410501999825
 30
0.0
  0
VERTEX
  5
24E
100
AcDbEntity
  8
0
370
              18
  6
Continuous
 62
               7
100
AcDbVertex
100
AcDb2dVertex
 10
-23.421983175999998
 20
-3.0159465363999818
 30
0.0
  0
VERTEX
  5
24F
100
AcDbEntity
  8
0
370
              18
  6
Continuous
 62
               7
100
AcDbVertex
100
AcDb2dVertex
 10
-21.851303595399997
 20
-2.0758189743999953
 30
0.0
  0
VERTEX
  5
250
100
AcDbEntity
  8
0
370
              18
  6
Continuous
 62
               7
100
AcDbVertex
100
AcDb2dVertex
 10
-20.155317912899989
 20
-1.2171168274999804
 30
0.0
  0
VERTEX
  5
251
100
AcDbEntity
  8
0
370
              18
  6
Continuous
 62
               7
100
AcDbVertex
100
AcDb2dVertex
 10
-18.345316972700004
 20
-0.445553378200005
 30
0.0
  0
VERTEX
  5
252
100
AcDbEntity
  8
0
370
              18
  6
Continuous
 62
               7
100
AcDbVertex
100
AcDb2dVertex
 10
-16.433343343899992
 20
0.233735899000008
 30
0.0
  0
VERTEX
  5
253
100
AcDbEntity
  8
0
370
              18
  6
Continuous
 62
               7
100
AcDbVertex
100
AcDb2dVertex
 10
-14.432124591500013
 20
0.816231892800003
 30
0.0
  0
VERTEX
  5
254
100
AcDbEntity
  8
0
370
              18
  6
Continuous
 62
               7
100
AcDbVertex
100
AcDb2dVertex
 10
-12.354974341799988
 20
1.2980564025000074
 30
0.0
  0
VERTEX
  5
255
100
AcDbEntity
  8
0
370
              18
  6
Continuous
 62
               7
100
AcDbVertex
100
AcDb2dVertex
 10
-10.21571706520001
 20
1.6760035290999991
 30
0.0
  0
VERTEX
  5
256
100
AcDbEntity
  8
0
370
              18
  6
Continuous
 62
               7
100
AcDbVertex
100
AcDb2dVertex
 10
-8.028591717300003
 20
1.9475589918000065
 30
0.0
  0
VERTEX
  5
257
100
AcDbEntity
  8
0
370
              18
  6
Continuous
 62
               7
100
AcDbVertex
100
AcDb2dVertex
 10
-5.8081490820999875
 20
2.1109145877000213
 30
0.0
  0
VERTEX
  5
258
100
AcDbEntity
  8
0
370
              18
  6
Continuous
 62
               7
100
AcDbVertex
100
AcDb2dVertex
 10
-3.5691677400000112
 20
2.1649832996999958
 30
0.0
  0
VERTEX
  5
259
100
AcDbEntity
  8
0
370
              18
  6
Continuous
 62
               7
100
AcDbVertex
100
AcDb2dVertex
 10
-1.3265495502000131
 20
2.109406341999998
 30
0.0
  0
VERTEX
  5
25A
100
AcDbEntity
  8
0
370
              18
  6
Continuous
 62
               7
100
AcDbVertex
100
AcDb2dVertex
 10
0.9047840977000026
 20
1.9445522399000179
 30
0.0
  0
VERTEX
  5
25B
100
AcDbEntity
  8
0
370
              18
  6
Continuous
 62
               7
100
AcDbVertex
100
AcDb2dVertex
 10
3.1099828309999968
 20
1.6715190265000199
 30
0.0
  0
VERTEX
  5
25C
100
AcDbEntity
  8
0
370
              18
  6
Continuous
 62
               7
100
AcDbVertex
100
AcDb2dVertex
 10
5.2743714229000034
 20
1.2921230800000085
 30
0.0
  0
VERTEX
  5
25D
100
AcDbEntity
  8
0
370
              18
  6
Continuous
 62
               7
100
AcDbVertex
100
AcDb2dVertex
 10
7.3835456511000075
 20
0.8088894406000105
 30
0.0
  0
VERTEX
  5
25E
100
AcDbEntity
  8
0
370
              18
  6
Continuous
 62
               7
100
AcDbVertex
100
AcDb2dVertex
 10
9.4234702891000097
 20
0.2250338324000136
 30
0.0
  0
VERTEX
  5
25F
100
AcDbEntity
  8
0
370
              18
  6
Continuous
 62
               7
100
AcDbVertex
100
AcDb2dVertex
 10
11.380570305899994
 20
-0.4555581196999885
 30
0.0
  0
VERTEX
  5
260
100
AcDbEntity
  8
0
370
              18
  6
Continuous
 62
               7
100
AcDbVertex
100
AcDb2dVertex
 10
13.241820379300009
 20
-1.228356803699997
 30
0.0
  0
VERTEX
  5
261
100
AcDbEntity
  8
0
370
              18
  6
Continuous
 62
               7
100
AcDbVertex
100
AcDb2dVertex
 10
14.994834366199996
 20
-2.088220210700003
 30
0.0
  0
VERTEX
  5
262
100
AcDbEntity
  8
0
370
              18
  6
Continuous
 62
               7
100
AcDbVertex
100
AcDb2dVertex
 10
16.627946858099989
 20
-3.0294254279999979
 30
0.0
  0
VERTEX
  5
263
100
AcDbEntity
  8
0
370
              18
  6
Continuous
 62
               7
100
AcDbVertex
100
AcDb2dVertex
 10
18.130289544600004
 20
-4.0457091577000046
 30
0.0
  0
VERTEX
  5
264
100
AcDbEntity
  8
0
370
              18
  6
Continuous
 62
               7
100
AcDbVertex
100
AcDb2dVertex
 10
19.491864233900003
 20
-5.1303083910999892
 30
0.0
  0
VERTEX
  5
265
100
AcDbEntity
  8
0
370
              18
  6
Continuous
 62
               7
100
AcDbVertex
100
AcDb2dVertex
 10
20.703610081499988
 20
-6.2760048509999837
 30
0.0
  0
VERTEX
  5
266
100
AcDbEntity
  8
0
370
              18
  6
Continuous
 62
               7
100
AcDbVertex
100
AcDb2dVertex
 10
21.757463092300014
 20
-7.4751744575999926
 30
0.0
  0
VERTEX
  5
267
100
AcDbEntity
  8
0
370
              18
  6
Continuous
 62
               7
100
AcDbVertex
100
AcDb2dVertex
 10
22.646410406299992
 20
-8.7198369605999932
 30
0.0
  0
VERTEX
  5
268
100
AcDbEntity
  8
0
370
              18
  6
Continuous
 62
               7
100
AcDbVertex
100
AcDb2dVertex
 10
23.364535475800011
 20
-10.001708870699987
 30
0.0
  0
VERTEX
  5
269
100
AcDbEntity
  8
0
370
              18
  6
Continuous
 62
               7
100
AcDbVertex
100
AcDb2dVertex
 10
23.907060366699994
 20
-11.312260179400001
 30
0.0
  0
VERTEX
  5
26A
100
AcDbEntity
  8
0
370
              18
  6
Continuous
 62
               7
100
AcDbVertex
100
AcDb2dVertex
 10
24.27037357079999
 20
-12.642768798999983
 30
0.0
  0
VERTEX
  5
26B
100
AcDbEntity
  8
0
370
              18
  6
Continuous
 62
               7
100
AcDbVertex
100
AcDb2dVertex
 10
24.452057872199987
 20
-13.984380869999997
 30
0.0
  0
VERTEX
  5
26C
100
AcDbEntity
  8
0
370
              18
  6
Continuous
 62
               7
100
AcDbVertex
100
AcDb2dVertex
 10
24.450903958100014
 20
-15.328167937399998
 30
0.0
  0
VERTEX
  5
26D
100
AcDbEntity
  8
0
370
              18
  6
Continuous
 62
               7
100
AcDbVertex
100
AcDb2dVertex
 10
24.266919126400012
 20
-16.665187202699997
 30
0.0
  0
VERTEX
  5
26E
100
AcDbEntity
  8
0
370
              18
  6
Continuous
 62
               7
100
AcDbVertex
100
AcDb2dVertex
 10
23.901329653200008
 20
-17.986541706699995
 30
0.0
  0
VERTEX
  5
26F
100
AcDbEntity
  8
0
370
              18
  6
Continuous
 62
               7
100
AcDbVertex
100
AcDb2dVertex
 10
23.356566727099988
 20
-19.28343743009998
 30
0.0
  0
VERTEX
  5
270
100
AcDbEntity
  8
0
370
              18
  6
Continuous
 62
               7
100
AcDbVertex
100
AcDb2dVertex
 10
22.636254971499994
 20
-20.547243445699991
 30
0.0
  0
VERTEX
  5
271
100
AcDbEntity
  8
0
370
              18
  6
Continuous
 62
               7
100
AcDbVertex
100
AcDb2dVertex
 10
21.745190148999995
 20
-21.769549864399977
 30
0.0
  0
VERTEX
  5
272
100
AcDbEntity
  8
0
370
              18
  6
Continuous
 62
               7
100
AcDbVertex
100
AcDb2dVertex
 10
20.689300419200009
 20
-22.9422227126
 30
0.0
  0
VERTEX
  5
273
100
AcDbEntity
  8
0
370
              18
  6
Continuous
 62
               7
100
AcDbVertex
100
AcDb2dVertex
 10
19.475612910600006
 20
-24.057457650099991
 30
0.0
  0
VERTEX
  5
274
100
AcDbEntity
  8
0
370
              18
  6
Continuous
 62
               7
100
AcDbVertex
100
AcDb2dVertex
 10
18.112206159999999
 20
-25.107832790299994
 30
0.0
  0
VERTEX
  5
275
100
AcDbEntity
  8
0
370
              18
  6
Continuous
 62
               7
100
AcDbVertex
100
AcDb2dVertex
 10
16.608150830699998
 20
-26.086357947899984
 30
0.0
  0
VERTEX
  5
276
100
AcDbEntity
  8
0
370
              18
  6
Continuous
 62
               7
100
AcDbVertex
100
AcDb2dVertex
 10
14.973456346400013
 20
-26.986522054599988
 30
0.0
  0
VERTEX
  5
277
100
AcDbEntity
  8
0
370
              18
  6
Continuous
 62
               7
100
AcDbVertex
100
AcDb2dVertex
 10
13.219004052799988
 20
-27.8023342077
 30
0.0
  0
VERTEX
  5
278
100
AcDbEntity
  8
0
370
              18
  6
Continuous
 62
               7
100
AcDbVertex
100
AcDb2dVertex
 10
11.3564674502
 20
-28.528364853999989
 30
0.0
  0
VERTEX
  5
279
100
AcDbEntity
  8
0
370
              18
  6
Continuous
 62
               7
100
AcDbVertex
100
AcDb2dVertex
 10
9.3982413569000016
 20
-29.159782981399985
 30
0.0
  0
VERTEX
  5
27A
100
AcDbEntity
  8
0
370
              18
  6
Continuous
 62
               7
100
AcDbVertex
100
AcDb2dVertex
 10
7.3573580370999991
 20
-29.692386455800005
 30
0.0
  0
VERTEX
  5
27B
100
AcDbEntity
  8
0
370
              18
  6
Continuous
 62
               7
100
AcDbVertex
100
AcDb2dVertex
 10
5.2473992760000101
 20
-30.1226297483
 30
0.0
  0
VERTEX
  5
27C
100
AcDbEntity
  8
0
370
              18
  6
Continuous
 62
               7
100
AcDbVertex
100
AcDb2dVertex
 10
3.0824068109999989
 20
-30.447651116599985
 30
0.0
  0
VERTEX
  5
27D
100
AcDbEntity
  8
0
370
              18
  6
Continuous
 62
               7
100
AcDbVertex
100
AcDb2dVertex
 10
0.8767866324000129
 20
-30.665287634699993
 30
0.0
  0
VERTEX
  5
27E
100
AcDbEntity
  8
0
370
              18
  6
Continuous
 62
               7
100
AcDbVertex
100
AcDb2dVertex
 10
-1.3547826093999897
 20
-30.774091586299988
 30
0.0
  0
VERTEX
  5
27F
100
AcDbEntity
  8
0
370
              18
  6
Continuous
 62
               7
100
AcDbVertex
100
AcDb2dVertex
 10
-3.5974486700999928
 20
-30.773336788899996
 30
0.0
  0
VERTEX
  5
280
100
AcDbEntity
  8
0
370
              18
  6
Continuous
 62
               7
100
AcDbVertex
100
AcDb2dVertex
 10
-5.8362878746000035
 20
-30.663028950199987
 30
0.0
  0
VERTEX
  5
281
100
AcDbEntity
  8
0
370
              18
  6
Continuous
 62
               7
100
AcDbVertex
100
AcDb2dVertex
 10
-8.0564023595999856
 20
-30.443903745299991
 30
0.0
  0
VERTEX
  5
282
100
AcDbEntity
  8
0
370
              18
  6
Continuous
 62
               7
100
AcDbVertex
100
AcDb2dVertex
 10
-10.243014206200002
 20
-30.117415809899995
 30
0.0
  0
VERTEX
  5
283
100
AcDbEntity
  8
0
370
              18
  6
Continuous
 62
               7
100
AcDbVertex
100
AcDb2dVertex
 10
-12.381576063799997
 20
-29.685742494199985
 30
0.0
  0
VERTEX
  5
284
100
AcDbEntity
  8
0
370
              18
  6
Continuous
 62
               7
100
AcDbVertex
100
AcDb2dVertex
 10
-14.457853815100009
 20
-29.151753898399988
 30
0.0
  0
VERTEX
  5
285
100
AcDbEntity
  8
0
370
              18
  6
Continuous
 62
               7
100
AcDbVertex
100
AcDb2dVertex
 10
-16.458030993400001
 20
-28.519003511600005
 30
0.0
  0
VERTEX
  5
286
100
AcDbEntity
  8
0
370
              18
  6
Continuous
 62
               7
100
AcDbVertex
100
AcDb2dVertex
 10
-18.368795159400008
 20
-27.791702073500005
 30
0.0
  0
VERTEX
  5
287
100
AcDbEntity
  8
0
370
              18
  6
Continuous
 62
               7
100
AcDbVertex
100
AcDb2dVertex
 10
-20.177432194099993
 20
-26.974691339299994
 30
0.0
  0
VERTEX
  5
288
100
AcDbEntity
  8
0
370
              18
  6
Continuous
 62
               7
100
AcDbVertex
100
AcDb2dVertex
 10
-21.871906168500004
 20
-26.073407455599977
 30
0.0
  0
VERTEX
  5
289
100
AcDbEntity
  8
0
370
              18
  6
Continuous
 62
               7
100
AcDbVertex
100
AcDb2dVertex
 10
-23.440938706999987
 20
-25.093847033499998
 30
0.0
  0
VERTEX
  5
28A
100
AcDbEntity
  8
0
370
              18
  6
Continuous
 62
               7
100
AcDbVertex
100
AcDb2dVertex
 10
-24.874091637800007
 20
-24.042532131000002
 30
0.0
  0
VERTEX
  5
28B
100
AcDbEntity
  8
0
370
              18
  6
Continuous
 62
               7
100
AcDbVertex
100
AcDb2dVertex
 10
-26.161821207600013
 20
-22.926454321499989
 30
0.0
  0
VERTEX
  5
28C
100
AcDbEntity
  8
0
370
              18
  6
Continuous
 62
               7
100
AcDbVertex
100
AcDb2dVertex
 10
-27.295565992299998
 20
-21.753045518499988
 30
0.0
  0
VERTEX
  5
28D
100
AcDbEntity
  8
0
370
              18
  6
Continuous
 62
               7
100
AcDbVertex
100
AcDb2dVertex
 10
-28.267774760700007
 20
-20.530110555499988
 30
0.0
  0
VERTEX
  5
28E
100
AcDbEntity
  8
0
370
              18
  6
Continuous
 62
               7
100
AcDbVertex
100
AcDb2dVertex
 10
-29.071979977300003
 20
-19.265792675
 30
0.0
  0
VERTEX
  5
28F
100
AcDbEntity
  8
0
370
              18
  6
Continuous
 62
               7
100
AcDbVertex
100
AcDb2dVertex
 10
-29.702830430299997
 20
-17.968500734399981
 30
0.0
  0
VERTEX
  5
290
100
AcDbEntity
  8
0
370
              18
  6
Continuous
 62
               7
100
AcDbVertex
100
AcDb2dVertex
 10
-30.156127046400002
 20
-16.646870762199995
 30
0.0
  0
VERTEX
  5
291
100
AcDbEntity
  8
0
370
              18
  6
Continuous
 62
               7
100
AcDbVertex
100
AcDb2dVertex
 10
-30.428851576200003
 20
-15.309698266099987
 30
0.0
  0
VERTEX
  5
292
100
AcDbEntity
  8
0
370
              18
  6
Continuous
 62
               7
100
AcDbVertex
100
AcDb2dVertex
 10
-30.519193201500002
 20
-13.965880082599996
 30
0.0
  0
VERTEX
  5
293
100
AcDbEntity
  8
0
370
              18
  6
Continuous
 62
               7
100
AcDbVertex
100
AcDb2dVertex
 10
-30.426546986599988
 20
-12.624360512500006
 30
0.0
  0
VERTEX
  5
294
100
AcDbEntity
  8
0
370
              18
  6
Continuous
 62
               7
100
AcDbVertex
100
AcDb2dVertex
 10
-30.151531829300012
 20
-11.294065926700002
 30
0.0
  0
VERTEX
  5
295
100
AcDbEntity
  8
0
370
              18
  6
Continuous
 62
               7
100
AcDbVertex
100
AcDb2dVertex
 10
-29.695973903200013
 20
-9.9838508242000064
 30
0.0
  0
VERTEX
  5
296
100
AcDbEntity
  8
0
370
              18
  6
Continuous
 62
               7
100
AcDbVertex
100
AcDb2dVertex
 10
-29.062912119299995
 20
-8.7024327892999924
 30
0.0
  0
VERTEX
  5
297
100
AcDbEntity
  8
0
370
              18
  6
Continuous
 62
               7
100
AcDbVertex
100
AcDb2dVertex
 10
-28.256552537299996
 20
-7.4583418613999886
 30
0.0
  0
VERTEX
  5
298
100
AcDbEntity
  8
0
370
              18
  6
Continuous
 62
               7
100
AcDbVertex
100
AcDb2dVertex
 10
-27.282264624100009
 20
-6.2598547524999919
 30
0.0
  0
SEQEND
  5
299
100
AcDbEntity
  8
0
370
              18
  6
Continuous
 62
               7
  0
POLYLINE
  5
29A
100
AcDbEntity
  8
0
370
              18
  6
Continuous
 62
               7
100
AcDb2dPolyline
 66
               1
 10
0.0
 20
0.0
 30
0.0
 75
               5
  0
VERTEX
  5
29B
100
AcDbEntity
  8
0
370
              18
  6
Continuous
 62
               7
100
AcDbVertex
100
AcDb2dVertex
 10
33.111469177400011
 20
8.8411560837999996
 30
0.0
  0
VERTEX
  5
29C
100
AcDbEntity
  8
0
370
              18
  6
Continuous
 62
               7
100
AcDbVertex
100
AcDb2dVertex
 10
32.668317224600003
 20
9.5602455817000003
 30
0.0
  0
VERTEX
  5
29D
100
AcDbEntity
  8
0
370
              18
  6
Continuous
 62
               7
100
AcDbVertex
100
AcDb2dVertex
 10
31.629082641800011
 20
11.015715066099999
 30
0.0
  0
VERTEX
  5
29E
100
AcDbEntity
  8
0
370
              18
  6
Continuous
 62
               7
100
AcDbVertex
100
AcDb2dVertex
 10
30.426175087899992
 20
12.42679880760002
 30
0.0
  0
VERTEX
  5
29F
100
AcDbEntity
  8
0
370
              18
  6
Continuous
 62
               7
100
AcDbVertex
100
AcDb2dVertex
 10
29.065327847399999
 20
13.786772072700016
 30
0.0
  0
VERTEX
  5
2A0
100
AcDbEntity
  8
0
370
              18
  6
Continuous
 62
               7
100
AcDbVertex
100
AcDb2dVertex
 10
27.553026198699996
 20
15.089156284099998
 30
0.0
  0
VERTEX
  5
2A1
100
AcDbEntity
  8
0
370
              18
  6
Continuous
 62
               7
100
AcDbVertex
100
AcDb2dVertex
 10
25.896476333999999
 20
16.327741981499997
 30
0.0
  0
VERTEX
  5
2A2
100
AcDbEntity
  8
0
370
              18
  6
Continuous
 62
               7
100
AcDbVertex
100
AcDb2dVertex
 10
24.103572941500005
 20
17.496628667500005
 30
0.0
  0
VERTEX
  5
2A3
100
AcDbEntity
  8
0
370
              18
  6
Continuous
 62
               7
100
AcDbVertex
100
AcDb2dVertex
 10
22.182859894199993
 20
18.590245440800004
 30
0.0
  0
VERTEX
  5
2A4
100
AcDbEntity
  8
0
370
              18
  6
Continuous
 62
               7
100
AcDbVertex
100
AcDb2dVertex
 10
20.143491071499994
 20
19.603381703899998
 30
0.0
  0
VERTEX
  5
2A5
100
AcDbEntity
  8
0
370
              18
  6
Continuous
 62
               7
100
AcDbVertex
100
AcDb2dVertex
 10
17.995182769400003
 20
20.531206751200017
 30
0.0
  0
VERTEX
  5
2A6
100
AcDbEntity
  8
0
370
              18
  6
Continuous
 62
               7
100
AcDbVertex
100
AcDb2dVertex
 10
15.748175351399993
 20
21.369302729500021
 30
0.0
  0
VERTEX
  5
2A7
100
AcDbEntity
  8
0
370
              18
  6
Continuous
 62
               7
100
AcDbVertex
100
AcDb2dVertex
 10
13.413174419400008
 20
22.113672781399998
 30
0.0
  0
VERTEX
  5
2A8
100
AcDbEntity
  8
0
370
              18
  6
Continuous
 62
               7
100
AcDbVertex
100
AcDb2dVertex
 10
11.001309526400007
 20
22.760771187100005
 30
0.0
  0
VERTEX
  5
2A9
100
AcDbEntity
  8
0
370
              18
  6
Continuous
 62
               7
100
AcDbVertex
100
AcDb2dVertex
 10
8.5240723693999882
 20
23.307512496000015
 30
0.0
  0
VERTEX
  5
2AA
100
AcDbEntity
  8
0
370
              18
  6
Continuous
 62
               7
100
AcDbVertex
100
AcDb2dVertex
 10
5.9932690015000105
 20
23.751293709200013
 30
0.0
  0
VERTEX
  5
2AB
100
AcDbEntity
  8
0
370
              18
  6
Continuous
 62
               7
100
AcDbVertex
100
AcDb2dVertex
 10
3.4209604275000065
 20
24.089998819500011
 30
0.0
  0
VERTEX
  5
2AC
100
AcDbEntity
  8
0
370
              18
  6
Continuous
 62
               7
100
AcDbVertex
100
AcDb2dVertex
 10
0.8194040500000033
 20
24.322013185800017
 30
0.0
  0
VERTEX
  5
2AD
100
AcDbEntity
  8
0
370
              18
  6
Continuous
 62
               7
100
AcDbVertex
100
AcDb2dVertex
 10
-1.7990026392999989
 20
24.446232103699998
 30
0.0
  0
VERTEX
  5
2AE
100
AcDbEntity
  8
0
370
              18
  6
Continuous
 62
               7
100
AcDbVertex
100
AcDb2dVertex
 10
-4.4217811638000057
 20
24.462062717099997
 30
0.0
  0
VERTEX
  5
2AF
100
AcDbEntity
  8
0
370
              18
  6
Continuous
 62
               7
100
AcDbVertex
100
AcDb2dVertex
 10
-7.0364326447999872
 20
24.369430212899999
 30
0.0
  0
VERTEX
  5
2B0
100
AcDbEntity
  8
0
370
              18
  6
Continuous
 62
               7
100
AcDbVertex
100
AcDb2dVertex
 10
-9.630497070500013
 20
24.168775993200001
 30
0.0
  0
VERTEX
  5
2B1
100
AcDbEntity
  8
0
370
              18
  6
Continuous
 62
               7
100
AcDbVertex
100
AcDb2dVertex
 10
-12.191614209400001
 20
23.861056393000013
 30
0.0
  0
VERTEX
  5
2B2
100
AcDbEntity
  8
0
370
              18
  6
Continuous
 62
               7
100
AcDbVertex
100
AcDb2dVertex
 10
-14.707575978699992
 20
23.447736664500013
 30
0.0
  0
VERTEX
  5
2B3
100
AcDbEntity
  8
0
370
              18
  6
Continuous
 62
               7
100
AcDbVertex
100
AcDb2dVertex
 10
-17.166396998599993
 20
22.930788468200006
 30
0.0
  0
VERTEX
  5
2B4
100
AcDbEntity
  8
0
370
              18
  6
Continuous
 62
               7
100
AcDbVertex
100
AcDb2dVertex
 10
-19.556355351000008
 20
22.312673049500006
 30
0.0
  0
VERTEX
  5
2B5
100
AcDbEntity
  8
0
370
              18
  6
Continuous
 62
               7
100
AcDbVertex
100
AcDb2dVertex
 10
-21.866067296300002
 20
21.596338846400016
 30
0.0
  0
VERTEX
  5
2B6
100
AcDbEntity
  8
0
370
              18
  6
Continuous
 62
               7
100
AcDbVertex
100
AcDb2dVertex
 10
-24.084518613200004
 20
20.785196164900015
 30
0.0
  0
VERTEX
  5
2B7
100
AcDbEntity
  8
0
370
              18
  6
Continuous
 62
               7
100
AcDbVertex
100
AcDb2dVertex
 10
-26.201144793400005
 20
19.883113444000003
 30
0.0
  0
VERTEX
  5
2B8
100
AcDbEntity
  8
0
370
              18
  6
Continuous
 62
               7
100
AcDbVertex
100
AcDb2dVertex
 10
-28.205853563200009
 20
18.89438750230002
 30
0.0
  0
VERTEX
  5
2B9
100
AcDbEntity
  8
0
370
              18
  6
Continuous
 62
               7
100
AcDbVertex
100
AcDb2dVertex
 10
-30.089092262799994
 20
17.823730333500009
 30
0.0
  0
VERTEX
  5
2BA
100
AcDbEntity
  8
0
370
              18
  6
Continuous
 62
               7
100
AcDbVertex
100
AcDb2dVertex
 10
-31.841890524599989
 20
16.676245410400014
 30
0.0
  0
VERTEX
  5
2BB
100
AcDbEntity
  8
0
370
              18
  6
Continuous
 62
               7
100
AcDbVertex
100
AcDb2dVertex
 10
-33.455893475099998
 20
15.457400291800012
 30
0.0
  0
VERTEX
  5
2BC
100
AcDbEntity
  8
0
370
              18
  6
Continuous
 62
               7
100
AcDbVertex
100
AcDb2dVertex
 10
-34.923405398900002
 20
14.173001831500015
 30
0.0
  0
VERTEX
  5
2BD
100
AcDbEntity
  8
0
370
              18
  6
Continuous
 62
               7
100
AcDbVertex
100
AcDb2dVertex
 10
-36.237439811499996
 20
12.829173751500006
 30
0.0
  0
VERTEX
  5
2BE
100
AcDbEntity
  8
0
370
              18
  6
Continuous
 62
               7
100
AcDbVertex
100
AcDb2dVertex
 10
-37.391729164800012
 20
11.432317419700011
 30
0.0
  0
VERTEX
  5
2BF
100
AcDbEntity
  8
0
370
              18
  6
Continuous
 62
               7
100
AcDbVertex
100
AcDb2dVertex
 10
-38.245499849600009
 20
10.204574640100018
 30
0.0
  0
SEQEND
  5
2C0
100
AcDbEntity
  8
0
370
              18
  6
Continuous
 62
               7
  0
ARC
  5
2C1
100
AcDbEntity
  8
0
370
              18
  6
Continuous
 62
               7
100
AcDbCircle
 10
22.818764221200013
 20
38.449305987200006
 30
0.0
 40
14.171451746726683
100
AcDbArc
 50
358.93880453940005
 51
11.224574409399963
  0
ARC
  5
2C2
100
AcDbEntity
  8
0
370
              18
  6
Continuous
 62
               7
100
AcDbCircle
 10
-26.804465202699987
 20
39.394513920400016
 30
0.0
 40
14.196324981585411
100
AcDbArc
 50
166.88336748219993
 51
178.86013768720002
  0
POLYLINE
  5
2C3
100
AcDbEntity
  8
0
370
              18
  6
Continuous
 62
               7
100
AcDb2dPolyline
 66
               1
 10
0.0
 20
0.0
 30
0.0
 75
               5
  0
VERTEX
  5
2C4
100
AcDbEntity
  8
0
370
              18
  6
Continuous
 62
               7
100
AcDbVertex
100
AcDb2dVertex
 10
-41.701714767600009
 20
1.6456964023000165
 30
0.0
  0
VERTEX
  5
2C5
100
AcDbEntity
  8
0
370
              18
  6
Continuous
 62
               7
100
AcDbVertex
100
AcDb2dVertex
 10
-41.7084018308
 20
1.8669618615000143
 30
0.0
  0
VERTEX
  5
2C6
100
AcDbEntity
  8
0
370
              18
  6
Continuous
 62
               7
100
AcDbVertex
100
AcDb2dVertex
 10
-41.653097399399996
 20
3.4611066508000174
 30
0.0
  0
VERTEX
  5
2C7
100
AcDbEntity
  8
0
370
              18
  6
Continuous
 62
               7
100
AcDbVertex
100
AcDb2dVertex
 10
-41.416254103400007
 20
5.0470486819000069
 30
0.0
  0
VERTEX
  5
2C8
100
AcDbEntity
  8
0
370
              18
  6
Continuous
 62
               7
100
AcDbVertex
100
AcDb2dVertex
 10
-40.998972483399996
 20
6.6173935369000088
 30
0.0
  0
VERTEX
  5
2C9
100
AcDbEntity
  8
0
370
              18
  6
Continuous
 62
               7
100
AcDbVertex
100
AcDb2dVertex
 10
-40.40320189229999
 20
8.1648185762000178
 30
0.0
  0
VERTEX
  5
2CA
100
AcDbEntity
  8
0
370
              18
  6
Continuous
 62
               7
100
AcDbVertex
100
AcDb2dVertex
 10
-39.63171550780001
 20
9.6821101717000015
 30
0.0
  0
VERTEX
  5
2CB
100
AcDbEntity
  8
0
370
              18
  6
Continuous
 62
               7
100
AcDbVertex
100
AcDb2dVertex
 10
-38.688116897100002
 20
11.162194339400001
 30
0.0
  0
VERTEX
  5
2CC
100
AcDbEntity
  8
0
370
              18
  6
Continuous
 62
               7
100
AcDbVertex
100
AcDb2dVertex
 10
-37.576798597199996
 20
12.59816851900001
 30
0.0
  0
VERTEX
  5
2CD
100
AcDbEntity
  8
0
370
              18
  6
Continuous
 62
               7
100
AcDbVertex
100
AcDb2dVertex
 10
-36.302947144600012
 20
13.983338652300004
 30
0.0
  0
VERTEX
  5
2CE
100
AcDbEntity
  8
0
370
              18
  6
Continuous
 62
               7
100
AcDbVertex
100
AcDb2dVertex
 10
-34.872497493699996
 20
15.311246103800014
 30
0.0
  0
VERTEX
  5
2CF
100
AcDbEntity
  8
0
370
              18
  6
Continuous
 62
               7
100
AcDbVertex
100
AcDb2dVertex
 10
-33.292124681800004
 20
16.575700620199996
 30
0.0
  0
VERTEX
  5
2D0
100
AcDbEntity
  8
0
370
              18
  6
Continuous
 62
               7
100
AcDbVertex
100
AcDb2dVertex
 10
-31.569191565000011
 20
17.770805191199997
 30
0.0
  0
VERTEX
  5
2D1
100
AcDbEntity
  8
0
370
              18
  6
Continuous
 62
               7
100
AcDbVertex
100
AcDb2dVertex
 10
-29.711736101599996
 20
18.890989135000012
 30
0.0
  0
VERTEX
  5
2D2
100
AcDbEntity
  8
0
370
              18
  6
Continuous
 62
               7
100
AcDbVertex
100
AcDb2dVertex
 10
-27.728414706100011
 20
19.931028343999998
 30
0.0
  0
VERTEX
  5
2D3
100
AcDbEntity
  8
0
370
              18
  6
Continuous
 62
               7
100
AcDbVertex
100
AcDb2dVertex
 10
-25.62847616869999
 20
20.886074250999997
 30
0.0
  0
VERTEX
  5
2D4
100
AcDbEntity
  8
0
370
              18
  6
Continuous
 62
               7
100
AcDbVertex
100
AcDb2dVertex
 10
-23.421709610499988
 20
21.751673704700011
 30
0.0
  0
VERTEX
  5
2D5
100
AcDbEntity
  8
0
370
              18
  6
Continuous
 62
               7
100
AcDbVertex
100
AcDb2dVertex
 10
-21.118407229799999
 20
22.523791382900015
 30
0.0
  0
VERTEX
  5
2D6
100
AcDbEntity
  8
0
370
              18
  6
Continuous
 62
               7
100
AcDbVertex
100
AcDb2dVertex
 10
-18.72930612350001
 20
23.198826999800019
 30
0.0
  0
VERTEX
  5
2D7
100
AcDbEntity
  8
0
370
              18
  6
Continuous
 62
               7
100
AcDbVertex
100
AcDb2dVertex
 10
-16.265546213699992
 20
23.773633590300022
 30
0.0
  0
VERTEX
  5
2D8
100
AcDbEntity
  8
0
370
              18
  6
Continuous
 62
               7
100
AcDbVertex
100
AcDb2dVertex
 10
-13.738615685300005
 20
24.245530701000007
 30
0.0
  0
VERTEX
  5
2D9
100
AcDbEntity
  8
0
370
              18
  6
Continuous
 62
               7
100
AcDbVertex
100
AcDb2dVertex
 10
-11.160291604200012
 20
24.612318194700009
 30
0.0
  0
VERTEX
  5
2DA
100
AcDbEntity
  8
0
370
              18
  6
Continuous
 62
               7
100
AcDbVertex
100
AcDb2dVertex
 10
-8.5425994889000094
 20
24.872285596200015
 30
0.0
  0
VERTEX
  5
2DB
100
AcDbEntity
  8
0
370
              18
  6
Continuous
 62
               7
100
AcDbVertex
100
AcDb2dVertex
 10
-5.8977440692999892
 20
25.024222624499998
 30
0.0
  0
VERTEX
  5
2DC
100
AcDbEntity
  8
0
370
              18
  6
Continuous
 62
               7
100
AcDbVertex
100
AcDb2dVertex
 10
-3.2380547280999958
 20
25.067418158700008
 30
0.0
  0
VERTEX
  5
2DD
100
AcDbEntity
  8
0
370
              18
  6
Continuous
 62
               7
100
AcDbVertex
100
AcDb2dVertex
 10
-0.5759341170000023
 20
25.00167227
 30
0.0
  0
VERTEX
  5
2DE
100
AcDbEntity
  8
0
370
              18
  6
Continuous
 62
               7
100
AcDbVertex
100
AcDb2dVertex
 10
2.0762066992000148
 20
24.827292402799998
 30
0.0
  0
VERTEX
  5
2DF
100
AcDbEntity
  8
0
370
              18
  6
Continuous
 62
               7
100
AcDbVertex
100
AcDb2dVertex
 10
4.7060006085000055
 20
24.545089905500021
 30
0.0
  0
VERTEX
  5
2E0
100
AcDbEntity
  8
0
370
              18
  6
Continuous
 62
               7
100
AcDbVertex
100
AcDb2dVertex
 10
7.3011886516000004
 20
24.156380222500019
 30
0.0
  0
VERTEX
  5
2E1
100
AcDbEntity
  8
0
370
              18
  6
Continuous
 62
               7
100
AcDbVertex
100
AcDb2dVertex
 10
9.8496698124000091
 20
23.662977751300019
 30
0.0
  0
VERTEX
  5
2E2
100
AcDbEntity
  8
0
370
              18
  6
Continuous
 62
               7
100
AcDbVertex
100
AcDb2dVertex
 10
12.339562091999994
 20
23.067181896500017
 30
0.0
  0
VERTEX
  5
2E3
100
AcDbEntity
  8
0
370
              18
  6
Continuous
 62
               7
100
AcDbVertex
100
AcDb2dVertex
 10
14.759256407700008
 20
22.371770562600005
 30
0.0
  0
VERTEX
  5
2E4
100
AcDbEntity
  8
0
370
              18
  6
Continuous
 62
               7
100
AcDbVertex
100
AcDb2dVertex
 10
17.097469695400008
 20
21.579985060500007
 30
0.0
  0
VERTEX
  5
2E5
100
AcDbEntity
  8
0
370
              18
  6
Continuous
 62
               7
100
AcDbVertex
100
AcDb2dVertex
 10
19.343302136299997
 20
20.695518702000015
 30
0.0
  0
VERTEX
  5
2E6
100
AcDbEntity
  8
0
370
              18
  6
Continuous
 62
               7
100
AcDbVertex
100
AcDb2dVertex
 10
21.486282478699991
 20
19.722495435799999
 30
0.0
  0
VERTEX
  5
2E7
100
AcDbEntity
  8
0
370
              18
  6
Continuous
 62
               7
100
AcDbVertex
100
AcDb2dVertex
 10
23.516417374100001
 20
18.665449679600016
 30
0.0
  0
VERTEX
  5
2E8
100
AcDbEntity
  8
0
370
              18
  6
Continuous
 62
               7
100
AcDbVertex
100
AcDb2dVertex
 10
25.424242836899992
 20
17.529311771400018
 30
0.0
  0
VERTEX
  5
2E9
100
AcDbEntity
  8
0
370
              18
  6
Continuous
 62
               7
100
AcDbVertex
100
AcDb2dVertex
 10
27.200863169299993
 20
16.319378610600012
 30
0.0
  0
VERTEX
  5
2EA
100
AcDbEntity
  8
0
370
              18
  6
Continuous
 62
               7
100
AcDbVertex
100
AcDb2dVertex
 10
28.837995818699994
 20
15.0412911832
 30
0.0
  0
VERTEX
  5
2EB
100
AcDbEntity
  8
0
370
              18
  6
Continuous
 62
               7
100
AcDbVertex
100
AcDb2dVertex
 10
30.328006716099992
 20
13.701008923100003
 30
0.0
  0
VERTEX
  5
2EC
100
AcDbEntity
  8
0
370
              18
  6
Continuous
 62
               7
100
AcDbVertex
100
AcDb2dVertex
 10
31.663948995600009
 20
12.3047804217
 30
0.0
  0
VERTEX
  5
2ED
100
AcDbEntity
  8
0
370
              18
  6
Continuous
 62
               7
100
AcDbVertex
100
AcDb2dVertex
 10
32.839594676699988
 20
10.8591152086
 30
0.0
  0
VERTEX
  5
2EE
100
AcDbEntity
  8
0
370
              18
  6
Continuous
 62
               7
100
AcDbVertex
100
AcDb2dVertex
 10
33.849460483600012
 20
9.3707549490000002
 30
0.0
  0
VERTEX
  5
2EF
100
AcDbEntity
  8
0
370
              18
  6
Continuous
 62
               7
100
AcDbVertex
100
AcDb2dVertex
 10
34.688839607099993
 20
7.8466376102000179
 30
0.0
  0
VERTEX
  5
2F0
100
AcDbEntity
  8
0
370
              18
  6
Continuous
 62
               7
100
AcDbVertex
100
AcDb2dVertex
 10
35.353818842999999
 20
6.2938702753000069
 30
0.0
  0
VERTEX
  5
2F1
100
AcDbEntity
  8
0
370
              18
  6
Continuous
 62
               7
100
AcDbVertex
100
AcDb2dVertex
 10
35.841295289300007
 20
4.719691986500008
 30
0.0
  0
VERTEX
  5
2F2
100
AcDbEntity
  8
0
370
              18
  6
Continuous
 62
               7
100
AcDbVertex
100
AcDb2dVertex
 10
36.14899792060001
 20
3.1314431892000112
 30
0.0
  0
VERTEX
  5
2F3
100
AcDbEntity
  8
0
370
              18
  6
Continuous
 62
               7
100
AcDbVertex
100
AcDb2dVertex
 10
36.275493823200009
 20
1.5365276220000208
 30
0.0
  0
VERTEX
  5
2F4
100
AcDbEntity
  8
0
370
              18
  6
Continuous
 62
               7
100
AcDbVertex
100
AcDb2dVertex
 10
36.238209915999988
 20
0.1564970107000061
 30
0.0
  0
SEQEND
  5
2F5
100
AcDbEntity
  8
0
370
              18
  6
Continuous
 62
               7
  0
POLYLINE
  5
2F6
100
AcDbEntity
  8
0
370
              18
  6
Continuous
 62
               8
100
AcDb2dPolyline
 66
               1
 10
0.0
 20
0.0
 30
0.0
 75
               5
  0
VERTEX
  5
2F7
100
AcDbEntity
  8
0
370
              18
  6
Continuous
 62
               8
100
AcDbVertex
100
AcDb2dVertex
 10
36.719140997599993
 20
41.207850908799998
 30
0.0
  0
VERTEX
  5
2F8
100
AcDbEntity
  8
0
370
              18
  6
Continuous
 62
               8
100
AcDbVertex
100
AcDb2dVertex
 10
36.552652322900002
 20
41.949831202900015
 30
0.0
  0
VERTEX
  5
2F9
100
AcDbEntity
  8
0
370
              18
  6
Continuous
 62
               8
100
AcDbVertex
100
AcDb2dVertex
 10
36.065175876599994
 20
43.524009491800001
 30
0.0
  0
VERTEX
  5
2FA
100
AcDbEntity
  8
0
370
              18
  6
Continuous
 62
               8
100
AcDbVertex
100
AcDb2dVertex
 10
35.400196640699988
 20
45.076776826599996
 30
0.0
  0
VERTEX
  5
2FB
100
AcDbEntity
  8
0
370
              18
  6
Continuous
 62
               8
100
AcDbVertex
100
AcDb2dVertex
 10
34.560817517200007
 20
46.600894165400007
 30
0.0
  0
VERTEX
  5
2FC
100
AcDbEntity
  8
0
370
              18
  6
Continuous
 62
               8
100
AcDbVertex
100
AcDb2dVertex
 10
33.5509517104
 20
48.089254425000007
 30
0.0
  0
VERTEX
  5
2FD
100
AcDbEntity
  8
0
370
              18
  6
Continuous
 62
               8
100
AcDbVertex
100
AcDb2dVertex
 10
32.375306029299992
 20
49.534919638100007
 30
0.0
  0
VERTEX
  5
2FE
100
AcDbEntity
  8
0
370
              18
  6
Continuous
 62
               8
100
AcDbVertex
100
AcDb2dVertex
 10
31.039363749699987
 20
50.93114813950001
 30
0.0
  0
VERTEX
  5
2FF
100
AcDbEntity
  8
0
370
              18
  6
Continuous
 62
               8
100
AcDbVertex
100
AcDb2dVertex
 10
29.549352852400006
 20
52.271430399600007
 30
0.0
  0
VERTEX
  5
300
100
AcDbEntity
  8
0
370
              18
  6
Continuous
 62
               8
100
AcDbVertex
100
AcDb2dVertex
 10
27.912220202899988
 20
53.549517827000017
 30
0.0
  0
VERTEX
  5
301
100
AcDbEntity
  8
0
370
              18
  6
Continuous
 62
               8
100
AcDbVertex
100
AcDb2dVertex
 10
26.135599870499988
 20
54.75945098790001
 30
0.0
  0
VERTEX
  5
302
100
AcDbEntity
  8
0
370
              18
  6
Continuous
 62
               8
100
AcDbVertex
100
AcDb2dVertex
 10
24.227774407800013
 20
55.895588896100008
 30
0.0
  0
VERTEX
  5
303
100
AcDbEntity
  8
0
370
              18
  6
Continuous
 62
               8
100
AcDbVertex
100
AcDb2dVertex
 10
22.197639512300015
 20
56.952634652200004
 30
0.0
  0
VERTEX
  5
304
100
AcDbEntity
  8
0
370
              18
  6
Continuous
 62
               8
100
AcDbVertex
100
AcDb2dVertex
 10
20.054659169899992
 20
57.92565791840002
 30
0.0
  0
VERTEX
  5
305
100
AcDbEntity
  8
0
370
              18
  6
Continuous
 62
               8
100
AcDbVertex
100
AcDb2dVertex
 10
17.808826729099991
 20
58.810124276900012
 30
0.0
  0
VERTEX
  5
306
100
AcDbEntity
  8
0
370
              18
  6
Continuous
 62
               8
100
AcDbVertex
100
AcDb2dVertex
 10
15.470613441300003
 20
59.601909779099998
 30
0.0
  0
VERTEX
  5
307
100
AcDbEntity
  8
0
370
              18
  6
Continuous
 62
               8
100
AcDbVertex
100
AcDb2dVertex
 10
13.050919125700005
 20
60.297321112900022
 30
0.0
  0
VERTEX
  5
308
100
AcDbEntity
  8
0
370
              18
  6
Continuous
 62
               8
100
AcDbVertex
100
AcDb2dVertex
 10
10.561026846099992
 20
60.893116967800012
 30
0.0
  0
VERTEX
  5
309
100
AcDbEntity
  8
0
370
              18
  6
Continuous
 62
               8
100
AcDbVertex
100
AcDb2dVertex
 10
8.0125456851999957
 20
61.386519438899995
 30
0.0
  0
VERTEX
  5
30A
100
AcDbEntity
  8
0
370
              18
  6
Continuous
 62
               8
100
AcDbVertex
100
AcDb2dVertex
 10
5.4173576421999883
 20
61.775229121899997
 30
0.0
  0
VERTEX
  5
30B
100
AcDbEntity
  8
0
370
              18
  6
Continuous
 62
               8
100
AcDbVertex
100
AcDb2dVertex
 10
2.78756373280001
 20
62.057431619300019
 30
0.0
  0
VERTEX
  5
30C
100
AcDbEntity
  8
0
370
              18
  6
Continuous
 62
               8
100
AcDbVertex
100
AcDb2dVertex
 10
0.1354229167000089
 20
62.231811486500021
 30
0.0
  0
VERTEX
  5
30D
100
AcDbEntity
  8
0
370
              18
  6
Continuous
 62
               8
100
AcDbVertex
100
AcDb2dVertex
 10
-2.526697694400013
 20
62.297557375100013
 30
0.0
  0
VERTEX
  5
30E
100
AcDbEntity
  8
0
370
              18
  6
Continuous
 62
               8
100
AcDbVertex
100
AcDb2dVertex
 10
-5.1863870356000064
 20
62.254361840900003
 30
0.0
  0
VERTEX
  5
30F
100
AcDbEntity
  8
0
370
              18
  6
Continuous
 62
               8
100
AcDbVertex
100
AcDb2dVertex
 10
-7.8312424552999857
 20
62.10242481260002
 30
0.0
  0
VERTEX
  5
310
100
AcDbEntity
  8
0
370
              18
  6
Continuous
 62
               8
100
AcDbVertex
100
AcDb2dVertex
 10
-10.448934570500001
 20
61.842457411100014
 30
0.0
  0
VERTEX
  5
311
100
AcDbEntity
  8
0
370
              18
  6
Continuous
 62
               8
100
AcDbVertex
100
AcDb2dVertex
 10
-13.027258651599993
 20
61.475669917400012
 30
0.0
  0
VERTEX
  5
312
100
AcDbEntity
  8
0
370
              18
  6
Continuous
 62
               8
100
AcDbVertex
100
AcDb2dVertex
 10
-15.554189180000009
 20
61.003772806699999
 30
0.0
  0
VERTEX
  5
313
100
AcDbEntity
  8
0
370
              18
  6
Continuous
 62
               8
100
AcDbVertex
100
AcDb2dVertex
 10
-18.017949089899986
 20
60.428966216199996
 30
0.0
  0
VERTEX
  5
314
100
AcDbEntity
  8
0
370
              18
  6
Continuous
 62
               8
100
AcDbVertex
100
AcDb2dVertex
 10
-20.407050196099988
 20
59.75393059930002
 30
0.0
  0
VERTEX
  5
315
100
AcDbEntity
  8
0
370
              18
  6
Continuous
 62
               8
100
AcDbVertex
100
AcDb2dVertex
 10
-22.710352576800005
 20
58.981812921100016
 30
0.0
  0
VERTEX
  5
316
100
AcDbEntity
  8
0
370
              18
  6
Continuous
 62
               8
100
AcDbVertex
100
AcDb2dVertex
 10
-24.917119135000007
 20
58.116213467400001
 30
0.0
  0
VERTEX
  5
317
100
AcDbEntity
  8
0
370
              18
  6
Continuous
 62
               8
100
AcDbVertex
100
AcDb2dVertex
 10
-27.017057672499988
 20
57.161167560500019
 30
0.0
  0
VERTEX
  5
318
100
AcDbEntity
  8
0
370
              18
  6
Continuous
 62
               8
100
AcDbVertex
100
AcDb2dVertex
 10
-29.000379067900013
 20
56.121128351500005
 30
0.0
  0
VERTEX
  5
319
100
AcDbEntity
  8
0
370
              18
  6
Continuous
 62
               8
100
AcDbVertex
100
AcDb2dVertex
 10
-30.857834531399988
 20
55.000944407600002
 30
0.0
  0
VERTEX
  5
31A
100
AcDbEntity
  8
0
370
              18
  6
Continuous
 62
               8
100
AcDbVertex
100
AcDb2dVertex
 10
-32.580767648099993
 20
53.805839836600001
 30
0.0
  0
VERTEX
  5
31B
100
AcDbEntity
  8
0
370
              18
  6
Continuous
 62
               8
100
AcDbVertex
100
AcDb2dVertex
 10
-34.161140460000013
 20
52.541385320200021
 30
0.0
  0
VERTEX
  5
31C
100
AcDbEntity
  8
0
370
              18
  6
Continuous
 62
               8
100
AcDbVertex
100
AcDb2dVertex
 10
-35.5915901109
 20
51.213477868700011
 30
0.0
  0
VERTEX
  5
31D
100
AcDbEntity
  8
0
370
              18
  6
Continuous
 62
               8
100
AcDbVertex
100
AcDb2dVertex
 10
-36.865441563500013
 20
49.828307735400017
 30
0.0
  0
VERTEX
  5
31E
100
AcDbEntity
  8
0
370
              18
  6
Continuous
 62
               8
100
AcDbVertex
100
AcDb2dVertex
 10
-37.976759863500007
 20
48.392333555899995
 30
0.0
  0
VERTEX
  5
31F
100
AcDbEntity
  8
0
370
              18
  6
Continuous
 62
               8
100
AcDbVertex
100
AcDb2dVertex
 10
-38.920358474199986
 20
46.912249388100008
 30
0.0
  0
VERTEX
  5
320
100
AcDbEntity
  8
0
370
              18
  6
Continuous
 62
               8
100
AcDbVertex
100
AcDb2dVertex
 10
-39.691844858699994
 20
45.394957792599996
 30
0.0
  0
VERTEX
  5
321
100
AcDbEntity
  8
0
370
              18
  6
Continuous
 62
               8
100
AcDbVertex
100
AcDb2dVertex
 10
-40.287615449700013
 20
43.847532753300015
 30
0.0
  0
VERTEX
  5
322
100
AcDbEntity
  8
0
370
              18
  6
Continuous
 62
               8
100
AcDbVertex
100
AcDb2dVertex
 10
-40.630409927199992
 20
42.616143237900019
 30
0.0
  0
SEQEND
  5
323
100
AcDbEntity
  8
0
370
              18
  6
Continuous
 62
               8
  0
ENDBLK
  5
324
100
AcDbEntity
  8
一般
100
AcDbBlockEnd
  0
ENDSEC
  0
SECTION
  2
ENTITIES
  0
INSERT
  5
325
100
AcDbEntity
  8
一般
 62
               7
100
AcDbBlockReference
  2
*U0
 10
0.0
 20
0.0
 30
0.0
  0
MTEXT
  5
326
100
AcDbEntity
  8
0
 62
               7
100
AcDbMText
 10
46.347797811199996
 20
-41.209115706499986
 30
0.0
 40
2.910416666666666
 41
0.0
 71
               1
 72
               1
  1
HBH-D04G\PHBH-D04B
  7
ＭＳ Ｐゴシック
 73
               1
 44
0.8762322015334064
  0
ENDSEC
  0
SECTION
  2
OBJECTS
  0
DICTIONARY
  5
19
100
AcDbDictionary
280
               0
281
               1
  3
ACAD_GROUP
350
1A
  3
ACAD_MLINESTYLE
350
1B
  3
ACAD_LAYOUT
350
1E
  3
ACAD_PLOTSETTINGS
350
22
  3
ACAD_PLOTSTYLENAME
350
1F
  3
ACAD_WIPEOUT_VARS
350
23
  0
DICTIONARY
  5
1A
102
{ACAD_REACTORS
330
19
102
}
100
AcDbDictionary
280
               0
281
               1
  0
DICTIONARY
  5
1B
102
{ACAD_REACTORS
330
19
102
}
100
AcDbDictionary
280
               0
281
               1
  3
Standard
350
1C
  0
MLINESTYLE
  5
1C
102
{ACAD_REACTORS
330
1B
102
}
100
AcDbMlineStyle
  2
Standard
 70
               0
  3

 62
               0
 51
90.0
 52
90.0
 71
               2
 49
0.5
 62
             256
  6
ByLayer
 49
-0.5
 62
             256
  6
ByLayer
  0
ACDBDICTIONARYWDFLT
  5
1F
102
{ACAD_REACTORS
330
19
102
}
100
AcDbDictionary
281
               1
  3
Normal
350
1D
100
AcDbDictionaryWithDefault
340
1D
  0
ACDBPLACEHOLDER
  5
1D
102
{ACAD_REACTORS
330
1F
102
}
  0
LAYOUT
  5
20
102
{ACAD_REACTORS
330
1E
102
}
100
AcDbPlotSettings
  1

  2

  4

  6

 40
0.0
 41
0.0
 42
0.0
 43
0.0
 44
0.0
 45
0.0
 46
0.0
 47
0.0
 48
0.0
 49
0.0
140
0.0
141
0.0
142
1.0
143
1.0
 70
            1024
 72
               0
 73
               0
 74
               0
  7

 75
               0
147
1.0
148
0.0
149
0.0
100
AcDbLayout
  1
Model
 70
               0
 71
               0
 10
0.0
 20
0.0
 11
0.0
 21
0.0
 12
0.0
 22
0.0
 32
0.0
 14
0.0
 24
0.0
 34
0.0
 15
0.0
 25
0.0
 35
0.0
146
0.0
 13
0.0
 23
0.0
 33
0.0
 16
0.0
 26
0.0
 36
0.0
 17
0.0
 27
0.0
 37
0.0
 76
               0
330
A
331
0
345
0
346
0
  0
LAYOUT
  5
21
102
{ACAD_REACTORS
330
1E
102
}
100
AcDbPlotSettings
  1

  2

  4

  6

 40
0.0
 41
0.0
 42
0.0
 43
0.0
 44
0.0
 45
0.0
 46
0.0
 47
0.0
 48
0.0
 49
0.0
140
0.0
141
0.0
142
1.0
143
1.0
 70
               0
 72
               0
 73
               0
 74
               0
  7

 75
               0
147
1.0
148
0.0
149
0.0
100
AcDbLayout
  1
Layout1
 70
               0
 71
               0
 10
0.0
 20
0.0
 11
0.0
 21
0.0
 12
0.0
 22
0.0
 32
0.0
 14
0.0
 24
0.0
 34
0.0
 15
0.0
 25
0.0
 35
0.0
146
0.0
 13
0.0
 23
0.0
 33
0.0
 16
0.0
 26
0.0
 36
0.0
 17
0.0
 27
0.0
 37
0.0
 76
               0
330
B
331
0
345
0
346
0
  0
DICTIONARY
  5
1E
102
{ACAD_REACTORS
330
19
102
}
100
AcDbDictionary
280
               0
281
               1
  3
Layout1
350
21
  3
Model
350
20
  0
DICTIONARY
  5
22
102
{ACAD_REACTORS
330
19
102
}
100
AcDbDictionary
280
               0
281
               1
  0
WIPEOUTVARIABLES
  5
23
100
AcDbWipeoutVariables
 70
               1
  0
ENDSEC
  0
EOF
