  0
SECTION
  2
HEADER
  9
$ACADVER
  1
AC1014
  9
$ACADMAINTVER
 70
               0
  9
$DWGCODEPAGE
  3
ANSI_932
  9
$INSBASE
 10
0.0
 20
0.0
 30
0.0
  9
$EXTMIN
 10
254.66197100629782
 20
129.75008796309959
 30
0.0
  9
$EXTMAX
 10
274.60097116778667
 20
133.98342129643291
 30
0.0
  9
$LIMMIN
 10
0.0
 20
0.0
  9
$LIMMAX
 10
0.0
 20
0.0
  9
$ORTHOMODE
 70
               0
  9
$REGENMODE
 70
               1
  9
$FILLMODE
 70
               1
  9
$QTEXTMODE
 70
               0
  9
$MIRRTEXT
 70
               1
  9
$DRAGMODE
 70
               2
  9
$LTSCALE
 40
12.699999999999999
  9
$OSMODE
 70
               0
  9
$ATTMODE
 70
               1
  9
$TEXTSIZE
 40
0.2
  9
$TRACEWID
 40
1.0
  9
$TEXTSTYLE
  7
STANDARD
  9
$CLAYER
  8
0
  9
$CELTYPE
  6
CONTINUOUS
  9
$CECOLOR
 62
             256
  9
$CELTSCALE
 40
1.0
  9
$DELOBJ
 70
               1
  9
$DISPSILH
 70
               0
  9
$DIMSCALE
 40
1.0
  9
$DIMASZ
 40
0.18
  9
$DIMEXO
 40
0.0625
  9
$DIMDLI
 40
0.38
  9
$DIMRND
 40
0.0
  9
$DIMDLE
 40
0.0
  9
$DIMEXE
 40
0.18
  9
$DIMTP
 40
0.0
  9
$DIMTM
 40
0.0
  9
$DIMTXT
 40
0.18
  9
$DIMCEN
 40
0.09
  9
$DIMTSZ
 40
0.0
  9
$DIMTOL
 70
               0
  9
$DIMLIM
 70
               0
  9
$DIMTIH
 70
               1
  9
$DIMTOH
 70
               1
  9
$DIMSE1
 70
               0
  9
$DIMSE2
 70
               0
  9
$DIMTAD
 70
               0
  9
$DIMZIN
 70
               0
  9
$DIMBLK
  1

  9
$DIMASO
 70
               1
  9
$DIMSHO
 70
               1
  9
$DIMPOST
  1

  9
$DIMAPOST
  1

  9
$DIMALT
 70
               0
  9
$DIMALTD
 70
               2
  9
$DIMALTF
 40
25.399999999999999
  9
$DIMLFAC
 40
1.0
  9
$DIMTOFL
 70
               0
  9
$DIMTVP
 40
0.0
  9
$DIMTIX
 70
               0
  9
$DIMSOXD
 70
               0
  9
$DIMSAH
 70
               0
  9
$DIMBLK1
  1

  9
$DIMBLK2
  1

  9
$DIMSTYLE
  2
STANDARD
  9
$DIMCLRD
 70
               0
  9
$DIMCLRE
 70
               0
  9
$DIMCLRT
 70
               0
  9
$DIMTFAC
 40
1.0
  9
$DIMGAP
 40
0.09
  9
$DIMJUST
 70
               0
  9
$DIMSD1
 70
               0
  9
$DIMSD2
 70
               0
  9
$DIMTOLJ
 70
               1
  9
$DIMTZIN
 70
               0
  9
$DIMALTZ
 70
               0
  9
$DIMALTTZ
 70
               0
  9
$DIMFIT
 70
               3
  9
$DIMUPT
 70
               0
  9
$DIMUNIT
 70
               2
  9
$DIMDEC
 70
               4
  9
$DIMTDEC
 70
               4
  9
$DIMALTU
 70
               2
  9
$DIMALTTD
 70
               2
  9
$DIMTXSTY
  7
STANDARD
  9
$DIMAUNIT
 70
               0
  9
$LUNITS
 70
               2
  9
$LUPREC
 70
               4
  9
$SKETCHINC
 40
0.1
  9
$FILLETRAD
 40
0.0
  9
$AUNITS
 70
               0
  9
$AUPREC
 70
               0
  9
$MENU
  1
acad
  9
$ELEVATION
 40
0.0
  9
$PELEVATION
 40
0.0
  9
$THICKNESS
 40
0.0
  9
$LIMCHECK
 70
               0
  9
$BLIPMODE
 70
               0
  9
$CHAMFERA
 40
0.0
  9
$CHAMFERB
 40
0.0
  9
$CHAMFERC
 40
0.0
  9
$CHAMFERD
 40
0.0
  9
$SKPOLY
 70
               0
  9
$TDCREATE
 40
2458461.636041667
  9
$TDUPDATE
 40
2458461.636041667
  9
$TDINDWG
 40
0.0000000000
  9
$TDUSRTIMER
 40
0.0000000000
  9
$USRTIMER
 70
               1
  9
$ANGBASE
 50
0.0
  9
$ANGDIR
 70
               0
  9
$PDMODE
 70
               1
  9
$PDSIZE
 40
-2.0
  9
$PLINEWID
 40
0.0
  9
$COORDS
 70
               0
  9
$SPLFRAME
 70
               0
  9
$SPLINETYPE
 70
               6
  9
$SPLINESEGS
 70
               8
  9
$ATTDIA
 70
               0
  9
$ATTREQ
 70
               1
  9
$HANDLING
 70
               1
  9
$HANDSEED
  5
1E0
  9
$SURFTAB1
 70
               6
  9
$SURFTAB2
 70
               6
  9
$SURFTYPE
 70
               6
  9
$SURFU
 70
               6
  9
$SURFV
 70
               6
  9
$UCSNAME
  2

  9
$UCSORG
 10
0.0
 20
0.0
 30
0.0
  9
$UCSXDIR
 10
1.0
 20
0.0
 30
0.0
  9
$UCSYDIR
 10
0.0
 20
1.0
 30
0.0
  9
$PUCSNAME
  2

  9
$PUCSORG
 10
0.0
 20
0.0
 30
0.0
  9
$PUCSXDIR
 10
1.0
 20
0.0
 30
0.0
  9
$PUCSYDIR
 10
0.0
 20
1.0
 30
0.0
  9
$USERI1
 70
               0
  9
$USERI2
 70
               0
  9
$USERI3
 70
               0
  9
$USERI4
 70
               0
  9
$USERI5
 70
               0
  9
$USERR1
 40
0.0
  9
$USERR2
 40
0.0
  9
$USERR3
 40
0.0
  9
$USERR4
 40
0.0
  9
$USERR5
 40
0.0
  9
$WORLDVIEW
 70
               1
  9
$SHADEDGE
 70
               3
  9
$SHADEDIF
 70
              70
  9
$TILEMODE
 70
               1
  9
$MAXACTVP
 70
              16
  9
$PINSBASE
 10
0.0
 20
0.0
 30
0.0
  9
$PLIMCHECK
 70
               0
  9
$PEXTMIN
 10
1.0000000000000000E+20
 20
1.0000000000000000E+20
 30
1.0000000000000000E+20
  9
$PEXTMAX
 10
-1.0000000000000000E+20
 20
-1.0000000000000000E+20
 30
-1.0000000000000000E+20
  9
$PLIMMIN
 10
0.0
 20
0.0
  9
$PLIMMAX
 10
12.0
 20
9.0
  9
$UNITMODE
 70
               0
  9
$VISRETAIN
 70
               0
  9
$PLINEGEN
 70
               1
  9
$PSLTSCALE
 70
               0
  9
$TREEDEPTH
 70
            3020
  9
$PICKSTYLE
 70
               1
  9
$CMLSTYLE
  2
STANDARD
  9
$CMLJUST
 70
               0
  9
$CMLSCALE
 40
1.0
  9
$PROXYGRAPHICS
 70
               0
  9
$MEASUREMENT
 70
               1
  0
ENDSEC
  0
SECTION
  2
CLASSES
  0
CLASS
  1
LWPOLYLINE
  2
AcDbPolyline
  3
"AutoCAD"
 90
        0
280
               0
281
               1
  0
CLASS
  1
IMAGE
  2
AcDbRasterImage
  3
ISM
 90
      127
280
               0
281
               1
  0
CLASS
  1
OLE2FRAME
  2
AcDbOle2Frame
  3
""
 90
        0
280
               0
281
               1
  0
CLASS
  1
HATCH
  2
AcDbHatch
  3
"ACAD_SEDONA"
 90
        0
280
               0
281
               1
  0
CLASS
  1
DICTIONARYVAR
  2
AcDbDictionaryVar
  3
"AutoCAD"
 90
        0
280
               0
281
               0
  0
CLASS
  1
RASTERVARIABLES
  2
AcDbRasterVariables
  3
ISM
 90
        0
280
               0
281
               0
  0
CLASS
  1
IMAGEDEF
  2
AcDbRasterImageDef
  3
ISM
 90
        0
280
               0
281
               0
  0
CLASS
  1
IMAGEDEF_REACTOR
  2
AcDbRasterImageDefReactor
  3
ISM
 90
        1
280
               0
281
               0
  0
CLASS
  1
IDBUFFER
  2
AcDbIdBuffer
  3
"Acad"
 90
        0
280
               0
281
               0
  0
CLASS
  1
SPATIAL_FILTER
  2
AcDbSpatialFilter
  3
"Acad"
 90
        0
280
               0
281
               0
  0
CLASS
  1
XRECORD
  2
AcDbXrecord
  3
"<Built In>"
 90
        0
280
               0
281
               0
  0
CLASS
  1
SORTENTSTABLE
  2
AcDbSortentsTable
  3
"AutoCAD"
 90
        0
280
               0
281
               0
  0
CLASS
  1
LAYER_INDEX
  2
AcDbLayerIndex
  3
"Acad"
 90
        0
280
               0
281
               0
  0
CLASS
  1
SPATIAL_INDEX
  2
AcDbSpatialIndex
  3
"Acad"
 90
        0
280
               0
281
               0
  0
CLASS
  1
OBJECT_PTR
  2
CAseDLPNTableRecord
  3
"ASE-LPNTableRecord"
 90
        1
280
               0
281
               0
  0
CLASS
  1
LAYOUT
  2
AcDbLayout
  3
"AutoCAD 2000"
 90
        1
280
               0
281
               0
  0
CLASS
  1
PLOTSETTINGS
  2
AcDbPlotSettings
  3
"AutoCAD 2000"
 90
        1
280
               0
281
               0
  0
CLASS
  1
ACDBDICTIONARYWDFLT
  2
AcDbDictionaryWithDefault
  3
"AutoCAD 2000"
 90
        1
280
               0
281
               0
  0
CLASS
  1
ACDBPLACEHOLDER
  2
AcDbPlaceHolder
  3
"AutoCAD 2000"
 90
        1
280
               0
281
               0
  0
ENDSEC
  0
SECTION
  2
TABLES
  0
TABLE
  2
VPORT
  5
7
100
AcDbSymbolTable
 70
               1
  0
VPORT
  5
15
100
AcDbSymbolTableRecord
100
AcDbViewportTableRecord
  2
*ACTIVE
 70
               0
 10
0.0
 20
0.0
 11
1.0
 21
1.0
 12
264.63147108704226
 22
131.86675462976626
 13
0.0
 23
0.0
 14
1.0
 24
1.0
 15
0.0
 25
0.0
 16
0.0
 26
0.0
 36
1.0
 17
0.0
 27
0.0
 37
0.0
 40
4.2333333333333201
 41
0.688564
 42
50.0
 43
0.0
 44
0.0
 50
0.0
 51
0.0
 71
               0
 72
             100
 73
               1
 74
               1
 75
               0
 76
               0
 77
               0
 78
               0
  0
ENDTAB
  0
TABLE
  2
LTYPE
  5
4
100
AcDbSymbolTable
 70
              13
  0
LTYPE
  5
11
100
AcDbSymbolTableRecord
100
AcDbLinetypeTableRecord
  2
BYBLOCK
 70
              64
  3

 72
              65
 73
               0
 40
0.0
  0
LTYPE
  5
12
100
AcDbSymbolTableRecord
100
AcDbLinetypeTableRecord
  2
BYLAYER
 70
              64
  3

 72
              65
 73
               0
 40
0.0
  0
LTYPE
  5
13
100
AcDbSymbolTableRecord
100
AcDbLinetypeTableRecord
  2
CONTINUOUS
 70
              64
  3
Solid line
 72
              65
 73
               0
 40
0.0
  0
LTYPE
  5
1F
100
AcDbSymbolTableRecord
100
AcDbLinetypeTableRecord
  2
STYLE_01
 70
               0
  3

 72
              65
 73
               2
 40
0.15
 49
0.1
 74
               0
 49
-0.05
 74
               0
  0
LTYPE
  5
20
100
AcDbSymbolTableRecord
100
AcDbLinetypeTableRecord
  2
STYLE_02
 70
               0
  3

 72
              65
 73
               6
 40
0.9999999999999999
 49
0.4999999999999999
 74
               0
 49
-0.1
 74
               0
 49
0.1
 74
               0
 49
-0.1
 74
               0
 49
0.1
 74
               0
 49
-0.1
 74
               0
  0
LTYPE
  5
21
100
AcDbSymbolTableRecord
100
AcDbLinetypeTableRecord
  2
STYLE_03
 70
               0
  3

 72
              65
 73
               4
 40
0.7999999999999999
 49
0.4999999999999999
 74
               0
 49
-0.1
 74
               0
 49
0.1
 74
               0
 49
-0.1
 74
               0
  0
LTYPE
  5
22
100
AcDbSymbolTableRecord
100
AcDbLinetypeTableRecord
  2
STYLE_04
 70
               0
  3

 72
              65
 73
               4
 40
1.5999999999999999
 49
0.9999999999999999
 74
               0
 49
-0.2000000000000001
 74
               0
 49
0.2
 74
               0
 49
-0.2
 74
               0
  0
LTYPE
  5
23
100
AcDbSymbolTableRecord
100
AcDbLinetypeTableRecord
  2
STYLE_05
 70
               0
  3

 72
              65
 73
               2
 40
0.05
 49
0.0002
 74
               0
 49
-0.0498
 74
               0
  0
LTYPE
  5
24
100
AcDbSymbolTableRecord
100
AcDbLinetypeTableRecord
  2
STYLE_06
 70
               0
  3

 72
              65
 73
               4
 40
0.416656
 49
0.25
 74
               0
 49
-0.083312
 74
               0
 49
0.027772
 74
               0
 49
-0.055572
 74
               0
  0
LTYPE
  5
25
100
AcDbSymbolTableRecord
100
AcDbLinetypeTableRecord
  2
STYLE_07
 70
               0
  3

 72
              65
 73
               6
 40
0.75
 49
0.25
 74
               0
 49
-0.083312
 74
               0
 49
0.2500000000000001
 74
               0
 49
-0.083344
 74
               0
 49
0.027772
 74
               0
 49
-0.055572
 74
               0
  0
LTYPE
  5
26
100
AcDbSymbolTableRecord
100
AcDbLinetypeTableRecord
  2
STYLE_08
 70
               0
  3

 72
              65
 73
               6
 40
0.5
 49
0.25
 74
               0
 49
-0.083312
 74
               0
 49
0.027772
 74
               0
 49
-0.055572
 74
               0
 49
0.027772
 74
               0
 49
-0.055572
 74
               0
  0
LTYPE
  5
27
100
AcDbSymbolTableRecord
100
AcDbLinetypeTableRecord
  2
STYLE_09
 70
               0
  3

 72
              65
 73
               4
 40
2.0
 49
1.5
 74
               0
 49
-0.1111139999999999
 74
               0
 49
0.2777720000000001
 74
               0
 49
-0.1111139999999999
 74
               0
  0
LTYPE
  5
28
100
AcDbSymbolTableRecord
100
AcDbLinetypeTableRecord
  2
STYLE_10
 70
               0
  3

 72
              65
 73
               6
 40
2.375
 49
1.5
 74
               0
 49
-0.1111139999999999
 74
               0
 49
0.2777720000000001
 74
               0
 49
-0.1111139999999999
 74
               0
 49
0.25
 74
               0
 49
-0.125
 74
               0
  0
ENDTAB
  0
TABLE
  2
LAYER
  5
2
100
AcDbSymbolTable
 70
               6
  0
LAYER
  5
14
100
AcDbSymbolTableRecord
100
AcDbLayerTableRecord
  2
0
 70
               0
 62
               7
  6
CONTINUOUS
  0
LAYER
  5
29
100
AcDbSymbolTableRecord
100
AcDbLayerTableRecord
  2
DEFPOINTS
 70
               0
 62
               7
  6
CONTINUOUS
  0
LAYER
  5
2A
100
AcDbSymbolTableRecord
100
AcDbLayerTableRecord
  2
__
 70
               0
 62
               7
  6
CONTINUOUS
  0
LAYER
  5
2B
100
AcDbSymbolTableRecord
100
AcDbLayerTableRecord
  2
__-1
 70
               0
 62
               7
  6
CONTINUOUS
  0
LAYER
  5
2C
100
AcDbSymbolTableRecord
100
AcDbLayerTableRecord
  2
_____1
 70
               0
 62
              19
  6
CONTINUOUS
  0
LAYER
  5
2D
100
AcDbSymbolTableRecord
100
AcDbLayerTableRecord
  2
FORMAT
 70
               0
 62
               7
  6
CONTINUOUS
  0
ENDTAB
  0
TABLE
  2
STYLE
  5
3
100
AcDbSymbolTable
 70
               2
  0
STYLE
  5
17
100
AcDbSymbolTableRecord
100
AcDbTextStyleTableRecord
  2
STANDARD
 70
               0
 40
0.0
 41
1.0
 50
0.0
 71
               0
 42
0.0
  3
txt
  4
BIGFONT.SHX
  0
STYLE
  5
1E
100
AcDbSymbolTableRecord
100
AcDbTextStyleTableRecord
  2
________
 70
               0
 40
0.0
 41
1.0
 50
0.0
 71
               0
 42
0.0
  3
ＭＳ Ｐゴシック
  4

1001
ACAD
1000
ＭＳ Ｐゴシック
1071
        0
  0
ENDTAB
  0
TABLE
  2
VIEW
  5
5
100
AcDbSymbolTable
 70
               0
  0
ENDTAB
  0
TABLE
  2
UCS
  5
6
100
AcDbSymbolTable
 70
               0
  0
ENDTAB
  0
TABLE
  2
APPID
  5
8
100
AcDbSymbolTable
 70
               1
  0
APPID
  5
16
100
AcDbSymbolTableRecord
100
AcDbRegAppTableRecord
  2
ACAD
 70
               0
  0
ENDTAB
  0
TABLE
  2
DIMSTYLE
  5
9
100
AcDbSymbolTable
 70
               1
  0
DIMSTYLE
105
18
100
AcDbSymbolTableRecord
100
AcDbDimStyleTableRecord
  2
STANDARD
 70
               0
  3

  4

  5

  6

  7

 40
1.0
 41
0.18
 42
0.0625
 43
0.38
 44
0.18
 45
0.0
 46
0.0
 47
0.0
 48
0.0
 71
               0
 72
               0
 73
               1
 74
               1
 75
               0
 76
               0
 77
               0
 78
               0
140
0.18
141
0.09
142
0.0
143
25.399999999999999
144
1.0
145
0.0
146
1.0
147
0.09
170
               0
171
               2
172
               0
173
               0
174
               0
175
               0
176
               0
177
               0
178
               0
270
               2
271
               4
272
               4
273
               2
274
               2
275
               0
280
               0
281
               0
282
               0
283
               1
284
               0
285
               0
286
               0
287
               0
288
               0
340
17
  0
ENDTAB
  0
TABLE
  2
BLOCK_RECORD
  5
1
100
AcDbSymbolTable
 70
               1
  0
BLOCK_RECORD
  5
A
100
AcDbSymbolTableRecord
100
AcDbBlockTableRecord
  2
*MODEL_SPACE
  0
BLOCK_RECORD
  5
B
100
AcDbSymbolTableRecord
100
AcDbBlockTableRecord
  2
*PAPER_SPACE
  0
BLOCK_RECORD
  5
1D
100
AcDbSymbolTableRecord
100
AcDbBlockTableRecord
  2
*U0
  0
ENDTAB
  0
ENDSEC
  0
SECTION
  2
BLOCKS
  0
BLOCK
  5
D
100
AcDbEntity
  8
0
100
AcDbBlockBegin
  2
*MODEL_SPACE
 70
               0
 10
0.0
 20
0.0
 30
0.0
  3
*MODEL_SPACE
  1

  0
ENDBLK
  5
E
100
AcDbEntity
  8
0
100
AcDbBlockEnd
  0
BLOCK
  5
F
100
AcDbEntity
 67
               1
  8
0
100
AcDbBlockBegin
  2
*PAPER_SPACE
 70
               0
 10
0.0
 20
0.0
 30
0.0
  3
*PAPER_SPACE
  1

  0
ENDBLK
  5
10
100
AcDbEntity
 67
               1
  8
0
100
AcDbBlockEnd
  0
BLOCK
  5
2E
100
AcDbEntity
  8
__
100
AcDbBlockBegin
  2
*U0
 70
               1
 10
0.0
 20
0.0
 30
0.0
  3
*U0
  1

  0
LINE
  5
2F
100
AcDbEntity
  8
0
  6
CONTINUOUS
 62
               7
100
AcDbLine
 10
1.7817482845001535
 20
51.507114197183398
 30
0.0
 11
1.7148525488001525
 21
50.602102500783388
 31
0.0
  0
SPLINE
  5
30
100
AcDbEntity
  8
0
  6
CONTINUOUS
 62
               7
100
AcDbSpline
210
0.0
220
0.0
230
1.0
 70
               8
 71
               2
 72
              13
 73
              10
 74
               0
 42
0.000001
 43
0.000001
 40
0.0
 40
0.0
 40
0.0
 40
1.0
 40
1.0
 40
2.0
 40
3.0
 40
4.0
 40
5.0
 40
5.0
 40
6.0
 40
6.0
 40
6.0
 10
11.465177337003965
 20
53.237772629343482
 30
0.0
 10
11.460433284985712
 20
53.253190658286556
 30
0.0
 10
11.455689232967458
 20
53.26860868722963
 30
0.0
 10
11.049074183862885
 20
54.642968285807598
 30
0.0
 10
9.4884307556986158
 20
58.277277682719472
 30
0.0
 10
7.5376315784507568
 20
61.246003166095505
 30
0.0
 10
6.3269996290081423
 20
62.879561283773029
 30
0.0
 10
5.6042197134623137
 20
63.67616632105495
 30
0.0
 10
5.5986818251794404
 20
63.682324891975725
 30
0.0
 10
5.593143936896567
 20
63.6884834628965
 30
0.0
  0
LINE
  5
31
100
AcDbEntity
  8
0
  6
CONTINUOUS
 62
               7
100
AcDbLine
 10
1.5235994284001464
 20
61.048020295583399
 30
0.0
 11
1.4567036849001482
 21
60.143008493783384
 31
0.0
  0
LINE
  5
32
100
AcDbEntity
  8
0
  6
CONTINUOUS
 62
               7
100
AcDbLine
 10
12.087652932800168
 20
49.563224373483393
 30
0.0
 11
12.154548676300166
 21
50.46823617528338
 31
0.0
  0
SPLINE
  5
33
100
AcDbEntity
  8
0
  6
CONTINUOUS
 62
               7
100
AcDbSpline
210
0.0
220
0.0
230
1.0
 70
               8
 71
               2
 72
              13
 73
              10
 74
               0
 42
0.000001
 43
0.000001
 40
0.0
 40
0.0
 40
0.0
 40
1.0
 40
1.0
 40
2.0
 40
3.0
 40
4.0
 40
5.0
 40
5.0
 40
6.0
 40
6.0
 40
6.0
 10
-46.114477644881148
 20
-10.854427616217606
 30
0.0
 10
-46.106265217753915
 20
-10.871591748910689
 30
0.0
 10
-46.098052790626681
 20
-10.888755881603771
 30
0.0
 10
-45.853450720984128
 20
-11.404387024368702
 30
0.0
 10
-45.279074245257519
 20
-12.551582284314662
 30
0.0
 10
-43.991681269179352
 20
-14.721046878268652
 30
0.0
 10
-42.331021470085787
 20
-16.935458630203016
 30
0.0
 10
-41.655732964324116
 20
-17.679467250326326
 30
0.0
 10
-41.650733879417729
 20
-17.685026160435513
 30
0.0
 10
-41.645734794511341
 20
-17.690585070544699
 30
0.0
  0
LINE
  5
34
100
AcDbEntity
  8
0
  6
CONTINUOUS
 62
               7
100
AcDbLine
 10
45.215962744600162
 20
22.232381611583378
 30
0.0
 11
19.625751151500154
 21
32.77141736188338
 31
0.0
  0
LINE
  5
35
100
AcDbEntity
  8
0
  6
CONTINUOUS
 62
               7
100
AcDbLine
 10
22.691935704600169
 20
24.262690683783404
 30
0.0
 11
42.664545630200152
 21
16.037199129183392
 31
0.0
  0
LINE
  5
36
100
AcDbEntity
  8
0
  6
CONTINUOUS
 62
               7
100
AcDbLine
 10
-53.158351609899839
 20
20.334923636483381
 30
0.0
 11
-53.218557772499835
 21
19.520413103083399
 31
0.0
  0
LINE
  5
37
100
AcDbEntity
  8
0
  6
CONTINUOUS
 62
               7
100
AcDbLine
 10
16.291807758000161
 20
14.38241594348338
 30
0.0
 11
16.352013920600157
 21
15.196926476883391
 31
0.0
  0
LINE
  5
38
100
AcDbEntity
  8
0
  6
CONTINUOUS
 62
               7
100
AcDbLine
 10
23.415566973200171
 20
13.763512943283388
 30
0.0
 11
23.465935780100168
 21
14.444936937683394
 31
0.0
  0
LINE
  5
39
100
AcDbEntity
  8
0
  6
CONTINUOUS
 62
               7
100
AcDbLine
 10
-60.305524335999834
 20
20.637072496383382
 30
0.0
 11
-60.355893142899831
 21
19.955648501983404
 31
0.0
  0
LINE
  5
3A
100
AcDbEntity
  8
0
  6
CONTINUOUS
 62
               7
100
AcDbLine
 10
-51.607212407199839
 20
53.166597866983381
 30
0.0
 11
-53.21092388159984
 21
38.940420721683381
 31
0.0
  0
LINE
  5
3B
100
AcDbEntity
  8
0
  6
CONTINUOUS
 62
               7
100
AcDbLine
 10
19.140133935600161
 20
33.607823908483397
 30
0.0
 11
19.31346296310015
 21
38.514576851383396
 31
0.0
  0
LINE
  5
3C
100
AcDbEntity
  8
0
  6
CONTINUOUS
 62
               7
100
AcDbLine
 10
4.0844154120001548
 20
62.601805573483404
 30
0.0
 11
3.3987341505001467
 21
53.325436079983405
 31
0.0
  0
LINE
  5
3D
100
AcDbEntity
  8
0
  6
CONTINUOUS
 62
               7
100
AcDbLine
 10
2.2755669414001574
 20
61.455577278683393
 30
0.0
 11
4.0844154120001548
 21
62.601805573483404
 31
0.0
  0
LINE
  5
3E
100
AcDbEntity
  8
0
  6
CONTINUOUS
 62
               7
100
AcDbLine
 10
2.3424626849001555
 20
62.360589080483379
 30
0.0
 11
2.2755669414001574
 21
61.455577278683393
 31
0.0
  0
LINE
  5
3F
100
AcDbEntity
  8
0
  6
CONTINUOUS
 62
               7
100
AcDbLine
 10
3.7468630305001653
 20
63.250527314483378
 30
0.0
 11
2.3424626849001555
 21
62.360589080483379
 31
0.0
  0
SPLINE
  5
40
100
AcDbEntity
  8
0
  6
CONTINUOUS
 62
               7
100
AcDbSpline
210
0.0
220
0.0
230
1.0
 70
               8
 71
               2
 72
              18
 73
              15
 74
               0
 42
0.000001
 43
0.000001
 40
0.0
 40
0.0
 40
0.0
 40
1.0
 40
1.0
 40
2.0
 40
3.0
 40
4.0
 40
5.0
 40
6.0
 40
7.0
 40
8.0
 40
9.0
 40
10.0
 40
10.0
 40
11.0
 40
11.0
 40
11.0
 10
5.6853906014664659
 20
63.400653295436683
 30
0.0
 10
5.685105296972651
 20
63.403145228308205
 30
0.0
 10
5.6848199924788361
 20
63.405637161179726
 30
0.0
 10
5.6771989706345636
 20
63.481123306429453
 30
0.0
 10
5.6504696635992815
 20
63.623132827719161
 30
0.0
 10
5.5815926332412431
 20
63.732687154537444
 30
0.0
 10
5.4629366695869379
 20
63.802534841040682
 30
0.0
 10
5.19869637475243
 20
63.847129547810511
 30
0.0
 10
4.7960276165475335
 20
63.761197560921715
 30
0.0
 10
4.3836879550711814
 20
63.610957645630009
 30
0.0
 10
4.0226070289047158
 20
63.414012782032813
 30
0.0
 10
3.8390026359609664
 20
63.305738574866638
 30
0.0
 10
3.7534423887039594
 20
63.25446445010374
 30
0.0
 10
3.7501527095953122
 20
63.252495882279121
 30
0.0
 10
3.746863030486665
 20
63.250527314454501
 30
0.0
  0
LINE
  5
41
100
AcDbEntity
  8
0
  6
CONTINUOUS
 62
               7
100
AcDbLine
 10
5.0164333069001685
 20
54.35053717378338
 30
0.0
 11
5.6853906015001456
 21
63.40065329548338
 31
0.0
  0
SPLINE
  5
42
100
AcDbEntity
  8
0
  6
CONTINUOUS
 62
               7
100
AcDbSpline
210
0.0
220
0.0
230
1.0
 70
               8
 71
               2
 72
              16
 73
              13
 74
               0
 42
0.000001
 43
0.000001
 40
0.0
 40
0.0
 40
0.0
 40
1.0
 40
1.0
 40
2.0
 40
3.0
 40
4.0
 40
5.0
 40
6.0
 40
7.0
 40
8.0
 40
8.0
 40
9.0
 40
9.0
 40
9.0
 10
3.3318384147730598
 20
52.420424383573504
 30
0.0
 10
3.3361206139461501
 20
52.423361629421848
 30
0.0
 10
3.3404028131192405
 20
52.426298875270192
 30
0.0
 10
3.5208755291236429
 20
52.548603008849483
 30
0.0
 10
3.9434228917277636
 20
52.857168842136531
 30
0.0
 10
4.2908931552397434
 20
53.187175934391661
 30
0.0
 10
4.6005763545023655
 20
53.521147826498122
 30
0.0
 10
4.8224144309298111
 20
53.840803082000974
 30
0.0
 10
4.9436040643597181
 20
54.063022663949397
 30
0.0
 10
5.0014326764727315
 20
54.257694681007962
 30
0.0
 10
5.0158373332458694
 20
54.34718768213952
 30
0.0
 10
5.0161353200934684
 20
54.348862427974851
 30
0.0
 10
5.0164333069410674
 20
54.350537173810181
 30
0.0
  0
LINE
  5
43
100
AcDbEntity
  8
0
  6
CONTINUOUS
 62
               7
100
AcDbLine
 10
2.5337158053001616
 20
51.914671285583381
 30
0.0
 11
3.3318384148001456
 21
52.420424383583395
 31
0.0
  0
LINE
  5
44
100
AcDbEntity
  8
0
  6
CONTINUOUS
 62
               7
100
AcDbLine
 10
2.6006115410001627
 20
52.819682982083378
 30
0.0
 11
2.5337158053001616
 21
51.914671285583381
 31
0.0
  0
LINE
  5
45
100
AcDbEntity
  8
0
  6
CONTINUOUS
 62
               7
100
AcDbLine
 10
3.3987341505001467
 20
53.325436079983405
 30
0.0
 11
2.6006115410001627
 21
52.819682982083378
 31
0.0
  0
ARC
  5
46
100
AcDbEntity
  8
0
  6
CONTINUOUS
 62
               7
100
AcDbCircle
 10
-16.750665087199835
 20
35.296580911883382
 30
0.0
 40
28.928529546673417
100
AcDbArc
 50
17.57400883579998
 51
41.197469737600038
  0
ARC
  5
47
100
AcDbEntity
  8
0
  6
CONTINUOUS
 62
               7
100
AcDbCircle
 10
3.3893547279001695
 20
50.475781054983401
 30
0.0
 40
1.6740737921375008
100
AcDbArc
 50
120.73791671769939
 51
194.08824380649978
  0
ARC
  5
48
100
AcDbEntity
  8
0
  6
CONTINUOUS
 62
               7
100
AcDbCircle
 10
3.4803041068001477
 20
51.359161548683403
 30
0.0
 40
1.7049873511671303
100
AcDbArc
 50
121.0611458051998
 51
175.02181793499992
  0
ARC
  5
49
100
AcDbEntity
  8
0
  6
CONTINUOUS
 62
               7
100
AcDbCircle
 10
-16.081707792699845
 20
44.346697033483395
 30
0.0
 40
28.928529546675239
100
AcDbArc
 50
17.574008835800019
 51
41.197469737600002
  0
LINE
  5
4A
100
AcDbEntity
  8
0
  6
CONTINUOUS
 62
               7
100
AcDbLine
 10
11.496661733500147
 20
53.081303837083397
 30
0.0
 11
10.82770443890017
 21
44.031187715383396
 31
0.0
  0
SPLINE
  5
4B
100
AcDbEntity
  8
0
  6
CONTINUOUS
 62
               7
100
AcDbSpline
210
0.0
220
0.0
230
1.0
 70
               8
 71
               2
 72
              15
 73
              12
 74
               0
 42
0.000001
 43
0.000001
 40
0.0
 40
0.0
 40
0.0
 40
1.0
 40
1.0
 40
2.0
 40
3.0
 40
4.0
 40
5.0
 40
6.0
 40
7.0
 40
7.0
 40
8.0
 40
8.0
 40
8.0
 10
11.457753994176059
 20
53.235120214177101
 30
0.0
 10
11.457906647673525
 20
53.234939611047039
 30
0.0
 10
11.458059301170991
 20
53.234759007916978
 30
0.0
 10
11.467680341267695
 20
53.223673922449933
 30
0.0
 10
11.480552306375884
 20
53.20621738840029
 30
0.0
 10
11.488269322444566
 20
53.19318585702905
 30
0.0
 10
11.496977907225514
 20
53.172675747653699
 30
0.0
 10
11.500613248967866
 20
53.139099793650416
 30
0.0
 10
11.498588246171963
 20
53.101396162256634
 30
0.0
 10
11.496718549750298
 20
53.081929291812486
 30
0.0
 10
11.496690141603025
 20
53.081616564433389
 30
0.0
 10
11.496661733455753
 20
53.081303837054293
 30
0.0
  0
ARC
  5
4C
100
AcDbEntity
  8
0
  6
CONTINUOUS
 62
               7
100
AcDbCircle
 10
11.157111469700155
 20
49.588849439183406
 30
0.0
 40
0.9274769419267027
100
AcDbArc
 50
354.39597720979958
 51
80.751415357900328
  0
LINE
  5
4D
100
AcDbEntity
  8
0
  6
CONTINUOUS
 62
               7
100
AcDbLine
 10
12.080155578400152
 20
49.498278741683379
 30
0.0
 11
11.650025377000148
 21
46.7647920866834
 31
0.0
  0
ARC
  5
4E
100
AcDbEntity
  8
0
  6
CONTINUOUS
 62
               7
100
AcDbCircle
 10
-17.17143735689983
 20
44.575952641183392
 30
0.0
 40
23.841567679910725
100
AcDbArc
 50
29.325454879399988
 51
37.265428518500002
  0
ARC
  5
4F
100
AcDbEntity
  8
0
  6
CONTINUOUS
 62
               7
100
AcDbCircle
 10
3.1153110623001652
 20
60.025576738983403
 30
0.0
 40
1.6583340231407739
100
AcDbArc
 50
120.42288008219981
 51
217.66684653609965
  0
ARC
  5
50
100
AcDbEntity
  8
0
  6
CONTINUOUS
 62
               7
100
AcDbCircle
 10
3.222205180100147
 20
60.900036498083381
 30
0.0
 40
1.70503979541842
100
AcDbArc
 50
121.06204298940041
 51
175.02092075089973
  0
ARC
  5
51
100
AcDbEntity
  8
0
  6
CONTINUOUS
 62
               7
100
AcDbCircle
 10
11.22067396400017
 20
50.487718969283378
 30
0.0
 40
0.9340779183529822
100
AcDbArc
 50
358.80485042799995
 51
80.610166319000314
  0
SPLINE
  5
52
100
AcDbEntity
  8
0
  6
CONTINUOUS
 62
               7
100
AcDbSpline
210
0.0
220
0.0
230
1.0
 70
               8
 71
               2
 72
              17
 73
              14
 74
               0
 42
0.000001
 43
0.000001
 40
0.0
 40
0.0
 40
0.0
 40
1.0
 40
1.0
 40
2.0
 40
3.0
 40
4.0
 40
5.0
 40
6.0
 40
7.0
 40
8.0
 40
9.0
 40
9.0
 40
10.0
 40
10.0
 40
10.0
 10
-40.171623975767929
 20
-17.341080171155312
 30
0.0
 10
-40.175208427249501
 20
-17.343164484218121
 30
0.0
 10
-40.178792878731073
 20
-17.345248797280931
 30
0.0
 10
-40.286508601974148
 20
-17.408180622078305
 30
0.0
 10
-40.528337896271452
 20
-17.5458694671118
 30
0.0
 10
-40.784839026314316
 20
-17.66853639519644
 30
0.0
 10
-41.110949883084615
 20
-17.78237245594832
 30
0.0
 10
-41.366317422669781
 20
-17.810788720081632
 30
0.0
 10
-41.496543860177169
 20
-17.796851312160442
 30
0.0
 10
-41.570814739416235
 20
-17.752955587662512
 30
0.0
 10
-41.615599036101358
 20
-17.708529261794752
 30
0.0
 10
-41.636317809896084
 20
-17.684776858103618
 30
0.0
 10
-41.637014278654206
 20
-17.683990480147756
 30
0.0
 10
-41.637710747412328
 20
-17.683204102191894
 30
0.0
  0
ARC
  5
53
100
AcDbEntity
  8
0
  6
CONTINUOUS
 62
               7
100
AcDbCircle
 10
-40.268491260599845
 20
-15.362512815916602
 30
0.0
 40
1.7234235542459098
100
AcDbArc
 50
301.28593267650007
 51
350.39246125200009
  0
LINE
  5
54
100
AcDbEntity
  8
0
  6
CONTINUOUS
 62
               7
100
AcDbLine
 10
-39.373501366299834
 20
-16.835327073216604
 30
0.0
 11
-40.171623975799847
 21
-17.341080171116602
 31
0.0
  0
SPLINE
  5
55
100
AcDbEntity
  8
0
  6
CONTINUOUS
 62
               7
100
AcDbSpline
210
0.0
220
0.0
230
1.0
 70
               8
 71
               2
 72
              14
 73
              11
 74
               0
 42
0.000001
 43
0.000001
 40
0.0
 40
0.0
 40
0.0
 40
1.0
 40
1.0
 40
2.0
 40
3.0
 40
4.0
 40
5.0
 40
6.0
 40
6.0
 40
7.0
 40
7.0
 40
7.0
 10
10.316682348486253
 20
57.161571691447904
 30
0.0
 10
10.315109875573384
 20
57.163261161252265
 30
0.0
 10
10.313537402660515
 20
57.164950631056627
 30
0.0
 10
10.248091076173623
 20
57.23664117970057
 30
0.0
 10
10.129524993857032
 20
57.351724188382661
 30
0.0
 10
9.9939627017783295
 20
57.452994219684598
 30
0.0
 10
9.8619879485382143
 20
57.510799512618973
 30
0.0
 10
9.7826461468661563
 20
57.540825816749162
 30
0.0
 10
9.7425594983724721
 20
57.55532909665925
 30
0.0
 10
9.741224733669668
 20
57.555814326079116
 30
0.0
 10
9.7398899689668639
 20
57.556299555498981
 30
0.0
  0
SPLINE
  5
56
100
AcDbEntity
  8
0
  6
CONTINUOUS
 62
               7
100
AcDbSpline
210
0.0
220
0.0
230
1.0
 70
               8
 71
               2
 72
              17
 73
              14
 74
               0
 42
0.000001
 43
0.000001
 40
0.0
 40
0.0
 40
0.0
 40
1.0
 40
1.0
 40
2.0
 40
3.0
 40
4.0
 40
5.0
 40
6.0
 40
7.0
 40
8.0
 40
9.0
 40
9.0
 40
10.0
 40
10.0
 40
10.0
 10
10.518401680931461
 20
55.530856246446888
 30
0.0
 10
10.518696361929429
 20
55.532044034946864
 30
0.0
 10
10.518991042927397
 20
55.53323182344684
 30
0.0
 10
10.538718498171633
 20
55.606840927182901
 30
0.0
 10
10.56275724841943
 20
55.761246090080704
 30
0.0
 10
10.542879788570801
 20
55.927592196565797
 30
0.0
 10
10.504681480193526
 20
56.051776722968015
 30
0.0
 10
10.456164209363592
 20
56.184832750077788
 30
0.0
 10
10.377448054558627
 20
56.352107120782364
 30
0.0
 10
10.276580753534276
 20
56.493568784149318
 30
0.0
 10
10.187480141213413
 20
56.562530516663429
 30
0.0
 10
10.169412423287369
 20
56.5755939503413
 30
0.0
 10
10.169121941579562
 20
56.57580537639015
 30
0.0
 10
10.168831459871754
 20
56.576016802439
 30
0.0
  0
POLYLINE
  5
57
100
AcDbEntity
  8
0
  6
CONTINUOUS
 62
               7
100
AcDb2dPolyline
 66
               1
 10
0.0
 20
0.0
 30
0.0
 75
               5
  0
VERTEX
  5
58
100
AcDbEntity
  8
0
  6
CONTINUOUS
 62
               7
100
AcDbVertex
100
AcDb2dVertex
 10
10.317680901100161
 20
57.162517473983399
 30
0.0
  0
VERTEX
  5
59
100
AcDbEntity
  8
0
  6
CONTINUOUS
 62
               7
100
AcDbVertex
100
AcDb2dVertex
 10
10.214260195200168
 20
57.065825085083389
 30
0.0
  0
VERTEX
  5
5A
100
AcDbEntity
  8
0
  6
CONTINUOUS
 62
               7
100
AcDbVertex
100
AcDb2dVertex
 10
10.110836602800148
 20
56.969132473983393
 30
0.0
  0
SEQEND
  5
5B
100
AcDbEntity
  8
0
  6
CONTINUOUS
 62
               7
  0
SPLINE
  5
5C
100
AcDbEntity
  8
0
  6
CONTINUOUS
 62
               7
100
AcDbSpline
210
0.0
220
0.0
230
1.0
 70
               8
 71
               2
 72
              16
 73
              13
 74
               0
 42
0.000001
 43
0.000001
 40
0.0
 40
0.0
 40
0.0
 40
1.0
 40
1.0
 40
2.0
 40
3.0
 40
4.0
 40
5.0
 40
6.0
 40
7.0
 40
8.0
 40
8.0
 40
9.0
 40
9.0
 40
9.0
 10
10.383578091956551
 20
58.066583493253489
 30
0.0
 10
10.381640766871982
 20
58.068516051887926
 30
0.0
 10
10.379703441787413
 20
58.070448610522362
 30
0.0
 10
10.329475860055894
 20
58.120833333711829
 30
0.0
 10
10.219280751298911
 20
58.227414067725334
 30
0.0
 10
10.045100624812179
 20
58.370867066585049
 30
0.0
 10
9.8303981216302105
 20
58.480000440578834
 30
0.0
 10
9.6255216926224563
 20
58.547782980640505
 30
0.0
 10
9.4255210057523158
 20
58.577180034233407
 30
0.0
 10
9.2643146381440573
 20
58.588570244038436
 30
0.0
 10
9.1833579563213306
 20
58.592554646589377
 30
0.0
 10
9.1806606344011499
 20
58.592693434211782
 30
0.0
 10
9.1779633124809692
 20
58.592832221834186
 30
0.0
  0
SPLINE
  5
5D
100
AcDbEntity
  8
0
  6
CONTINUOUS
 62
               7
100
AcDbSpline
210
0.0
220
0.0
230
1.0
 70
               8
 71
               2
 72
              18
 73
              15
 74
               0
 42
0.000001
 43
0.000001
 40
0.0
 40
0.0
 40
0.0
 40
1.0
 40
1.0
 40
2.0
 40
3.0
 40
4.0
 40
5.0
 40
6.0
 40
7.0
 40
8.0
 40
9.0
 40
10.0
 40
10.0
 40
11.0
 40
11.0
 40
11.0
 10
10.585297299798768
 20
56.435866362536899
 30
0.0
 10
10.585636818148586
 20
56.437248167121297
 30
0.0
 10
10.585976336498405
 20
56.438629971705694
 30
0.0
 10
10.596348467688031
 20
56.48007078469962
 30
0.0
 10
10.62907382961474
 20
56.618916413921426
 30
0.0
 10
10.616769681945058
 20
56.819042518834493
 30
0.0
 10
10.534154544010832
 20
57.083572077049581
 30
0.0
 10
10.356973916072334
 20
57.373461445977881
 30
0.0
 10
10.160412056202986
 20
57.57054471728523
 30
0.0
 10
9.9632378599326756
 20
57.712179798476058
 30
0.0
 10
9.7568067373666025
 20
57.798226043028734
 30
0.0
 10
9.5924176474446625
 20
57.84786478691214
 30
0.0
 10
9.5090254446321154
 20
57.870535064646788
 30
0.0
 10
9.5062498856954818
 20
57.871298256623092
 30
0.0
 10
9.5034743267588482
 20
57.872061448599396
 30
0.0
  0
SPLINE
  5
5E
100
AcDbEntity
  8
0
  6
CONTINUOUS
 62
               7
100
AcDbSpline
210
0.0
220
0.0
230
1.0
 70
               8
 71
               2
 72
              16
 73
              13
 74
               0
 42
0.000001
 43
0.000001
 40
0.0
 40
0.0
 40
0.0
 40
1.0
 40
1.0
 40
2.0
 40
3.0
 40
4.0
 40
5.0
 40
6.0
 40
7.0
 40
8.0
 40
8.0
 40
9.0
 40
9.0
 40
9.0
 10
10.453993916146672
 20
55.857805995322593
 30
0.0
 10
10.454963332010962
 20
55.859739157241179
 30
0.0
 10
10.455932747875252
 20
55.861672319159766
 30
0.0
 10
10.519449870546211
 20
55.980643397594577
 30
0.0
 10
10.592473223018558
 20
56.187688827944925
 30
0.0
 10
10.611781552584702
 20
56.370020095919529
 30
0.0
 10
10.596288589737341
 20
56.567490313882985
 30
0.0
 10
10.547458343922997
 20
56.764792189815495
 30
0.0
 10
10.470724606309645
 20
56.944685027543557
 30
0.0
 10
10.369955485620707
 20
57.093915096674863
 30
0.0
 10
10.318148590406153
 20
57.159644910242747
 30
0.0
 10
10.31741743105691
 20
57.160588380602974
 30
0.0
 10
10.316686271707667
 20
57.1615318509632
 30
0.0
  0
POLYLINE
  5
5F
100
AcDbEntity
  8
0
  6
CONTINUOUS
 62
               7
100
AcDb2dPolyline
 66
               1
 10
0.0
 20
0.0
 30
0.0
 75
               5
  0
VERTEX
  5
60
100
AcDbEntity
  8
0
  6
CONTINUOUS
 62
               7
100
AcDbVertex
100
AcDb2dVertex
 10
10.384576644500171
 20
58.067529275783386
 30
0.0
  0
VERTEX
  5
61
100
AcDbEntity
  8
0
  6
CONTINUOUS
 62
               7
100
AcDbVertex
100
AcDb2dVertex
 10
10.281155938600151
 20
57.970836886883404
 30
0.0
  0
VERTEX
  5
62
100
AcDbEntity
  8
0
  6
CONTINUOUS
 62
               7
100
AcDbVertex
100
AcDb2dVertex
 10
10.177732346200159
 20
57.874144275783379
 30
0.0
  0
SEQEND
  5
63
100
AcDbEntity
  8
0
  6
CONTINUOUS
 62
               7
  0
SPLINE
  5
64
100
AcDbEntity
  8
0
  6
CONTINUOUS
 62
               7
100
AcDbSpline
210
0.0
220
0.0
230
1.0
 70
               8
 71
               2
 72
              17
 73
              14
 74
               0
 42
0.000001
 43
0.000001
 40
0.0
 40
0.0
 40
0.0
 40
1.0
 40
1.0
 40
2.0
 40
3.0
 40
4.0
 40
5.0
 40
6.0
 40
7.0
 40
8.0
 40
9.0
 40
9.0
 40
10.0
 40
10.0
 40
10.0
 10
10.450473835426962
 20
58.971595295059188
 30
0.0
 10
10.448320467521597
 20
58.973760641142306
 30
0.0
 10
10.446167099616233
 20
58.975925987225423
 30
0.0
 10
10.381900017971063
 20
59.041253090749791
 30
0.0
 10
10.249239068591223
 20
59.167324764813401
 30
0.0
 10
10.012237645465049
 20
59.340945939534578
 30
0.0
 10
9.7130211469713998
 20
59.444589833836261
 30
0.0
 10
9.4940676025507429
 20
59.493626353772697
 30
0.0
 10
9.2453942837967844
 20
59.515543236591697
 30
0.0
 10
9.0069493882397609
 20
59.48553183553588
 30
0.0
 10
8.8158712103120962
 20
59.439220027427183
 30
0.0
 10
8.7206572534547462
 20
59.412997422878647
 30
0.0
 10
8.7174822957594955
 20
59.412134060026816
 30
0.0
 10
8.7143073380642448
 20
59.411270697174984
 30
0.0
  0
SPLINE
  5
65
100
AcDbEntity
  8
0
  6
CONTINUOUS
 62
               7
100
AcDbSpline
210
0.0
220
0.0
230
1.0
 70
               8
 71
               2
 72
              18
 73
              15
 74
               0
 42
0.000001
 43
0.000001
 40
0.0
 40
0.0
 40
0.0
 40
1.0
 40
1.0
 40
2.0
 40
3.0
 40
4.0
 40
5.0
 40
6.0
 40
7.0
 40
8.0
 40
9.0
 40
10.0
 40
10.0
 40
11.0
 40
11.0
 40
11.0
 10
10.652193043269151
 20
57.340878164342598
 30
0.0
 10
10.652575119336689
 20
57.342433172767741
 30
0.0
 10
10.652957195404227
 20
57.343988181192884
 30
0.0
 10
10.675609070863473
 20
57.427791771468975
 30
0.0
 10
10.697487424558588
 20
57.599981688572058
 30
0.0
 10
10.665521497534812
 20
57.801814040952394
 30
0.0
 10
10.581998579797968
 20
58.013984234965818
 30
0.0
 10
10.412152443445038
 20
58.31095034838458
 30
0.0
 10
10.100331179622557
 20
58.572681588194058
 30
0.0
 10
9.8380226649087916
 20
58.708355398215929
 30
0.0
 10
9.5539424996091924
 20
58.802828953412131
 30
0.0
 10
9.2204885905970713
 20
58.820255523608353
 30
0.0
 10
9.0557664559315327
 20
58.813557938227774
 30
0.0
 10
9.0521905844842934
 20
58.813449811002585
 30
0.0
 10
9.048614713037054
 20
58.813341683777395
 30
0.0
  0
SPLINE
  5
66
100
AcDbEntity
  8
0
  6
CONTINUOUS
 62
               7
100
AcDbSpline
210
0.0
220
0.0
230
1.0
 70
               8
 71
               2
 72
              15
 73
              12
 74
               0
 42
0.000001
 43
0.000001
 40
0.0
 40
0.0
 40
0.0
 40
1.0
 40
1.0
 40
2.0
 40
3.0
 40
4.0
 40
5.0
 40
6.0
 40
7.0
 40
7.0
 40
8.0
 40
8.0
 40
8.0
 10
10.648640743032971
 20
57.163595776238793
 30
0.0
 10
10.648809353441493
 20
57.165472226848763
 30
0.0
 10
10.648977963850015
 20
57.167348677458733
 30
0.0
 10
10.654246954468661
 20
57.22364910522802
 30
0.0
 10
10.662157000971447
 20
57.33616371114698
 30
0.0
 10
10.660914506987737
 20
57.49064718925311
 30
0.0
 10
10.619768439190679
 20
57.665048512529921
 30
0.0
 10
10.53536803762897
 20
57.860149853554958
 30
0.0
 10
10.423901795596393
 20
58.014592354020067
 30
0.0
 10
10.384834785006959
 20
58.064915563683712
 30
0.0
 10
10.384208400092461
 20
58.065729608226306
 30
0.0
 10
10.383582015177964
 20
58.0665436527689
 30
0.0
  0
POLYLINE
  5
67
100
AcDbEntity
  8
0
  6
CONTINUOUS
 62
               7
100
AcDb2dPolyline
 66
               1
 10
0.0
 20
0.0
 30
0.0
 75
               5
  0
VERTEX
  5
68
100
AcDbEntity
  8
0
  6
CONTINUOUS
 62
               7
100
AcDbVertex
100
AcDb2dVertex
 10
10.45147238800017
 20
58.972541077583401
 30
0.0
  0
VERTEX
  5
69
100
AcDbEntity
  8
0
  6
CONTINUOUS
 62
               7
100
AcDbVertex
100
AcDb2dVertex
 10
10.348051682100149
 20
58.875848688683391
 30
0.0
  0
VERTEX
  5
6A
100
AcDbEntity
  8
0
  6
CONTINUOUS
 62
               7
100
AcDbVertex
100
AcDb2dVertex
 10
10.244628089700157
 20
58.779156077583394
 30
0.0
  0
SEQEND
  5
6B
100
AcDbEntity
  8
0
  6
CONTINUOUS
 62
               7
  0
SPLINE
  5
6C
100
AcDbEntity
  8
0
  6
CONTINUOUS
 62
               7
100
AcDbSpline
210
0.0
220
0.0
230
1.0
 70
               8
 71
               2
 72
              17
 73
              14
 74
               0
 42
0.000001
 43
0.000001
 40
0.0
 40
0.0
 40
0.0
 40
1.0
 40
1.0
 40
2.0
 40
3.0
 40
4.0
 40
5.0
 40
6.0
 40
7.0
 40
8.0
 40
9.0
 40
9.0
 40
10.0
 40
10.0
 40
10.0
 10
10.517369578897373
 20
59.876607096864802
 30
0.0
 10
10.514947617551357
 20
59.879040086790653
 30
0.0
 10
10.512525656205341
 20
59.881473076716503
 30
0.0
 10
10.38501189842934
 20
60.016267586669045
 30
0.0
 10
10.162942374036092
 20
60.186875839047872
 30
0.0
 10
9.9623414252709921
 20
60.289384647015709
 30
0.0
 10
9.6025950442574555
 20
60.405697465784016
 30
0.0
 10
9.1262785965206916
 20
60.415056325251186
 30
0.0
 10
8.7532421769014803
 20
60.319652857360637
 30
0.0
 10
8.4917353940733591
 20
60.209612573571633
 30
0.0
 10
8.3244985272843763
 20
60.084101415687428
 30
0.0
 10
8.2665328092667352
 20
60.013732598600711
 30
0.0
 10
8.2661218924014435
 20
60.013254530519305
 30
0.0
 10
8.2657109755361518
 20
60.012776462437898
 30
0.0
  0
SPLINE
  5
6D
100
AcDbEntity
  8
0
  6
CONTINUOUS
 62
               7
100
AcDbSpline
210
0.0
220
0.0
230
1.0
 70
               8
 71
               2
 72
              19
 73
              16
 74
               0
 42
0.000001
 43
0.000001
 40
0.0
 40
0.0
 40
0.0
 40
1.0
 40
1.0
 40
2.0
 40
3.0
 40
4.0
 40
5.0
 40
6.0
 40
7.0
 40
8.0
 40
9.0
 40
10.0
 40
11.0
 40
11.0
 40
12.0
 40
12.0
 40
12.0
 10
10.719088786739562
 20
58.245889966148297
 30
0.0
 10
10.719470882128562
 20
58.247444847788486
 30
0.0
 10
10.719852977517561
 20
58.248999729428675
 30
0.0
 10
10.742506668631776
 20
58.332792645433443
 30
0.0
 10
10.764380345483389
 20
58.505003960346841
 30
0.0
 10
10.732398505982403
 20
58.70692503732235
 30
0.0
 10
10.609277557268896
 20
59.024425374987715
 30
0.0
 10
10.350557189351164
 20
59.338552170493955
 30
0.0
 10
10.098102865665751
 20
59.516724890296615
 30
0.0
 10
9.7814380202457727
 20
59.667235968042917
 30
0.0
 10
9.4248108350565047
 20
59.731518025073825
 30
0.0
 10
9.1035795040989029
 20
59.739691360024779
 30
0.0
 10
8.7636652125199674
 20
59.650140098515635
 30
0.0
 10
8.6019361818178623
 20
59.589406400046926
 30
0.0
 10
8.5984092778175096
 20
59.588127981922113
 30
0.0
 10
8.5948823738171569
 20
59.586849563797301
 30
0.0
  0
SPLINE
  5
6E
100
AcDbEntity
  8
0
  6
CONTINUOUS
 62
               7
100
AcDbSpline
210
0.0
220
0.0
230
1.0
 70
               8
 71
               2
 72
              15
 73
              12
 74
               0
 42
0.000001
 43
0.000001
 40
0.0
 40
0.0
 40
0.0
 40
1.0
 40
1.0
 40
2.0
 40
3.0
 40
4.0
 40
5.0
 40
6.0
 40
7.0
 40
7.0
 40
8.0
 40
8.0
 40
8.0
 10
10.715536486503268
 20
58.068607578044379
 30
0.0
 10
10.71570509691179
 20
58.070484028654349
 30
0.0
 10
10.715873707320313
 20
58.072360479264319
 30
0.0
 10
10.72114269793893
 20
58.128660907033606
 30
0.0
 10
10.729052744441802
 20
58.241175512952765
 30
0.0
 10
10.72781025045812
 20
58.395658991058809
 30
0.0
 10
10.686664182661005
 20
58.57006031433562
 30
0.0
 10
10.60226378109941
 20
58.765161655360743
 30
0.0
 10
10.490797539066861
 20
58.919604155825596
 30
0.0
 10
10.451730528477341
 20
58.969927365489298
 30
0.0
 10
10.451104143562844
 20
58.970741410031891
 30
0.0
 10
10.450477758648347
 20
58.971555454574485
 30
0.0
  0
POLYLINE
  5
6F
100
AcDbEntity
  8
0
  6
CONTINUOUS
 62
               7
100
AcDb2dPolyline
 66
               1
 10
0.0
 20
0.0
 30
0.0
 75
               5
  0
VERTEX
  5
70
100
AcDbEntity
  8
0
  6
CONTINUOUS
 62
               7
100
AcDbVertex
100
AcDb2dVertex
 10
10.518368131500168
 20
59.877552879383387
 30
0.0
  0
VERTEX
  5
71
100
AcDbEntity
  8
0
  6
CONTINUOUS
 62
               7
100
AcDbVertex
100
AcDb2dVertex
 10
10.414947425600147
 20
59.780860490483406
 30
0.0
  0
VERTEX
  5
72
100
AcDbEntity
  8
0
  6
CONTINUOUS
 62
               7
100
AcDbVertex
100
AcDb2dVertex
 10
10.311523833200155
 20
59.684167879383381
 30
0.0
  0
SEQEND
  5
73
100
AcDbEntity
  8
0
  6
CONTINUOUS
 62
               7
  0
SPLINE
  5
74
100
AcDbEntity
  8
0
  6
CONTINUOUS
 62
               7
100
AcDbSpline
210
0.0
220
0.0
230
1.0
 70
               8
 71
               2
 72
              19
 73
              16
 74
               0
 42
0.000001
 43
0.000001
 40
0.0
 40
0.0
 40
0.0
 40
1.0
 40
1.0
 40
2.0
 40
3.0
 40
4.0
 40
5.0
 40
6.0
 40
7.0
 40
8.0
 40
9.0
 40
10.0
 40
11.0
 40
11.0
 40
12.0
 40
12.0
 40
12.0
 10
10.584265322367756
 20
60.781618898670501
 30
0.0
 10
10.581683163738901
 20
60.784213178313124
 30
0.0
 10
10.579101005110047
 20
60.786807457955746
 30
0.0
 10
10.463774618601846
 20
60.909129548478461
 30
0.0
 10
10.178629374106507
 20
61.13538132581894
 30
0.0
 10
9.8550540659966686
 20
61.254325976223555
 30
0.0
 10
9.4582467318959829
 20
61.336614566443842
 30
0.0
 10
9.0489838050018676
 20
61.289460149651319
 30
0.0
 10
8.7106606327467517
 20
61.188343321098586
 30
0.0
 10
8.4059094483861685
 20
60.999495316565827
 30
0.0
 10
8.1894601615387472
 20
60.815480720137202
 30
0.0
 10
8.0730001576111334
 20
60.649506558709419
 30
0.0
 10
8.0260989400740499
 20
60.536393967865791
 30
0.0
 10
8.009105094366177
 20
60.486105760900273
 30
0.0
 10
8.0087276443548205
 20
60.485015898194931
 30
0.0
 10
8.0083501943434641
 20
60.483926035489588
 30
0.0
  0
SPLINE
  5
75
100
AcDbEntity
  8
0
  6
CONTINUOUS
 62
               7
100
AcDbSpline
210
0.0
220
0.0
230
1.0
 70
               8
 71
               2
 72
              20
 73
              17
 74
               0
 42
0.000001
 43
0.000001
 40
0.0
 40
0.0
 40
0.0
 40
1.0
 40
1.0
 40
2.0
 40
3.0
 40
4.0
 40
5.0
 40
6.0
 40
7.0
 40
8.0
 40
9.0
 40
10.0
 40
11.0
 40
12.0
 40
12.0
 40
13.0
 40
13.0
 40
13.0
 10
10.785984530209973
 20
59.150901767953883
 30
0.0
 10
10.786392081625692
 20
59.152560334625377
 30
0.0
 10
10.786799633041412
 20
59.154218901296872
 30
0.0
 10
10.807121908512968
 20
59.230377690212975
 30
0.0
 10
10.836420439062508
 20
59.436650717392951
 30
0.0
 10
10.782642356054296
 20
59.657857611335913
 30
0.0
 10
10.663036688104384
 20
59.95179968124441
 30
0.0
 10
10.42152233065606
 20
60.233968293787626
 30
0.0
 10
10.198148644759627
 20
60.402486828071744
 30
0.0
 10
9.8463720944733524
 20
60.579226404824652
 30
0.0
 10
9.3283274517484784
 20
60.657232448829149
 30
0.0
 10
8.936006412045586
 20
60.598156038092611
 30
0.0
 10
8.6155895143533741
 20
60.487547776987384
 30
0.0
 10
8.3683045907325351
 20
60.31222364728248
 30
0.0
 10
8.280649431748671
 20
60.244484128631939
 30
0.0
 10
8.2777180668337706
 20
60.242240279157315
 30
0.0
 10
8.2747867019188703
 20
60.239996429682691
 30
0.0
  0
SPLINE
  5
76
100
AcDbEntity
  8
0
  6
CONTINUOUS
 62
               7
100
AcDbSpline
210
0.0
220
0.0
230
1.0
 70
               8
 71
               2
 72
              15
 73
              12
 74
               0
 42
0.000001
 43
0.000001
 40
0.0
 40
0.0
 40
0.0
 40
1.0
 40
1.0
 40
2.0
 40
3.0
 40
4.0
 40
5.0
 40
6.0
 40
7.0
 40
7.0
 40
8.0
 40
8.0
 40
8.0
 10
10.78263599339617
 20
58.983879288511787
 30
0.0
 10
10.782797249384487
 20
58.98569724269754
 30
0.0
 10
10.782958505372804
 20
58.987515196883294
 30
0.0
 10
10.787996903695316
 20
59.042060408080346
 30
0.0
 10
10.795570005737872
 20
59.15106862246418
 30
0.0
 10
10.794429882041456
 20
59.302174215301193
 30
0.0
 10
10.753755823899937
 20
59.475078570034839
 30
0.0
 10
10.669170299728123
 20
59.670173841950458
 30
0.0
 10
10.557678879059992
 20
59.82461547163777
 30
0.0
 10
10.518625887534384
 20
59.874939154324295
 30
0.0
 10
10.517999694826571
 20
59.875753205352197
 30
0.0
 10
10.517373502118758
 20
59.876567256380099
 30
0.0
  0
POLYLINE
  5
77
100
AcDbEntity
  8
0
  6
CONTINUOUS
 62
               7
100
AcDb2dPolyline
 66
               1
 10
0.0
 20
0.0
 30
0.0
 75
               5
  0
VERTEX
  5
78
100
AcDbEntity
  8
0
  6
CONTINUOUS
 62
               7
100
AcDbVertex
100
AcDb2dVertex
 10
10.585263750400159
 20
60.782562995483403
 30
0.0
  0
VERTEX
  5
79
100
AcDbEntity
  8
0
  6
CONTINUOUS
 62
               7
100
AcDbVertex
100
AcDb2dVertex
 10
10.481843169000157
 20
60.68587229238338
 30
0.0
  0
VERTEX
  5
7A
100
AcDbEntity
  8
0
  6
CONTINUOUS
 62
               7
100
AcDbVertex
100
AcDb2dVertex
 10
10.378419576700153
 20
60.589179681183396
 30
0.0
  0
SEQEND
  5
7B
100
AcDbEntity
  8
0
  6
CONTINUOUS
 62
               7
  0
SPLINE
  5
7C
100
AcDbEntity
  8
0
  6
CONTINUOUS
 62
               7
100
AcDbSpline
210
0.0
220
0.0
230
1.0
 70
               8
 71
               2
 72
              20
 73
              17
 74
               0
 42
0.000001
 43
0.000001
 40
0.0
 40
0.0
 40
0.0
 40
1.0
 40
1.0
 40
2.0
 40
3.0
 40
4.0
 40
5.0
 40
6.0
 40
7.0
 40
8.0
 40
9.0
 40
10.0
 40
11.0
 40
12.0
 40
12.0
 40
13.0
 40
13.0
 40
13.0
 10
10.651161065838167
 20
61.686630700476087
 30
0.0
 10
10.648578603202381
 20
61.689225074087091
 30
0.0
 10
10.645996140566595
 20
61.691819447698094
 30
0.0
 10
10.569109443466161
 20
61.770276726572774
 30
0.0
 10
10.374051806884538
 20
61.952583976707047
 30
0.0
 10
10.110589335501189
 20
62.094309561670372
 30
0.0
 10
9.7283210184575779
 20
62.218790358909786
 30
0.0
 10
9.2868310031360437
 20
62.223096883649447
 30
0.0
 10
8.9826562096189235
 20
62.160863437139
 30
0.0
 10
8.6083861738684533
 20
62.015655137758358
 30
0.0
 10
8.2255356499573935
 20
61.688690963643438
 30
0.0
 10
8.0362135415697793
 20
61.36995645827011
 30
0.0
 10
7.9607760656083286
 20
61.144878937496088
 30
0.0
 10
7.9510427421151775
 20
60.936838582866699
 30
0.0
 10
7.9564612688655956
 20
60.83661503793914
 30
0.0
 10
7.9565540283243763
 20
60.834438420131718
 30
0.0
 10
7.956646787783157
 20
60.832261802324297
 30
0.0
  0
SPLINE
  5
7D
100
AcDbEntity
  8
0
  6
CONTINUOUS
 62
               7
100
AcDbSpline
210
0.0
220
0.0
230
1.0
 70
               8
 71
               2
 72
              22
 73
              19
 74
               0
 42
0.000001
 43
0.000001
 40
0.0
 40
0.0
 40
0.0
 40
1.0
 40
1.0
 40
2.0
 40
3.0
 40
4.0
 40
5.0
 40
6.0
 40
7.0
 40
8.0
 40
9.0
 40
10.0
 40
11.0
 40
12.0
 40
13.0
 40
14.0
 40
14.0
 40
15.0
 40
15.0
 40
15.0
 10
10.852880273680356
 20
60.055913569759582
 30
0.0
 10
10.853316940415596
 20
60.057690599968311
 30
0.0
 10
10.853753607150836
 20
60.059467630177039
 30
0.0
 10
10.867247854610113
 20
60.112753227262687
 30
0.0
 10
10.8985898506768
 20
60.263201776440809
 30
0.0
 10
10.875284081774552
 20
60.49173604108023
 30
0.0
 10
10.719890424549803
 20
60.904723697011775
 30
0.0
 10
10.389447201247819
 20
61.222218402416701
 30
0.0
 10
10.03248373453367
 20
61.445264363232667
 30
0.0
 10
9.6111807447193058
 20
61.535713168523841
 30
0.0
 10
9.1680762362911281
 20
61.553814989673043
 30
0.0
 10
8.754021715881251
 20
61.418325095198696
 30
0.0
 10
8.4130570876932183
 20
61.232946219677729
 30
0.0
 10
8.1898629222289827
 20
61.007878023237112
 30
0.0
 10
8.0368845161609528
 20
60.81665831958324
 30
0.0
 10
7.9808281520932525
 20
60.614514180344401
 30
0.0
 10
7.9701792699173239
 20
60.570004131971217
 30
0.0
 10
7.9698192268430859
 20
60.568522171325057
 30
0.0
 10
7.9694591837688478
 20
60.567040210678897
 30
0.0
  0
SPLINE
  5
7E
100
AcDbEntity
  8
0
  6
CONTINUOUS
 62
               7
100
AcDbSpline
210
0.0
220
0.0
230
1.0
 70
               8
 71
               2
 72
              15
 73
              12
 74
               0
 42
0.000001
 43
0.000001
 40
0.0
 40
0.0
 40
0.0
 40
1.0
 40
1.0
 40
2.0
 40
3.0
 40
4.0
 40
5.0
 40
6.0
 40
7.0
 40
7.0
 40
8.0
 40
8.0
 40
8.0
 10
10.849327848841071
 20
59.878629495940203
 30
0.0
 10
10.849496460025208
 20
59.880505958618073
 30
0.0
 10
10.849665071209344
 20
59.882382421295944
 30
0.0
 10
10.854934085205272
 20
59.938683215104021
 30
0.0
 10
10.862844177106567
 20
60.051198503183656
 30
0.0
 10
10.861601738756846
 20
60.205682706996441
 30
0.0
 10
10.820455689990567
 20
60.380084167050029
 30
0.0
 10
10.736055269163543
 20
60.57518527270031
 30
0.0
 10
10.624589024507642
 20
60.729627741111216
 30
0.0
 10
10.585522015378146
 20
60.77995096861153
 30
0.0
 10
10.584895630483658
 20
60.780765013398664
 30
0.0
 10
10.584269245589169
 20
60.781579058185798
 30
0.0
  0
POLYLINE
  5
7F
100
AcDbEntity
  8
0
  6
CONTINUOUS
 62
               7
100
AcDb2dPolyline
 66
               1
 10
0.0
 20
0.0
 30
0.0
 75
               5
  0
VERTEX
  5
80
100
AcDbEntity
  8
0
  6
CONTINUOUS
 62
               7
100
AcDbVertex
100
AcDb2dVertex
 10
10.65215949380017
 20
61.687574797283389
 30
0.0
  0
VERTEX
  5
81
100
AcDbEntity
  8
0
  6
CONTINUOUS
 62
               7
100
AcDbVertex
100
AcDb2dVertex
 10
10.548738912500156
 20
61.590884094183394
 30
0.0
  0
VERTEX
  5
82
100
AcDbEntity
  8
0
  6
CONTINUOUS
 62
               7
100
AcDbVertex
100
AcDb2dVertex
 10
10.445315320100164
 20
61.494191482983382
 30
0.0
  0
SEQEND
  5
83
100
AcDbEntity
  8
0
  6
CONTINUOUS
 62
               7
  0
SPLINE
  5
84
100
AcDbEntity
  8
0
  6
CONTINUOUS
 62
               7
100
AcDbSpline
210
0.0
220
0.0
230
1.0
 70
               8
 71
               2
 72
              20
 73
              17
 74
               0
 42
0.000001
 43
0.000001
 40
0.0
 40
0.0
 40
0.0
 40
1.0
 40
1.0
 40
2.0
 40
3.0
 40
4.0
 40
5.0
 40
6.0
 40
7.0
 40
8.0
 40
9.0
 40
10.0
 40
11.0
 40
12.0
 40
12.0
 40
13.0
 40
13.0
 40
13.0
 10
10.718056684705445
 20
62.591640816566184
 30
0.0
 10
10.715474221967725
 20
62.594235192377823
 30
0.0
 10
10.712891759230004
 20
62.596829568189463
 30
0.0
 10
10.636005058718794
 20
62.675286920691917
 30
0.0
 10
10.440947419349996
 20
62.857594231068191
 30
0.0
 10
10.177484974751295
 20
62.999319237317678
 30
0.0
 10
9.7952167626842055
 20
63.123801125401855
 30
0.0
 10
9.3537268133846254
 20
63.128111036293632
 30
0.0
 10
9.0495520652524561
 20
63.065877475897537
 30
0.0
 10
8.6752819588271421
 20
62.920666263358129
 30
0.0
 10
8.2924315360341296
 20
62.593704994904868
 30
0.0
 10
8.1031092628311825
 20
62.274968770896919
 30
0.0
 10
8.0276716681399165
 20
62.049888891273326
 30
0.0
 10
8.0179384278997787
 20
61.841849315754303
 30
0.0
 10
8.0233570099924947
 20
61.741626798169278
 30
0.0
 10
8.0234497706230314
 20
61.739450201149637
 30
0.0
 10
8.0235425312535682
 20
61.737273604129996
 30
0.0
  0
SPLINE
  5
85
100
AcDbEntity
  8
0
  6
CONTINUOUS
 62
               7
100
AcDbSpline
210
0.0
220
0.0
230
1.0
 70
               8
 71
               2
 72
              23
 73
              20
 74
               0
 42
0.000001
 43
0.000001
 40
0.0
 40
0.0
 40
0.0
 40
1.0
 40
1.0
 40
2.0
 40
3.0
 40
4.0
 40
5.0
 40
6.0
 40
7.0
 40
8.0
 40
9.0
 40
10.0
 40
11.0
 40
12.0
 40
13.0
 40
14.0
 40
15.0
 40
15.0
 40
16.0
 40
16.0
 40
16.0
 10
10.919776017150767
 20
60.960925371565281
 30
0.0
 10
10.920212686098679
 20
60.962702401513269
 30
0.0
 10
10.920649355046592
 20
60.964479431461257
 30
0.0
 10
10.934143677193632
 20
61.017765019745525
 30
0.0
 10
10.965485688011753
 20
61.168213567185205
 30
0.0
 10
10.942045312932564
 20
61.396680635126472
 30
0.0
 10
10.836866405381173
 20
61.669938863787735
 30
0.0
 10
10.638864908834975
 20
61.969920054825366
 30
0.0
 10
10.262291623005368
 20
62.275753969123286
 30
0.0
 10
9.7846527728878385
 20
62.431057428570085
 30
0.0
 10
9.4195164804926463
 20
62.454656303285304
 30
0.0
 10
8.9832429580837783
 20
62.401618512839121
 30
0.0
 10
8.600783676685964
 20
62.209224733701632
 30
0.0
 10
8.3916777382679442
 20
62.051353793433321
 30
0.0
 10
8.1488160474058731
 20
61.7823097006507
 30
0.0
 10
8.0183700221611645
 20
61.501648207786729
 30
0.0
 10
7.9449422297489463
 20
61.279045203503898
 30
0.0
 10
7.9668571914967998
 20
61.111803343783606
 30
0.0
 10
7.9669510062989843
 20
61.110967281855395
 30
0.0
 10
7.9670448211011688
 20
61.110131219927183
 30
0.0
  0
SPLINE
  5
86
100
AcDbEntity
  8
0
  6
CONTINUOUS
 62
               7
100
AcDbSpline
210
0.0
220
0.0
230
1.0
 70
               8
 71
               2
 72
              15
 73
              12
 74
               0
 42
0.000001
 43
0.000001
 40
0.0
 40
0.0
 40
0.0
 40
1.0
 40
1.0
 40
2.0
 40
3.0
 40
4.0
 40
5.0
 40
6.0
 40
7.0
 40
7.0
 40
8.0
 40
8.0
 40
8.0
 10
10.916223592311368
 20
60.783641297745788
 30
0.0
 10
10.916392203485358
 20
60.785517758719649
 30
0.0
 10
10.916560814659348
 20
60.78739421969351
 30
0.0
 10
10.921829828334737
 20
60.843694959642363
 30
0.0
 10
10.929739919798251
 20
60.956210174157633
 30
0.0
 10
10.928497481890034
 20
61.110694452178905
 30
0.0
 10
10.887351436265774
 20
61.285096439959574
 30
0.0
 10
10.802951006247511
 20
61.480197856026763
 30
0.0
 10
10.691484692582989
 20
61.634638592159348
 30
0.0
 10
10.652417635765502
 20
61.684961107113622
 30
0.0
 10
10.651791250111131
 20
61.685775140694602
 30
0.0
 10
10.65116486445676
 20
61.686589174275582
 30
0.0
  0
POLYLINE
  5
87
100
AcDbEntity
  8
0
  6
CONTINUOUS
 62
               7
100
AcDb2dPolyline
 66
               1
 10
0.0
 20
0.0
 30
0.0
 75
               5
  0
VERTEX
  5
88
100
AcDbEntity
  8
0
  6
CONTINUOUS
 62
               7
100
AcDbVertex
100
AcDb2dVertex
 10
10.719055237300168
 20
62.592586599083404
 30
0.0
  0
VERTEX
  5
89
100
AcDbEntity
  8
0
  6
CONTINUOUS
 62
               7
100
AcDbVertex
100
AcDb2dVertex
 10
10.615634656000154
 20
62.495895895983381
 30
0.0
  0
VERTEX
  5
8A
100
AcDbEntity
  8
0
  6
CONTINUOUS
 62
               7
100
AcDbVertex
100
AcDb2dVertex
 10
10.512211063600162
 20
62.399203284783397
 30
0.0
  0
SEQEND
  5
8B
100
AcDbEntity
  8
0
  6
CONTINUOUS
 62
               7
  0
SPLINE
  5
8C
100
AcDbEntity
  8
0
  6
CONTINUOUS
 62
               7
100
AcDbSpline
210
0.0
220
0.0
230
1.0
 70
               8
 71
               2
 72
              23
 73
              20
 74
               0
 42
0.000001
 43
0.000001
 40
0.0
 40
0.0
 40
0.0
 40
1.0
 40
1.0
 40
2.0
 40
3.0
 40
4.0
 40
5.0
 40
6.0
 40
7.0
 40
8.0
 40
9.0
 40
10.0
 40
11.0
 40
12.0
 40
13.0
 40
14.0
 40
15.0
 40
15.0
 40
16.0
 40
16.0
 40
16.0
 10
10.986671760621064
 20
61.865937173370895
 30
0.0
 10
10.987108429514478
 20
61.867714201167587
 30
0.0
 10
10.987545098407892
 20
61.869491228964279
 30
0.0
 10
11.001039418711784
 20
61.92277674447493
 30
0.0
 10
11.032381424091412
 20
62.073225231657858
 30
0.0
 10
11.008941107864629
 20
62.30169363403084
 30
0.0
 10
10.903762264640292
 20
62.5749526282072
 30
0.0
 10
10.705760677194334
 20
62.874931507413777
 30
0.0
 10
10.329187368449809
 20
63.180765837281996
 30
0.0
 10
9.851548518464071
 20
63.336069123425858
 30
0.0
 10
9.486412208847085
 20
63.359668576716615
 30
0.0
 10
9.0501386849760905
 20
63.30662816471019
 30
0.0
 10
8.6676794190371851
 20
63.114235903942387
 30
0.0
 10
8.4585735473335291
 20
62.956367339228194
 30
0.0
 10
8.2157118870994594
 20
62.687322818538718
 30
0.0
 10
8.0852657014764446
 20
62.406659082464984
 30
0.0
 10
8.0118378372886383
 20
62.184055529084247
 30
0.0
 10
8.0337530572642919
 20
62.016816798884093
 30
0.0
 10
8.0338468732194315
 20
62.015980753166247
 30
0.0
 10
8.033940689174571
 20
62.0151447074484
 30
0.0
  0
SPLINE
  5
8D
100
AcDbEntity
  8
0
  6
CONTINUOUS
 62
               7
100
AcDbSpline
210
0.0
220
0.0
230
1.0
 70
               8
 71
               2
 72
              15
 73
              12
 74
               0
 42
0.000001
 43
0.000001
 40
0.0
 40
0.0
 40
0.0
 40
1.0
 40
1.0
 40
2.0
 40
3.0
 40
4.0
 40
5.0
 40
6.0
 40
7.0
 40
7.0
 40
8.0
 40
8.0
 40
8.0
 10
10.983119460384771
 20
61.68865478526709
 30
0.0
 10
10.983288070856432
 20
61.690531240060281
 30
0.0
 10
10.983456681328093
 20
61.692407694853472
 30
0.0
 10
10.98872567394254
 20
61.748708254842853
 30
0.0
 10
10.996635723171764
 20
61.861223041350343
 30
0.0
 10
10.99539322654654
 20
62.015706369424123
 30
0.0
 10
10.954247119559753
 20
62.190106401983059
 30
0.0
 10
10.86984666002256
 20
62.385206375522245
 30
0.0
 10
10.75838046115949
 20
62.539650568017606
 30
0.0
 10
10.719313500770554
 20
62.589974548695608
 30
0.0
 10
10.718687116650358
 20
62.590788605246203
 30
0.0
 10
10.718060732530162
 20
62.591602661796799
 30
0.0
  0
POLYLINE
  5
8E
100
AcDbEntity
  8
0
  6
CONTINUOUS
 62
               7
100
AcDb2dPolyline
 66
               1
 10
0.0
 20
0.0
 30
0.0
 75
               5
  0
VERTEX
  5
8F
100
AcDbEntity
  8
0
  6
CONTINUOUS
 62
               7
100
AcDbVertex
100
AcDb2dVertex
 10
42.664545630200152
 20
16.037199129183392
 30
0.0
  0
VERTEX
  5
90
100
AcDbEntity
  8
0
  6
CONTINUOUS
 62
               7
100
AcDbVertex
100
AcDb2dVertex
 10
42.731709421300152
 20
16.035511723883388
 30
0.0
  0
VERTEX
  5
91
100
AcDbEntity
  8
0
  6
CONTINUOUS
 62
               7
100
AcDbVertex
100
AcDb2dVertex
 10
42.903177525900148
 20
16.151439141883401
 30
0.0
  0
VERTEX
  5
92
100
AcDbEntity
  8
0
  6
CONTINUOUS
 62
               7
100
AcDbVertex
100
AcDb2dVertex
 10
43.12664927570016
 20
16.416962635183381
 30
0.0
  0
VERTEX
  5
93
100
AcDbEntity
  8
0
  6
CONTINUOUS
 62
               7
100
AcDbVertex
100
AcDb2dVertex
 10
43.390918239700156
 20
16.81876918308339
 30
0.0
  0
VERTEX
  5
94
100
AcDbEntity
  8
0
  6
CONTINUOUS
 62
               7
100
AcDbVertex
100
AcDb2dVertex
 10
43.682733473200173
 20
17.336710754883399
 30
0.0
  0
VERTEX
  5
95
100
AcDbEntity
  8
0
  6
CONTINUOUS
 62
               7
100
AcDbVertex
100
AcDb2dVertex
 10
43.987462445500157
 20
17.944817158183383
 30
0.0
  0
VERTEX
  5
96
100
AcDbEntity
  8
0
  6
CONTINUOUS
 62
               7
100
AcDbVertex
100
AcDb2dVertex
 10
44.289824348300172
 20
18.612594338083397
 30
0.0
  0
VERTEX
  5
97
100
AcDbEntity
  8
0
  6
CONTINUOUS
 62
               7
100
AcDbVertex
100
AcDb2dVertex
 10
44.574655849800152
 20
19.306554442283385
 30
0.0
  0
VERTEX
  5
98
100
AcDbEntity
  8
0
  6
CONTINUOUS
 62
               7
100
AcDbVertex
100
AcDb2dVertex
 10
44.827676519900152
 20
19.9919033131834
 30
0.0
  0
VERTEX
  5
99
100
AcDbEntity
  8
0
  6
CONTINUOUS
 62
               7
100
AcDbVertex
100
AcDb2dVertex
 10
45.036198210400173
 20
20.634272423183404
 30
0.0
  0
VERTEX
  5
9A
100
AcDbEntity
  8
0
  6
CONTINUOUS
 62
               7
100
AcDbVertex
100
AcDb2dVertex
 10
45.189765593900162
 20
21.201451616983405
 30
0.0
  0
VERTEX
  5
9B
100
AcDbEntity
  8
0
  6
CONTINUOUS
 62
               7
100
AcDbVertex
100
AcDb2dVertex
 10
45.280676103900149
 20
21.664998611383396
 30
0.0
  0
VERTEX
  5
9C
100
AcDbEntity
  8
0
  6
CONTINUOUS
 62
               7
100
AcDbVertex
100
AcDb2dVertex
 10
45.304370855300149
 20
22.001669574983396
 30
0.0
  0
VERTEX
  5
9D
100
AcDbEntity
  8
0
  6
CONTINUOUS
 62
               7
100
AcDbVertex
100
AcDb2dVertex
 10
45.259664818100148
 20
22.194584615483393
 30
0.0
  0
VERTEX
  5
9E
100
AcDbEntity
  8
0
  6
CONTINUOUS
 62
               7
100
AcDbVertex
100
AcDb2dVertex
 10
45.215962744600162
 20
22.232381611583378
 30
0.0
  0
SEQEND
  5
9F
100
AcDbEntity
  8
0
  6
CONTINUOUS
 62
               7
  0
POLYLINE
  5
A0
100
AcDbEntity
  8
0
  6
CONTINUOUS
 62
               7
100
AcDb2dPolyline
 66
               1
 10
0.0
 20
0.0
 30
0.0
 75
               5
  0
VERTEX
  5
A1
100
AcDbEntity
  8
0
  6
CONTINUOUS
 62
               7
100
AcDbVertex
100
AcDb2dVertex
 10
-49.761440751799839
 20
3.7904732450834047
 30
0.0
  0
VERTEX
  5
A2
100
AcDbEntity
  8
0
  6
CONTINUOUS
 62
               7
100
AcDbVertex
100
AcDb2dVertex
 10
-50.741310748499828
 20
5.7641822317833942
 30
0.0
  0
VERTEX
  5
A3
100
AcDbEntity
  8
0
  6
CONTINUOUS
 62
               7
100
AcDbVertex
100
AcDb2dVertex
 10
-51.567367170799841
 20
7.7912004624834026
 30
0.0
  0
VERTEX
  5
A4
100
AcDbEntity
  8
0
  6
CONTINUOUS
 62
               7
100
AcDbVertex
100
AcDb2dVertex
 10
-52.235664335699838
 20
9.8618731063833991
 30
0.0
  0
VERTEX
  5
A5
100
AcDbEntity
  8
0
  6
CONTINUOUS
 62
               7
100
AcDbVertex
100
AcDb2dVertex
 10
-52.743020828599853
 20
11.966331077783394
 30
0.0
  0
VERTEX
  5
A6
100
AcDbEntity
  8
0
  6
CONTINUOUS
 62
               7
100
AcDbVertex
100
AcDb2dVertex
 10
-53.08702141959985
 20
14.094544241183399
 30
0.0
  0
VERTEX
  5
A7
100
AcDbEntity
  8
0
  6
CONTINUOUS
 62
               7
100
AcDbVertex
100
AcDb2dVertex
 10
-53.266025001999836
 20
16.236370801183398
 30
0.0
  0
VERTEX
  5
A8
100
AcDbEntity
  8
0
  6
CONTINUOUS
 62
               7
100
AcDbVertex
100
AcDb2dVertex
 10
-53.279177184799849
 20
18.381606822883384
 30
0.0
  0
VERTEX
  5
A9
100
AcDbEntity
  8
0
  6
CONTINUOUS
 62
               7
100
AcDbVertex
100
AcDb2dVertex
 10
-53.12641521989984
 20
20.520026234483396
 30
0.0
  0
VERTEX
  5
AA
100
AcDbEntity
  8
0
  6
CONTINUOUS
 62
               7
100
AcDbVertex
100
AcDb2dVertex
 10
-52.80846759179984
 20
22.64143961458339
 30
0.0
  0
VERTEX
  5
AB
100
AcDbEntity
  8
0
  6
CONTINUOUS
 62
               7
100
AcDbVertex
100
AcDb2dVertex
 10
-52.326852923299853
 20
24.735738010483402
 30
0.0
  0
VERTEX
  5
AC
100
AcDbEntity
  8
0
  6
CONTINUOUS
 62
               7
100
AcDbVertex
100
AcDb2dVertex
 10
-51.683860950599851
 20
26.792939904883383
 30
0.0
  0
VERTEX
  5
AD
100
AcDbEntity
  8
0
  6
CONTINUOUS
 62
               7
100
AcDbVertex
100
AcDb2dVertex
 10
-50.88255950439985
 20
28.803242238383405
 30
0.0
  0
VERTEX
  5
AE
100
AcDbEntity
  8
0
  6
CONTINUOUS
 62
               7
100
AcDbVertex
100
AcDb2dVertex
 10
-49.926765083499831
 20
30.75706575358339
 30
0.0
  0
VERTEX
  5
AF
100
AcDbEntity
  8
0
  6
CONTINUOUS
 62
               7
100
AcDbVertex
100
AcDb2dVertex
 10
-48.821033547799843
 20
32.645099909683381
 30
0.0
  0
VERTEX
  5
B0
100
AcDbEntity
  8
0
  6
CONTINUOUS
 62
               7
100
AcDbVertex
100
AcDb2dVertex
 10
-47.570634455999837
 20
34.458345841283403
 30
0.0
  0
VERTEX
  5
B1
100
AcDbEntity
  8
0
  6
CONTINUOUS
 62
               7
100
AcDbVertex
100
AcDb2dVertex
 10
-46.181523144999844
 20
36.1881607477834
 30
0.0
  0
VERTEX
  5
B2
100
AcDbEntity
  8
0
  6
CONTINUOUS
 62
               7
100
AcDbVertex
100
AcDb2dVertex
 10
-44.660326119399841
 20
37.826308222383403
 30
0.0
  0
VERTEX
  5
B3
100
AcDbEntity
  8
0
  6
CONTINUOUS
 62
               7
100
AcDbVertex
100
AcDb2dVertex
 10
-43.014286407199833
 20
39.364974397883401
 30
0.0
  0
VERTEX
  5
B4
100
AcDbEntity
  8
0
  6
CONTINUOUS
 62
               7
100
AcDbVertex
100
AcDb2dVertex
 10
-41.251250437999843
 20
40.796829653883378
 30
0.0
  0
VERTEX
  5
B5
100
AcDbEntity
  8
0
  6
CONTINUOUS
 62
               7
100
AcDbVertex
100
AcDb2dVertex
 10
-39.379620002499834
 20
42.115050845283406
 30
0.0
  0
VERTEX
  5
B6
100
AcDbEntity
  8
0
  6
CONTINUOUS
 62
               7
100
AcDbVertex
100
AcDb2dVertex
 10
-37.408315161699832
 20
43.3133571266834
 30
0.0
  0
VERTEX
  5
B7
100
AcDbEntity
  8
0
  6
CONTINUOUS
 62
               7
100
AcDbVertex
100
AcDb2dVertex
 10
-35.346730021299848
 20
44.38603797808338
 30
0.0
  0
VERTEX
  5
B8
100
AcDbEntity
  8
0
  6
CONTINUOUS
 62
               7
100
AcDbVertex
100
AcDb2dVertex
 10
-33.204686317299846
 20
45.327978508883405
 30
0.0
  0
VERTEX
  5
B9
100
AcDbEntity
  8
0
  6
CONTINUOUS
 62
               7
100
AcDbVertex
100
AcDb2dVertex
 10
-30.992392320699835
 20
46.134689606283388
 30
0.0
  0
VERTEX
  5
BA
100
AcDbEntity
  8
0
  6
CONTINUOUS
 62
               7
100
AcDbVertex
100
AcDb2dVertex
 10
-28.720393292399834
 20
46.802331117083384
 30
0.0
  0
VERTEX
  5
BB
100
AcDbEntity
  8
0
  6
CONTINUOUS
 62
               7
100
AcDbVertex
100
AcDb2dVertex
 10
-26.399516752599837
 20
47.327721885883392
 30
0.0
  0
VERTEX
  5
BC
100
AcDbEntity
  8
0
  6
CONTINUOUS
 62
               7
100
AcDbVertex
100
AcDb2dVertex
 10
-24.040817905299846
 20
47.708351749183379
 30
0.0
  0
VERTEX
  5
BD
100
AcDbEntity
  8
0
  6
CONTINUOUS
 62
               7
100
AcDbVertex
100
AcDb2dVertex
 10
-21.655540767799849
 20
47.9424123276834
 30
0.0
  0
VERTEX
  5
BE
100
AcDbEntity
  8
0
  6
CONTINUOUS
 62
               7
100
AcDbVertex
100
AcDb2dVertex
 10
-19.255051652999853
 20
48.028787837583394
 30
0.0
  0
VERTEX
  5
BF
100
AcDbEntity
  8
0
  6
CONTINUOUS
 62
               7
100
AcDbVertex
100
AcDb2dVertex
 10
-16.850790239199839
 20
47.967063506983379
 30
0.0
  0
VERTEX
  5
C0
100
AcDbEntity
  8
0
  6
CONTINUOUS
 62
               7
100
AcDbVertex
100
AcDb2dVertex
 10
-14.454212769999842
 20
47.757536926283393
 30
0.0
  0
VERTEX
  5
C1
100
AcDbEntity
  8
0
  6
CONTINUOUS
 62
               7
100
AcDbVertex
100
AcDb2dVertex
 10
-12.076742371499833
 20
47.401204352583392
 30
0.0
  0
VERTEX
  5
C2
100
AcDbEntity
  8
0
  6
CONTINUOUS
 62
               7
100
AcDbVertex
100
AcDb2dVertex
 10
-9.7297067770998495
 20
46.899765260683381
 30
0.0
  0
VERTEX
  5
C3
100
AcDbEntity
  8
0
  6
CONTINUOUS
 62
               7
100
AcDbVertex
100
AcDb2dVertex
 10
-7.424288644599855
 20
46.25560864778339
 30
0.0
  0
VERTEX
  5
C4
100
AcDbEntity
  8
0
  6
CONTINUOUS
 62
               7
100
AcDbVertex
100
AcDb2dVertex
 10
-5.1714791580998423
 20
45.471803416983391
 30
0.0
  0
VERTEX
  5
C5
100
AcDbEntity
  8
0
  6
CONTINUOUS
 62
               7
100
AcDbVertex
100
AcDb2dVertex
 10
-2.9820119204998292
 20
44.552086875083404
 30
0.0
  0
VERTEX
  5
C6
100
AcDbEntity
  8
0
  6
CONTINUOUS
 62
               7
100
AcDbVertex
100
AcDb2dVertex
 10
-0.866319429899832
 20
43.500838919583401
 30
0.0
  0
VERTEX
  5
C7
100
AcDbEntity
  8
0
  6
CONTINUOUS
 62
               7
100
AcDbVertex
100
AcDb2dVertex
 10
1.1655159199001588
 20
42.323072016883401
 30
0.0
  0
VERTEX
  5
C8
100
AcDbEntity
  8
0
  6
CONTINUOUS
 62
               7
100
AcDbVertex
100
AcDb2dVertex
 10
3.1038078264001712
 20
41.024396682683403
 30
0.0
  0
VERTEX
  5
C9
100
AcDbEntity
  8
0
  6
CONTINUOUS
 62
               7
100
AcDbVertex
100
AcDb2dVertex
 10
4.9393239739001586
 20
39.611003235583382
 30
0.0
  0
VERTEX
  5
CA
100
AcDbEntity
  8
0
  6
CONTINUOUS
 62
               7
100
AcDbVertex
100
AcDb2dVertex
 10
6.6633165554001579
 20
38.089626718583389
 30
0.0
  0
VERTEX
  5
CB
100
AcDbEntity
  8
0
  6
CONTINUOUS
 62
               7
100
AcDbVertex
100
AcDb2dVertex
 10
8.2675688075001545
 20
36.467517346883398
 30
0.0
  0
VERTEX
  5
CC
100
AcDbEntity
  8
0
  6
CONTINUOUS
 62
               7
100
AcDbVertex
100
AcDb2dVertex
 10
9.7444340138001593
 20
34.752403367283392
 30
0.0
  0
VERTEX
  5
CD
100
AcDbEntity
  8
0
  6
CONTINUOUS
 62
               7
100
AcDbVertex
100
AcDb2dVertex
 10
11.08687809240017
 20
32.952460761483394
 30
0.0
  0
VERTEX
  5
CE
100
AcDbEntity
  8
0
  6
CONTINUOUS
 62
               7
100
AcDbVertex
100
AcDb2dVertex
 10
12.288503094600159
 20
31.076267123283401
 30
0.0
  0
VERTEX
  5
CF
100
AcDbEntity
  8
0
  6
CONTINUOUS
 62
               7
100
AcDbVertex
100
AcDb2dVertex
 10
13.343577085100165
 20
29.132758904983405
 30
0.0
  0
VERTEX
  5
D0
100
AcDbEntity
  8
0
  6
CONTINUOUS
 62
               7
100
AcDbVertex
100
AcDb2dVertex
 10
14.247079697800146
 20
27.131203081983386
 30
0.0
  0
VERTEX
  5
D1
100
AcDbEntity
  8
0
  6
CONTINUOUS
 62
               7
100
AcDbVertex
100
AcDb2dVertex
 10
14.994701456000158
 20
25.081135877083398
 30
0.0
  0
VERTEX
  5
D2
100
AcDbEntity
  8
0
  6
CONTINUOUS
 62
               7
100
AcDbVertex
100
AcDb2dVertex
 10
15.582881000700169
 20
22.992327823483379
 30
0.0
  0
VERTEX
  5
D3
100
AcDbEntity
  8
0
  6
CONTINUOUS
 62
               7
100
AcDbVertex
100
AcDb2dVertex
 10
16.008812208300171
 20
20.8747297490834
 30
0.0
  0
VERTEX
  5
D4
100
AcDbEntity
  8
0
  6
CONTINUOUS
 62
               7
100
AcDbVertex
100
AcDb2dVertex
 10
16.270468826500164
 20
18.73843653428338
 30
0.0
  0
VERTEX
  5
D5
100
AcDbEntity
  8
0
  6
CONTINUOUS
 62
               7
100
AcDbVertex
100
AcDb2dVertex
 10
16.366605159500168
 20
16.593626965783386
 30
0.0
  0
VERTEX
  5
D6
100
AcDbEntity
  8
0
  6
CONTINUOUS
 62
               7
100
AcDbVertex
100
AcDb2dVertex
 10
16.296757984100154
 20
14.450521825883385
 30
0.0
  0
VERTEX
  5
D7
100
AcDbEntity
  8
0
  6
CONTINUOUS
 62
               7
100
AcDbVertex
100
AcDb2dVertex
 10
16.061263658700156
 20
12.319337233283392
 30
0.0
  0
VERTEX
  5
D8
100
AcDbEntity
  8
0
  6
CONTINUOUS
 62
               7
100
AcDbVertex
100
AcDb2dVertex
 10
15.661243341700171
 20
10.210223937783383
 30
0.0
  0
VERTEX
  5
D9
100
AcDbEntity
  8
0
  6
CONTINUOUS
 62
               7
100
AcDbVertex
100
AcDb2dVertex
 10
15.098605455400147
 20
8.1332360235833789
 30
0.0
  0
VERTEX
  5
DA
100
AcDbEntity
  8
0
  6
CONTINUOUS
 62
               7
100
AcDbVertex
100
AcDb2dVertex
 10
14.376028304300164
 20
6.0982706095833805
 30
0.0
  0
VERTEX
  5
DB
100
AcDbEntity
  8
0
  6
CONTINUOUS
 62
               7
100
AcDbVertex
100
AcDb2dVertex
 10
13.496955284900153
 20
4.1150257952834011
 30
0.0
  0
VERTEX
  5
DC
100
AcDbEntity
  8
0
  6
CONTINUOUS
 62
               7
100
AcDbVertex
100
AcDb2dVertex
 10
12.465577709000158
 20
2.1929528126833873
 30
0.0
  0
VERTEX
  5
DD
100
AcDbEntity
  8
0
  6
CONTINUOUS
 62
               7
100
AcDbVertex
100
AcDb2dVertex
 10
11.286809825500157
 20
0.3412093939834051
 30
0.0
  0
VERTEX
  5
DE
100
AcDbEntity
  8
0
  6
CONTINUOUS
 62
               7
100
AcDbVertex
100
AcDb2dVertex
 10
9.9662699336001452
 20
-1.4313788932166176
 30
0.0
  0
VERTEX
  5
DF
100
AcDbEntity
  8
0
  6
CONTINUOUS
 62
               7
100
AcDbVertex
100
AcDb2dVertex
 10
8.510246507200165
 20
-3.1163627009165964
 30
0.0
  0
VERTEX
  5
E0
100
AcDbEntity
  8
0
  6
CONTINUOUS
 62
               7
100
AcDbVertex
100
AcDb2dVertex
 10
6.9256832775001698
 20
-4.7057153185166101
 30
0.0
  0
VERTEX
  5
E1
100
AcDbEntity
  8
0
  6
CONTINUOUS
 62
               7
100
AcDbVertex
100
AcDb2dVertex
 10
5.2201306791001656
 20
-6.1918634401166059
 30
0.0
  0
VERTEX
  5
E2
100
AcDbEntity
  8
0
  6
CONTINUOUS
 62
               7
100
AcDbVertex
100
AcDb2dVertex
 10
3.401715182800146
 20
-7.567723026216612
 30
0.0
  0
VERTEX
  5
E3
100
AcDbEntity
  8
0
  6
CONTINUOUS
 62
               7
100
AcDbVertex
100
AcDb2dVertex
 10
1.4791010765001573
 20
-8.8267358441165982
 30
0.0
  0
VERTEX
  5
E4
100
AcDbEntity
  8
0
  6
CONTINUOUS
 62
               7
100
AcDbVertex
100
AcDb2dVertex
 10
-0.5385469090998498
 20
-9.9629054723166064
 30
0.0
  0
VERTEX
  5
E5
100
AcDbEntity
  8
0
  6
CONTINUOUS
 62
               7
100
AcDbVertex
100
AcDb2dVertex
 10
-2.6416142064998525
 20
-10.970817047116611
 30
0.0
  0
VERTEX
  5
E6
100
AcDbEntity
  8
0
  6
CONTINUOUS
 62
               7
100
AcDbVertex
100
AcDb2dVertex
 10
-4.8200801664998352
 20
-11.845664989416605
 30
0.0
  0
VERTEX
  5
E7
100
AcDbEntity
  8
0
  6
CONTINUOUS
 62
               7
100
AcDbVertex
100
AcDb2dVertex
 10
-7.0635636004998474
 20
-12.583281863516618
 30
0.0
  0
VERTEX
  5
E8
100
AcDbEntity
  8
0
  6
CONTINUOUS
 62
               7
100
AcDbVertex
100
AcDb2dVertex
 10
-9.3613707784998468
 20
-13.180152364316598
 30
0.0
  0
VERTEX
  5
E9
100
AcDbEntity
  8
0
  6
CONTINUOUS
 62
               7
100
AcDbVertex
100
AcDb2dVertex
 10
-11.702555308499839
 20
-13.633430725516604
 30
0.0
  0
VERTEX
  5
EA
100
AcDbEntity
  8
0
  6
CONTINUOUS
 62
               7
100
AcDbVertex
100
AcDb2dVertex
 10
-14.075956459299832
 20
-13.940960896716604
 30
0.0
  0
VERTEX
  5
EB
100
AcDbEntity
  8
0
  6
CONTINUOUS
 62
               7
100
AcDbVertex
100
AcDb2dVertex
 10
-16.470265404799832
 20
-14.101273342316603
 30
0.0
  0
VERTEX
  5
EC
100
AcDbEntity
  8
0
  6
CONTINUOUS
 62
               7
100
AcDbVertex
100
AcDb2dVertex
 10
-18.874074016599835
 20
-14.113607746416619
 30
0.0
  0
VERTEX
  5
ED
100
AcDbEntity
  8
0
  6
CONTINUOUS
 62
               7
100
AcDbVertex
100
AcDb2dVertex
 10
-21.275923452899846
 20
-13.977900676916619
 30
0.0
  0
VERTEX
  5
EE
100
AcDbEntity
  8
0
  6
CONTINUOUS
 62
               7
100
AcDbVertex
100
AcDb2dVertex
 10
-23.664370743999839
 20
-13.694803136716615
 30
0.0
  0
VERTEX
  5
EF
100
AcDbEntity
  8
0
  6
CONTINUOUS
 62
               7
100
AcDbVertex
100
AcDb2dVertex
 10
-26.028033548399847
 20
-13.265661692216611
 30
0.0
  0
VERTEX
  5
F0
100
AcDbEntity
  8
0
  6
CONTINUOUS
 62
               7
100
AcDbVertex
100
AcDb2dVertex
 10
-28.355646815899846
 20
-12.692521522416598
 30
0.0
  0
VERTEX
  5
F1
100
AcDbEntity
  8
0
  6
CONTINUOUS
 62
               7
100
AcDbVertex
100
AcDb2dVertex
 10
-30.636119587899842
 20
-11.978115179516607
 30
0.0
  0
VERTEX
  5
F2
100
AcDbEntity
  8
0
  6
CONTINUOUS
 62
               7
100
AcDbVertex
100
AcDb2dVertex
 10
-32.858581669599843
 20
-11.125846985716606
 30
0.0
  0
VERTEX
  5
F3
100
AcDbEntity
  8
0
  6
CONTINUOUS
 62
               7
100
AcDbVertex
100
AcDb2dVertex
 10
-35.012444809399838
 20
-10.139776354516613
 30
0.0
  0
VERTEX
  5
F4
100
AcDbEntity
  8
0
  6
CONTINUOUS
 62
               7
100
AcDbVertex
100
AcDb2dVertex
 10
-37.087445128599839
 20
-9.0246046327166027
 30
0.0
  0
VERTEX
  5
F5
100
AcDbEntity
  8
0
  6
CONTINUOUS
 62
               7
100
AcDbVertex
100
AcDb2dVertex
 10
-39.07369403599985
 20
-7.7856457565166011
 30
0.0
  0
VERTEX
  5
F6
100
AcDbEntity
  8
0
  6
CONTINUOUS
 62
               7
100
AcDbVertex
100
AcDb2dVertex
 10
-40.961722162899846
 20
-6.4288027528166083
 30
0.0
  0
VERTEX
  5
F7
100
AcDbEntity
  8
0
  6
CONTINUOUS
 62
               7
100
AcDbVertex
100
AcDb2dVertex
 10
-42.742538079099845
 20
-4.9605428259166047
 30
0.0
  0
VERTEX
  5
F8
100
AcDbEntity
  8
0
  6
CONTINUOUS
 62
               7
100
AcDbVertex
100
AcDb2dVertex
 10
-44.407651971599833
 20
-3.3878623056166077
 30
0.0
  0
VERTEX
  5
F9
100
AcDbEntity
  8
0
  6
CONTINUOUS
 62
               7
100
AcDbVertex
100
AcDb2dVertex
 10
-45.949128202099828
 20
-1.7182552642165945
 30
0.0
  0
VERTEX
  5
FA
100
AcDbEntity
  8
0
  6
CONTINUOUS
 62
               7
100
AcDbVertex
100
AcDb2dVertex
 10
-47.359625477299844
 20
0.0403194264833928
 30
0.0
  0
VERTEX
  5
FB
100
AcDbEntity
  8
0
  6
CONTINUOUS
 62
               7
100
AcDbVertex
100
AcDb2dVertex
 10
-48.632416353499835
 20
1.8794849047833964
 30
0.0
  0
VERTEX
  5
FC
100
AcDbEntity
  8
0
  6
CONTINUOUS
 62
               7
100
AcDbVertex
100
AcDb2dVertex
 10
-49.761440751799839
 20
3.7904732450834047
 30
0.0
  0
SEQEND
  5
FD
100
AcDbEntity
  8
0
  6
CONTINUOUS
 62
               7
  0
POLYLINE
  5
FE
100
AcDbEntity
  8
0
  6
CONTINUOUS
 62
               7
100
AcDb2dPolyline
 66
               1
 10
0.0
 20
0.0
 30
0.0
 75
               5
  0
VERTEX
  5
FF
100
AcDbEntity
  8
0
  6
CONTINUOUS
 62
               7
100
AcDbVertex
100
AcDb2dVertex
 10
9.826123608700172
 20
28.847242890383399
 30
0.0
  0
VERTEX
  5
100
100
AcDbEntity
  8
0
  6
CONTINUOUS
 62
               7
100
AcDbVertex
100
AcDb2dVertex
 10
10.759059491500167
 20
26.957975782183382
 30
0.0
  0
VERTEX
  5
101
100
AcDbEntity
  8
0
  6
CONTINUOUS
 62
               7
100
AcDbVertex
100
AcDb2dVertex
 10
11.536079922200159
 20
25.015318657583379
 30
0.0
  0
VERTEX
  5
102
100
AcDbEntity
  8
0
  6
CONTINUOUS
 62
               7
100
AcDbVertex
100
AcDb2dVertex
 10
12.153040481600172
 20
23.029636218383388
 30
0.0
  0
VERTEX
  5
103
100
AcDbEntity
  8
0
  6
CONTINUOUS
 62
               7
100
AcDbVertex
100
AcDb2dVertex
 10
12.60665080380015
 20
21.0115258117834
 30
0.0
  0
VERTEX
  5
104
100
AcDbEntity
  8
0
  6
CONTINUOUS
 62
               7
100
AcDbVertex
100
AcDb2dVertex
 10
12.894487442200145
 20
18.97175062758339
 30
0.0
  0
VERTEX
  5
105
100
AcDbEntity
  8
0
  6
CONTINUOUS
 62
               7
100
AcDbVertex
100
AcDb2dVertex
 10
13.015016179600153
 20
16.921197875283383
 30
0.0
  0
VERTEX
  5
106
100
AcDbEntity
  8
0
  6
CONTINUOUS
 62
               7
100
AcDbVertex
100
AcDb2dVertex
 10
12.967595860200149
 20
14.8708062569834
 30
0.0
  0
VERTEX
  5
107
100
AcDbEntity
  8
0
  6
CONTINUOUS
 62
               7
100
AcDbVertex
100
AcDb2dVertex
 10
12.75247606380016
 20
12.831515207883399
 30
0.0
  0
VERTEX
  5
108
100
AcDbEntity
  8
0
  6
CONTINUOUS
 62
               7
100
AcDbVertex
100
AcDb2dVertex
 10
12.370806002200155
 20
10.814205845783391
 30
0.0
  0
VERTEX
  5
109
100
AcDbEntity
  8
0
  6
CONTINUOUS
 62
               7
100
AcDbVertex
100
AcDb2dVertex
 10
11.824623844000158
 20
8.8296408135833815
 30
0.0
  0
VERTEX
  5
10A
100
AcDbEntity
  8
0
  6
CONTINUOUS
 62
               7
100
AcDbVertex
100
AcDb2dVertex
 10
11.11684015410016
 20
6.8884086064833809
 30
0.0
  0
VERTEX
  5
10B
100
AcDbEntity
  8
0
  6
CONTINUOUS
 62
               7
100
AcDbVertex
100
AcDb2dVertex
 10
10.251234745900163
 20
5.0008681840834015
 30
0.0
  0
VERTEX
  5
10C
100
AcDbEntity
  8
0
  6
CONTINUOUS
 62
               7
100
AcDbVertex
100
AcDb2dVertex
 10
9.2324243806001647
 20
3.177087431183395
 30
0.0
  0
VERTEX
  5
10D
100
AcDbEntity
  8
0
  6
CONTINUOUS
 62
               7
100
AcDbVertex
100
AcDb2dVertex
 10
8.065844907100157
 20
1.4267989821833851
 30
0.0
  0
VERTEX
  5
10E
100
AcDbEntity
  8
0
  6
CONTINUOUS
 62
               7
100
AcDbVertex
100
AcDb2dVertex
 10
6.757720123800155
 20
-0.2406585279166222
 30
0.0
  0
VERTEX
  5
10F
100
AcDbEntity
  8
0
  6
CONTINUOUS
 62
               7
100
AcDbVertex
100
AcDb2dVertex
 10
5.3150289659001686
 20
-1.8163879529166138
 30
0.0
  0
VERTEX
  5
110
100
AcDbEntity
  8
0
  6
CONTINUOUS
 62
               7
100
AcDbVertex
100
AcDb2dVertex
 10
3.7454711513001513
 20
-3.2919841551166087
 30
0.0
  0
VERTEX
  5
111
100
AcDbEntity
  8
0
  6
CONTINUOUS
 62
               7
100
AcDbVertex
100
AcDb2dVertex
 10
2.0574190547001621
 20
-4.6595727154166013
 30
0.0
  0
VERTEX
  5
112
100
AcDbEntity
  8
0
  6
CONTINUOUS
 62
               7
100
AcDbVertex
100
AcDb2dVertex
 10
0.2598792227001496
 20
-5.9118569106166206
 30
0.0
  0
VERTEX
  5
113
100
AcDbEntity
  8
0
  6
CONTINUOUS
 62
               7
100
AcDbVertex
100
AcDb2dVertex
 10
-1.6375562226998426
 20
-7.0421567213166156
 30
0.0
  0
VERTEX
  5
114
100
AcDbEntity
  8
0
  6
CONTINUOUS
 62
               7
100
AcDbVertex
100
AcDb2dVertex
 10
-3.62476522079983
 20
-8.0444399813166001
 30
0.0
  0
VERTEX
  5
115
100
AcDbEntity
  8
0
  6
CONTINUOUS
 62
               7
100
AcDbVertex
100
AcDb2dVertex
 10
-5.6911448047998334
 20
-8.913359608716604
 30
0.0
  0
VERTEX
  5
116
100
AcDbEntity
  8
0
  6
CONTINUOUS
 62
               7
100
AcDbVertex
100
AcDb2dVertex
 10
-7.8256697062998484
 20
-9.6442784212165975
 30
0.0
  0
VERTEX
  5
117
100
AcDbEntity
  8
0
  6
CONTINUOUS
 62
               7
100
AcDbVertex
100
AcDb2dVertex
 10
-10.016950498899845
 20
-10.233299819616605
 30
0.0
  0
VERTEX
  5
118
100
AcDbEntity
  8
0
  6
CONTINUOUS
 62
               7
100
AcDbVertex
100
AcDb2dVertex
 10
-12.253298011199846
 20
-10.677277801016601
 30
0.0
  0
VERTEX
  5
119
100
AcDbEntity
  8
0
  6
CONTINUOUS
 62
               7
100
AcDbVertex
100
AcDb2dVertex
 10
-14.522778894799828
 20
-10.973843957216616
 30
0.0
  0
VERTEX
  5
11A
100
AcDbEntity
  8
0
  6
CONTINUOUS
 62
               7
100
AcDbVertex
100
AcDb2dVertex
 10
-16.813283579199847
 20
-11.121417678816613
 30
0.0
  0
VERTEX
  5
11B
100
AcDbEntity
  8
0
  6
CONTINUOUS
 62
               7
100
AcDbVertex
100
AcDb2dVertex
 10
-19.112592652899835
 20
-11.119211254916621
 30
0.0
  0
VERTEX
  5
11C
100
AcDbEntity
  8
0
  6
CONTINUOUS
 62
               7
100
AcDbVertex
100
AcDb2dVertex
 10
-21.408438384999855
 20
-10.96723394761662
 30
0.0
  0
VERTEX
  5
11D
100
AcDbEntity
  8
0
  6
CONTINUOUS
 62
               7
100
AcDbVertex
100
AcDb2dVertex
 10
-23.688570421899854
 20
-10.666300764816611
 30
0.0
  0
VERTEX
  5
11E
100
AcDbEntity
  8
0
  6
CONTINUOUS
 62
               7
100
AcDbVertex
100
AcDb2dVertex
 10
-25.940823263299833
 20
-10.218013611416609
 30
0.0
  0
VERTEX
  5
11F
100
AcDbEntity
  8
0
  6
CONTINUOUS
 62
               7
100
AcDbVertex
100
AcDb2dVertex
 10
-28.153180042299837
 20
-9.6247667946166189
 30
0.0
  0
VERTEX
  5
120
100
AcDbEntity
  8
0
  6
CONTINUOUS
 62
               7
100
AcDbVertex
100
AcDb2dVertex
 10
-30.313839180299837
 20
-8.8897235468166116
 30
0.0
  0
VERTEX
  5
121
100
AcDbEntity
  8
0
  6
CONTINUOUS
 62
               7
100
AcDbVertex
100
AcDb2dVertex
 10
-32.411271050199829
 20
-8.0168077803166113
 30
0.0
  0
VERTEX
  5
122
100
AcDbEntity
  8
0
  6
CONTINUOUS
 62
               7
100
AcDbVertex
100
AcDb2dVertex
 10
-34.434284357699838
 20
-7.01067530291661
 30
0.0
  0
VERTEX
  5
123
100
AcDbEntity
  8
0
  6
CONTINUOUS
 62
               7
100
AcDbVertex
100
AcDb2dVertex
 10
-36.372085404699831
 20
-5.876693872316622
 30
0.0
  0
VERTEX
  5
124
100
AcDbEntity
  8
0
  6
CONTINUOUS
 62
               7
100
AcDbVertex
100
AcDb2dVertex
 10
-38.214336669499843
 20
-4.6209156286166149
 30
0.0
  0
VERTEX
  5
125
100
AcDbEntity
  8
0
  6
CONTINUOUS
 62
               7
100
AcDbVertex
100
AcDb2dVertex
 10
-39.95120758419985
 20
-3.2500394499166134
 30
0.0
  0
VERTEX
  5
126
100
AcDbEntity
  8
0
  6
CONTINUOUS
 62
               7
100
AcDbVertex
100
AcDb2dVertex
 10
-41.573432978199847
 20
-1.771380731516615
 30
0.0
  0
VERTEX
  5
127
100
AcDbEntity
  8
0
  6
CONTINUOUS
 62
               7
100
AcDbVertex
100
AcDb2dVertex
 10
-43.072352495599844
 20
-0.192825259416594
 30
0.0
  0
VERTEX
  5
128
100
AcDbEntity
  8
0
  6
CONTINUOUS
 62
               7
100
AcDbVertex
100
AcDb2dVertex
 10
-44.439975300499853
 20
1.4772003157833922
 30
0.0
  0
VERTEX
  5
129
100
AcDbEntity
  8
0
  6
CONTINUOUS
 62
               7
100
AcDbVertex
100
AcDb2dVertex
 10
-45.669000777799837
 20
3.2297880697833818
 30
0.0
  0
VERTEX
  5
12A
100
AcDbEntity
  8
0
  6
CONTINUOUS
 62
               7
100
AcDbVertex
100
AcDb2dVertex
 10
-46.752873623199847
 20
5.0555861561833808
 30
0.0
  0
VERTEX
  5
12B
100
AcDbEntity
  8
0
  6
CONTINUOUS
 62
               7
100
AcDbVertex
100
AcDb2dVertex
 10
-47.685809505999842
 20
6.9448532642833811
 30
0.0
  0
VERTEX
  5
12C
100
AcDbEntity
  8
0
  6
CONTINUOUS
 62
               7
100
AcDbVertex
100
AcDb2dVertex
 10
-48.462829936699833
 20
8.8875103889834008
 30
0.0
  0
VERTEX
  5
12D
100
AcDbEntity
  8
0
  6
CONTINUOUS
 62
               7
100
AcDbVertex
100
AcDb2dVertex
 10
-49.079790496099847
 20
10.873192828183392
 30
0.0
  0
VERTEX
  5
12E
100
AcDbEntity
  8
0
  6
CONTINUOUS
 62
               7
100
AcDbVertex
100
AcDb2dVertex
 10
-49.533400818199837
 20
12.891303234783379
 30
0.0
  0
VERTEX
  5
12F
100
AcDbEntity
  8
0
  6
CONTINUOUS
 62
               7
100
AcDbVertex
100
AcDb2dVertex
 10
-49.821237456699848
 20
14.93107841898339
 30
0.0
  0
VERTEX
  5
130
100
AcDbEntity
  8
0
  6
CONTINUOUS
 62
               7
100
AcDbVertex
100
AcDb2dVertex
 10
-49.941766194099827
 20
16.981631171283396
 30
0.0
  0
VERTEX
  5
131
100
AcDbEntity
  8
0
  6
CONTINUOUS
 62
               7
100
AcDbVertex
100
AcDb2dVertex
 10
-49.894345874699852
 20
19.03202278958338
 30
0.0
  0
VERTEX
  5
132
100
AcDbEntity
  8
0
  6
CONTINUOUS
 62
               7
100
AcDbVertex
100
AcDb2dVertex
 10
-49.679226078199846
 20
21.07131383868338
 30
0.0
  0
VERTEX
  5
133
100
AcDbEntity
  8
0
  6
CONTINUOUS
 62
               7
100
AcDbVertex
100
AcDb2dVertex
 10
-49.297556016599842
 20
23.088623200783388
 30
0.0
  0
VERTEX
  5
134
100
AcDbEntity
  8
0
  6
CONTINUOUS
 62
               7
100
AcDbVertex
100
AcDb2dVertex
 10
-48.751373858499832
 20
25.073188232883382
 30
0.0
  0
VERTEX
  5
135
100
AcDbEntity
  8
0
  6
CONTINUOUS
 62
               7
100
AcDbVertex
100
AcDb2dVertex
 10
-48.043590168599835
 20
27.014420440083398
 30
0.0
  0
VERTEX
  5
136
100
AcDbEntity
  8
0
  6
CONTINUOUS
 62
               7
100
AcDbVertex
100
AcDb2dVertex
 10
-47.17798476029985
 20
28.90196086238339
 30
0.0
  0
VERTEX
  5
137
100
AcDbEntity
  8
0
  6
CONTINUOUS
 62
               7
100
AcDbVertex
100
AcDb2dVertex
 10
-46.159174395099839
 20
30.725741615283397
 30
0.0
  0
VERTEX
  5
138
100
AcDbEntity
  8
0
  6
CONTINUOUS
 62
               7
100
AcDbVertex
100
AcDb2dVertex
 10
-44.992594921499844
 20
32.476030064383394
 30
0.0
  0
VERTEX
  5
139
100
AcDbEntity
  8
0
  6
CONTINUOUS
 62
               7
100
AcDbVertex
100
AcDb2dVertex
 10
-43.68447013829983
 20
34.143487574483402
 30
0.0
  0
VERTEX
  5
13A
100
AcDbEntity
  8
0
  6
CONTINUOUS
 62
               7
100
AcDbVertex
100
AcDb2dVertex
 10
-42.241778980399843
 20
35.719216999483393
 30
0.0
  0
VERTEX
  5
13B
100
AcDbEntity
  8
0
  6
CONTINUOUS
 62
               7
100
AcDbVertex
100
AcDb2dVertex
 10
-40.672221165799854
 20
37.194813201683388
 30
0.0
  0
VERTEX
  5
13C
100
AcDbEntity
  8
0
  6
CONTINUOUS
 62
               7
100
AcDbVertex
100
AcDb2dVertex
 10
-38.984169069199837
 20
38.562401761983381
 30
0.0
  0
VERTEX
  5
13D
100
AcDbEntity
  8
0
  6
CONTINUOUS
 62
               7
100
AcDbVertex
100
AcDb2dVertex
 10
-37.186629237199853
 20
39.8146859571834
 30
0.0
  0
VERTEX
  5
13E
100
AcDbEntity
  8
0
  6
CONTINUOUS
 62
               7
100
AcDbVertex
100
AcDb2dVertex
 10
-35.289193791799832
 20
40.944985767883395
 30
0.0
  0
VERTEX
  5
13F
100
AcDbEntity
  8
0
  6
CONTINUOUS
 62
               7
100
AcDbVertex
100
AcDb2dVertex
 10
-33.301984793599829
 20
41.94726902788338
 30
0.0
  0
VERTEX
  5
140
100
AcDbEntity
  8
0
  6
CONTINUOUS
 62
               7
100
AcDbVertex
100
AcDb2dVertex
 10
-31.235605209699841
 20
42.816188655283383
 30
0.0
  0
VERTEX
  5
141
100
AcDbEntity
  8
0
  6
CONTINUOUS
 62
               7
100
AcDbVertex
100
AcDb2dVertex
 10
-29.101080308199855
 20
43.547107467783405
 30
0.0
  0
VERTEX
  5
142
100
AcDbEntity
  8
0
  6
CONTINUOUS
 62
               7
100
AcDbVertex
100
AcDb2dVertex
 10
-26.909799515499842
 20
44.136128866183384
 30
0.0
  0
VERTEX
  5
143
100
AcDbEntity
  8
0
  6
CONTINUOUS
 62
               7
100
AcDbVertex
100
AcDb2dVertex
 10
-24.673452003299829
 20
44.58010684758338
 30
0.0
  0
VERTEX
  5
144
100
AcDbEntity
  8
0
  6
CONTINUOUS
 62
               7
100
AcDbVertex
100
AcDb2dVertex
 10
-22.403971119699847
 20
44.876673003783395
 30
0.0
  0
VERTEX
  5
145
100
AcDbEntity
  8
0
  6
CONTINUOUS
 62
               7
100
AcDbVertex
100
AcDb2dVertex
 10
-20.113466435299827
 20
45.024246725383392
 30
0.0
  0
VERTEX
  5
146
100
AcDbEntity
  8
0
  6
CONTINUOUS
 62
               7
100
AcDbVertex
100
AcDb2dVertex
 10
-17.81415736159984
 20
45.022040301483401
 30
0.0
  0
VERTEX
  5
147
100
AcDbEntity
  8
0
  6
CONTINUOUS
 62
               7
100
AcDbVertex
100
AcDb2dVertex
 10
-15.518311629499848
 20
44.870062994083384
 30
0.0
  0
VERTEX
  5
148
100
AcDbEntity
  8
0
  6
CONTINUOUS
 62
               7
100
AcDbVertex
100
AcDb2dVertex
 10
-13.238179592499833
 20
44.569129811283403
 30
0.0
  0
VERTEX
  5
149
100
AcDbEntity
  8
0
  6
CONTINUOUS
 62
               7
100
AcDbVertex
100
AcDb2dVertex
 10
-10.985926751099854
 20
44.120842657983388
 30
0.0
  0
VERTEX
  5
14A
100
AcDbEntity
  8
0
  6
CONTINUOUS
 62
               7
100
AcDbVertex
100
AcDb2dVertex
 10
-8.7735699721998373
 20
43.527595841183398
 30
0.0
  0
VERTEX
  5
14B
100
AcDbEntity
  8
0
  6
CONTINUOUS
 62
               7
100
AcDbVertex
100
AcDb2dVertex
 10
-6.6129108341998375
 20
42.792552593383391
 30
0.0
  0
VERTEX
  5
14C
100
AcDbEntity
  8
0
  6
CONTINUOUS
 62
               7
100
AcDbVertex
100
AcDb2dVertex
 10
-4.5154789642998452
 20
41.919636826783403
 30
0.0
  0
VERTEX
  5
14D
100
AcDbEntity
  8
0
  6
CONTINUOUS
 62
               7
100
AcDbVertex
100
AcDb2dVertex
 10
-2.4924656567998369
 20
40.913504349483389
 30
0.0
  0
VERTEX
  5
14E
100
AcDbEntity
  8
0
  6
CONTINUOUS
 62
               7
100
AcDbVertex
100
AcDb2dVertex
 10
-0.5546646096998273
 20
39.779522918883401
 30
0.0
  0
VERTEX
  5
14F
100
AcDbEntity
  8
0
  6
CONTINUOUS
 62
               7
100
AcDbVertex
100
AcDb2dVertex
 10
1.2875866550001689
 20
38.523744675183394
 30
0.0
  0
VERTEX
  5
150
100
AcDbEntity
  8
0
  6
CONTINUOUS
 62
               7
100
AcDbVertex
100
AcDb2dVertex
 10
3.0244575698001626
 20
37.152868496383405
 30
0.0
  0
VERTEX
  5
151
100
AcDbEntity
  8
0
  6
CONTINUOUS
 62
               7
100
AcDbVertex
100
AcDb2dVertex
 10
4.6466829637001723
 20
35.674209778083394
 30
0.0
  0
VERTEX
  5
152
100
AcDbEntity
  8
0
  6
CONTINUOUS
 62
               7
100
AcDbVertex
100
AcDb2dVertex
 10
6.1456024811001697
 20
34.095654305983402
 30
0.0
  0
VERTEX
  5
153
100
AcDbEntity
  8
0
  6
CONTINUOUS
 62
               7
100
AcDbVertex
100
AcDb2dVertex
 10
7.51322528600015
 20
32.425628730783387
 30
0.0
  0
VERTEX
  5
154
100
AcDbEntity
  8
0
  6
CONTINUOUS
 62
               7
100
AcDbVertex
100
AcDb2dVertex
 10
8.7422507633001629
 20
30.673040976783398
 30
0.0
  0
VERTEX
  5
155
100
AcDbEntity
  8
0
  6
CONTINUOUS
 62
               7
100
AcDbVertex
100
AcDb2dVertex
 10
9.826123608700172
 20
28.847242890383399
 30
0.0
  0
SEQEND
  5
156
100
AcDbEntity
  8
0
  6
CONTINUOUS
 62
               7
  0
ARC
  5
157
100
AcDbEntity
  8
0
  6
CONTINUOUS
 62
               7
100
AcDbCircle
 10
-11.391351293399836
 20
17.239983126283391
 30
0.0
 40
27.818490143596911
100
AcDbArc
 50
355.78826850809997
 51
9.2594201254000268
  0
POLYLINE
  5
158
100
AcDbEntity
  8
0
  6
CONTINUOUS
 62
               7
100
AcDb2dPolyline
 66
               1
 10
0.0
 20
0.0
 30
0.0
 75
               5
  0
VERTEX
  5
159
100
AcDbEntity
  8
0
  6
CONTINUOUS
 62
               7
100
AcDbVertex
100
AcDb2dVertex
 10
-8.2450105398998375
 20
37.47058380408339
 30
0.0
  0
VERTEX
  5
15A
100
AcDbEntity
  8
0
  6
CONTINUOUS
 62
               7
100
AcDbVertex
100
AcDb2dVertex
 10
-8.8942779072998377
 20
38.492732327383379
 30
0.0
  0
VERTEX
  5
15B
100
AcDbEntity
  8
0
  6
CONTINUOUS
 62
               7
100
AcDbVertex
100
AcDb2dVertex
 10
-9.6861004783998368
 20
39.432775118383404
 30
0.0
  0
VERTEX
  5
15C
100
AcDbEntity
  8
0
  6
CONTINUOUS
 62
               7
100
AcDbVertex
100
AcDb2dVertex
 10
-10.606928674399839
 20
40.274628659183378
 30
0.0
  0
VERTEX
  5
15D
100
AcDbEntity
  8
0
  6
CONTINUOUS
 62
               7
100
AcDbVertex
100
AcDb2dVertex
 10
-11.641008055699828
 20
41.003887559283385
 30
0.0
  0
VERTEX
  5
15E
100
AcDbEntity
  8
0
  6
CONTINUOUS
 62
               7
100
AcDbVertex
100
AcDb2dVertex
 10
-12.77064534289984
 20
41.608074433083402
 30
0.0
  0
VERTEX
  5
15F
100
AcDbEntity
  8
0
  6
CONTINUOUS
 62
               7
100
AcDbVertex
100
AcDb2dVertex
 10
-13.976510912999842
 20
42.076851774283398
 30
0.0
  0
VERTEX
  5
160
100
AcDbEntity
  8
0
  6
CONTINUOUS
 62
               7
100
AcDbVertex
100
AcDb2dVertex
 10
-15.237972997399837
 20
42.402198371783385
 30
0.0
  0
VERTEX
  5
161
100
AcDbEntity
  8
0
  6
CONTINUOUS
 62
               7
100
AcDbVertex
100
AcDb2dVertex
 10
-16.533447277299828
 20
42.57854766898339
 30
0.0
  0
VERTEX
  5
162
100
AcDbEntity
  8
0
  6
CONTINUOUS
 62
               7
100
AcDbVertex
100
AcDb2dVertex
 10
-17.840768479899836
 20
42.602882146083402
 30
0.0
  0
VERTEX
  5
163
100
AcDbEntity
  8
0
  6
CONTINUOUS
 62
               7
100
AcDbVertex
100
AcDb2dVertex
 10
-19.137567004999838
 20
42.474785241883382
 30
0.0
  0
VERTEX
  5
164
100
AcDbEntity
  8
0
  6
CONTINUOUS
 62
               7
100
AcDbVertex
100
AcDb2dVertex
 10
-20.401654754899837
 20
42.19644893818338
 30
0.0
  0
VERTEX
  5
165
100
AcDbEntity
  8
0
  6
CONTINUOUS
 62
               7
100
AcDbVertex
100
AcDb2dVertex
 10
-21.611402966299849
 20
41.772635586183384
 30
0.0
  0
VERTEX
  5
166
100
AcDbEntity
  8
0
  6
CONTINUOUS
 62
               7
100
AcDbVertex
100
AcDb2dVertex
 10
-22.746112392199834
 20
41.210596835383399
 30
0.0
  0
VERTEX
  5
167
100
AcDbEntity
  8
0
  6
CONTINUOUS
 62
               7
100
AcDbVertex
100
AcDb2dVertex
 10
-23.786367444499845
 20
40.519948819483403
 30
0.0
  0
VERTEX
  5
168
100
AcDbEntity
  8
0
  6
CONTINUOUS
 62
               7
100
AcDbVertex
100
AcDb2dVertex
 10
-24.71437007269985
 20
39.712509870183396
 30
0.0
  0
VERTEX
  5
169
100
AcDbEntity
  8
0
  6
CONTINUOUS
 62
               7
100
AcDbVertex
100
AcDb2dVertex
 10
-25.514240705599846
 20
38.802094415683399
 30
0.0
  0
VERTEX
  5
16A
100
AcDbEntity
  8
0
  6
CONTINUOUS
 62
               7
100
AcDbVertex
100
AcDb2dVertex
 10
-26.172293822299835
 20
37.80427983018339
 30
0.0
  0
VERTEX
  5
16B
100
AcDbEntity
  8
0
  6
CONTINUOUS
 62
               7
100
AcDbVertex
100
AcDb2dVertex
 10
-26.677270306599851
 20
36.736140087683395
 30
0.0
  0
VERTEX
  5
16C
100
AcDbEntity
  8
0
  6
CONTINUOUS
 62
               7
100
AcDbVertex
100
AcDb2dVertex
 10
-27.020529518299853
 20
35.615950524283392
 30
0.0
  0
VERTEX
  5
16D
100
AcDbEntity
  8
0
  6
CONTINUOUS
 62
               7
100
AcDbVertex
100
AcDb2dVertex
 10
-27.196198442499835
 20
34.462878212483389
 30
0.0
  0
VERTEX
  5
16E
100
AcDbEntity
  8
0
  6
CONTINUOUS
 62
               7
100
AcDbVertex
100
AcDb2dVertex
 10
-27.201271173699851
 20
33.296651955783403
 30
0.0
  0
VERTEX
  5
16F
100
AcDbEntity
  8
0
  6
CONTINUOUS
 62
               7
100
AcDbVertex
100
AcDb2dVertex
 10
-27.03566071789983
 20
32.137227072783389
 30
0.0
  0
VERTEX
  5
170
100
AcDbEntity
  8
0
  6
CONTINUOUS
 62
               7
100
AcDbVertex
100
AcDb2dVertex
 10
-26.702200940899829
 20
31.004441215783402
 30
0.0
  0
VERTEX
  5
171
100
AcDbEntity
  8
0
  6
CONTINUOUS
 62
               7
100
AcDbVertex
100
AcDb2dVertex
 10
-26.206597362399847
 20
29.917676549183398
 30
0.0
  0
VERTEX
  5
172
100
AcDbEntity
  8
0
  6
CONTINUOUS
 62
               7
100
AcDbVertex
100
AcDb2dVertex
 10
-25.557329994999847
 20
28.89552802588338
 30
0.0
  0
VERTEX
  5
173
100
AcDbEntity
  8
0
  6
CONTINUOUS
 62
               7
100
AcDbVertex
100
AcDb2dVertex
 10
-24.765507423899848
 20
27.955485234883383
 30
0.0
  0
VERTEX
  5
174
100
AcDbEntity
  8
0
  6
CONTINUOUS
 62
               7
100
AcDbVertex
100
AcDb2dVertex
 10
-23.84467922779983
 20
27.113631694183397
 30
0.0
  0
VERTEX
  5
175
100
AcDbEntity
  8
0
  6
CONTINUOUS
 62
               7
100
AcDbVertex
100
AcDb2dVertex
 10
-22.810599846499841
 20
26.38437279408339
 30
0.0
  0
VERTEX
  5
176
100
AcDbEntity
  8
0
  6
CONTINUOUS
 62
               7
100
AcDbVertex
100
AcDb2dVertex
 10
-21.680962559399845
 20
25.780185920183385
 30
0.0
  0
VERTEX
  5
177
100
AcDbEntity
  8
0
  6
CONTINUOUS
 62
               7
100
AcDbVertex
100
AcDb2dVertex
 10
-20.475096989299843
 20
25.311408579083405
 30
0.0
  0
VERTEX
  5
178
100
AcDbEntity
  8
0
  6
CONTINUOUS
 62
               7
100
AcDbVertex
100
AcDb2dVertex
 10
-19.213634904899848
 20
24.986061981483402
 30
0.0
  0
VERTEX
  5
179
100
AcDbEntity
  8
0
  6
CONTINUOUS
 62
               7
100
AcDbVertex
100
AcDb2dVertex
 10
-17.918160624999828
 20
24.809712684383385
 30
0.0
  0
VERTEX
  5
17A
100
AcDbEntity
  8
0
  6
CONTINUOUS
 62
               7
100
AcDbVertex
100
AcDb2dVertex
 10
-16.610839422399849
 20
24.785378207283401
 30
0.0
  0
VERTEX
  5
17B
100
AcDbEntity
  8
0
  6
CONTINUOUS
 62
               7
100
AcDbVertex
100
AcDb2dVertex
 10
-15.314040897299847
 20
24.913475111383406
 30
0.0
  0
VERTEX
  5
17C
100
AcDbEntity
  8
0
  6
CONTINUOUS
 62
               7
100
AcDbVertex
100
AcDb2dVertex
 10
-14.049953147399847
 20
25.191811415083379
 30
0.0
  0
VERTEX
  5
17D
100
AcDbEntity
  8
0
  6
CONTINUOUS
 62
               7
100
AcDbVertex
100
AcDb2dVertex
 10
-12.840204935999836
 20
25.615624767083403
 30
0.0
  0
VERTEX
  5
17E
100
AcDbEntity
  8
0
  6
CONTINUOUS
 62
               7
100
AcDbVertex
100
AcDb2dVertex
 10
-11.705495509999835
 20
26.177663517883389
 30
0.0
  0
VERTEX
  5
17F
100
AcDbEntity
  8
0
  6
CONTINUOUS
 62
               7
100
AcDbVertex
100
AcDb2dVertex
 10
-10.66524045779984
 20
26.8683115338834
 30
0.0
  0
VERTEX
  5
180
100
AcDbEntity
  8
0
  6
CONTINUOUS
 62
               7
100
AcDbVertex
100
AcDb2dVertex
 10
-9.7372378295998345
 20
27.675750483183378
 30
0.0
  0
VERTEX
  5
181
100
AcDbEntity
  8
0
  6
CONTINUOUS
 62
               7
100
AcDbVertex
100
AcDb2dVertex
 10
-8.9373671965998511
 20
28.586165937583388
 30
0.0
  0
VERTEX
  5
182
100
AcDbEntity
  8
0
  6
CONTINUOUS
 62
               7
100
AcDbVertex
100
AcDb2dVertex
 10
-8.2793140798998337
 20
29.583980523183385
 30
0.0
  0
VERTEX
  5
183
100
AcDbEntity
  8
0
  6
CONTINUOUS
 62
               7
100
AcDbVertex
100
AcDb2dVertex
 10
-7.7743375955998459
 20
30.652120265683379
 30
0.0
  0
VERTEX
  5
184
100
AcDbEntity
  8
0
  6
CONTINUOUS
 62
               7
100
AcDbVertex
100
AcDb2dVertex
 10
-7.4310783838998447
 20
31.772309828983396
 30
0.0
  0
VERTEX
  5
185
100
AcDbEntity
  8
0
  6
CONTINUOUS
 62
               7
100
AcDbVertex
100
AcDb2dVertex
 10
-7.255409459699834
 20
32.925382140783398
 30
0.0
  0
VERTEX
  5
186
100
AcDbEntity
  8
0
  6
CONTINUOUS
 62
               7
100
AcDbVertex
100
AcDb2dVertex
 10
-7.2503367284998461
 20
34.0916083975834
 30
0.0
  0
VERTEX
  5
187
100
AcDbEntity
  8
0
  6
CONTINUOUS
 62
               7
100
AcDbVertex
100
AcDb2dVertex
 10
-7.4159471843998546
 20
35.251033280483398
 30
0.0
  0
VERTEX
  5
188
100
AcDbEntity
  8
0
  6
CONTINUOUS
 62
               7
100
AcDbVertex
100
AcDb2dVertex
 10
-7.7494069613998278
 20
36.383819137483385
 30
0.0
  0
VERTEX
  5
189
100
AcDbEntity
  8
0
  6
CONTINUOUS
 62
               7
100
AcDbVertex
100
AcDb2dVertex
 10
-8.2450105398998375
 20
37.47058380408339
 30
0.0
  0
SEQEND
  5
18A
100
AcDbEntity
  8
0
  6
CONTINUOUS
 62
               7
  0
SPLINE
  5
18B
100
AcDbEntity
  8
0
  6
CONTINUOUS
 62
               7
100
AcDbSpline
210
0.0
220
0.0
230
1.0
 70
               8
 71
               2
 72
              19
 73
              16
 74
               0
 42
0.000001
 43
0.000001
 40
0.0
 40
0.0
 40
0.0
 40
1.0
 40
1.0
 40
2.0
 40
3.0
 40
4.0
 40
5.0
 40
6.0
 40
7.0
 40
8.0
 40
9.0
 40
10.0
 40
11.0
 40
11.0
 40
12.0
 40
12.0
 40
12.0
 10
-43.159639211720432
 20
47.520914631151101
 30
0.0
 10
-42.992998461962458
 20
47.62651128313783
 30
0.0
 10
-42.826357712204484
 20
47.73210793512456
 30
0.0
 10
-36.326360407290466
 20
51.66884252687484
 30
0.0
 10
-22.647670384118797
 20
54.652461190534808
 30
0.0
 10
-9.3747756512325537
 20
53.756665818199821
 30
0.0
 10
3.0075921910305254
 20
49.248868059263202
 30
0.0
 10
13.287845874705724
 20
41.571093408743877
 30
0.0
 10
20.459233458340222
 20
31.474192321158114
 30
0.0
 10
23.819888213519889
 20
19.947395634609137
 30
0.0
 10
23.041606671544216
 20
8.1169603611122909
 30
0.0
 10
18.194363628018849
 20
-2.8592945417699411
 30
0.0
 10
10.833934689881445
 20
-10.756945839433428
 30
0.0
 10
6.5527915506114169
 20
-13.58789460675365
 30
0.0
 10
6.3861508008534429
 20
-13.69349125874038
 30
0.0
 10
6.2195100510954688
 20
-13.79908791072711
 30
0.0
  0
SPLINE
  5
18C
100
AcDbEntity
  8
0
  6
CONTINUOUS
 62
               7
100
AcDbSpline
210
0.0
220
0.0
230
1.0
 70
               8
 71
               2
 72
              19
 73
              16
 74
               0
 42
0.000001
 43
0.000001
 40
0.0
 40
0.0
 40
0.0
 40
1.0
 40
1.0
 40
2.0
 40
3.0
 40
4.0
 40
5.0
 40
6.0
 40
7.0
 40
8.0
 40
9.0
 40
10.0
 40
11.0
 40
11.0
 40
12.0
 40
12.0
 40
12.0
 10
6.2195100510954688
 20
-13.79908791072711
 30
0.0
 10
6.0528693013374948
 20
-13.90468456271384
 30
0.0
 10
5.8862285515795207
 20
-14.010281214700569
 30
0.0
 10
-0.6137687533343836
 20
-17.947015806450736
 30
0.0
 10
-14.292458776506251
 20
-20.930634470110789
 30
0.0
 10
-27.565353509392466
 20
-20.034839097775759
 30
0.0
 10
-39.947721351655431
 20
-15.527041338839098
 30
0.0
 10
-50.227975035330829
 20
-7.8492666883197728
 30
0.0
 10
-57.399362618965242
 20
2.2476343992658769
 30
0.0
 10
-60.76001737414488
 20
13.774431085814967
 30
0.0
 10
-59.981735832169122
 20
25.604866359311728
 30
0.0
 10
-55.134492788643925
 20
36.581121262194216
 30
0.0
 10
-47.774063850506323
 20
44.478772559857305
 30
0.0
 10
-43.492920711236494
 20
47.309721327177641
 30
0.0
 10
-43.326279961478519
 20
47.415317979164371
 30
0.0
 10
-43.159639211720545
 20
47.520914631151101
 30
0.0
  0
SPLINE
  5
18D
100
AcDbEntity
  8
0
  6
CONTINUOUS
 62
               7
100
AcDbSpline
210
0.0
220
0.0
230
1.0
 70
               8
 71
               2
 72
              14
 73
              11
 74
               0
 42
0.000001
 43
0.000001
 40
0.0
 40
0.0
 40
0.0
 40
1.0
 40
1.0
 40
2.0
 40
3.0
 40
4.0
 40
5.0
 40
6.0
 40
6.0
 40
7.0
 40
7.0
 40
7.0
 10
-43.109467079040527
 20
48.19967296378988
 30
0.0
 10
-43.16775387341832
 20
48.160435316245454
 30
0.0
 10
-43.226040667796113
 20
48.121197668701029
 30
0.0
 10
-45.714159441843961
 20
46.520149763396915
 30
0.0
 10
-51.624832240704691
 20
41.434053275897298
 30
0.0
 10
-56.664090645990072
 20
34.055609007590334
 30
0.0
 10
-58.968109434586452
 20
28.117780537426341
 30
0.0
 10
-60.058223907597394
 20
23.367155172246697
 30
0.0
 10
-60.279785872073987
 20
20.755060191014252
 30
0.0
 10
-60.285739424136167
 20
20.69462314797677
 30
0.0
 10
-60.291692976198348
 20
20.634186104939289
 30
0.0
  0
SPLINE
  5
18E
100
AcDbEntity
  8
0
  6
CONTINUOUS
 62
               7
100
AcDbSpline
210
0.0
220
0.0
230
1.0
 70
               8
 71
               2
 72
              18
 73
              15
 74
               0
 42
0.000001
 43
0.000001
 40
0.0
 40
0.0
 40
0.0
 40
1.0
 40
1.0
 40
2.0
 40
3.0
 40
4.0
 40
5.0
 40
6.0
 40
7.0
 40
8.0
 40
9.0
 40
10.0
 40
10.0
 40
11.0
 40
11.0
 40
11.0
 10
23.451907415203451
 20
14.445158107478704
 30
0.0
 10
23.452758195035571
 20
14.451980927007682
 30
0.0
 10
23.453608974867691
 20
14.45880374653666
 30
0.0
 10
23.730376803538306
 20
17.713924070100006
 30
0.0
 10
22.773139906200171
 20
25.380201397010552
 30
0.0
 10
18.838115798064095
 20
35.203511705101306
 30
0.0
 10
10.699851057243208
 20
44.707785507156956
 30
0.0
 10
2.4937449213639553
 20
49.825641360235693
 30
0.0
 10
-6.5122257333485578
 20
53.752182960601516
 30
0.0
 10
-19.704661999341326
 20
55.455275239213989
 30
0.0
 10
-31.934710373669148
 20
53.563267098859541
 30
0.0
 10
-40.06778560057721
 20
50.05272778024451
 30
0.0
 10
-42.939388872381656
 20
48.301000755228557
 30
0.0
 10
-43.024427975711092
 20
48.250336859509218
 30
0.0
 10
-43.109467079040527
 20
48.19967296378988
 30
0.0
  0
SPLINE
  5
18F
100
AcDbEntity
  8
0
  6
CONTINUOUS
 62
               7
100
AcDbSpline
210
0.0
220
0.0
230
1.0
 70
               8
 71
               2
 72
              19
 73
              16
 74
               0
 42
0.000001
 43
0.000001
 40
0.0
 40
0.0
 40
0.0
 40
1.0
 40
1.0
 40
2.0
 40
3.0
 40
4.0
 40
5.0
 40
6.0
 40
7.0
 40
8.0
 40
9.0
 40
10.0
 40
11.0
 40
11.0
 40
12.0
 40
12.0
 40
12.0
 10
-46.857635232873648
 20
-1.1276784056130964
 30
0.0
 10
-46.756290677353732
 20
-1.2535300756978103
 30
0.0
 10
-46.654946121833817
 20
-1.3793817457825241
 30
0.0
 10
-43.083764235155044
 20
-5.6318806733754343
 30
0.0
 10
-33.956533792518584
 20
-11.438079036209729
 30
0.0
 10
-23.315043719743485
 20
-14.472088098633748
 30
0.0
 10
-12.199401325543178
 20
-14.43902466565666
 30
0.0
 10
-1.6974117990534836
 20
-11.342265008701702
 30
0.0
 10
7.1624902946815183
 20
-5.4845453728824225
 30
0.0
 10
13.513567692722845
 20
2.5604057588653006
 30
0.0
 10
16.733823825239895
 20
12.004750152429239
 30
0.0
 10
16.507331802742087
 20
21.926867732320687
 30
0.0
 10
13.088649266702149
 20
30.752878536277393
 30
0.0
 10
10.12019518328843
 20
34.597801785867404
 30
0.0
 10
10.018850627768501
 20
34.723653455952103
 30
0.0
 10
9.9175060722485711
 20
34.849505126036803
 30
0.0
  0
SPLINE
  5
190
100
AcDbEntity
  8
0
  6
CONTINUOUS
 62
               7
100
AcDbSpline
210
0.0
220
0.0
230
1.0
 70
               8
 71
               2
 72
              19
 73
              16
 74
               0
 42
0.000001
 43
0.000001
 40
0.0
 40
0.0
 40
0.0
 40
1.0
 40
1.0
 40
2.0
 40
3.0
 40
4.0
 40
5.0
 40
6.0
 40
7.0
 40
8.0
 40
9.0
 40
10.0
 40
11.0
 40
11.0
 40
12.0
 40
12.0
 40
12.0
 10
9.9175060722485711
 20
34.849505126036803
 30
0.0
 10
9.8161615167286556
 20
34.975356796121503
 30
0.0
 10
9.7148169612087401
 20
35.101208466206202
 30
0.0
 10
6.1436350745300246
 20
39.353707393799027
 30
0.0
 10
-2.9835953681063785
 20
45.159905756633378
 30
0.0
 10
-13.625085440881648
 20
48.193914819057454
 30
0.0
 10
-24.740727835081927
 20
48.160851386080282
 30
0.0
 10
-35.242717361571422
 20
45.064091729125295
 30
0.0
 10
-44.102619455306623
 20
39.206372093306015
 30
0.0
 10
-50.453696853347893
 20
31.16142096155852
 30
0.0
 10
-53.673952985864887
 20
21.717076567994326
 30
0.0
 10
-53.447460963367163
 20
11.794958988103048
 30
0.0
 10
-50.028778427327225
 20
2.9689481841461429
 30
0.0
 10
-47.060324343913507
 20
-0.8759750654437823
 30
0.0
 10
-46.958979788393577
 20
-1.0018267355284962
 30
0.0
 10
-46.857635232873648
 20
-1.1276784056132101
 30
0.0
  0
SPLINE
  5
191
100
AcDbEntity
  8
0
  6
CONTINUOUS
 62
               7
100
AcDbSpline
210
0.0
220
0.0
230
1.0
 70
               8
 71
               2
 72
              14
 73
              11
 74
               0
 42
0.000001
 43
0.000001
 40
0.0
 40
0.0
 40
0.0
 40
1.0
 40
1.0
 40
2.0
 40
3.0
 40
4.0
 40
5.0
 40
6.0
 40
6.0
 40
7.0
 40
7.0
 40
7.0
 10
14.663476640553753
 20
7.0784856275890036
 30
0.0
 10
14.670101889276751
 20
7.0937821196129107
 30
0.0
 10
14.676727137999748
 20
7.1090786116368179
 30
0.0
 10
14.932365111041562
 20
7.6889166620045444
 30
0.0
 10
15.430761385325908
 20
8.9496643886324989
 30
0.0
 10
16.054268567896926
 20
11.085620186054513
 30
0.0
 10
16.323780343375475
 20
13.040353079185167
 30
0.0
 10
16.451630995764546
 20
14.309869291986928
 30
0.0
 10
16.517163246534992
 20
15.136608250415179
 30
0.0
 10
16.519741674885125
 20
15.168400712682939
 30
0.0
 10
16.522320103235259
 20
15.200193174950698
 30
0.0
  0
SPLINE
  5
192
100
AcDbEntity
  8
0
  6
CONTINUOUS
 62
               7
100
AcDbSpline
210
0.0
220
0.0
230
1.0
 70
               8
 71
               2
 72
              13
 73
              10
 74
               0
 42
0.000001
 43
0.000001
 40
0.0
 40
0.0
 40
0.0
 40
1.0
 40
1.0
 40
2.0
 40
3.0
 40
4.0
 40
5.0
 40
5.0
 40
6.0
 40
6.0
 40
6.0
 10
-53.329699702006749
 20
20.346812761234503
 30
0.0
 10
-53.331276827200796
 20
20.333184733547029
 30
0.0
 10
-53.332853952394842
 20
20.319556705859554
 30
0.0
 10
-53.395776046285576
 20
19.802091175918804
 30
0.0
 10
-53.563337238186151
 20
17.834785971444063
 30
0.0
 10
-53.339136348660404
 20
15.355038702074779
 30
0.0
 10
-53.023177355569558
 20
13.685221907178374
 30
0.0
 10
-52.867171563917637
 20
12.955207363261081
 30
0.0
 10
-52.862032765730532
 20
12.930864155743791
 30
0.0
 10
-52.856893967543428
 20
12.9065209482265
 30
0.0
  0
LINE
  5
193
100
AcDbEntity
  8
0
  6
CONTINUOUS
 62
               7
100
AcDbLine
 10
-51.568491483299837
 20
53.492824882683379
 30
0.0
 11
-51.599872964199832
 21
53.163011147383401
 31
0.0
  0
LINE
  5
194
100
AcDbEntity
  8
0
  6
CONTINUOUS
 62
               7
100
AcDbLine
 10
-52.60181485819983
 20
44.308258566283399
 30
0.0
 11
-51.568491483299837
 21
53.492824882683379
 31
0.0
  0
SPLINE
  5
195
100
AcDbEntity
  8
0
  6
CONTINUOUS
 62
               7
100
AcDbSpline
210
0.0
220
0.0
230
1.0
 70
               8
 71
               2
 72
              12
 73
               9
 74
               0
 42
0.000001
 43
0.000001
 40
0.0
 40
0.0
 40
0.0
 40
1.0
 40
1.0
 40
2.0
 40
3.0
 40
4.0
 40
4.0
 40
5.0
 40
5.0
 40
5.0
 10
-43.838273690166531
 20
61.758376503828799
 30
0.0
 10
-43.951355641110538
 20
61.645505369225603
 30
0.0
 10
-44.064437592054546
 20
61.532634234622407
 30
0.0
 10
-46.058413144160326
 20
59.461692307495838
 30
0.0
 10
-48.932731434135135
 20
55.335815603757368
 30
0.0
 10
-51.871390446052871
 20
49.157597204251118
 30
0.0
 10
-52.56257911327755
 20
44.610984071047483
 30
0.0
 10
-52.582197045991592
 20
44.45962084306673
 30
0.0
 10
-52.601814978705633
 20
44.308257615085978
 30
0.0
  0
LINE
  5
196
100
AcDbEntity
  8
0
  6
CONTINUOUS
 62
               7
100
AcDbLine
 10
-42.770089871499849
 20
71.012355798383396
 30
0.0
 11
-43.838273688599841
 21
61.758376531483378
 31
0.0
  0
SPLINE
  5
197
100
AcDbEntity
  8
0
  6
CONTINUOUS
 62
               7
100
AcDbSpline
210
0.0
220
0.0
230
1.0
 70
               8
 71
               2
 72
              10
 73
               7
 74
               0
 42
0.000001
 43
0.000001
 40
0.0
 40
0.0
 40
0.0
 40
1.0
 40
1.0
 40
2.0
 40
2.0
 40
3.0
 40
3.0
 40
3.0
 10
-41.505762526546746
 20
72.198573802949596
 30
0.0
 10
-41.514783640503452
 20
72.190544599253329
 30
0.0
 10
-41.523804754460159
 20
72.182515395557061
 30
0.0
 10
-42.154477743958481
 20
71.619536363665077
 30
0.0
 10
-42.753019815412429
 20
71.029242228909965
 30
0.0
 10
-42.761554877321984
 20
71.020799891393722
 30
0.0
 10
-42.770089939231539
 20
71.012357553877479
 30
0.0
  0
LINE
  5
198
100
AcDbEntity
  8
0
  6
CONTINUOUS
 62
               7
100
AcDbLine
 10
-41.918134029603848
 20
63.529774734143786
 30
0.0
 11
-41.505762526546746
 21
72.198573802949596
 31
0.0
  0
SPLINE
  5
199
100
AcDbEntity
  8
0
  6
CONTINUOUS
 62
               7
100
AcDbSpline
210
0.0
220
0.0
230
1.0
 70
               8
 71
               2
 72
              10
 73
               7
 74
               0
 42
0.000001
 43
0.000001
 40
0.0
 40
0.0
 40
0.0
 40
1.0
 40
1.0
 40
2.0
 40
2.0
 40
3.0
 40
3.0
 40
3.0
 10
-36.189370821770254
 20
67.493865684929801
 30
0.0
 10
-36.259482152696393
 20
67.454945833160778
 30
0.0
 10
-36.329593483622531
 20
67.416025981391755
 30
0.0
 10
-39.263519324904976
 20
65.752196995533353
 30
0.0
 10
-41.798852530402755
 20
63.631502252919319
 30
0.0
 10
-41.858493280003302
 20
63.580638493531552
 30
0.0
 10
-41.918134029603848
 20
63.529774734143786
 30
0.0
  0
LINE
  5
19A
100
AcDbEntity
  8
0
  6
CONTINUOUS
 62
               7
100
AcDbLine
 10
-35.114358368699854
 20
76.690049055383383
 30
0.0
 11
-36.189371625399829
 21
67.493866945783395
 31
0.0
  0
SPLINE
  5
19B
100
AcDbEntity
  8
0
  6
CONTINUOUS
 62
               7
100
AcDbSpline
210
0.0
220
0.0
230
1.0
 70
               8
 71
               2
 72
              10
 73
               7
 74
               0
 42
0.000001
 43
0.000001
 40
0.0
 40
0.0
 40
0.0
 40
1.0
 40
1.0
 40
2.0
 40
2.0
 40
3.0
 40
3.0
 40
3.0
 10
-35.114358592988751
 20
76.690050863931305
 30
0.0
 10
-35.111487335869768
 20
76.691606903257039
 30
0.0
 10
-35.108616078750785
 20
76.693162942582774
 30
0.0
 10
-34.460589326007906
 20
77.046215281978533
 30
0.0
 10
-33.797145024242425
 20
77.376085958858226
 30
0.0
 10
-33.79421351454279
 20
77.377551597368907
 30
0.0
 10
-33.791282004843154
 20
77.379017235879587
 30
0.0
  0
LINE
  5
19C
100
AcDbEntity
  8
0
  6
CONTINUOUS
 62
               7
100
AcDbLine
 10
-34.182137497194944
 20
68.528107803924399
 30
0.0
 11
-33.791282004841051
 21
77.379017235876404
 31
0.0
  0
SPLINE
  5
19D
100
AcDbEntity
  8
0
  6
CONTINUOUS
 62
               7
100
AcDbSpline
210
0.0
220
0.0
230
1.0
 70
               8
 71
               2
 72
              10
 73
               7
 74
               0
 42
0.000001
 43
0.000001
 40
0.0
 40
0.0
 40
0.0
 40
1.0
 40
1.0
 40
2.0
 40
2.0
 40
3.0
 40
3.0
 40
3.0
 10
-28.927885311171551
 20
70.56472674516408
 30
0.0
 10
-28.984476253339508
 20
70.547491593150298
 30
0.0
 10
-29.041067195507466
 20
70.530256441136515
 30
0.0
 10
-31.642121855160738
 20
69.720246891561544
 30
0.0
 10
-34.076859024005628
 20
68.578315677931243
 30
0.0
 10
-34.129498260600286
 20
68.553211740927821
 30
0.0
 10
-34.182137497194944
 20
68.528107803924399
 30
0.0
  0
LINE
  5
19E
100
AcDbEntity
  8
0
  6
CONTINUOUS
 62
               7
100
AcDbLine
 10
-27.846478458613447
 20
79.706788170735393
 30
0.0
 11
-28.927885311171551
 21
70.56472674516408
 31
0.0
  0
SPLINE
  5
19F
100
AcDbEntity
  8
0
  6
CONTINUOUS
 62
               7
100
AcDbSpline
210
0.0
220
0.0
230
1.0
 70
               8
 71
               2
 72
              10
 73
               7
 74
               0
 42
0.000001
 43
0.000001
 40
0.0
 40
0.0
 40
0.0
 40
1.0
 40
1.0
 40
2.0
 40
2.0
 40
3.0
 40
3.0
 40
3.0
 10
-27.846478458615238
 20
79.706788170739998
 30
0.0
 10
-27.84202669784797
 20
79.708086253881177
 30
0.0
 10
-27.837574937080703
 20
79.709384337022357
 30
0.0
 10
-27.170164672099204
 20
79.905067213268978
 30
0.0
 10
-26.495450910875277
 20
80.080720846642635
 30
0.0
 10
-26.490955178134513
 20
80.081898340232257
 30
0.0
 10
-26.486459445393749
 20
80.08307583382188
 30
0.0
  0
LINE
  5
1A0
100
AcDbEntity
  8
0
  6
CONTINUOUS
 62
               7
100
AcDbLine
 10
-26.865377799199834
 20
71.131126883983399
 30
0.0
 11
-26.48645873559984
 21
80.083073255983379
 31
0.0
  0
SPLINE
  5
1A1
100
AcDbEntity
  8
0
  6
CONTINUOUS
 62
               7
100
AcDbSpline
210
0.0
220
0.0
230
1.0
 70
               8
 71
               2
 72
              10
 73
               7
 74
               0
 42
0.000001
 43
0.000001
 40
0.0
 40
0.0
 40
0.0
 40
1.0
 40
1.0
 40
2.0
 40
2.0
 40
3.0
 40
3.0
 40
3.0
 10
-21.480461979680754
 20
72.061820039903779
 30
0.0
 10
-21.537348020509683
 20
72.055977318517165
 30
0.0
 10
-21.594234061338611
 20
72.050134597130551
 30
0.0
 10
-24.212618157639909
 20
71.765796790222538
 30
0.0
 10
-26.755213610086074
 20
71.158143540103339
 30
0.0
 10
-26.810295366228303
 20
71.144634455765868
 30
0.0
 10
-26.865377122370532
 20
71.131125371428396
 30
0.0
  0
LINE
  5
1A2
100
AcDbEntity
  8
0
  6
CONTINUOUS
 62
               7
100
AcDbLine
 10
-20.391845781099832
 20
81.142864349783395
 30
0.0
 11
-21.480461763999827
 21
72.06181927908338
 31
0.0
  0
SPLINE
  5
1A3
100
AcDbEntity
  8
0
  6
CONTINUOUS
 62
               7
100
AcDbSpline
210
0.0
220
0.0
230
1.0
 70
               8
 71
               2
 72
              10
 73
               7
 74
               0
 42
0.000001
 43
0.000001
 40
0.0
 40
0.0
 40
0.0
 40
1.0
 40
1.0
 40
2.0
 40
2.0
 40
3.0
 40
3.0
 40
3.0
 10
-20.39184629852484
 20
81.142866325990781
 30
0.0
 10
-20.387274352137624
 20
81.143274843640555
 30
0.0
 10
-20.382702405750408
 20
81.143683361290329
 30
0.0
 10
-19.697021169288305
 20
81.205928500112236
 30
0.0
 10
-19.009054629234285
 20
81.248204535346048
 30
0.0
 10
-19.004468923778063
 20
81.248492825523314
 30
0.0
 10
-18.999883218321841
 20
81.248781115700581
 30
0.0
  0
LINE
  5
1A4
100
AcDbEntity
  8
0
  6
CONTINUOUS
 62
               7
100
AcDbLine
 10
-19.370015590199827
 20
72.222465695483379
 30
0.0
 11
-18.999882729199854
 21
81.248779943783404
 31
0.0
  0
SPLINE
  5
1A5
100
AcDbEntity
  8
0
  6
CONTINUOUS
 62
               7
100
AcDbSpline
210
0.0
220
0.0
230
1.0
 70
               8
 71
               2
 72
              10
 73
               7
 74
               0
 42
0.000001
 43
0.000001
 40
0.0
 40
0.0
 40
0.0
 40
1.0
 40
1.0
 40
2.0
 40
2.0
 40
3.0
 40
3.0
 40
3.0
 10
-14.67296433559325
 20
72.182401073302003
 30
0.0
 10
-14.71808623956062
 20
72.185410325313129
 30
0.0
 10
-14.76320814352799
 20
72.188419577324254
 30
0.0
 10
-17.022580560142515
 20
72.328816377259812
 30
0.0
 10
-19.279858318335144
 20
72.226945207697838
 30
0.0
 10
-19.324936550271147
 20
72.224705334974672
 30
0.0
 10
-19.37001478220715
 20
72.222465462251506
 30
0.0
  0
LINE
  5
1A6
100
AcDbEntity
  8
0
  6
CONTINUOUS
 62
               7
100
AcDbLine
 10
-13.576539156099855
 20
81.197354449883392
 30
0.0
 11
-14.672964123399836
 21
72.182400399883392
 31
0.0
  0
SPLINE
  5
1A7
100
AcDbEntity
  8
0
  6
CONTINUOUS
 62
               7
100
AcDbSpline
210
0.0
220
0.0
230
1.0
 70
               8
 71
               2
 72
              10
 73
               7
 74
               0
 42
0.000001
 43
0.000001
 40
0.0
 40
0.0
 40
0.0
 40
1.0
 40
1.0
 40
2.0
 40
2.0
 40
3.0
 40
3.0
 40
3.0
 10
-13.576540068179227
 20
81.197355903201384
 30
0.0
 10
-13.572847121422598
 20
81.197055368571085
 30
0.0
 10
-13.569154174665968
 20
81.196754833940787
 30
0.0
 10
-12.778643949056018
 20
81.134121706459524
 30
0.0
 10
-11.991122358026232
 20
81.042939490094312
 30
0.0
 10
-11.987441600783882
 20
81.042521288382247
 30
0.0
 10
-11.983760843541532
 20
81.042103086670181
 30
0.0
  0
LINE
  5
1A8
100
AcDbEntity
  8
0
  6
CONTINUOUS
 62
               7
100
AcDbLine
 10
-12.94961203769985
 20
56.88522373158338
 30
0.0
 11
-11.983761035199834
 21
81.042102419883406
 31
0.0
  0
LINE
  5
1A9
100
AcDbEntity
  8
0
  6
CONTINUOUS
 62
               7
100
AcDbLine
 10
14.681422479200151
 20
61.092107104583391
 30
0.0
 11
14.455804062400162
 21
55.761277992183381
 31
0.0
  0
SPLINE
  5
1AA
100
AcDbEntity
  8
0
  6
CONTINUOUS
 62
               7
100
AcDbSpline
210
0.0
220
0.0
230
1.0
 70
               8
 71
               2
 72
              13
 73
              10
 74
               0
 42
0.000001
 43
0.000001
 40
0.0
 40
0.0
 40
0.0
 40
1.0
 40
1.0
 40
2.0
 40
3.0
 40
4.0
 40
5.0
 40
5.0
 40
6.0
 40
6.0
 40
6.0
 10
-5.4232737342587285
 20
75.823824840539089
 30
0.0
 10
-5.3250782952883924
 20
75.794317044143597
 30
0.0
 10
-5.2268828563180563
 20
75.764809247748104
 30
0.0
 10
-1.8912958151957326
 20
74.724116378176006
 30
0.0
 10
3.8999220142309099
 20
71.780282409840652
 30
0.0
 10
9.0078714553861943
 20
67.950008744130344
 30
0.0
 10
12.992825340262911
 20
63.650994326810149
 30
0.0
 10
14.577973006672735
 20
61.252798405521474
 30
0.0
 10
14.629697111526497
 20
61.172452635676038
 30
0.0
 10
14.681421216380258
 20
61.092106865830601
 30
0.0
  0
LINE
  5
1AB
100
AcDbEntity
  8
0
  6
CONTINUOUS
 62
               7
100
AcDbLine
 10
-4.956823355529238
 20
79.565029789406083
 30
0.0
 11
-5.4232737342587285
 21
75.823824840539089
 31
0.0
  0
SPLINE
  5
1AC
100
AcDbEntity
  8
0
  6
CONTINUOUS
 62
               7
100
AcDbSpline
210
0.0
220
0.0
230
1.0
 70
               8
 71
               2
 72
              10
 73
               7
 74
               0
 42
0.000001
 43
0.000001
 40
0.0
 40
0.0
 40
0.0
 40
1.0
 40
1.0
 40
2.0
 40
2.0
 40
3.0
 40
3.0
 40
3.0
 10
-4.9568233555296359
 20
79.565029789405003
 30
0.0
 10
-4.9535995903119669
 20
79.56402650875296
 30
0.0
 10
-4.950375825094298
 20
79.563023228100917
 30
0.0
 10
-4.2211884539584759
 20
79.337725411301051
 30
0.0
 10
-3.5020063847110663
 20
79.087245657247763
 30
0.0
 10
-3.498821660703257
 20
79.086143801356926
 30
0.0
 10
-3.4956369366954476
 20
79.085041945466088
 30
0.0
  0
LINE
  5
1AD
100
AcDbEntity
  8
0
  6
CONTINUOUS
 62
               7
100
AcDbLine
 10
-3.6110694395998308
 20
76.126502537383402
 30
0.0
 11
-3.4956369626998338
 21
79.085039868883399
 31
0.0
  0
SPLINE
  5
1AE
100
AcDbEntity
  8
0
  6
CONTINUOUS
 62
               7
100
AcDbSpline
210
0.0
220
0.0
230
1.0
 70
               8
 71
               2
 72
              10
 73
               7
 74
               0
 42
0.000001
 43
0.000001
 40
0.0
 40
0.0
 40
0.0
 40
1.0
 40
1.0
 40
2.0
 40
2.0
 40
3.0
 40
3.0
 40
3.0
 10
3.2173713559500499
 20
72.940666131537995
 30
0.0
 10
3.1442711849755938
 20
72.984071611329952
 30
0.0
 10
3.0711710140011377
 20
73.027477091121909
 30
0.0
 10
-0.0273113250038222
 20
74.828188871082858
 30
0.0
 10
-3.4480702948108757
 20
76.069054924492576
 30
0.0
 10
-3.5295696429249119
 20
76.097778462179036
 30
0.0
 10
-3.6110689910389482
 20
76.126501999865496
 30
0.0
  0
LINE
  5
1AF
100
AcDbEntity
  8
0
  6
CONTINUOUS
 62
               7
100
AcDbLine
 10
3.5835530779332458
 20
75.762903764908202
 30
0.0
 11
3.2173713559500499
 21
72.940666131537995
 31
0.0
  0
SPLINE
  5
1B0
100
AcDbEntity
  8
0
  6
CONTINUOUS
 62
               7
100
AcDbSpline
210
0.0
220
0.0
230
1.0
 70
               8
 71
               2
 72
              10
 73
               7
 74
               0
 42
0.000001
 43
0.000001
 40
0.0
 40
0.0
 40
0.0
 40
1.0
 40
1.0
 40
2.0
 40
2.0
 40
3.0
 40
3.0
 40
3.0
 10
5.1021871768838452
 20
74.796681830805795
 30
0.0
 10
5.0918336343536339
 20
74.803631015945655
 30
0.0
 10
5.0814800918234226
 20
74.810580201085514
 30
0.0
 10
4.3557996634026921
 20
75.296209407491887
 30
0.0
 10
3.6050208394368184
 20
75.749968639321054
 30
0.0
 10
3.5942869586855437
 20
75.75643620211433
 30
0.0
 10
3.583553077934269
 20
75.762903764907605
 30
0.0
  0
LINE
  5
1B1
100
AcDbEntity
  8
0
  6
CONTINUOUS
 62
               7
100
AcDbLine
 10
4.9889095668001602
 20
71.819902778983391
 30
0.0
 11
5.1021885914001501
 21
74.796681018483383
 31
0.0
  0
SPLINE
  5
1B2
100
AcDbEntity
  8
0
  6
CONTINUOUS
 62
               7
100
AcDbSpline
210
0.0
220
0.0
230
1.0
 70
               8
 71
               2
 72
              12
 73
               9
 74
               0
 42
0.000001
 43
0.000001
 40
0.0
 40
0.0
 40
0.0
 40
1.0
 40
1.0
 40
2.0
 40
3.0
 40
4.0
 40
4.0
 40
5.0
 40
5.0
 40
5.0
 10
17.709751521034363
 20
56.0229100502184
 30
0.0
 10
17.655382623795006
 20
56.168974509017389
 30
0.0
 10
17.601013726555649
 20
56.315038967816378
 30
0.0
 10
15.861295400533365
 20
60.696445465530672
 30
0.0
 10
11.521348539311631
 20
66.310085338991456
 30
0.0
 10
7.7182852856266067
 20
69.915908069490314
 30
0.0
 10
5.265172662274253
 20
71.633929971626088
 30
0.0
 10
5.1270413930772065
 20
71.726916020408041
 30
0.0
 10
4.9889101238801601
 20
71.819902069189993
 30
0.0
  0
LINE
  5
1B3
100
AcDbEntity
  8
0
  6
CONTINUOUS
 62
               7
100
AcDbLine
 10
17.839257047600157
 20
58.979537917183393
 30
0.0
 11
17.709750858200167
 21
56.02291089138339
 31
0.0
  0
SPLINE
  5
1B4
100
AcDbEntity
  8
0
  6
CONTINUOUS
 62
               7
100
AcDbSpline
210
0.0
220
0.0
230
1.0
 70
               8
 71
               2
 72
              10
 73
               7
 74
               0
 42
0.000001
 43
0.000001
 40
0.0
 40
0.0
 40
0.0
 40
1.0
 40
1.0
 40
2.0
 40
2.0
 40
3.0
 40
3.0
 40
3.0
 10
18.377192969959552
 20
57.39186964776539
 30
0.0
 10
18.373776592666772
 20
57.402974154806941
 30
0.0
 10
18.370360215373992
 20
57.414078661848492
 30
0.0
 10
18.129915732914426
 20
58.191253170842145
 30
0.0
 10
17.847362626075252
 20
58.957655208732319
 30
0.0
 10
17.843309327843357
 20
58.96859672291275
 30
0.0
 10
17.839256029611462
 20
58.97953823709318
 30
0.0
  0
LINE
  5
1B5
100
AcDbEntity
  8
0
  6
CONTINUOUS
 62
               7
100
AcDbLine
 10
18.22658470224637
 20
47.449302990271178
 30
0.0
 11
18.377192969959552
 21
57.39186964776539
 31
0.0
  0
SPLINE
  5
1B6
100
AcDbEntity
  8
0
  6
CONTINUOUS
 62
               7
100
AcDbSpline
210
0.0
220
0.0
230
1.0
 70
               8
 71
               2
 72
              10
 73
               7
 74
               0
 42
0.000001
 43
0.000001
 40
0.0
 40
0.0
 40
0.0
 40
1.0
 40
1.0
 40
2.0
 40
2.0
 40
3.0
 40
3.0
 40
3.0
 10
19.294555921737057
 20
40.981579271561884
 30
0.0
 10
19.291112437735052
 20
41.049611215024868
 30
0.0
 10
19.287668953733046
 20
41.117643158487851
 30
0.0
 10
19.097834593389294
 20
44.256631423320499
 30
0.0
 10
18.264043733226984
 20
47.316803769663636
 30
0.0
 10
18.245314217736677
 20
47.383053379967407
 30
0.0
 10
18.22658470224637
 20
47.449302990271178
 30
0.0
  0
LINE
  5
1B7
100
AcDbEntity
  8
0
  6
CONTINUOUS
 62
               7
100
AcDbLine
 10
19.635543284700148
 20
50.140584823783399
 30
0.0
 11
19.294555720400169
 21
40.98157959058338
 31
0.0
  0
SPLINE
  5
1B8
100
AcDbEntity
  8
0
  6
CONTINUOUS
 62
               7
100
AcDbSpline
210
0.0
220
0.0
230
1.0
 70
               8
 71
               2
 72
              10
 73
               7
 74
               0
 42
0.000001
 43
0.000001
 40
0.0
 40
0.0
 40
0.0
 40
1.0
 40
1.0
 40
2.0
 40
2.0
 40
3.0
 40
3.0
 40
3.0
 10
19.635543654751459
 20
50.140585728116605
 30
0.0
 10
19.635660763883521
 20
50.137565821797295
 30
0.0
 10
19.635777873015584
 20
50.134545915477986
 30
0.0
 10
19.66397372980849
 20
49.452010603957746
 30
0.0
 10
19.662271155531997
 20
48.769492723889016
 30
0.0
 10
19.662271269224021
 20
48.766472782558949
 30
0.0
 10
19.662271382916046
 20
48.763452841228883
 30
0.0
  0
LINE
  5
1B9
100
AcDbEntity
  8
0
  6
CONTINUOUS
 62
               7
100
AcDbLine
 10
19.324440353450356
 20
38.897991749747405
 30
0.0
 11
19.662271382912465
 21
48.763452841228997
 31
0.0
  0
LINE
  5
1BA
100
AcDbEntity
  8
0
  6
CONTINUOUS
 62
               7
100
AcDbLine
 10
19.298851378600162
 20
38.515460004483401
 30
0.0
 11
19.324440429700147
 21
38.897992385883384
 31
0.0
  0
SPLINE
  5
1BB
100
AcDbEntity
  8
0
  6
CONTINUOUS
 62
               7
100
AcDbSpline
210
0.0
220
0.0
230
1.0
 70
               8
 71
               2
 72
              10
 73
               7
 74
               0
 42
0.000001
 43
0.000001
 40
0.0
 40
0.0
 40
0.0
 40
1.0
 40
1.0
 40
2.0
 40
2.0
 40
3.0
 40
3.0
 40
3.0
 10
14.455803095884946
 20
55.761276982842503
 30
0.0
 10
14.468832008001002
 20
55.741052083235061
 30
0.0
 10
14.481860920117057
 20
55.72082718362762
 30
0.0
 10
15.23418213892846
 20
54.545224248641063
 30
0.0
 10
15.879053015753001
 20
53.321147243478151
 30
0.0
 10
15.890098149176737
 20
53.300024926521374
 30
0.0
 10
15.901143282600472
 20
53.278902609564597
 30
0.0
  0
LINE
  5
1BC
100
AcDbEntity
  8
0
  6
CONTINUOUS
 62
               7
100
AcDbLine
 10
-11.983761035199834
 20
81.042102419883406
 30
0.0
 11
-10.593781645499845
 21
69.277386068083388
 31
0.0
  0
LINE
  5
1BD
100
AcDbEntity
  8
0
  6
CONTINUOUS
 62
               7
100
AcDbLine
 10
-10.593781645499845
 20
69.277386068083388
 30
0.0
 11
-10.699507421699835
 21
66.145473930783396
 31
0.0
  0
LINE
  5
1BE
100
AcDbEntity
  8
0
  6
CONTINUOUS
 62
               7
100
AcDbLine
 10
-11.685875597799836
 20
66.361719236183404
 30
0.0
 11
-12.092608071599855
 21
54.455261948283379
 31
0.0
  0
LINE
  5
1BF
100
AcDbEntity
  8
0
  6
CONTINUOUS
 62
               7
100
AcDbLine
 10
-12.949813316799847
 20
56.884514756683387
 30
0.0
 11
-13.042577054599846
 21
54.561120958983395
 31
0.0
  0
SPLINE
  5
1C0
100
AcDbEntity
  8
0
  6
CONTINUOUS
 62
               7
100
AcDbSpline
210
0.0
220
0.0
230
1.0
 70
               8
 71
               2
 72
              13
 73
              10
 74
               0
 42
0.000001
 43
0.000001
 40
0.0
 40
0.0
 40
0.0
 40
1.0
 40
1.0
 40
2.0
 40
3.0
 40
4.0
 40
5.0
 40
5.0
 40
6.0
 40
6.0
 40
6.0
 10
13.94147080644457
 20
43.63314469794409
 30
0.0
 10
13.922141930695247
 20
43.66228123411156
 30
0.0
 10
13.902813054945923
 20
43.691417770279031
 30
0.0
 10
13.479629363522335
 20
44.333734519975707
 30
0.0
 10
12.762360936329472
 20
45.368935890183849
 30
0.0
 10
11.986344848437582
 20
46.38516837646128
 30
0.0
 10
11.302421217460662
 20
47.136900728460006
 30
0.0
 10
11.089478774145689
 20
47.365623787396856
 30
0.0
 10
11.082391198937771
 20
47.37325461307573
 30
0.0
 10
11.075303623729852
 20
47.380885438754603
 30
0.0
  0
LINE
  5
1C1
100
AcDbEntity
  8
0
  6
CONTINUOUS
 62
               7
100
AcDbLine
 10
14.454780505200162
 20
55.760753484683391
 30
0.0
 11
13.941470806400147
 21
43.633144697983397
 31
0.0
  0
SPLINE
  5
1C2
100
AcDbEntity
  8
0
  6
CONTINUOUS
 62
               7
100
AcDbSpline
210
0.0
220
0.0
230
1.0
 70
               8
 71
               2
 72
              10
 73
               7
 74
               0
 42
0.000001
 43
0.000001
 40
0.0
 40
0.0
 40
0.0
 40
1.0
 40
1.0
 40
2.0
 40
2.0
 40
3.0
 40
3.0
 40
3.0
 10
-5.3552478055174362
 20
64.642241858737293
 30
0.0
 10
-5.4188387931206137
 20
64.666524406609525
 30
0.0
 10
-5.4824297807237912
 20
64.690806954481758
 30
0.0
 10
-8.4280491132280844
 20
65.786480894017046
 30
0.0
 10
-11.550346343630238
 20
66.338928717200304
 30
0.0
 10
-11.618110382337093
 20
66.350323831547001
 30
0.0
 10
-11.685874421043948
 20
66.361718945893699
 30
0.0
  0
LINE
  5
1C3
100
AcDbEntity
  8
0
  6
CONTINUOUS
 62
               7
100
AcDbLine
 10
-5.355246926399829
 20
64.642241823983397
 30
0.0
 11
-4.7337020787998512
 21
69.987322952883403
 31
0.0
  0
SPLINE
  5
1C4
100
AcDbEntity
  8
0
  6
CONTINUOUS
 62
               7
100
AcDbSpline
210
0.0
220
0.0
230
1.0
 70
               8
 71
               2
 72
              11
 73
               8
 74
               0
 42
0.000001
 43
0.000001
 40
0.0
 40
0.0
 40
0.0
 40
1.0
 40
1.0
 40
2.0
 40
3.0
 40
3.0
 40
4.0
 40
4.0
 40
4.0
 10
4.2347636610089552
 20
64.639111817227189
 30
0.0
 10
4.1858667671758241
 20
64.681053238883919
 30
0.0
 10
4.1369698733426929
 20
64.72299466054065
 30
0.0
 10
2.6554003565541819
 20
65.971236092658614
 30
0.0
 10
-1.5138696103729927
 20
68.700999929422267
 30
0.0
 10
-4.6096958584809187
 20
69.93893952766507
 30
0.0
 10
-4.6716987519383792
 20
69.963131555487138
 30
0.0
 10
-4.7337016453958398
 20
69.987323583309205
 30
0.0
  0
SPLINE
  5
1C5
100
AcDbEntity
  8
0
  6
CONTINUOUS
 62
               7
100
AcDbSpline
210
0.0
220
0.0
230
1.0
 70
               8
 71
               2
 72
              13
 73
              10
 74
               0
 42
0.000001
 43
0.000001
 40
0.0
 40
0.0
 40
0.0
 40
1.0
 40
1.0
 40
2.0
 40
3.0
 40
4.0
 40
5.0
 40
5.0
 40
6.0
 40
6.0
 40
6.0
 10
5.0252218700333486
 20
63.788676119428288
 30
0.0
 10
5.0244751914555792
 20
63.789779683566508
 30
0.0
 10
5.0237285128778097
 20
63.790883247704727
 30
0.0
 10
4.9836589147064245
 20
63.85064101399999
 30
0.0
 10
4.8219956147920158
 20
64.077810389240227
 30
0.0
 10
4.5401532449730411
 20
64.36603208258029
 30
0.0
 10
4.3251353698334896
 20
64.559156854161103
 30
0.0
 10
4.2437942067404464
 20
64.631111493312801
 30
0.0
 10
4.2392787743536076
 20
64.635111291777349
 30
0.0
 10
4.2347633419667687
 20
64.639111090241897
 30
0.0
  0
LINE
  5
1C6
100
AcDbEntity
  8
0
  6
CONTINUOUS
 62
               7
100
AcDbLine
 10
11.418744877100167
 20
59.249287696783398
 30
0.0
 11
10.752165020700161
 21
58.971165519483378
 31
0.0
  0
LINE
  5
1C7
100
AcDbEntity
  8
0
  6
CONTINUOUS
 62
               7
100
AcDbLine
 10
11.418744877100167
 20
59.249287696783398
 30
0.0
 11
14.681422479200151
 21
61.092107104583391
 31
0.0
  0
LINE
  5
1C8
100
AcDbEntity
  8
0
  6
CONTINUOUS
 62
               7
100
AcDbLine
 10
-18.999882729199854
 20
81.248779943783404
 30
0.0
 11
-17.931990825399836
 21
72.210198000183397
 31
0.0
  0
LINE
  5
1C9
100
AcDbEntity
  8
0
  6
CONTINUOUS
 62
               7
100
AcDbLine
 10
-3.122532521099842
 20
75.927103732683378
 30
0.0
 11
-3.4956369626998338
 21
79.085039868883399
 31
0.0
  0
LINE
  5
1CA
100
AcDbEntity
  8
0
  6
CONTINUOUS
 62
               7
100
AcDbLine
 10
-26.48645873559984
 20
80.083073255983379
 30
0.0
 11
-25.46337274849985
 21
71.423719523583401
 31
0.0
  0
LINE
  5
1CB
100
AcDbEntity
  8
0
  6
CONTINUOUS
 62
               7
100
AcDbLine
 10
-33.791281815799849
 20
77.379015321183402
 30
0.0
 11
-32.815227634399847
 21
69.117744004583386
 31
0.0
  0
SPLINE
  5
1CC
100
AcDbEntity
  8
0
  6
CONTINUOUS
 62
               7
100
AcDbSpline
210
0.0
220
0.0
230
1.0
 70
               8
 71
               2
 72
              13
 73
              10
 74
               0
 42
0.000001
 43
0.000001
 40
0.0
 40
0.0
 40
0.0
 40
1.0
 40
1.0
 40
2.0
 40
3.0
 40
4.0
 40
5.0
 40
5.0
 40
6.0
 40
6.0
 40
6.0
 10
-5.052385299645735
 20
67.246755232090379
 30
0.0
 10
-5.0587878797763324
 20
67.250248822090086
 30
0.0
 10
-5.0651904599069297
 20
67.253742412089792
 30
0.0
 10
-5.2570712942402196
 20
67.35886353566363
 30
0.0
 10
-6.2664929107626932
 20
67.893921997683861
 30
0.0
 10
-7.9714609307021789
 20
68.531781864375745
 30
0.0
 10
-9.645154499517119
 20
69.023824477947727
 30
0.0
 10
-10.541116010687674
 20
69.263178274315976
 30
0.0
 10
-10.567448828110457
 20
69.270282171223883
 30
0.0
 10
-10.593781645533241
 20
69.27738606813179
 30
0.0
  0
LINE
  5
1CD
100
AcDbEntity
  8
0
  6
CONTINUOUS
 62
               7
100
AcDbLine
 10
-41.505763789199833
 20
72.198573660883397
 30
0.0
 11
-40.601182241899849
 21
64.542258503883403
 31
0.0
  0
SPLINE
  5
1CE
100
AcDbEntity
  8
0
  6
CONTINUOUS
 62
               7
100
AcDbSpline
210
0.0
220
0.0
230
1.0
 70
               8
 71
               2
 72
              17
 73
              14
 74
               0
 42
0.000001
 43
0.000001
 40
0.0
 40
0.0
 40
0.0
 40
1.0
 40
1.0
 40
2.0
 40
3.0
 40
4.0
 40
5.0
 40
6.0
 40
7.0
 40
8.0
 40
9.0
 40
9.0
 40
10.0
 40
10.0
 40
10.0
 10
8.5422102256530508
 20
63.099107291576502
 30
0.0
 10
8.5386713868322204
 20
63.096263632963058
 30
0.0
 10
8.53513254801139
 20
63.093419974349615
 30
0.0
 10
8.3686134039844688
 20
62.965012473972394
 30
0.0
 10
8.1177239114165474
 20
62.716964001234913
 30
0.0
 10
7.9711804971654914
 20
62.464170359589701
 30
0.0
 10
7.8712845888210978
 20
62.15036633237051
 30
0.0
 10
7.8523847522274508
 20
61.822766065743849
 30
0.0
 10
7.8929644746982746
 20
61.614436640678633
 30
0.0
 10
7.9538578334186099
 20
61.457716254310327
 30
0.0
 10
8.0396624497935107
 20
61.304584503070743
 30
0.0
 10
8.0859189693921252
 20
61.228906761119077
 30
0.0
 10
8.0874491109343865
 20
61.226381054638338
 30
0.0
 10
8.0889792524766477
 20
61.223855348157599
 30
0.0
  0
SPLINE
  5
1CF
100
AcDbEntity
  8
0
  6
CONTINUOUS
 62
               7
100
AcDbSpline
210
0.0
220
0.0
230
1.0
 70
               8
 71
               2
 72
              19
 73
              16
 74
               0
 42
0.000001
 43
0.000001
 40
0.0
 40
0.0
 40
0.0
 40
1.0
 40
1.0
 40
2.0
 40
3.0
 40
4.0
 40
5.0
 40
6.0
 40
7.0
 40
8.0
 40
9.0
 40
10.0
 40
11.0
 40
11.0
 40
12.0
 40
12.0
 40
12.0
 10
10.962403981293349
 20
61.210524108358896
 30
0.0
 10
10.964335392141706
 20
61.214284875060102
 30
0.0
 10
10.966266802990063
 20
61.218045641761307
 30
0.0
 10
11.025522849685458
 20
61.330570869053673
 30
0.0
 10
11.173553986076612
 20
61.661338043832586
 30
0.0
 10
11.157783880974719
 20
62.072623982566
 30
0.0
 10
11.061920071764504
 20
62.396654780578956
 30
0.0
 10
10.861706017744822
 20
62.750001842974456
 30
0.0
 10
10.549664381299166
 20
63.0344887358238
 30
0.0
 10
10.09464568146943
 20
63.295342476026548
 30
0.0
 10
9.5607901462776539
 20
63.375572025591026
 30
0.0
 10
9.0973111966498976
 20
63.346262106036562
 30
0.0
 10
8.7039362247077037
 20
63.179435853409615
 30
0.0
 10
8.5523418817274859
 20
63.10406308643087
 30
0.0
 10
8.5472760536902683
 20
63.101585189003686
 30
0.0
 10
8.5422102256530508
 20
63.099107291576502
 30
0.0
  0
LINE
  5
1D0
100
AcDbEntity
  8
0
  6
CONTINUOUS
 62
               7
100
AcDbLine
 10
-4.7337020787998512
 20
69.987322952883403
 30
0.0
 11
-5.4232735138998436
 21
75.823824083083394
 31
0.0
  0
LINE
  5
1D1
100
AcDbEntity
  8
0
  6
CONTINUOUS
 62
               7
100
AcDbLine
 10
19.635543284700148
 20
50.140584823783399
 30
0.0
 11
18.275833417000158
 21
50.700565262183403
 31
0.0
  0
LINE
  5
1D2
100
AcDbEntity
  8
0
  6
CONTINUOUS
 62
               7
100
AcDbLine
 10
-51.568491483299837
 20
53.492824882683379
 30
0.0
 11
-48.822528998699838
 21
55.232882133183381
 31
0.0
  0
LINE
  5
1D3
100
AcDbEntity
  8
0
  6
CONTINUOUS
 62
               7
100
AcDbLine
 10
5.1021885914001501
 20
74.796681018483383
 30
0.0
 11
5.4988546714001671
 21
71.439299351083406
 31
0.0
  0
LINE
  5
1D4
100
AcDbEntity
  8
0
  6
CONTINUOUS
 62
               7
100
AcDbLine
 10
8.0006442213001634
 20
62.431242732183392
 30
0.0
 11
8.1558751205001698
 21
62.128868835683392
 31
0.0
  0
LINE
  5
1D5
100
AcDbEntity
  8
0
  6
CONTINUOUS
 62
               7
100
AcDbLine
 10
16.000813763500148
 20
59.736676826483404
 30
0.0
 11
17.839257047600157
 21
58.979537917183393
 31
0.0
  0
SPLINE
  5
1D6
100
AcDbEntity
  8
0
  6
CONTINUOUS
 62
               8
100
AcDbSpline
210
0.0
220
0.0
230
1.0
 70
               8
 71
               2
 72
              13
 73
              10
 74
               0
 42
0.000001
 43
0.000001
 40
0.0
 40
0.0
 40
0.0
 40
1.0
 40
1.0
 40
2.0
 40
3.0
 40
4.0
 40
5.0
 40
5.0
 40
6.0
 40
6.0
 40
6.0
 10
3.3318384147730598
 20
52.420424383573504
 30
0.0
 10
3.3536204798270433
 20
52.39359413447724
 30
0.0
 10
3.3754025448810268
 20
52.366763885380976
 30
0.0
 10
3.8558172565805506
 20
51.777268124243648
 30
0.0
 10
5.0626718791959178
 20
50.26577293546265
 30
0.0
 10
6.3574874058069639
 20
48.35102836051081
 30
0.0
 10
6.9421685087844622
 20
47.164672038782726
 30
0.0
 10
7.060152133848149
 20
46.911428496598575
 30
0.0
 10
7.063269445664659
 20
46.904768894344031
 30
0.0
 10
7.066386757481169
 20
46.898109292089487
 30
0.0
  0
SPLINE
  5
1D7
100
AcDbEntity
  8
0
  6
CONTINUOUS
 62
               8
100
AcDbSpline
210
0.0
220
0.0
230
1.0
 70
               8
 71
               2
 72
              12
 73
               9
 74
               0
 42
0.000001
 43
0.000001
 40
0.0
 40
0.0
 40
0.0
 40
1.0
 40
1.0
 40
2.0
 40
3.0
 40
4.0
 40
4.0
 40
5.0
 40
5.0
 40
5.0
 10
-40.171623975767929
 20
-17.341080171155312
 30
0.0
 10
-40.191953159041873
 20
-17.316639779955267
 30
0.0
 10
-40.212282342315817
 20
-17.292199388755222
 30
0.0
 10
-40.910831494169813
 20
-16.465255424845736
 30
0.0
 10
-42.00529159996627
 20
-15.033307696047387
 30
0.0
 10
-42.849579587012713
 20
-13.699992034054731
 30
0.0
 10
-43.273732510916389
 20
-12.973140857460663
 30
0.0
 10
-43.286288726815968
 20
-12.951807315991331
 30
0.0
 10
-43.298844942715547
 20
-12.930473774522
 30
0.0
  0
LINE
  5
1D8
100
AcDbEntity
  8
0
  6
CONTINUOUS
 62
               8
100
AcDbLine
 10
-13.206894316599843
 20
54.579432500183401
 30
0.0
 11
-12.94961203769985
 21
56.88522373158338
 31
0.0
  0
LINE
  5
1D9
100
AcDbEntity
  8
0
  6
CONTINUOUS
 62
               8
100
AcDbLine
 10
15.901144722000154
 20
53.278901961183379
 30
0.0
 11
15.572868698300155
 21
38.989668861583397
 31
0.0
  0
LINE
  5
1DA
100
AcDbEntity
  8
0
  6
CONTINUOUS
 62
               8
100
AcDbLine
 10
3.3984786412001569
 20
53.325274295383394
 30
0.0
 11
3.3984918491001537
 21
53.325452981183389
 31
0.0
  0
LINE
  5
1DB
100
AcDbEntity
  8
0
  6
CONTINUOUS
 62
               8
100
AcDbLine
 10
4.1491927221001532
 20
63.481452667983405
 30
0.0
 11
4.2347633420001642
 21
64.639111090283393
 31
0.0
  0
LINE
  5
1DC
100
AcDbEntity
  8
0
  6
CONTINUOUS
 62
               8
100
AcDbLine
 10
11.066037237600156
 20
54.477615243283395
 30
0.0
 11
11.418744877100167
 21
59.249287696783398
 31
0.0
  0
ENDBLK
  5
1DD
100
AcDbEntity
  8
__
100
AcDbBlockEnd
  0
ENDSEC
  0
SECTION
  2
ENTITIES
  0
INSERT
  5
1DE
100
AcDbEntity
  8
__
 62
               7
100
AcDbBlockReference
  2
*U0
 10
212.5176882978617
 20
148.5
 30
0.0
  0
MTEXT
  5
1DF
100
AcDbEntity
  8
0
 62
               7
100
AcDbMText
 10
254.66197100629782
 20
133.2531712964329
 30
0.0
 40
2.910416666666666
 41
0.0
 71
               1
 72
               1
  1
HBH-D05B
  7
________
  0
ENDSEC
  0
SECTION
  2
OBJECTS
  0
DICTIONARY
  5
19
100
AcDbDictionary
  3
ACAD_GROUP
350
1A
  3
ACAD_MLINESTYLE
350
1B
  0
DICTIONARY
  5
1A
102
{ACAD_REACTORS
330
19
102
}
100
AcDbDictionary
  0
DICTIONARY
  5
1B
102
{ACAD_REACTORS
330
19
102
}
100
AcDbDictionary
  3
STANDARD
350
1C
  0
MLINESTYLE
  5
1C
102
{ACAD_REACTORS
330
1B
102
}
100
AcDbMlineStyle
  2
STANDARD
 70
               0
  3

 62
               0
 51
90.0
 52
90.0
 71
               2
 49
0.5
 62
             256
  6
BYLAYER
 49
-0.5
 62
             256
  6
BYLAYER
  0
ENDSEC
  0
EOF
