  0
SECTION
  2
HEADER
  9
$ACADVER
  1
AC1015
  9
$ACADMAINTVER
 70
     6
  9
$DWGCODEPAGE
  3
DOS932
  9
$INSBASE
 10
0.0
 20
0.0
 30
0.0
  9
$EXTMIN
 10
0.0
 20
0.0
 30
0.0
  9
$EXTMAX
 10
210.0
 20
297.0
 30
0.0
  9
$LIMMIN
 10
0.0
 20
0.0
  9
$LIMMAX
 10
210.0
 20
297.0
  9
$ORTHOMODE
 70
     0
  9
$REGENMODE
 70
     1
  9
$FILLMODE
 70
     1
  9
$QTEXTMODE
 70
     0
  9
$MIRRTEXT
 70
     1
  9
$LTSCALE
 40
1.0
  9
$ATTMODE
 70
     1
  9
$TEXTSIZE
 40
3.5277777778
  9
$TRACEWID
 40
1.0
  9
$TEXTSTYLE
  7
Standard
  9
$CLAYER
  8
0
  9
$CELTYPE
  6
ByLayer
  9
$CECOLOR
 62
   256
  9
$CELTSCALE
 40
1.0
  9
$DISPSILH
 70
     0
  9
$DIMSCALE
 40
1.0
  9
$DIMASZ
 40
1.5
  9
$DIMEXO
 40
1.0
  9
$DIMDLI
 40
3.75
  9
$DIMRND
 40
0.0
  9
$DIMDLE
 40
0.0
  9
$DIMEXE
 40
1.0
  9
$DIMTP
 40
0.0
  9
$DIMTM
 40
0.0
  9
$DIMTXT
 40
3.5277777778
  9
$DIMCEN
 40
2.5
  9
$DIMTSZ
 40
0.0
  9
$DIMTOL
 70
     0
  9
$DIMLIM
 70
     0
  9
$DIMTIH
 70
     1
  9
$DIMTOH
 70
     1
  9
$DIMSE1
 70
     0
  9
$DIMSE2
 70
     0
  9
$DIMTAD
 70
     1
  9
$DIMZIN
 70
     0
  9
$DIMBLK
  1

  9
$DIMASO
 70
     1
  9
$DIMSHO
 70
     1
  9
$DIMPOST
  1

  9
$DIMAPOST
  1

  9
$DIMALT
 70
     0
  9
$DIMALTD
 70
     3
  9
$DIMALTF
 40
0.0393700787
  9
$DIMLFAC
 40
1.0
  9
$DIMTOFL
 70
     1
  9
$DIMTVP
 40
0.0
  9
$DIMTIX
 70
     0
  9
$DIMSOXD
 70
     0
  9
$DIMSAH
 70
     0
  9
$DIMBLK1
  1

  9
$DIMBLK2
  1

  9
$DIMSTYLE
  2
ISO-25
  9
$DIMCLRD
 70
     0
  9
$DIMCLRE
 70
     0
  9
$DIMCLRT
 70
     0
  9
$DIMTFAC
 40
1.0
  9
$DIMGAP
 40
1.5
  9
$DIMJUST
 70
     0
  9
$DIMSD1
 70
     0
  9
$DIMSD2
 70
     0
  9
$DIMTOLJ
 70
     0
  9
$DIMTZIN
 70
     0
  9
$DIMALTZ
 70
     0
  9
$DIMALTTZ
 70
     0
  9
$DIMUPT
 70
     0
  9
$DIMDEC
 70
     1
  9
$DIMTDEC
 70
     1
  9
$DIMALTU
 70
     2
  9
$DIMALTTD
 70
     3
  9
$DIMTXSTY
  7
Standard
  9
$DIMAUNIT
 70
     0
  9
$DIMADEC
 70
     2
  9
$DIMALTRND
 40
0.0
  9
$DIMAZIN
 70
     0
  9
$DIMDSEP
 70
    44
  9
$DIMATFIT
 70
     3
  9
$DIMFRAC
 70
     0
  9
$DIMLDRBLK
  1

  9
$DIMLUNIT
 70
     2
  9
$DIMLWD
 70
    -2
  9
$DIMLWE
 70
    -2
  9
$DIMTMOVE
 70
     0
  9
$LUNITS
 70
     2
  9
$LUPREC
 70
     6
  9
$SKETCHINC
 40
1.0
  9
$FILLETRAD
 40
0.0
  9
$AUNITS
 70
     0
  9
$AUPREC
 70
     2
  9
$MENU
  1
.
  9
$ELEVATION
 40
0.0
  9
$PELEVATION
 40
0.0
  9
$THICKNESS
 40
0.0
  9
$LIMCHECK
 70
     0
  9
$CHAMFERA
 40
0.0
  9
$CHAMFERB
 40
0.0
  9
$CHAMFERC
 40
0.0
  9
$CHAMFERD
 40
0.0
  9
$SKPOLY
 70
     0
  9
$TDCREATE
 40
2460339.450497084
  9
$TDUCREATE
 40
2460339.075497084
  9
$TDUPDATE
 40
2460339.450497535
  9
$TDUUPDATE
 40
2460339.075497535
  9
$TDINDWG
 40
0.0000000116
  9
$TDUSRTIMER
 40
0.0000000116
  9
$USRTIMER
 70
     1
  9
$ANGBASE
 50
0.0
  9
$ANGDIR
 70
     0
  9
$PDMODE
 70
     0
  9
$PDSIZE
 40
-1.0
  9
$PLINEWID
 40
0.0
  9
$SPLFRAME
 70
     0
  9
$SPLINETYPE
 70
     6
  9
$SPLINESEGS
 70
     8
  9
$HANDSEED
  5
E1
  9
$SURFTAB1
 70
     6
  9
$SURFTAB2
 70
     6
  9
$SURFTYPE
 70
     6
  9
$SURFU
 70
     6
  9
$SURFV
 70
     6
  9
$UCSBASE
  2

  9
$UCSNAME
  2

  9
$UCSORG
 10
0.0
 20
0.0
 30
0.0
  9
$UCSXDIR
 10
1.0
 20
0.0
 30
0.0
  9
$UCSYDIR
 10
0.0
 20
1.0
 30
0.0
  9
$UCSORTHOREF
  2

  9
$UCSORTHOVIEW
 70
     0
  9
$UCSORGTOP
 10
0.0
 20
0.0
 30
0.0
  9
$UCSORGBOTTOM
 10
0.0
 20
0.0
 30
0.0
  9
$UCSORGLEFT
 10
0.0
 20
0.0
 30
0.0
  9
$UCSORGRIGHT
 10
0.0
 20
0.0
 30
0.0
  9
$UCSORGFRONT
 10
0.0
 20
0.0
 30
0.0
  9
$UCSORGBACK
 10
0.0
 20
0.0
 30
0.0
  9
$PUCSBASE
  2

  9
$PUCSNAME
  2

  9
$PUCSORG
 10
0.0
 20
0.0
 30
0.0
  9
$PUCSXDIR
 10
1.0
 20
0.0
 30
0.0
  9
$PUCSYDIR
 10
0.0
 20
1.0
 30
0.0
  9
$PUCSORTHOREF
  2

  9
$PUCSORTHOVIEW
 70
     0
  9
$PUCSORGTOP
 10
0.0
 20
0.0
 30
0.0
  9
$PUCSORGBOTTOM
 10
0.0
 20
0.0
 30
0.0
  9
$PUCSORGLEFT
 10
0.0
 20
0.0
 30
0.0
  9
$PUCSORGRIGHT
 10
0.0
 20
0.0
 30
0.0
  9
$PUCSORGFRONT
 10
0.0
 20
0.0
 30
0.0
  9
$PUCSORGBACK
 10
0.0
 20
0.0
 30
0.0
  9
$USERI1
 70
     0
  9
$USERI2
 70
     0
  9
$USERI3
 70
     0
  9
$USERI4
 70
     0
  9
$USERI5
 70
     0
  9
$USERR1
 40
0.0
  9
$USERR2
 40
0.0
  9
$USERR3
 40
0.0
  9
$USERR4
 40
0.0
  9
$USERR5
 40
0.0
  9
$WORLDVIEW
 70
     1
  9
$SHADEDGE
 70
     3
  9
$SHADEDIF
 70
    70
  9
$TILEMODE
 70
     1
  9
$MAXACTVP
 70
    64
  9
$PINSBASE
 10
0.0
 20
0.0
 30
0.0
  9
$PLIMCHECK
 70
     0
  9
$PEXTMIN
 10
1.0000000000E+20
 20
1.0000000000E+20
 30
1.0000000000E+20
  9
$PEXTMAX
 10
-1.0000000000E+20
 20
-1.0000000000E+20
 30
-1.0000000000E+20
  9
$PLIMMIN
 10
0.0
 20
0.0
  9
$PLIMMAX
 10
420.0
 20
297.0
  9
$UNITMODE
 70
     0
  9
$VISRETAIN
 70
     1
  9
$PLINEGEN
 70
     0
  9
$PSLTSCALE
 70
     1
  9
$TREEDEPTH
 70
  3020
  9
$CMLSTYLE
  2
Standard
  9
$CMLJUST
 70
     0
  9
$CMLSCALE
 40
20.0
  9
$PROXYGRAPHICS
 70
     1
  9
$MEASUREMENT
 70
     1
  9
$CELWEIGHT
370
    -1
  9
$ENDCAPS
280
     0
  9
$JOINSTYLE
280
     0
  9
$LWDISPLAY
290
     1
  9
$INSUNITS
 70
     4
  9
$HYPERLINKBASE
  1

  9
$STYLESHEET
  1

  9
$XEDIT
290
     1
  9
$CEPSNTYPE
380
     0
  9
$PSTYLEMODE
290
     1
  9
$FINGERPRINTGUID
  2
{5b754f71-d105-476c-9ab0-92de9e4bfb16}
  9
$VERSIONGUID
  2
{FAEB1C32-E019-11D5-929B-00C0DF256EC4}
  9
$EXTNAMES
290
     1
  9
$PSVPSCALE
 40
0.0
  9
$OLESTARTUP
290
     0
  0
ENDSEC
  0
SECTION
  2
CLASSES
  0
CLASS
  1
ACDBDICTIONARYWDFLT
  2
AcDbDictionaryWithDefault
  3
ObjectDBX Classes
 90
        0
280
     0
281
     0
  0
CLASS
  1
VISUALSTYLE
  2
AcDbVisualStyle
  3
ObjectDBX Classes
 90
     4095
280
     0
281
     0
  0
CLASS
  1
MATERIAL
  2
AcDbMaterial
  3
ObjectDBX Classes
 90
     1153
280
     0
281
     0
  0
CLASS
  1
SCALE
  2
AcDbScale
  3
ObjectDBX Classes
 90
     1153
280
     0
281
     0
  0
CLASS
  1
TABLESTYLE
  2
AcDbTableStyle
  3
ObjectDBX Classes
 90
     4095
280
     0
281
     0
  0
CLASS
  1
MLEADERSTYLE
  2
AcDbMLeaderStyle
  3
ACDB_MLEADERSTYLE_CLASS
 90
     4095
280
     0
281
     0
  0
CLASS
  1
SUN
  2
AcDbSun
  3
SCENEOE
 90
     1153
280
     0
281
     0
  0
CLASS
  1
ACDBPLACEHOLDER
  2
AcDbPlaceHolder
  3
ObjectDBX Classes
 90
        0
280
     0
281
     0
  0
CLASS
  1
LAYOUT
  2
AcDbLayout
  3
ObjectDBX Classes
 90
        0
280
     0
281
     0
  0
ENDSEC
  0
SECTION
  2
TABLES
  0
TABLE
  2
VPORT
  5
8
330
0
100
AcDbSymbolTable
 70
     1
  0
VPORT
  5
29
330
8
100
AcDbSymbolTableRecord
100
AcDbViewportTableRecord
  2
*Active
 70
     0
 10
0.0
 20
0.0
 11
1.0
 21
1.0
 12
105.0
 22
148.5
 13
0.0
 23
0.0
 14
10.0
 24
10.0
 15
10.0
 25
10.0
 16
0.0
 26
0.0
 36
1.0
 17
0.0
 27
0.0
 37
0.0
 40
297.0
 41
0.7070707071
 42
50.0
 43
0.0
 44
0.0
 50
0.0
 51
0.0
 71
     0
 72
  2000
 73
     1
 74
     3
 75
     0
 76
     0
 77
     0
 78
     0
281
     0
 65
     1
110
0.0
120
0.0
130
0.0
111
1.0
121
0.0
131
0.0
112
0.0
122
1.0
132
0.0
 79
     0
146
0.0
  0
ENDTAB
  0
TABLE
  2
LTYPE
  5
5
330
0
100
AcDbSymbolTable
 70
     6
  0
LTYPE
  5
14
330
5
100
AcDbSymbolTableRecord
100
AcDbLinetypeTableRecord
  2
ByBlock
 70
     0
  3

 72
    65
 73
     0
 40
0.0
  0
LTYPE
  5
15
330
5
100
AcDbSymbolTableRecord
100
AcDbLinetypeTableRecord
  2
ByLayer
 70
     0
  3

 72
    65
 73
     0
 40
0.0
  0
LTYPE
  5
16
330
5
100
AcDbSymbolTableRecord
100
AcDbLinetypeTableRecord
  2
Continuous
 70
     0
  3
Solid line
 72
    65
 73
     0
 40
0.0
  0
LTYPE
  5
5E
330
5
100
AcDbSymbolTableRecord
100
AcDbLinetypeTableRecord
  2
HIDDEN
 70
     0
  3
Hidden __ __ __ __ __ __ __ __ __ __ __ __ __ __
 72
    65
 73
     2
 40
1.905
 49
1.27
 74
     0
 49
-0.635
 74
     0
  0
LTYPE
  5
5F
330
5
100
AcDbSymbolTableRecord
100
AcDbLinetypeTableRecord
  2
PHANTOM
 70
     0
  3
Phantom ______  __  __  ______  __  __  ______
 72
    65
 73
     6
 40
12.7
 49
6.35
 74
     0
 49
-1.27
 74
     0
 49
1.27
 74
     0
 49
-1.27
 74
     0
 49
1.27
 74
     0
 49
-1.27
 74
     0
  0
LTYPE
  5
60
330
5
100
AcDbSymbolTableRecord
100
AcDbLinetypeTableRecord
  2
CENTER
 70
     0
  3
Center ____ _ ____ _ ____ _ ____ _ ____ _ ____
 72
    65
 73
     4
 40
10.16
 49
6.35
 74
     0
 49
-1.27
 74
     0
 49
1.27
 74
     0
 49
-1.27
 74
     0
  0
LTYPE
  5
61
330
5
100
AcDbSymbolTableRecord
100
AcDbLinetypeTableRecord
  2
CENTERX2
 70
     0
  3
Center (2x) ________  __  ________  __  _____
 72
    65
 73
     4
 40
20.32
 49
12.7
 74
     0
 49
-2.54
 74
     0
 49
2.54
 74
     0
 49
-2.54
 74
     0
  0
LTYPE
  5
62
330
5
100
AcDbSymbolTableRecord
100
AcDbLinetypeTableRecord
  2
DOT2
 70
     0
  3
Dot (.5x) ........................................
 72
    65
 73
     2
 40
0.635
 49
0.0
 74
     0
 49
-0.635
 74
     0
  0
ENDTAB
  0
TABLE
  2
LAYER
  5
2
330
0
100
AcDbSymbolTable
 70
     2
  0
LAYER
  5
10
330
2
100
AcDbSymbolTableRecord
100
AcDbLayerTableRecord
  2
0
 70
     0
 62
     7
  6
Continuous
370
    -3
390
F
  0
LAYER
  5
63
330
2
100
AcDbSymbolTableRecord
100
AcDbLayerTableRecord
  2
FORMAT
 70
     0
 62
     7
  6
Continuous
370
    -3
390
F
  0
ENDTAB
  0
TABLE
  2
STYLE
  5
3
330
0
100
AcDbSymbolTable
 70
     2
  0
STYLE
  5
11
330
3
100
AcDbSymbolTableRecord
100
AcDbTextStyleTableRecord
  2
Standard
 70
     0
 40
0.0
 41
1.0
 50
0.0
 71
     0
 42
3.5277777778
  3
txt
  4
bigfont
  0
STYLE
  5
DE
330
3
100
AcDbSymbolTableRecord
100
AcDbTextStyleTableRecord
  2
SLDTEXTSTYLE0
 70
     0
 40
0.0
 41
0.7
 50
0.0
 71
     0
 42
3.5277777778
  3
TXT
  4
bigfont
  0
ENDTAB
  0
TABLE
  2
VIEW
  5
6
330
0
100
AcDbSymbolTable
 70
     0
  0
ENDTAB
  0
TABLE
  2
UCS
  5
7
330
0
100
AcDbSymbolTable
 70
     0
  0
ENDTAB
  0
TABLE
  2
APPID
  5
9
330
0
100
AcDbSymbolTable
 70
     1
  0
APPID
  5
12
330
9
100
AcDbSymbolTableRecord
100
AcDbRegAppTableRecord
  2
ACAD
 70
     0
  0
ENDTAB
  0
TABLE
  2
DIMSTYLE
  5
A
330
0
100
AcDbSymbolTable
 70
     1
100
AcDbDimStyleTable
  0
DIMSTYLE
105
27
330
A
100
AcDbSymbolTableRecord
100
AcDbDimStyleTableRecord
  2
ISO-25
 70
     0
 41
2.5
 42
0.625
 43
3.75
 44
1.25
 73
     0
 74
     0
 77
     1
 78
     8
140
2.5
141
2.5
143
0.0393700787
147
0.625
171
     3
172
     1
178
     0
271
     2
272
     2
274
     3
278
    44
283
     0
284
     8
340
11
  0
ENDTAB
  0
TABLE
  2
BLOCK_RECORD
  5
1
330
0
100
AcDbSymbolTable
 70
     1
  0
BLOCK_RECORD
  5
1F
330
1
100
AcDbSymbolTableRecord
100
AcDbBlockTableRecord
  2
*Model_Space
340
22
  0
BLOCK_RECORD
  5
1B
330
1
100
AcDbSymbolTableRecord
100
AcDbBlockTableRecord
  2
*Paper_Space
340
1E
  0
BLOCK_RECORD
  5
23
330
1
100
AcDbSymbolTableRecord
100
AcDbBlockTableRecord
  2
*Paper_Space0
340
26
  0
ENDTAB
  0
ENDSEC
  0
SECTION
  2
BLOCKS
  0
BLOCK
  5
20
330
1F
100
AcDbEntity
  8
0
100
AcDbBlockBegin
  2
*Model_Space
 70
     0
 10
0.0
 20
0.0
 30
0.0
  3
*Model_Space
  1

  0
ENDBLK
  5
21
330
1F
100
AcDbEntity
  8
0
100
AcDbBlockEnd
  0
BLOCK
  5
1C
330
1B
100
AcDbEntity
 67
     1
  8
0
100
AcDbBlockBegin
  2
*Paper_Space
 70
     0
 10
0.0
 20
0.0
 30
0.0
  3
*Paper_Space
  1

  0
ENDBLK
  5
1D
330
1B
100
AcDbEntity
 67
     1
  8
0
100
AcDbBlockEnd
  0
BLOCK
  5
24
330
23
100
AcDbEntity
  8
0
100
AcDbBlockBegin
  2
*Paper_Space0
 70
     0
 10
0.0
 20
0.0
 30
0.0
  3
*Paper_Space0
  1

  0
ENDBLK
  5
25
330
23
100
AcDbEntity
  8
0
100
AcDbBlockEnd
  0
ENDSEC
  0
SECTION
  2
ENTITIES
  0
SPLINE
  5
64
330
1F
100
AcDbEntity
  8
0
  6
Continuous
 62
     7
370
    25
100
AcDbSpline
210
0.0
220
0.0
230
1.0
 70
     8
 71
     3
 72
     9
 73
     5
 74
     0
 42
0.00000001
 43
0.00000001
 40
0.0
 40
0.0
 40
0.0
 40
0.0
 40
0.8827843915346657
 40
1.0
 40
1.0
 40
1.0
 40
1.0
 10
109.1868532745724
 20
179.1716443757125
 30
0.0
 10
109.0215454872351
 20
179.1759509947863
 30
0.0
 10
108.8342882260936
 20
179.1808294442867
 30
0.0
 10
108.6543880259834
 20
179.1576466582668
 30
0.0
 10
108.6333009145644
 20
179.1549292738975
 30
0.0
  0
SPLINE
  5
65
330
1F
100
AcDbEntity
  8
0
  6
Continuous
 62
     7
370
    25
100
AcDbSpline
210
0.0
220
0.0
230
1.0
 70
     8
 71
     3
 72
    12
 73
     8
 74
     0
 42
0.00000001
 43
0.00000001
 40
0.0
 40
0.0
 40
0.0
 40
0.0
 40
0.1458744583170644
 40
0.4233041165150299
 40
0.6996584781728398
 40
0.975075605802999
 40
1.0
 40
1.0
 40
1.0
 40
1.0
 10
110.9549474762451
 20
178.7808193487513
 30
0.0
 10
110.8836385307747
 20
178.8142123678872
 30
0.0
 10
110.6767114887811
 20
178.911113515807
 30
0.0
 10
110.2836245452103
 20
179.03757361904
 30
0.0
 10
109.7741080285675
 20
179.1328263068128
 30
0.0
 10
109.3993585376781
 20
179.1763315429898
 30
0.0
 10
109.2031370740289
 20
179.172003542779
 30
0.0
 10
109.1868532745724
 20
179.1716443757125
 30
0.0
  0
SPLINE
  5
66
330
1F
100
AcDbEntity
  8
0
  6
Continuous
 62
     7
370
    25
100
AcDbSpline
210
0.0
220
0.0
230
1.0
 70
     8
 71
     3
 72
    10
 73
     6
 74
     0
 42
0.00000001
 43
0.00000001
 40
0.0
 40
0.0
 40
0.0
 40
0.0
 40
0.1271300197162304
 40
0.7037877361220395
 40
1.0
 40
1.0
 40
1.0
 40
1.0
 10
111.5015505140783
 20
178.3840844734405
 30
0.0
 10
111.4855475487468
 20
178.4041243201491
 30
0.0
 10
111.3969556428615
 20
178.5150642726384
 30
0.0
 10
111.2055731865427
 20
178.6457819220481
 30
0.0
 10
111.0184489188545
 20
178.7466046969834
 30
0.0
 10
110.9549474762451
 20
178.7808193487513
 30
0.0
  0
LINE
  5
67
330
1F
100
AcDbEntity
  8
0
  6
Continuous
 62
     7
370
    25
100
AcDbLine
 10
74.4373824651
 20
166.8101033119
 30
0.0
 11
74.4373824651
 21
163.0425044455
 31
0.0
  0
LINE
  5
68
330
1F
100
AcDbEntity
  8
0
  6
Continuous
 62
     7
370
    25
100
AcDbLine
 10
80.112085249
 20
174.6765007297
 30
0.0
 11
78.8873403776
 21
173.8104753259
 31
0.0
  0
LINE
  5
69
330
1F
100
AcDbEntity
  8
0
  6
Continuous
 62
     7
370
    25
100
AcDbLine
 10
122.9373824651
 20
163.4723666193
 30
0.0
 11
122.9373824651
 21
166.8101033119
 31
0.0
  0
SPLINE
  5
6A
330
1F
100
AcDbEntity
  8
0
  6
Continuous
 62
     7
370
    25
100
AcDbSpline
210
0.0
220
0.0
230
1.0
 70
     8
 71
     3
 72
     9
 73
     5
 74
     0
 42
0.00000001
 43
0.00000001
 40
0.0
 40
0.0
 40
0.0
 40
0.0
 40
0.4877124409173507
 40
1.0
 40
1.0
 40
1.0
 40
1.0
 10
116.5803786546965
 20
167.0907545009997
 30
0.0
 10
116.5176295399781
 20
167.1187913269737
 30
0.0
 10
116.3889694742222
 20
167.1762777136677
 30
0.0
 10
116.2560491349729
 20
167.1820767500821
 30
0.0
 10
116.1879556988265
 20
167.1850475242919
 30
0.0
  0
SPLINE
  5
6B
330
1F
100
AcDbEntity
  8
0
  6
Continuous
 62
     7
370
    25
100
AcDbSpline
210
0.0
220
0.0
230
1.0
 70
     8
 71
     3
 72
    10
 73
     6
 74
     0
 42
0.00000001
 43
0.00000001
 40
0.0
 40
0.0
 40
0.0
 40
0.0
 40
0.2913017575228141
 40
0.845031112449516
 40
1.0
 40
1.0
 40
1.0
 40
1.0
 10
118.7207934330119
 20
166.0213417510791
 30
0.0
 10
118.5182187744132
 20
166.1326367655239
 30
0.0
 10
117.9305742282028
 20
166.4554901209793
 30
0.0
 10
117.19390151965
 20
166.8172725391806
 30
0.0
 10
116.6516109962637
 20
167.0618283426103
 30
0.0
 10
116.5330299781358
 20
167.1153046157686
 30
0.0
  0
SPLINE
  5
6C
330
1F
100
AcDbEntity
  8
0
  6
Continuous
 62
     7
370
    25
100
AcDbSpline
210
0.0
220
0.0
230
1.0
 70
     8
 71
     3
 72
    24
 73
    20
 74
     0
 42
0.00000001
 43
0.00000001
 40
0.0
 40
0.0
 40
0.0
 40
0.0
 40
0.034426229427617
 40
0.0965545626550291
 40
0.1592263452773513
 40
0.2225903844998047
 40
0.2864642040945652
 40
0.3506624875967878
 40
0.4150279401068225
 40
0.4794388508169073
 40
0.5438082594517265
 40
0.6081011644935507
 40
0.6723021901132298
 40
0.7364083922823053
 40
0.8004242045576175
 40
0.8643581450688108
 40
0.9282207857139878
 40
0.9886462007275264
 40
1.0
 40
1.0
 40
1.0
 40
1.0
 10
122.4246249542288
 20
170.8838422948127
 30
0.0
 10
122.3377766517471
 20
171.0392309430921
 30
0.0
 10
122.0941949408579
 20
171.4750464019913
 30
0.0
 10
121.6136211982217
 20
172.171230163749
 30
0.0
 10
120.9555245236774
 20
172.9638774652377
 30
0.0
 10
120.1968082459862
 20
173.7299298310581
 30
0.0
 10
119.3418355430111
 20
174.466754496994
 30
0.0
 10
118.394686649148
 20
175.1701919070293
 30
0.0
 10
117.3608220225208
 20
175.8367225607132
 30
0.0
 10
116.2459652014691
 20
176.4633188971584
 30
0.0
 10
115.0559914156825
 20
177.0475178659312
 30
0.0
 10
113.7967267429377
 20
177.5872936317048
 30
0.0
 10
112.4739061042074
 20
178.0809434098754
 30
0.0
 10
111.0933443434122
 20
178.5269597955817
 30
0.0
 10
109.6609525798204
 20
178.9239476806863
 30
0.0
 10
108.1828330447126
 20
179.2707949061254
 30
0.0
 10
106.6917746465529
 20
179.560785796194
 30
0.0
 10
105.5936874326525
 20
179.734766349171
 30
0.0
 10
105.0062716681218
 20
179.8146683278062
 30
0.0
 10
104.9133561807302
 20
179.8273069591415
 30
0.0
  0
LINE
  5
6D
330
1F
100
AcDbEntity
  8
0
  6
Continuous
 62
     7
370
    25
100
AcDbLine
 10
105.3484207321
 20
177.1131329978
 30
0.0
 11
105.2680854136
 21
177.0427827573
 31
0.0
  0
LINE
  5
6E
330
1F
100
AcDbEntity
  8
0
  6
Continuous
 62
     7
370
    25
100
AcDbLine
 10
119.3631382583
 20
164.9035323392
 30
0.0
 11
119.3406347389
 21
165.0761774688
 31
0.0
  0
SPLINE
  5
6F
330
1F
100
AcDbEntity
  8
0
  6
Continuous
 62
     7
370
    25
100
AcDbSpline
210
0.0
220
0.0
230
1.0
 70
     8
 71
     3
 72
    11
 73
     7
 74
     0
 42
0.00000001
 43
0.00000001
 40
0.0
 40
0.0
 40
0.0
 40
0.0
 40
0.2470348954098589
 40
0.4961590687280609
 40
0.7473356194528998
 40
0.9999999999999999
 40
0.9999999999999999
 40
0.9999999999999999
 40
0.9999999999999999
 10
119.3415169710817
 20
165.0696359711694
 30
0.0
 10
119.323726868851
 20
165.1563595274983
 30
0.0
 10
119.28799620602
 20
165.330540097711
 30
0.0
 10
119.140938290035
 20
165.6132494628751
 30
0.0
 10
118.9467711864962
 20
165.8645293393108
 30
0.0
 10
118.8029934675366
 20
165.9639037696919
 30
0.0
 10
118.7308923220308
 20
166.0137377100014
 30
0.0
  0
LINE
  5
70
330
1F
100
AcDbEntity
  8
0
  6
Continuous
 62
     7
370
    25
100
AcDbLine
 10
121.421016867
 20
170.3660700316
 30
0.0
 11
121.1397324858
 21
170.3800376737
 31
0.0
  0
LINE
  5
71
330
1F
100
AcDbEntity
  8
0
  6
Continuous
 62
     7
370
    25
100
AcDbLine
 10
149.8408982753
 20
142.8695974591
 30
0.0
 11
129.6873824651
 21
152.9463553642
 31
0.0
  0
LINE
  5
72
330
1F
100
AcDbEntity
  8
0
  6
Continuous
 62
     7
370
    25
100
AcDbLine
 10
127.5389954516
 20
146.4179177475
 30
0.0
 11
146.7998458259
 21
136.7874925603
 31
0.0
  0
LINE
  5
73
330
1F
100
AcDbEntity
  8
0
  6
Continuous
 62
     7
370
    25
100
AcDbLine
 10
129.6873824651
 20
152.0876714476
 30
0.0
 11
129.6873824651
 21
153.3867095533
 31
0.0
  0
LINE
  5
74
330
1F
100
AcDbEntity
  8
0
  6
Continuous
 62
     7
370
    25
100
AcDbLine
 10
67.6873824651
 20
153.3867095533
 30
0.0
 11
67.6873824651
 21
152.0876714476
 31
0.0
  0
LINE
  5
75
330
1F
100
AcDbEntity
  8
0
  6
Continuous
 62
     7
370
    25
100
AcDbLine
 10
111.0069261134
 20
178.4994395079
 30
0.0
 11
111.0069261134
 21
178.6726445887
 31
0.0
  0
LWPOLYLINE
  5
76
330
1F
100
AcDbEntity
  8
0
  6
Continuous
 62
     7
370
    25
100
AcDbPolyline
 90
       27
 70
   128
 43
0.0
 10
105.0274591405
 20
178.5133713144
 10
103.8420907368
 20
178.6580090618
 10
102.1385172932
 20
178.8116882948
 10
100.4173576577
 20
178.9042102016
 10
98.6873824651
 20
178.9351033119
 10
96.9574072725
 20
178.9042102016
 10
95.236247637
 20
178.8116882948
 10
93.5326741935
 20
178.6580090618
 10
91.8553679617
 20
178.443955617
 10
90.2128761098
 20
178.1706187276
 10
88.6135683998
 20
177.8393912556
 10
87.0655945372
 20
177.4519610605
 10
85.5768426418
 20
177.0103023975
 10
84.1548990522
 20
176.5166658582
 10
82.8070096669
 20
175.973566901
 10
81.5400430213
 20
175.3837730338
 10
80.360455287
 20
174.750289711
 10
79.2742573727
 20
174.0763450184
 10
78.286984294
 20
173.3653732236
 10
77.4036669681
 20
172.6209972759
 10
76.6288065778
 20
171.8470103446
 10
75.9663516339
 20
171.0473564896
 10
75.419677855
 20
170.2261105637
 10
74.9915709653
 20
169.3874574478
 10
74.6842124995
 20
168.535670726
 10
74.4991686858
 20
167.6750909082
 10
74.4373824651
 20
166.8101033119
  0
LWPOLYLINE
  5
77
330
1F
100
AcDbEntity
  8
0
  6
Continuous
 62
     7
370
    25
100
AcDbPolyline
 90
        3
 70
   128
 43
0.0
 10
110.911956185
 20
170.9597736237
 10
110.3091703931
 20
171.1299756128
 10
109.3408971412
 20
171.3803757231
  0
LWPOLYLINE
  5
78
330
1F
100
AcDbEntity
  8
0
  6
Continuous
 62
     7
370
    25
100
AcDbPolyline
 90
       24
 70
   128
 43
0.0
 10
105.1051050332
 20
172.1808008011
 10
103.8420907368
 20
172.3360236142
 10
102.1385172932
 20
172.4897028471
 10
100.4173576577
 20
172.582224754
 10
98.6873824651
 20
172.6131178643
 10
96.9574072725
 20
172.582224754
 10
95.236247637
 20
172.4897028471
 10
93.5326741935
 20
172.3360236142
 10
91.8553679617
 20
172.1219701694
 10
90.2128761098
 20
171.8486332799
 10
88.6135683998
 20
171.517405808
 10
87.0655945372
 20
171.1299756128
 10
85.5768426418
 20
170.6883169499
 10
84.1548990522
 20
170.1946804105
 10
82.8070096669
 20
169.6515814534
 10
81.5400430213
 20
169.0617875862
 10
80.360455287
 20
168.4283042634
 10
79.2742573727
 20
167.7543595708
 10
78.286984294
 20
167.043387776
 10
77.4036669681
 20
166.2990118283
 10
76.6288065778
 20
165.525024897
 10
75.9663516339
 20
164.725371042
 10
75.419677855
 20
163.904125116
 10
75.1984347788
 20
163.5019126727
  0
LWPOLYLINE
  5
79
330
1F
100
AcDbEntity
  8
0
  6
Continuous
 62
     7
370
    25
100
AcDbPolyline
 90
       20
 70
   128
 43
0.0
 10
80.112085249
 20
174.6765007297
 10
80.1220180645
 20
174.6835186633
 10
81.1232138723
 20
175.3386379707
 10
82.2166865583
 20
175.9557756697
 10
83.3966913447
 20
176.5316895039
 10
84.65702884
 20
177.0633537944
 10
85.9910776087
 20
177.5479753365
 10
87.3918289582
 20
177.9830080738
 10
88.8519237609
 20
178.3661664746
 10
90.3636911162
 20
178.6954375396
 10
91.9191886514
 20
178.9690913772
 10
93.5102442486
 20
179.1856902922
 10
95.1284989785
 20
179.3440963389
 10
96.7654510158
 20
179.4434772992
 10
98.4125003049
 20
179.4833110554
 10
100.0609937425
 20
179.463388333
 10
101.7022706381
 20
179.3838137998
 10
103.3277082148
 20
179.2450055168
 10
104.9287669105
 20
179.0476927409
 10
105.0019357069
 20
179.037189246
  0
ARC
  5
7A
330
1F
100
AcDbEntity
  8
0
  6
Continuous
 62
     7
370
    25
100
AcDbCircle
 10
115.347718563
 20
166.5124417859
 30
0.0
 40
7.59549870192298
100
AcDbArc
 50
2.2459509619
 51
45.7471147053
  0
LWPOLYLINE
  5
7B
330
1F
100
AcDbEntity
  8
0
  6
Continuous
 62
     7
370
    25
100
AcDbPolyline
 90
        3
 70
   128
 43
0.0
 10
121.9509488535
 20
163.5982913009
 10
121.2853476916
 20
167.6917827032
 10
120.6211480123
 20
171.7761875551
  0
LINE
  5
7C
330
1F
100
AcDbEntity
  8
0
  6
Continuous
 62
     7
370
    25
100
AcDbLine
 10
105.6011948468
 20
168.4963025189
 30
0.0
 11
105.571790289
 21
169.0997728376
 31
0.0
  0
ARC
  5
7D
330
1F
100
AcDbEntity
  8
0
  6
Continuous
 62
     7
370
    25
100
AcDbCircle
 10
99.4742126642
 20
123.2267986873
 30
0.0
 40
46.27645416723345
100
AcDbArc
 50
76.9433380453
 51
82.4284523234
  0
LINE
  5
7E
330
1F
100
AcDbEntity
  8
0
  6
Continuous
 62
     7
370
    25
100
AcDbLine
 10
109.9287363095
 20
168.3068735058
 30
0.0
 11
109.9322321391
 21
168.2626890107
 31
0.0
  0
SPLINE
  5
7F
330
1F
100
AcDbEntity
  8
0
  6
Continuous
 62
     7
370
    25
100
AcDbSpline
210
0.0
220
0.0
230
1.0
 70
     8
 71
     3
 72
    10
 73
     6
 74
     0
 42
0.00000001
 43
0.00000001
 40
0.0
 40
0.0
 40
0.0
 40
0.0
 40
0.1356378288106767
 40
0.570084598486096
 40
1.0
 40
1.0
 40
1.0
 40
1.0
 10
110.2373801014216
 20
167.7391057460528
 30
0.0
 10
110.2126601037899
 20
167.7574810554746
 30
0.0
 10
110.108762171716
 20
167.8347123189479
 30
0.0
 10
109.9836137965297
 20
168.0254524728314
 30
0.0
 10
109.9492993945016
 20
168.1838870260103
 30
0.0
 10
109.9322321391111
 20
168.2626890106574
 30
0.0
  0
SPLINE
  5
80
330
1F
100
AcDbEntity
  8
0
  6
Continuous
 62
     7
370
    25
100
AcDbSpline
210
0.0
220
0.0
230
1.0
 70
     8
 71
     3
 72
     9
 73
     5
 74
     0
 42
0.00000001
 43
0.00000001
 40
0.0
 40
0.0
 40
0.0
 40
0.0
 40
0.5083766310886515
 40
0.9999999999999999
 40
0.9999999999999999
 40
0.9999999999999999
 40
0.9999999999999999
 10
111.2742019576982
 20
167.9216147893215
 30
0.0
 10
111.2715913090045
 20
167.8463426182203
 30
0.0
 10
111.266456044057
 20
167.6982788275224
 30
0.0
 10
111.1681689528382
 20
167.6078886367636
 30
0.0
 10
111.1198487219327
 20
167.5634507066662
 30
0.0
  0
LWPOLYLINE
  5
81
330
1F
100
AcDbEntity
  8
0
  6
Continuous
 62
     7
370
    25
100
AcDbPolyline
 90
        3
 70
   128
 43
0.0
 10
110.5703321904
 20
176.801595466
 10
110.9645178148
 20
171.8288318745
 10
111.2742019577
 20
167.9216147893
  0
SPLINE
  5
82
330
1F
100
AcDbEntity
  8
0
  6
Continuous
 62
     7
370
    25
100
AcDbSpline
210
0.0
220
0.0
230
1.0
 70
     8
 71
     3
 72
    11
 73
     7
 74
     0
 42
0.00000001
 43
0.00000001
 40
0.0
 40
0.0
 40
0.0
 40
0.0
 40
0.2491716590834421
 40
0.4996135135446263
 40
0.7503419988855302
 40
0.9999999999999999
 40
0.9999999999999999
 40
0.9999999999999999
 40
0.9999999999999999
 10
109.6154728496509
 20
177.8259421807515
 30
0.0
 10
109.733654688212
 20
177.7848660486266
 30
0.0
 10
109.9706208175778
 20
177.70250439173
 30
0.0
 10
110.2798839737458
 20
177.4418466170237
 30
0.0
 10
110.5057225347041
 20
177.1237756490071
 30
0.0
 10
110.5488263760646
 20
176.9088355855251
 30
0.0
 10
110.5703321904015
 20
176.8015954660159
 30
0.0
  0
ARC
  5
83
330
1F
100
AcDbEntity
  8
0
  6
Continuous
 62
     7
370
    25
100
AcDbCircle
 10
99.4810053801
 20
136.2662611072
 30
0.0
 40
42.77750018212194
100
AcDbArc
 50
76.2956936783
 51
82.4449228038
  0
LINE
  5
84
330
1F
100
AcDbEntity
  8
0
  6
Continuous
 62
     7
370
    25
100
AcDbLine
 10
105.0735005355
 20
179.3261832813
 30
0.0
 11
105.1053562965
 21
178.6724068717
 31
0.0
  0
LWPOLYLINE
  5
85
330
1F
100
AcDbEntity
  8
0
  6
Continuous
 62
     7
370
    25
100
AcDbPolyline
 90
       16
 70
   128
 43
0.0
 10
122.5206995671
 20
170.6025837655
 10
122.017169727
 20
171.4260697135
 10
121.3999795085
 20
172.2299874581
 10
120.6721358002
 20
173.0104203928
 10
119.8371845835
 20
173.7635663269
 10
118.899193657
 20
174.485756009
 10
117.8627328179
 20
175.1734710036
 10
116.7328515995
 20
175.8233608324
 10
115.5150546694
 20
176.4322592975
 10
114.2152750118
 20
176.9971999067
 10
112.8398450225
 20
177.5154303262
 10
111.3954656583
 20
177.9844257895
 10
109.8891737902
 20
178.4019013978
 10
108.3283079207
 20
178.765823252
 10
106.7204724316
 20
179.0744183612
 10
105.0735005355
 20
179.3261832813
  0
LINE
  5
86
330
1F
100
AcDbEntity
  8
0
  6
Continuous
 62
     7
370
    25
100
AcDbLine
 10
122.5206995671
 20
170.6025837655
 30
0.0
 11
122.6395868853
 21
169.9052915772
 31
0.0
  0
ARC
  5
87
330
1F
100
AcDbEntity
  8
0
  6
Continuous
 62
     7
370
    25
100
AcDbCircle
 10
113.9024042423
 20
165.1090588317
 30
0.0
 40
9.967056189575384
100
AcDbArc
 50
28.7643646864
 51
45.0286071938
  0
SPLINE
  5
88
330
1F
100
AcDbEntity
  8
0
  6
Continuous
 62
     7
370
    25
100
AcDbSpline
210
0.0
220
0.0
230
1.0
 70
     8
 71
     3
 72
    11
 73
     7
 74
     0
 42
0.00000001
 43
0.00000001
 40
0.0
 40
0.0
 40
0.0
 40
0.0
 40
0.2496580011144535
 40
0.5003864864554475
 40
0.7508283409165006
 40
1.0
 40
1.0
 40
1.0
 40
1.0
 10
120.6211480123264
 20
171.7761875550534
 30
0.0
 10
120.6107665414428
 20
171.877865502836
 30
0.0
 10
120.5899590859779
 20
172.0816573733703
 30
0.0
 10
120.6550179609444
 20
172.2542796234243
 30
0.0
 10
120.7776602740721
 20
172.2989846634828
 30
0.0
 10
120.8904206526965
 20
172.2064830663843
 30
0.0
 10
120.9466575035001
 20
172.1603498538268
 30
0.0
  0
SPLINE
  5
89
330
1F
100
AcDbEntity
  8
0
  6
Continuous
 62
     7
370
    25
100
AcDbSpline
210
0.0
220
0.0
230
1.0
 70
     8
 71
     3
 72
    11
 73
     7
 74
     0
 42
0.00000001
 43
0.00000001
 40
0.0
 40
0.0
 40
0.0
 40
0.0
 40
0.2764714235729746
 40
0.555080488197621
 40
0.7765626185751835
 40
1.0
 40
1.0
 40
1.0
 40
1.0
 10
116.2576358834822
 20
167.3466439824823
 30
0.0
 10
116.1111614397555
 20
167.3914895926731
 30
0.0
 10
115.8170800309735
 20
167.4815275534741
 30
0.0
 10
115.5098862104549
 20
167.3281396490005
 30
0.0
 10
115.3480136685199
 20
167.0463090788152
 30
0.0
 10
115.3563274115355
 20
166.7998918847113
 30
0.0
 10
115.3605025509034
 20
166.6761418330096
 30
0.0
  0
ARC
  5
8A
330
1F
100
AcDbEntity
  8
0
  6
Continuous
 62
     7
370
    25
100
AcDbCircle
 10
105.6720598114
 20
143.536615577
 30
0.0
 40
26.05709452671681
100
AcDbArc
 50
60.8390915113
 51
66.0308064142
  0
LINE
  5
8B
330
1F
100
AcDbEntity
  8
0
  6
Continuous
 62
     7
370
    25
100
AcDbLine
 10
104.9670901228
 20
176.4252434906
 30
0.0
 11
104.9637443089
 21
176.3812053778
 31
0.0
  0
LWPOLYLINE
  5
8C
330
1F
100
AcDbEntity
  8
0
  6
Continuous
 62
     7
370
    25
100
AcDbPolyline
 90
        3
 70
   128
 43
0.0
 10
105.0415434001
 20
176.4904427205
 10
105.0010923659
 20
176.4550196617
 10
104.9670901228
 20
176.4252434906
  0
LINE
  5
8D
330
1F
100
AcDbEntity
  8
0
  6
Continuous
 62
     7
370
    25
100
AcDbLine
 10
104.9637443089
 20
175.4664392358
 30
0.0
 11
105.0415434001
 21
176.4904427205
 31
0.0
  0
LINE
  5
8E
330
1F
100
AcDbEntity
  8
0
  6
Continuous
 62
     7
370
    25
100
AcDbLine
 10
105.5454604929
 20
169.4176087397
 30
0.0
 11
104.9637443088
 21
174.149468157
 31
0.0
  0
ARC
  5
8F
330
1F
100
AcDbEntity
  8
0
  6
Continuous
 62
     7
370
    25
100
AcDbCircle
 10
101.2178685239
 20
168.8990988021
 30
0.0
 40
4.358543885906317
100
AcDbArc
 50
2.6389183369
 51
6.8323174847
  0
ARC
  5
90
330
1F
100
AcDbEntity
  8
0
  6
Continuous
 62
     7
370
    25
100
AcDbCircle
 10
102.0111906346
 20
168.7712721341
 30
0.0
 40
3.486835117363176
100
AcDbArc
 50
2.6389183424
 51
6.8323174799
  0
LINE
  5
91
330
1F
100
AcDbEntity
  8
0
  6
Continuous
 62
     7
370
    25
100
AcDbLine
 10
104.9637443089
 20
173.3306726685
 30
0.0
 11
105.4732642184
 21
169.1860800849
 31
0.0
  0
LINE
  5
92
330
1F
100
AcDbEntity
  8
0
  6
Continuous
 62
     7
370
    25
100
AcDbLine
 10
105.4943280553
 20
168.9318113633
 30
0.0
 11
105.5150716578
 21
168.5060899993
 31
0.0
  0
ARC
  5
93
330
1F
100
AcDbEntity
  8
0
  6
Continuous
 62
     7
370
    25
100
AcDbCircle
 10
107.1423476815
 20
168.0968396416
 30
0.0
 40
2.794293436668324
100
AcDbArc
 50
4.3107192783
 51
10.9525022595
  0
ARC
  5
94
330
1F
100
AcDbEntity
  8
0
  6
Continuous
 62
     7
370
    25
100
AcDbCircle
 10
99.4712033889
 20
123.7200783009
 30
0.0
 40
46.09946732415833
100
AcDbArc
 50
76.9433380453
 51
82.4284523234
  0
LINE
  5
95
330
1F
100
AcDbEntity
  8
0
  6
Continuous
 62
     7
370
    25
100
AcDbLine
 10
108.9358753123
 20
173.4265994311
 30
0.0
 11
109.8857431338
 21
168.6277418949
 31
0.0
  0
LWPOLYLINE
  5
96
330
1F
100
AcDbEntity
  8
0
  6
Continuous
 62
     7
370
    25
100
AcDbPolyline
 90
        3
 70
   128
 43
0.0
 10
111.2742019577
 20
167.9216147893
 10
111.2061117437
 20
167.8277603043
 10
111.1486104437
 20
167.7485014923
  0
SPLINE
  5
97
330
1F
100
AcDbEntity
  8
0
  6
Continuous
 62
     7
370
    25
100
AcDbSpline
210
0.0
220
0.0
230
1.0
 70
     8
 71
     3
 72
     9
 73
     5
 74
     0
 42
0.00000001
 43
0.00000001
 40
0.0
 40
0.0
 40
0.0
 40
0.0
 40
0.2547335669978538
 40
1.0
 40
1.0
 40
1.0
 40
1.0
 10
111.0734617289876
 20
167.4855937073505
 30
0.0
 10
111.0892560623433
 20
167.5020846794585
 30
0.0
 10
111.1512594078067
 20
167.5668227989859
 30
0.0
 10
111.1497416085484
 20
167.6709207693165
 30
0.0
 10
111.1486104437092
 20
167.7485014923475
 30
0.0
  0
LWPOLYLINE
  5
98
330
1F
100
AcDbEntity
  8
0
  6
Continuous
 62
     7
370
    25
100
AcDbPolyline
 90
        3
 70
   128
 43
0.0
 10
110.5703321904
 20
176.801595466
 10
110.5022899473
 20
176.7078029805
 10
110.4447137666
 20
176.628437429
  0
LWPOLYLINE
  5
99
330
1F
100
AcDbEntity
  8
0
  6
Continuous
 62
     7
370
    25
100
AcDbPolyline
 90
        3
 70
   128
 43
0.0
 10
110.4447137666
 20
176.628437429
 10
110.8389151185
 20
171.6556997996
 10
111.1486104437
 20
167.7485014923
  0
SPLINE
  5
9A
330
1F
100
AcDbEntity
  8
0
  6
Continuous
 62
     7
370
    25
100
AcDbSpline
210
0.0
220
0.0
230
1.0
 70
     8
 71
     3
 72
    11
 73
     7
 74
     0
 42
0.00000001
 43
0.00000001
 40
0.0
 40
0.0
 40
0.0
 40
0.0
 40
0.246191275079276
 40
0.5005321577960082
 40
0.7545934297705086
 40
1.0
 40
1.0
 40
1.0
 40
1.0
 10
115.3605038566222
 20
166.6761349788655
 30
0.0
 10
115.3953417663517
 20
166.6650037490461
 30
0.0
 10
115.4661708163429
 20
166.6423728151161
 30
0.0
 10
115.5919193008168
 20
166.6323761756556
 30
0.0
 10
115.722203696594
 20
166.6402303282555
 30
0.0
 10
115.8043985581548
 20
166.6615094372673
 30
0.0
 10
115.8447838589924
 20
166.6719646312135
 30
0.0
  0
SPLINE
  5
9B
330
1F
100
AcDbEntity
  8
0
  6
Continuous
 62
     7
370
    25
100
AcDbSpline
210
0.0
220
0.0
230
1.0
 70
     8
 71
     3
 72
    11
 73
     7
 74
     0
 42
0.00000001
 43
0.00000001
 40
0.0
 40
0.0
 40
0.0
 40
0.0
 40
0.2805503257029802
 40
0.56037908483501
 40
0.7805383261088578
 40
1.0
 40
1.0
 40
1.0
 40
1.0
 10
116.6722243505071
 20
166.9010773880646
 30
0.0
 10
116.6174237761431
 20
166.9182638743218
 30
0.0
 10
116.5079635727603
 20
166.9525926437368
 30
0.0
 10
116.3950268202177
 20
166.8991426554768
 30
0.0
 10
116.3365061999688
 20
166.7974606662148
 30
0.0
 10
116.3397165349516
 20
166.7075634382651
 30
0.0
 10
116.3413191554475
 20
166.6626861463906
 30
0.0
  0
ARC
  5
9C
330
1F
100
AcDbEntity
  8
0
  6
Continuous
 62
     7
370
    25
100
AcDbCircle
 10
105.8368648957
 20
142.5292471195
 30
0.0
 40
26.6719165278516
100
AcDbArc
 50
60.8391295218
 51
66.0307681241
  0
SPLINE
  5
9D
330
1F
100
AcDbEntity
  8
0
  6
Continuous
 62
     7
370
    25
100
AcDbSpline
210
0.0
220
0.0
230
1.0
 70
     8
 71
     3
 72
    11
 73
     7
 74
     0
 42
0.00000001
 43
0.00000001
 40
0.0
 40
0.0
 40
0.0
 40
0.0
 40
0.2787134919427312
 40
0.5580482748003996
 40
0.7790417054544663
 40
0.9999999999999999
 40
0.9999999999999999
 40
0.9999999999999999
 40
0.9999999999999999
 10
119.2223561841287
 20
165.2221676320491
 30
0.0
 10
119.2083257926992
 20
165.2854574186065
 30
0.0
 10
119.1802337341577
 20
165.4121780734073
 30
0.0
 10
119.0729618270781
 20
165.5981191534827
 30
0.0
 10
118.9517293278385
 20
165.7408743534046
 30
0.0
 10
118.8726498941864
 20
165.7940481288777
 30
0.0
 10
118.8331133208526
 20
165.8206329028998
 30
0.0
  0
SPLINE
  5
9E
330
1F
100
AcDbEntity
  8
0
  6
Continuous
 62
     7
370
    25
100
AcDbSpline
210
0.0
220
0.0
230
1.0
 70
     8
 71
     3
 72
    11
 73
     7
 74
     0
 42
0.00000001
 43
0.00000001
 40
0.0
 40
0.0
 40
0.0
 40
0.0
 40
0.2455464756850255
 40
0.5000200758503025
 40
0.7544830952224956
 40
1.0
 40
1.0
 40
1.0
 40
1.0
 10
116.3413191138987
 20
166.6626861139767
 30
0.0
 10
116.306236515724
 20
166.6748328140549
 30
0.0
 10
116.234795851176
 20
166.6995678214602
 30
0.0
 10
116.1058331458741
 20
166.711534806294
 30
0.0
 10
115.9713735152201
 20
166.7044815568577
 30
0.0
 10
115.8864713652028
 20
166.6826659676603
 30
0.0
 10
115.8447798650557
 20
166.671953345659
 30
0.0
  0
LWPOLYLINE
  5
9F
330
1F
100
AcDbEntity
  8
0
  6
Continuous
 62
     7
370
    25
100
AcDbPolyline
 90
        3
 70
   128
 43
0.0
 10
116.5724541287
 20
167.0948570732
 10
116.540964066
 20
167.1116308759
 10
116.5121735433
 20
167.1203120263
  0
SPLINE
  5
A0
330
1F
100
AcDbEntity
  8
0
  6
Continuous
 62
     7
370
    25
100
AcDbSpline
210
0.0
220
0.0
230
1.0
 70
     8
 71
     3
 72
    11
 73
     7
 74
     0
 42
0.00000001
 43
0.00000001
 40
0.0
 40
0.0
 40
0.0
 40
0.0
 40
0.2499491067834562
 40
0.5009689929095439
 40
0.7514865382783653
 40
1.0
 40
1.0
 40
1.0
 40
1.0
 10
106.0872424938666
 20
177.3227081787962
 30
0.0
 10
105.9597901577794
 20
177.3274825412092
 30
0.0
 10
105.7043394811386
 20
177.3370517193534
 30
0.0
 10
105.3643972889501
 20
177.1579918571607
 30
0.0
 10
105.1145155334484
 20
176.8664384364235
 30
0.0
 10
105.0658022344975
 20
176.6154386249183
 30
0.0
 10
105.0415434001121
 20
176.4904427205309
 30
0.0
  0
ARC
  5
A1
330
1F
100
AcDbEntity
  8
0
  6
Continuous
 62
     7
370
    25
100
AcDbCircle
 10
99.4296261936
 20
134.577397336
 30
0.0
 40
43.26066867081968
100
AcDbArc
 50
78.2245269146
 51
81.1472634542
  0
SPLINE
  5
A2
330
1F
100
AcDbEntity
  8
0
  6
Continuous
 62
     7
370
    25
100
AcDbSpline
210
0.0
220
0.0
230
1.0
 70
     8
 71
     3
 72
    11
 73
     7
 74
     0
 42
0.00000001
 43
0.00000001
 40
0.0
 40
0.0
 40
0.0
 40
0.0
 40
0.2485134617210716
 40
0.4990310070888259
 40
0.7500508932162507
 40
1.0
 40
1.0
 40
1.0
 40
1.0
 10
109.0629112369868
 20
175.7586136237035
 30
0.0
 10
109.0649663661131
 20
175.8876502719929
 30
0.0
 10
109.069093197515
 20
176.1467641570166
 30
0.0
 10
108.8968244249849
 20
176.5151426910459
 30
0.0
 10
108.6183002055534
 20
176.8067542355999
 30
0.0
 10
108.3780181071245
 20
176.8874010445922
 30
0.0
 10
108.2581338493594
 20
176.9276382611821
 30
0.0
  0
LINE
  5
A3
330
1F
100
AcDbEntity
  8
0
  6
Continuous
 62
     7
370
    25
100
AcDbLine
 10
109.062911237
 20
175.7586136237
 30
0.0
 11
108.9358753123
 21
174.7435705099
 31
0.0
  0
LWPOLYLINE
  5
A4
330
1F
100
AcDbEntity
  8
0
  6
Continuous
 62
     7
370
    25
100
AcDbPolyline
 90
        9
 70
   128
 43
0.0
 10
105.0735005355
 20
179.3261832813
 10
105.0594579564
 20
179.4942947872
 10
105.0353654354
 20
179.632278654
 10
105.0019826476
 20
179.7357840346
 10
104.9603622044
 20
179.8015472426
 10
104.9118164633
 20
179.8274946613
 10
104.8578761476
 20
179.8128081279
 10
104.8002420797
 20
179.7579507318
 10
104.7407315518
 20
179.6646522125
  0
LWPOLYLINE
  5
A5
330
1F
100
AcDbEntity
  8
0
  6
Continuous
 62
     7
370
    25
100
AcDbPolyline
 90
        3
 70
   128
 43
0.0
 10
122.4248549978
 20
170.8834127513
 10
122.4682919481
 20
170.7898777914
 10
122.5206995671
 20
170.6025837655
  0
SPLINE
  5
A6
330
1F
100
AcDbEntity
  8
0
  6
Continuous
 62
     7
370
    25
100
AcDbSpline
210
0.0
220
0.0
230
1.0
 70
     8
 71
     3
 72
     9
 73
     5
 74
     0
 42
0.00000001
 43
0.00000001
 40
0.0
 40
0.0
 40
0.0
 40
0.0
 40
0.5269628031863458
 40
0.9999999999999999
 40
0.9999999999999999
 40
0.9999999999999999
 40
0.9999999999999999
 10
104.9670901228122
 20
176.4252434905514
 30
0.0
 10
104.989485907821
 20
176.5521600212453
 30
0.0
 10
105.0319856532933
 20
176.7930053521235
 30
0.0
 10
105.1996119541179
 20
176.9622322850315
 30
0.0
 10
105.2789054295722
 20
177.0422829189997
 30
0.0
  0
LWPOLYLINE
  5
A7
330
1F
100
AcDbEntity
  8
0
  6
Continuous
 62
     7
370
    25
100
AcDbPolyline
 90
        3
 70
   128
 43
0.0
 10
119.3406258023
 20
165.0761983295
 10
119.3439422584
 20
165.0545732009
 10
119.3445066391
 20
165.0454332
  0
LWPOLYLINE
  5
A8
330
1F
100
AcDbEntity
  8
0
  6
Continuous
 62
     7
370
    25
100
AcDbPolyline
 90
        9
 70
   128
 43
0.0
 10
104.7407315518
 20
179.4048445914
 10
104.786508881
 20
179.4766126831
 10
104.8308427794
 20
179.5188106801
 10
104.8723353299
 20
179.5301080135
 10
104.9096782076
 20
179.5101484607
 10
104.9416939332
 20
179.4595613776
 10
104.9673730007
 20
179.3799418541
 10
104.9859057092
 20
179.2738004181
 10
104.9967076932
 20
179.144483875
  0
LWPOLYLINE
  5
A9
330
1F
100
AcDbEntity
  8
0
  6
Continuous
 62
     7
370
    25
100
AcDbPolyline
 90
        3
 70
   128
 43
0.0
 10
121.4863552693
 20
171.1433929967
 10
121.4496321308
 20
171.1450510582
 10
121.3368876299
 20
171.1420317448
  0
LINE
  5
AA
330
1F
100
AcDbEntity
  8
0
  6
Continuous
 62
     7
370
    25
100
AcDbLine
 10
109.6154728497
 20
177.8259421808
 30
0.0
 11
109.4900224814
 21
177.6530677717
 31
0.0
  0
LINE
  5
AB
330
1F
100
AcDbEntity
  8
0
  6
Continuous
 62
     7
370
    25
100
AcDbLine
 10
105.028563454
 20
178.4907074654
 30
0.0
 11
105.1053562965
 21
178.6724068717
 31
0.0
  0
ARC
  5
AC
330
1F
100
AcDbEntity
  8
0
  6
Continuous
 62
     7
370
    25
100
AcDbCircle
 10
99.472240956
 20
136.5962821122
 30
0.0
 40
42.26127773006458
100
AcDbArc
 50
76.2878608388
 51
82.4451360306
  0
LINE
  5
AD
330
1F
100
AcDbEntity
  8
0
  6
Continuous
 62
     7
370
    25
100
AcDbLine
 10
104.7407315518
 20
179.4048445914
 30
0.0
 11
104.5755157412
 21
179.0965476917
 31
0.0
  0
LINE
  5
AE
330
1F
100
AcDbEntity
  8
0
  6
Continuous
 62
     7
370
    25
100
AcDbLine
 10
104.4455090473
 20
179.1137595194
 30
0.0
 11
104.7407315518
 21
179.6646522125
 31
0.0
  0
LINE
  5
AF
330
1F
100
AcDbEntity
  8
0
  6
Continuous
 62
     7
370
    25
100
AcDbLine
 10
105.028563454
 20
178.4907074654
 30
0.0
 11
104.9967076932
 21
179.144483875
 31
0.0
  0
SPLINE
  5
B0
330
1F
100
AcDbEntity
  8
0
  6
Continuous
 62
     7
370
    25
100
AcDbSpline
210
0.0
220
0.0
230
1.0
 70
     8
 71
     3
 72
    11
 73
     7
 74
     0
 42
0.00000001
 43
0.00000001
 40
0.0
 40
0.0
 40
0.0
 40
0.0
 40
0.2496586891781219
 40
0.5003880185062175
 40
0.750829431943504
 40
1.0
 40
1.0
 40
1.0
 40
1.0
 10
110.4447137665974
 20
176.6284374289946
 30
0.0
 10
110.4232109990822
 20
176.7356873958537
 30
0.0
 10
110.3801132512539
 20
176.950647261974
 30
0.0
 10
110.1543273229045
 20
177.2688113607628
 30
0.0
 10
109.8451295040875
 20
177.5295699180242
 30
0.0
 10
109.6081905912298
 20
177.6119716879547
 30
0.0
 10
109.4900224813799
 20
177.6530677716816
 30
0.0
  0
LINE
  5
B1
330
1F
100
AcDbEntity
  8
0
  6
Continuous
 62
     7
370
    25
100
AcDbLine
 10
121.7831665833
 20
164.630163419
 30
0.0
 11
122.2239116258
 21
163.4742240523
 31
0.0
  0
LINE
  5
B2
330
1F
100
AcDbEntity
  8
0
  6
Continuous
 62
     7
370
    25
100
AcDbLine
 10
123.162426304
 20
162.8994934398
 30
0.0
 11
122.1110837526
 21
165.5757984351
 31
0.0
  0
SPLINE
  5
B3
330
1F
100
AcDbEntity
  8
0
  6
Continuous
 62
     7
370
    25
100
AcDbSpline
210
0.0
220
0.0
230
1.0
 70
     8
 71
     3
 72
    11
 73
     7
 74
     0
 42
0.00000001
 43
0.00000001
 40
0.0
 40
0.0
 40
0.0
 40
0.0
 40
0.2499491067842576
 40
0.5009689929114309
 40
0.751486538279046
 40
1.0
 40
1.0
 40
1.0
 40
1.0
 10
121.6054983732719
 20
170.2539559992257
 30
0.0
 10
121.5500902321186
 20
170.3013649820951
 30
0.0
 10
121.4390365819184
 20
170.3963860474175
 30
0.0
 10
121.242112652906
 20
170.3424985770852
 30
0.0
 10
121.0586675805309
 20
170.1519769655086
 30
0.0
 10
120.9779649745191
 20
169.9311509677899
 30
0.0
 10
120.9377757203344
 20
169.8211813820297
 30
0.0
  0
ARC
  5
B4
330
1F
100
AcDbEntity
  8
0
  6
Continuous
 62
     7
370
    25
100
AcDbCircle
 10
114.1329739507
 20
163.9840928501
 30
0.0
 40
9.754476159956415
100
AcDbArc
 50
32.1062593491
 51
39.9985181157
  0
SPLINE
  5
B5
330
1F
100
AcDbEntity
  8
0
  6
Continuous
 62
     7
370
    25
100
AcDbSpline
210
0.0
220
0.0
230
1.0
 70
     8
 71
     3
 72
    11
 73
     7
 74
     0
 42
0.00000001
 43
0.00000001
 40
0.0
 40
0.0
 40
0.0
 40
0.0
 40
0.2485134617216348
 40
0.4990310070905011
 40
0.7500508932165277
 40
0.9999999999999999
 40
0.9999999999999999
 40
0.9999999999999999
 40
0.9999999999999999
 10
122.4014339139917
 20
167.810497463591
 30
0.0
 10
122.4335416803718
 20
167.9315689019811
 30
0.0
 10
122.498016139345
 20
168.1746881334752
 30
0.0
 10
122.5278109851367
 20
168.5762850090673
 30
0.0
 10
122.4996315494259
 20
168.9394056852097
 30
0.0
 10
122.4302532253508
 20
169.0922510074234
 30
0.0
 10
122.3956382084972
 20
169.1685103214809
 30
0.0
  0
LINE
  5
B6
330
1F
100
AcDbEntity
  8
0
  6
Continuous
 62
     7
370
    25
100
AcDbLine
 10
122.1110837526
 20
166.892769514
 30
0.0
 11
122.401433914
 21
167.8104974636
 31
0.0
  0
LINE
  5
B7
330
1F
100
AcDbEntity
  8
0
  6
Continuous
 62
     7
370
    25
100
AcDbLine
 10
120.6777127083
 20
172.0592226582
 30
0.0
 11
120.9466575035
 21
172.1603498538
 31
0.0
  0
SPLINE
  5
B8
330
1F
100
AcDbEntity
  8
0
  6
Continuous
 62
     7
370
    25
100
AcDbSpline
210
0.0
220
0.0
230
1.0
 70
     8
 71
     3
 72
     9
 73
     5
 74
     0
 42
0.00000001
 43
0.00000001
 40
0.0
 40
0.0
 40
0.0
 40
0.0
 40
0.408579660110519
 40
1.0
 40
1.0
 40
1.0
 40
1.0
 10
120.875155943491
 20
170.2142006121391
 30
0.0
 10
120.910669410876
 20
170.2598528947009
 30
0.0
 10
120.9975887337209
 20
170.3715869995007
 30
0.0
 10
121.0951221822427
 20
170.3716817193969
 30
0.0
 10
121.1528054475181
 20
170.3717377386702
 30
0.0
  0
LINE
  5
B9
330
1F
100
AcDbEntity
  8
0
  6
Continuous
 62
     7
370
    25
100
AcDbLine
 10
122.6395868853
 20
169.9052915772
 30
0.0
 11
122.3529920958
 21
169.8284931445
 31
0.0
  0
ARC
  5
BA
330
1F
100
AcDbEntity
  8
0
  6
Continuous
 62
     7
370
    25
100
AcDbCircle
 10
113.718192734
 20
165.0881856683
 30
0.0
 40
9.85039466150063
100
AcDbArc
 50
28.7657797298
 51
45.0473689774
  0
LWPOLYLINE
  5
BB
330
1F
100
AcDbEntity
  8
0
  6
Continuous
 62
     7
370
    25
100
AcDbPolyline
 90
       14
 70
   128
 43
0.0
 10
148.3203720506
 20
136.8840586369
 10
148.7894009954
 20
137.1751505893
 10
149.2404054208
 20
137.5682110012
 10
149.6560534799
 20
138.0481347815
 10
150.0203720506
 20
138.5964787284
 10
150.3193605747
 20
139.1921702915
 10
150.5415290909
 20
139.8123173782
 10
150.6783397876
 20
140.4330880836
 10
150.7245351066
 20
141.0306265378
 10
150.6783397876
 20
141.5819696729
 10
150.5415290909
 20
142.0659296816
 10
150.3193605747
 20
142.4639082521
 10
150.0203720506
 20
142.7606112911
 10
149.8408982753
 20
142.8695974591
  0
ARC
  5
BC
330
1F
100
AcDbEntity
  8
0
  6
Continuous
 62
     7
370
    25
100
AcDbCircle
 10
147.4663693183
 20
138.3117965317
 30
0.0
 40
1.66365746561737
100
AcDbArc
 50
246.3819651056
 51
300.8857925377
  0
LWPOLYLINE
  5
BD
330
1F
100
AcDbEntity
  8
0
  6
Continuous
 62
     7
370
    25
100
AcDbPolyline
 90
       43
 70
   128
 43
0.0
 10
113.935045442
 20
143.4715851167
 10
115.031869165
 20
144.0626325364
 10
116.0372878886
 20
144.6930101374
 10
116.9456789032
 20
145.3591925925
 10
117.7519621178
 20
146.057454339
 10
118.4516284698
 20
146.7838904141
 10
119.0407651409
 20
147.5344382926
 10
119.5160774401
 20
148.3049006063
 10
119.874907228
 20
149.0909686174
 10
120.115247783
 20
149.8882463147
 10
120.2357550232
 20
150.6922749979
 10
120.2357550232
 20
151.4985582126
 10
120.115247783
 20
152.3025868959
 10
119.8749072281
 20
153.0998645932
 10
119.5160774402
 20
153.8859326043
 10
119.040765141
 20
154.656394918
 10
118.4516284699
 20
155.4069427965
 10
117.751962118
 20
156.1333788716
 10
116.9456789033
 20
156.8316406181
 10
116.0372878888
 20
157.4978230731
 10
115.0318691653
 20
158.1282006741
 10
113.9350454422
 20
158.7192480939
 10
112.7529506028
 20
159.2676599554
 10
111.4921954008
 20
159.7703693172
 10
110.1598304907
 20
160.2245648244
 10
108.7633069976
 20
160.6277064318
 10
107.3104348474
 20
160.9775396077
 10
105.8093390904
 20
161.2721079433
 10
104.268414463
 20
161.5097640929
 10
102.6962784409
 20
161.6891789868
 10
101.1017230462
 20
161.8093492643
 10
99.4936656797
 20
161.8696028844
 10
97.8810992504
 20
161.8696028844
 10
96.2730418839
 20
161.8093492643
 10
94.6784864892
 20
161.6891789868
 10
93.1063504671
 20
161.5097640929
 10
91.5654258397
 20
161.2721079433
 10
90.0643300827
 20
160.9775396077
 10
88.6114579325
 20
160.6277064317
 10
87.2149344394
 20
160.2245648244
 10
85.8825695294
 20
159.7703693171
 10
84.6218143274
 20
159.2676599554
 10
83.4397194879
 20
158.7192480938
  0
LWPOLYLINE
  5
BE
330
1F
100
AcDbEntity
  8
0
  6
Continuous
 62
     7
370
    25
100
AcDbPolyline
 90
       51
 70
   128
 43
0.0
 10
76.7670722483
 20
163.047826556
 10
78.1867146401
 20
163.7143930269
 10
79.6872638019
 20
164.3350741394
 10
81.2627977517
 20
164.9074203489
 10
82.9070985769
 20
165.4291728662
 10
84.6136769732
 20
165.8982725725
 10
86.3757978554
 20
166.3128681457
 10
88.1865069375
 20
166.6713233664
 10
90.0386581779
 20
166.9722235756
 10
91.9249419818
 20
167.2143812577
 10
93.8379140489
 20
167.3968407268
 10
95.7700247522
 20
167.518881899
 10
97.7136489337
 20
167.5800231333
 10
99.6611159965
 20
167.5800231333
 10
101.604740178
 20
167.518881899
 10
103.5368508814
 20
167.3968407268
 10
105.4498229484
 20
167.2143812577
 10
107.3361067523
 20
166.9722235756
 10
109.1882579927
 20
166.6713233664
 10
110.9989670748
 20
166.3128681457
 10
112.761087957
 20
165.8982725725
 10
114.4676663534
 20
165.4291728662
 10
116.1119671785
 20
164.9074203489
 10
117.6875011284
 20
164.3350741394
 10
119.1880502902
 20
163.7143930269
 10
120.6076926819
 20
163.047826556
 10
121.9408256237
 20
162.3380053601
 10
123.1821878488
 20
161.5877307792
 10
124.3268802676
 20
160.7999638043
 10
125.3703853022
 20
159.9778133917
 10
126.308584715
 20
159.1245241936
 10
127.1377758613
 20
158.2434637525
 10
127.8546863027
 20
157.3381092114
 10
128.4564867211
 20
156.4120335912
 10
128.9408020852
 20
155.4688916893
 10
129.3057210236
 20
154.5124056557
 10
129.5498033678
 20
153.5463503041
 10
129.6720858365
 20
152.5745382133
 10
129.6720858365
 20
151.6008046819
 10
129.5498033678
 20
150.6289925912
 10
129.3057210236
 20
149.6629372395
 10
128.9408020852
 20
148.706451206
 10
128.4564867211
 20
147.763309304
 10
127.8546863027
 20
146.8372336838
 10
127.1377758613
 20
145.9318791428
 10
126.308584715
 20
145.0508187016
 10
125.3703853022
 20
144.1975295035
 10
124.3268802676
 20
143.3753790909
 10
123.1821878488
 20
142.587612116
 10
121.9408256237
 20
141.8373375351
 10
120.6076926819
 20
141.1275163392
  0
LWPOLYLINE
  5
BF
330
1F
100
AcDbEntity
  8
0
  6
Continuous
 62
     7
370
    25
100
AcDbPolyline
 90
       39
 70
   128
 43
0.0
 10
76.7670722483
 20
164.3468646617
 10
78.1867146401
 20
165.0134311326
 10
79.6872638019
 20
165.6341122451
 10
81.2627977517
 20
166.2064584545
 10
82.9070985769
 20
166.7282109719
 10
84.6136769732
 20
167.1973106782
 10
86.3757978554
 20
167.6119062514
 10
88.1865069375
 20
167.9703614721
 10
90.0386581779
 20
168.2712616813
 10
91.9249419818
 20
168.5134193633
 10
93.8379140489
 20
168.6958788325
 10
95.7700247522
 20
168.8179200046
 10
97.7136489337
 20
168.879061239
 10
99.6611159965
 20
168.879061239
 10
101.604740178
 20
168.8179200046
 10
103.5368508814
 20
168.6958788325
 10
105.4498229484
 20
168.5134193633
 10
107.3361067523
 20
168.2712616813
 10
109.1882579927
 20
167.9703614721
 10
110.9989670748
 20
167.6119062514
 10
112.761087957
 20
167.1973106782
 10
114.4676663534
 20
166.7282109719
 10
116.1119671785
 20
166.2064584545
 10
117.6875011284
 20
165.6341122451
 10
119.1880502902
 20
165.0134311326
 10
120.6076926819
 20
164.3468646617
 10
121.9408256237
 20
163.6370434658
 10
123.1821878488
 20
162.8867688849
 10
124.3268802676
 20
162.09900191
 10
125.3703853022
 20
161.2768514974
 10
126.308584715
 20
160.4235622993
 10
127.1377758613
 20
159.5425018581
 10
127.8546863027
 20
158.6371473171
 10
128.4564867211
 20
157.7110716969
 10
128.9408020852
 20
156.7679297949
 10
129.3057210236
 20
155.8114437614
 10
129.5498033678
 20
154.8453884097
 10
129.6720858365
 20
153.873576319
 10
129.6873824651
 20
153.3867095533
  0
LWPOLYLINE
  5
C0
330
1F
100
AcDbEntity
  8
0
  6
Continuous
 62
     7
370
    25
100
AcDbPolyline
 90
        3
 70
   128
 43
0.0
 10
110.9038234577
 20
170.9621460946
 10
110.3091703931
 20
171.1299756128
 10
109.3912283015
 20
171.3680326653
  0
ARC
  5
C1
330
1F
100
AcDbEntity
  8
0
  6
Continuous
 62
     7
370
    25
100
AcDbCircle
 10
98.6125349562
 20
130.6540838155
 30
0.0
 40
42.03119900511609
100
AcDbArc
 50
81.113925851
 51
113.9654803202
  0
ARC
  5
C2
330
1F
100
AcDbEntity
  8
0
  6
Continuous
 62
     7
370
    25
100
AcDbCircle
 10
86.9491158589
 20
156.4956194518
 30
0.0
 40
13.68088632162807
100
AcDbArc
 50
113.2893292857
 51
149.1946707553
  0
LWPOLYLINE
  5
C3
330
1F
100
AcDbEntity
  8
0
  6
Continuous
 62
     7
370
    25
100
AcDbPolyline
 90
       29
 70
   128
 43
0.0
 10
112.1224113077
 20
145.6757775263
 10
113.1599163205
 20
146.2380956915
 10
114.1035613977
 20
146.8403326663
 10
114.9472266388
 20
147.4785827129
 10
115.6854405511
 20
148.1487065349
 10
116.313415534
 20
148.846358122
 10
116.8270789288
 20
149.567012936
 10
117.2230994312
 20
150.3059972539
 10
117.4989086964
 20
151.058518479
 10
117.6527179954
 20
151.8196962221
 10
117.6835298158
 20
152.5845939536
 10
117.5911443313
 20
153.3482510183
 10
117.3761606971
 20
154.1057148068
 10
117.0399731646
 20
154.8520728761
 10
116.584762039
 20
155.5824848075
 10
116.013479539
 20
156.2922135994
 10
115.3298306509
 20
156.9766563883
 10
114.5382491001
 20
157.6313743
 10
113.6438685967
 20
158.2521212376
 10
112.6524895414
 20
158.834871419
 10
111.570541408
 20
159.3758454858
 10
110.4050410451
 20
159.8715350134
 10
109.1635471698
 20
160.3187252651
 10
107.8541113465
 20
160.7145160405
 10
106.4852257687
 20
161.0563404845
 10
105.0657681849
 20
161.3419817345
 10
103.6049443221
 20
161.5695872974
 10
102.1122281836
 20
161.7376810636
 10
101.8703784276
 20
161.759034533
  0
ARC
  5
C4
330
1F
100
AcDbEntity
  8
0
  6
Continuous
 62
     7
370
    25
100
AcDbCircle
 10
97.4835294418
 20
132.9288586393
 30
0.0
 40
28.89802845926473
100
AcDbArc
 50
93.9270974055
 51
115.040130903
  0
LWPOLYLINE
  5
C5
330
1F
100
AcDbEntity
  8
0
  6
Continuous
 62
     7
370
    25
100
AcDbPolyline
 90
       10
 70
   128
 43
0.0
 10
112.1224113077
 20
146.9290027532
 10
113.1599163205
 20
147.4913209183
 10
114.1035613977
 20
148.0935578931
 10
114.9472266388
 20
148.7318079397
 10
115.6854405511
 20
149.4019317617
 10
116.313415534
 20
150.0995833488
 10
116.8270789288
 20
150.8202381628
 10
117.2230994312
 20
151.5592224808
 10
117.4989086964
 20
152.3117437058
 10
117.6460065326
 20
153.019904561
  0
LWPOLYLINE
  5
C6
330
1F
100
AcDbEntity
  8
0
  6
Continuous
 62
     7
370
    25
100
AcDbPolyline
 90
       43
 70
   128
 43
0.0
 10
83.4397194879
 20
158.7192480938
 10
82.3428957649
 20
158.1282006741
 10
81.3374770414
 20
157.4978230731
 10
80.4290860269
 20
156.8316406181
 10
79.6228028122
 20
156.1333788716
 10
78.9231364603
 20
155.4069427964
 10
78.3339997892
 20
154.656394918
 10
77.8586874901
 20
153.8859326043
 10
77.4998577022
 20
153.0998645932
 10
77.2595171472
 20
152.3025868959
 10
77.139009907
 20
151.4985582127
 10
77.139009907
 20
150.692274998
 10
77.2595171472
 20
149.8882463148
 10
77.4998577022
 20
149.0909686175
 10
77.8586874901
 20
148.3049006064
 10
78.3339997892
 20
147.5344382927
 10
78.9231364604
 20
146.7838904142
 10
79.6228028123
 20
146.0574543391
 10
80.4290860269
 20
145.3591925926
 10
81.3374770415
 20
144.6930101376
 10
82.342895765
 20
144.0626325366
 10
83.439719488
 20
143.4715851169
 10
84.6218143275
 20
142.9231732553
 10
85.8825695294
 20
142.4204638936
 10
87.2149344395
 20
141.9662683863
 10
88.6114579325
 20
141.563126779
 10
90.0643300827
 20
141.213293603
 10
91.5654258397
 20
140.9187252674
 10
93.106350467
 20
140.6810691179
 10
94.6784864892
 20
140.5016542239
 10
96.2730418838
 20
140.3814839464
 10
97.8810992503
 20
140.3212303263
 10
99.4936656796
 20
140.3212303263
 10
101.1017230461
 20
140.3814839464
 10
102.6962784407
 20
140.5016542239
 10
104.2684144629
 20
140.6810691178
 10
105.8093390902
 20
140.9187252674
 10
107.3104348472
 20
141.2132936029
 10
108.7633069974
 20
141.5631267789
 10
110.1598304905
 20
141.9662683862
 10
111.4921954005
 20
142.4204638935
 10
112.7529506025
 20
142.9231732552
 10
113.935045442
 20
143.4715851167
  0
LWPOLYLINE
  5
C7
330
1F
100
AcDbEntity
  8
0
  6
Continuous
 62
     7
370
    25
100
AcDbPolyline
 90
       51
 70
   128
 43
0.0
 10
120.6076926819
 20
141.1275163392
 10
119.1880502902
 20
140.4609498683
 10
117.6875011284
 20
139.8402687558
 10
116.1119671785
 20
139.2679225464
 10
114.4676663534
 20
138.7461700291
 10
112.761087957
 20
138.2770703227
 10
110.9989670748
 20
137.8624747495
 10
109.1882579927
 20
137.5040195288
 10
107.3361067523
 20
137.2031193196
 10
105.4498229484
 20
136.9609616376
 10
103.5368508814
 20
136.7785021684
 10
101.604740178
 20
136.6564609963
 10
99.6611159965
 20
136.5953197619
 10
97.7136489337
 20
136.5953197619
 10
95.7700247522
 20
136.6564609963
 10
93.8379140489
 20
136.7785021684
 10
91.9249419818
 20
136.9609616376
 10
90.0386581779
 20
137.2031193196
 10
88.1865069375
 20
137.5040195288
 10
86.3757978554
 20
137.8624747495
 10
84.6136769732
 20
138.2770703227
 10
82.9070985769
 20
138.7461700291
 10
81.2627977517
 20
139.2679225464
 10
79.6872638019
 20
139.8402687558
 10
78.1867146401
 20
140.4609498683
 10
76.7670722483
 20
141.1275163392
 10
75.4339393066
 20
141.8373375351
 10
74.1925770815
 20
142.587612116
 10
73.0478846626
 20
143.3753790909
 10
72.004379628
 20
144.1975295035
 10
71.0661802153
 20
145.0508187016
 10
70.2369890689
 20
145.9318791428
 10
69.5200786275
 20
146.8372336838
 10
68.9182782091
 20
147.763309304
 10
68.433962845
 20
148.706451206
 10
68.0690439067
 20
149.6629372395
 10
67.8249615624
 20
150.6289925912
 10
67.7026790938
 20
151.6008046819
 10
67.7026790938
 20
152.5745382133
 10
67.8249615624
 20
153.5463503041
 10
68.0690439067
 20
154.5124056557
 10
68.433962845
 20
155.4688916893
 10
68.9182782091
 20
156.4120335912
 10
69.5200786275
 20
157.3381092114
 10
70.2369890689
 20
158.2434637525
 10
71.0661802153
 20
159.1245241936
 10
72.004379628
 20
159.9778133917
 10
73.0478846626
 20
160.7999638043
 10
74.1925770815
 20
161.5877307792
 10
75.4339393066
 20
162.3380053601
 10
76.7670722483
 20
163.047826556
  0
LWPOLYLINE
  5
C8
330
1F
100
AcDbEntity
  8
0
  6
Continuous
 62
     7
370
    25
100
AcDbPolyline
 90
       14
 70
   128
 43
0.0
 10
67.6873824651
 20
153.3867095533
 10
67.7026790938
 20
153.873576319
 10
67.8249615624
 20
154.8453884097
 10
68.0690439067
 20
155.8114437614
 10
68.433962845
 20
156.7679297949
 10
68.9182782091
 20
157.7110716969
 10
69.5200786275
 20
158.6371473171
 10
70.2369890689
 20
159.5425018581
 10
71.0661802153
 20
160.4235622993
 10
72.004379628
 20
161.2768514974
 10
73.0478846626
 20
162.09900191
 10
74.1925770815
 20
162.8867688849
 10
75.4339393066
 20
163.6370434658
 10
76.7670722483
 20
164.3468646617
  0
LWPOLYLINE
  5
C9
330
1F
100
AcDbEntity
  8
0
  6
Continuous
 62
     7
370
    25
100
AcDbPolyline
 90
       40
 70
   128
 43
0.0
 10
85.2523536226
 20
159.1108063689
 10
84.2148486097
 20
158.5484882037
 10
83.2712035325
 20
157.9462512289
 10
82.4275382914
 20
157.3080011823
 10
81.6893243791
 20
156.6378773604
 10
81.0613493962
 20
155.9402257733
 10
80.5476860015
 20
155.2195709592
 10
80.151665499
 20
154.4805866413
 10
79.8758562339
 20
153.7280654163
 10
79.7220469349
 20
152.9668876731
 10
79.6912351144
 20
152.2019899416
 10
79.7836205989
 20
151.438332877
 10
79.9986042331
 20
150.6808690884
 10
80.3347917656
 20
149.9345110191
 10
80.7900028913
 20
149.2040990877
 10
81.3612853913
 20
148.4943702958
 10
82.0449342793
 20
147.8099275069
 10
82.8365158301
 20
147.1552095953
 10
83.7308963335
 20
146.5344626576
 10
84.7222753888
 20
145.9517124762
 10
85.8042235223
 20
145.4107384094
 10
86.9697238852
 20
144.9150488818
 10
88.2112177604
 20
144.4678586301
 10
89.5206535838
 20
144.0720678547
 10
90.8895391615
 20
143.7302434107
 10
92.3089967454
 20
143.4446021607
 10
93.7698206082
 20
143.2169965979
 10
95.2625367467
 20
143.0489028316
 10
96.7774643238
 20
142.9414110145
 10
98.3047784531
 20
142.8952182723
 10
99.8345739161
 20
142.9106241825
 10
101.3569294024
 20
142.987528832
 10
102.8619718525
 20
143.1254334646
 10
104.3399404884
 20
143.3234437158
 10
105.7812501164
 20
143.5802754132
 10
107.1765532906
 20
143.8942629046
 10
108.5168009345
 20
144.2633698608
 10
109.7933010277
 20
144.6852024813
 10
110.9977749773
 20
145.1570250199
 10
112.1224113077
 20
145.6757775263
  0
LWPOLYLINE
  5
CA
330
1F
100
AcDbEntity
  8
0
  6
Continuous
 62
     7
370
    25
100
AcDbPolyline
 90
       30
 70
   128
 43
0.0
 10
79.7287583977
 20
153.019904561
 10
79.7836205989
 20
152.6915581038
 10
79.9986042331
 20
151.9340943152
 10
80.3347917656
 20
151.187736246
 10
80.7900028913
 20
150.4573243145
 10
81.3612853913
 20
149.7475955226
 10
82.0449342793
 20
149.0631527338
 10
82.8365158301
 20
148.4084348221
 10
83.7308963335
 20
147.7876878845
 10
84.7222753888
 20
147.204937703
 10
85.8042235223
 20
146.6639636363
 10
86.9697238852
 20
146.1682741086
 10
88.2112177604
 20
145.7210838569
 10
89.5206535838
 20
145.3252930815
 10
90.8895391615
 20
144.9834686375
 10
92.3089967454
 20
144.6978273875
 10
93.7698206082
 20
144.4702218247
 10
95.2625367467
 20
144.3021280584
 10
96.7774643238
 20
144.1946362413
 10
98.3047784531
 20
144.1484434991
 10
99.8345739161
 20
144.1638494093
 10
101.3569294024
 20
144.2407540588
 10
102.8619718525
 20
144.3786586914
 10
104.3399404884
 20
144.5766689426
 10
105.7812501164
 20
144.83350064
 10
107.1765532906
 20
145.1474881314
 10
108.5168009345
 20
145.5165950876
 10
109.7933010277
 20
145.9384277081
 10
110.9977749773
 20
146.4102502467
 10
112.1224113077
 20
146.9290027532
  0
ARC
  5
CB
330
1F
100
AcDbEntity
  8
0
  6
Continuous
 62
     7
370
    25
100
AcDbCircle
 10
109.1411894726
 20
174.5667332284
 30
0.0
 40
4.50993140872365
100
AcDbArc
 50
65.5628308253
 51
91.4237873994
  0
ARC
  5
CC
330
1F
100
AcDbEntity
  8
0
  6
Continuous
 62
     7
370
    25
100
AcDbCircle
 10
110.8931335136
 20
178.6845478755
 30
0.0
 40
0.1144134782691131
100
AcDbArc
 50
354.0282870551
 51
57.2701952771
  0
LINE
  5
CD
330
1F
100
AcDbEntity
  8
0
  6
Continuous
 62
     7
370
    25
100
AcDbLine
 10
111.0069261134
 20
178.6726445887
 30
0.0
 11
111.3509792957
 21
178.4627415315
 31
0.0
  0
LINE
  5
CE
330
1F
100
AcDbEntity
  8
0
  6
Continuous
 62
     7
370
    25
100
AcDbLine
 10
115.3605025509
 20
166.676141833
 30
0.0
 11
115.3914051165
 21
166.4396528476
 31
0.0
  0
SPLINE
  5
CF
330
1F
100
AcDbEntity
  8
0
  6
Continuous
 62
     7
370
    25
100
AcDbSpline
210
0.0
220
0.0
230
1.0
 70
     8
 71
     3
 72
     9
 73
     5
 74
     0
 42
0.00000001
 43
0.00000001
 40
0.0
 40
0.0
 40
0.0
 40
0.0
 40
0.0655103833223001
 40
1.0
 40
1.0
 40
1.0
 40
1.0
 10
118.699098176984
 20
166.0302988755118
 30
0.0
 10
118.6924302346317
 20
166.0383440364743
 30
0.0
 10
118.59064572332
 20
166.1611514534737
 30
0.0
 10
118.4759377847842
 20
166.22832052218
 30
0.0
 10
118.3687444072721
 20
166.2910893194479
 30
0.0
  0
LINE
  5
D0
330
1F
100
AcDbEntity
  8
0
  6
Continuous
 62
     7
370
    25
100
AcDbLine
 10
115.8447815543
 20
166.6719565769
 30
0.0
 11
115.8982842137
 21
166.2624076029
 31
0.0
  0
LINE
  5
D1
330
1F
100
AcDbEntity
  8
0
  6
Continuous
 62
     7
370
    25
100
AcDbLine
 10
116.3413191554
 20
166.6626861464
 30
0.0
 11
116.4185851865
 21
166.0707477169
 31
0.0
  0
LINE
  5
D2
330
1F
100
AcDbEntity
  8
0
  6
Continuous
 62
     7
370
    25
100
AcDbLine
 10
119.2573126523
 20
164.9536686052
 30
0.0
 11
119.2223561841
 21
165.222167632
 31
0.0
  0
SPLINE
  5
D3
330
1F
100
AcDbEntity
  8
0
  6
Continuous
 62
     7
370
    25
100
AcDbSpline
210
0.0
220
0.0
230
1.0
 70
     8
 71
     3
 72
    10
 73
     6
 74
     0
 42
0.00000001
 43
0.00000001
 40
0.0
 40
0.0
 40
0.0
 40
0.0
 40
0.3953320444355402
 40
0.7906640888873501
 40
0.9999999999999999
 40
0.9999999999999999
 40
0.9999999999999999
 40
0.9999999999999999
 10
116.2576185903808
 20
167.3466510921862
 30
0.0
 10
116.2642487505875
 20
167.3136172892524
 30
0.0
 10
116.2775090710012
 20
167.2475496833834
 30
0.0
 10
116.3149460553243
 20
167.1835004263511
 30
0.0
 10
116.3480401780188
 20
167.1634775543231
 30
0.0
 10
116.3594973559012
 20
167.1565456405008
 30
0.0
  0
SPLINE
  5
D4
330
1F
100
AcDbEntity
  8
0
  6
Continuous
 62
     7
370
    25
100
AcDbSpline
210
0.0
220
0.0
230
1.0
 70
     8
 71
     3
 72
    10
 73
     6
 74
     0
 42
0.00000001
 43
0.00000001
 40
0.0
 40
0.0
 40
0.0
 40
0.0
 40
0.3336580318844524
 40
0.6667650883886966
 40
1.0
 40
1.0
 40
1.0
 40
1.0
 10
116.2006570080257
 20
167.1852387602666
 30
0.0
 10
116.124607166358
 20
167.1718130141362
 30
0.0
 10
115.9726330654645
 20
167.1449836920465
 30
0.0
 10
115.8395645841211
 20
166.9543364852939
 30
0.0
 10
115.8430451265174
 20
166.7660910815071
 30
0.0
 10
115.844785731632
 20
166.6719503197155
 30
0.0
  0
ARC
  5
D5
330
1F
100
AcDbEntity
  8
0
  6
Continuous
 62
     7
370
    25
100
AcDbCircle
 10
116.4134847011
 20
166.8904357125
 30
0.0
 40
0.2589582430393456
100
AcDbArc
 50
2.3551449149
 51
52.1293762709
  0
SPLINE
  5
D6
330
1F
100
AcDbEntity
  8
0
  6
Continuous
 62
     7
370
    25
100
AcDbSpline
210
0.0
220
0.0
230
1.0
 70
     8
 71
     3
 72
    10
 73
     6
 74
     0
 42
0.00000001
 43
0.00000001
 40
0.0
 40
0.0
 40
0.0
 40
0.0
 40
0.3693807343551014
 40
0.7387614687102058
 40
1.0
 40
1.0
 40
1.0
 40
1.0
 10
118.833113437983
 20
165.8206329755091
 30
0.0
 10
118.8257393953696
 20
165.8541353594332
 30
0.0
 10
118.8109913101427
 20
165.9211401272815
 30
0.0
 10
118.7654915778268
 20
165.9911123111956
 30
0.0
 10
118.7238438744513
 20
166.0152457540973
 30
0.0
 10
118.7065910161037
 20
166.0252432050507
 30
0.0
  0
ARC
  5
D7
330
1F
100
AcDbEntity
  8
0
  6
Continuous
 62
     7
370
    25
100
AcDbCircle
 10
119.1182148432
 20
165.0168906557
 30
0.0
 40
0.2301826120991379
100
AcDbArc
 50
14.9309565289
 51
63.1003191708
  0
LINE
  5
D8
330
1F
100
AcDbEntity
  8
0
  6
Continuous
 62
     7
370
    25
100
AcDbLine
 10
104.7407315518
 20
179.4048445914
 30
0.0
 11
104.9688368912
 21
179.3736654446
 31
0.0
  0
LINE
  5
D9
330
1F
100
AcDbEntity
  8
0
  6
Continuous
 62
     7
370
    25
100
AcDbLine
 10
120.7637829191
 20
171.9707220174
 30
0.0
 11
121.1249959856
 21
171.4094510784
 31
0.0
  0
SPLINE
  5
DA
330
1F
100
AcDbEntity
  8
0
  6
Continuous
 62
     7
370
    25
100
AcDbSpline
210
0.0
220
0.0
230
1.0
 70
     8
 71
     2
 72
     6
 73
     3
 74
     0
 42
0.00000001
 43
0.00000001
 40
0.0
 40
0.0
 40
0.0
 40
1.0
 40
1.0
 40
1.0
 10
122.1187591554053
 20
166.9170296404893
 30
0.0
 10
121.8406799878997
 20
166.2360121580244
 30
0.0
 10
122.1100721160672
 20
165.5707906528102
 30
0.0
  0
SPLINE
  5
DB
330
1F
100
AcDbEntity
  8
0
  6
Continuous
 62
     7
370
    25
100
AcDbSpline
210
0.0
220
0.0
230
1.0
 70
     8
 71
     2
 72
     6
 73
     3
 74
     0
 42
0.00000001
 43
0.00000001
 40
0.0
 40
0.0
 40
0.0
 40
1.0
 40
1.0
 40
1.0
 10
108.9394179984673
 20
174.7718772993164
 30
0.0
 10
108.7521847202243
 20
174.0963951712415
 30
0.0
 10
108.9357021755976
 20
173.4274741406939
 30
0.0
  0
SPLINE
  5
DC
330
1F
100
AcDbEntity
  8
0
  6
Continuous
 62
     7
370
    25
100
AcDbSpline
210
0.0
220
0.0
230
1.0
 70
     8
 71
     2
 72
     6
 73
     3
 74
     0
 42
0.00000001
 43
0.00000001
 40
0.0
 40
0.0
 40
0.0
 40
1.0
 40
1.0
 40
1.0
 10
104.9656082420339
 20
175.4909726081888
 30
0.0
 10
104.8845302016577
 20
174.7806301203146
 30
0.0
 10
104.97334869224
 20
174.0713431310286
 30
0.0
  0
SPLINE
  5
DD
330
1F
100
AcDbEntity
  8
0
  6
Continuous
 62
     7
370
    25
100
AcDbSpline
210
0.0
220
0.0
230
1.0
 70
     8
 71
     3
 72
     8
 73
     4
 74
     0
 42
0.00000001
 43
0.00000001
 40
0.0
 40
0.0
 40
0.0
 40
0.0
 40
1.0
 40
1.0
 40
1.0
 40
1.0
 10
104.9639553562314
 20
176.3839832155187
 30
0.0
 10
104.7236614434114
 20
175.3741235230481
 30
0.0
 10
104.7887126350127
 20
174.3376990154036
 30
0.0
 10
104.97334869224
 20
173.3329266355714
 30
0.0
  0
MTEXT
  5
DF
330
1F
100
AcDbEntity
  8
0
  6
Continuous
 62
     7
370
     0
100
AcDbMText
 10
135.3016926114
 20
123.0116555433
 30
0.0
 40
2.6458333333
 41
0.0
 71
     1
 72
     1
  1
HBH-D07G/B
  7
SLDTEXTSTYLE0
 73
     1
 44
1.0
  0
ENDSEC
  0
SECTION
  2
OBJECTS
  0
DICTIONARY
  5
C
330
0
100
AcDbDictionary
281
     1
  3
ACAD_GROUP
350
D
  3
ACAD_LAYOUT
350
1A
  3
ACAD_MLINESTYLE
350
17
  3
ACAD_PLOTSETTINGS
350
19
  3
ACAD_PLOTSTYLENAME
350
E
  3
ACAD_SCALELIST
350
47
  3
DWGPROPS
350
E0
  0
DICTIONARY
  5
D
102
{ACAD_REACTORS
330
C
102
}
330
C
100
AcDbDictionary
281
     1
  0
DICTIONARY
  5
1A
102
{ACAD_REACTORS
330
C
102
}
330
C
100
AcDbDictionary
281
     1
  3
Layout1
350
1E
  3
Layout2
350
26
  3
Model
350
22
  0
DICTIONARY
  5
17
102
{ACAD_REACTORS
330
C
102
}
330
C
100
AcDbDictionary
281
     1
  3
Standard
350
18
  0
DICTIONARY
  5
19
102
{ACAD_REACTORS
330
C
102
}
330
C
100
AcDbDictionary
281
     1
  0
ACDBDICTIONARYWDFLT
  5
E
102
{ACAD_REACTORS
330
C
102
}
330
C
100
AcDbDictionary
281
     1
  3
Normal
350
F
100
AcDbDictionaryWithDefault
340
F
  0
DICTIONARY
  5
47
102
{ACAD_REACTORS
330
C
102
}
330
C
100
AcDbDictionary
281
     1
  3
A0
350
48
  3
A1
350
49
  3
A2
350
4A
  3
A3
350
4B
  3
A4
350
4C
  3
A5
350
4D
  3
A6
350
4E
  3
A7
350
4F
  3
A8
350
50
  3
A9
350
51
  3
B0
350
52
  3
B1
350
53
  3
B2
350
54
  3
B3
350
55
  3
B4
350
56
  3
B5
350
57
  3
B6
350
58
  0
XRECORD
  5
E0
102
{ACAD_REACTORS
330
C
102
}
330
C
100
AcDbXrecord
280
     1
  1
DWGPROPS COOKIE
  2

  3

  4

  6

  7

  8
9128
  9

300
=
301
=
302
=
303
=
304
=
305
=
306
=
307
=
308
=
309
=
 40
0.0
 41
2460339.075497084
 42
2460339.075497535
  1

 90
        0
  0
LAYOUT
  5
1E
102
{ACAD_REACTORS
330
1A
102
}
330
1A
100
AcDbPlotSettings
  1

  2
none_device
  4

  6

 40
0.0
 41
0.0
 42
0.0
 43
0.0
 44
0.0
 45
0.0
 46
0.0
 47
0.0
 48
0.0
 49
0.0
140
0.0
141
0.0
142
1.0
143
1.0
 70
   688
 72
     1
 73
     0
 74
     5
  7

 75
    16
147
1.0
148
0.0
149
0.0
100
AcDbLayout
  1
Layout1
 70
     1
 71
     1
 10
0.0
 20
0.0
 11
420.0
 21
297.0
 12
0.0
 22
0.0
 32
0.0
 14
1.0000000000E+20
 24
1.0000000000E+20
 34
1.0000000000E+20
 15
-1.0000000000E+20
 25
-1.0000000000E+20
 35
-1.0000000000E+20
146
0.0
 13
0.0
 23
0.0
 33
0.0
 16
1.0
 26
0.0
 36
0.0
 17
0.0
 27
1.0
 37
0.0
 76
     0
330
1B
  0
LAYOUT
  5
26
102
{ACAD_REACTORS
330
1A
102
}
330
1A
100
AcDbPlotSettings
  1

  2
none_device
  4

  6

 40
0.0
 41
0.0
 42
0.0
 43
0.0
 44
0.0
 45
0.0
 46
0.0
 47
0.0
 48
0.0
 49
0.0
140
0.0
141
0.0
142
1.0
143
1.0
 70
   688
 72
     1
 73
     0
 74
     5
  7

 75
    16
147
1.0
148
0.0
149
0.0
100
AcDbLayout
  1
Layout2
 70
     1
 71
     2
 10
0.0
 20
0.0
 11
0.0
 21
0.0
 12
0.0
 22
0.0
 32
0.0
 14
0.0
 24
0.0
 34
0.0
 15
0.0
 25
0.0
 35
0.0
146
0.0
 13
0.0
 23
0.0
 33
0.0
 16
1.0
 26
0.0
 36
0.0
 17
0.0
 27
1.0
 37
0.0
 76
     0
330
23
  0
LAYOUT
  5
22
102
{ACAD_REACTORS
330
1A
102
}
330
1A
100
AcDbPlotSettings
  1

  2
none_device
  4
Letter_(8.50_x_11.00_Inches)
  6

 40
6.35
 41
6.35
 42
6.35000508
 43
6.35000508
 44
215.9
 45
279.4
 46
0.0
 47
0.0
 48
0.0
 49
0.0
140
0.0
141
0.0
142
1.0
143
1.0
 70
  1712
 72
     1
 73
     0
 74
     0
  7

 75
     0
147
1.0
148
0.0
149
0.0
100
AcDbLayout
  1
Model
 70
     1
 71
     0
 10
0.0
 20
0.0
 11
210.0
 21
297.0
 12
0.0
 22
0.0
 32
0.0
 14
0.0
 24
0.0
 34
0.0
 15
210.0
 25
297.0
 35
0.0
146
0.0
 13
0.0
 23
0.0
 33
0.0
 16
1.0
 26
0.0
 36
0.0
 17
0.0
 27
1.0
 37
0.0
 76
     0
330
1F
331
29
  0
MLINESTYLE
  5
18
102
{ACAD_REACTORS
330
17
102
}
330
17
100
AcDbMlineStyle
  2
Standard
 70
     0
  3

 62
   256
 51
90.0
 52
90.0
 71
     2
 49
0.5
 62
   256
  6
BYLAYER
 49
-0.5
 62
   256
  6
BYLAYER
  0
ACDBPLACEHOLDER
  5
F
102
{ACAD_REACTORS
330
E
102
}
330
E
  0
SCALE
  5
48
102
{ACAD_REACTORS
330
47
102
}
330
47
100
AcDbScale
 70
     0
300
1:1
140
1.0
141
1.0
290
     1
  0
SCALE
  5
49
102
{ACAD_REACTORS
330
47
102
}
330
47
100
AcDbScale
 70
     0
300
1:2
140
1.0
141
2.0
290
     0
  0
SCALE
  5
4A
102
{ACAD_REACTORS
330
47
102
}
330
47
100
AcDbScale
 70
     0
300
1:4
140
1.0
141
4.0
290
     0
  0
SCALE
  5
4B
102
{ACAD_REACTORS
330
47
102
}
330
47
100
AcDbScale
 70
     0
300
1:5
140
1.0
141
5.0
290
     0
  0
SCALE
  5
4C
102
{ACAD_REACTORS
330
47
102
}
330
47
100
AcDbScale
 70
     0
300
1:8
140
1.0
141
8.0
290
     0
  0
SCALE
  5
4D
102
{ACAD_REACTORS
330
47
102
}
330
47
100
AcDbScale
 70
     0
300
1:10
140
1.0
141
10.0
290
     0
  0
SCALE
  5
4E
102
{ACAD_REACTORS
330
47
102
}
330
47
100
AcDbScale
 70
     0
300
1:16
140
1.0
141
16.0
290
     0
  0
SCALE
  5
4F
102
{ACAD_REACTORS
330
47
102
}
330
47
100
AcDbScale
 70
     0
300
1:20
140
1.0
141
20.0
290
     0
  0
SCALE
  5
50
102
{ACAD_REACTORS
330
47
102
}
330
47
100
AcDbScale
 70
     0
300
1:30
140
1.0
141
30.0
290
     0
  0
SCALE
  5
51
102
{ACAD_REACTORS
330
47
102
}
330
47
100
AcDbScale
 70
     0
300
1:40
140
1.0
141
40.0
290
     0
  0
SCALE
  5
52
102
{ACAD_REACTORS
330
47
102
}
330
47
100
AcDbScale
 70
     0
300
1:50
140
1.0
141
50.0
290
     0
  0
SCALE
  5
53
102
{ACAD_REACTORS
330
47
102
}
330
47
100
AcDbScale
 70
     0
300
1:100
140
1.0
141
100.0
290
     0
  0
SCALE
  5
54
102
{ACAD_REACTORS
330
47
102
}
330
47
100
AcDbScale
 70
     0
300
2:1
140
2.0
141
1.0
290
     0
  0
SCALE
  5
55
102
{ACAD_REACTORS
330
47
102
}
330
47
100
AcDbScale
 70
     0
300
4:1
140
4.0
141
1.0
290
     0
  0
SCALE
  5
56
102
{ACAD_REACTORS
330
47
102
}
330
47
100
AcDbScale
 70
     0
300
8:1
140
8.0
141
1.0
290
     0
  0
SCALE
  5
57
102
{ACAD_REACTORS
330
47
102
}
330
47
100
AcDbScale
 70
     0
300
10:1
140
10.0
141
1.0
290
     0
  0
SCALE
  5
58
102
{ACAD_REACTORS
330
47
102
}
330
47
100
AcDbScale
 70
     0
300
100:1
140
100.0
141
1.0
290
     0
  0
ENDSEC
  0
EOF
