  0
SECTION
  2
HEADER
  9
$ACADVER
  1
AC1015
  9
$ACADMAINTVER
 70
               6
  9
$DWGCODEPAGE
  3
ANSI_932
  9
$INSBASE
 10
0.0
 20
0.0
 30
0.0
  9
$EXTMIN
 10
639.875
 20
314.04461709635029
 30
0.0
  9
$EXTMAX
 10
666.82382496604259
 20
324.375
 30
0.0
  9
$LIMMIN
 10
0.0
 20
0.0
  9
$LIMMAX
 10
0.0
 20
0.0
  9
$ORTHOMODE
 70
               0
  9
$REGENMODE
 70
               1
  9
$FILLMODE
 70
               1
  9
$QTEXTMODE
 70
               0
  9
$MIRRTEXT
 70
               1
  9
$LTSCALE
 40
12.699999999999999
  9
$ATTMODE
 70
               1
  9
$TEXTSIZE
 40
0.2
  9
$TRACEWID
 40
1.0
  9
$TEXTSTYLE
  7
Standard
  9
$CLAYER
  8
0
  9
$CELTYPE
  6
Continuous
  9
$CECOLOR
 62
             256
  9
$CELTSCALE
 40
1.0
  9
$DISPSILH
 70
               0
  9
$DIMSCALE
 40
1.0
  9
$DIMASZ
 40
0.18
  9
$DIMEXO
 40
0.0625
  9
$DIMDLI
 40
0.38
  9
$DIMRND
 40
0.0
  9
$DIMDLE
 40
0.0
  9
$DIMEXE
 40
0.18
  9
$DIMTP
 40
0.0
  9
$DIMTM
 40
0.0
  9
$DIMTXT
 40
0.18
  9
$DIMCEN
 40
0.09
  9
$DIMTSZ
 40
0.0
  9
$DIMTOL
 70
               0
  9
$DIMLIM
 70
               0
  9
$DIMTIH
 70
               1
  9
$DIMTOH
 70
               1
  9
$DIMSE1
 70
               0
  9
$DIMSE2
 70
               0
  9
$DIMTAD
 70
               0
  9
$DIMZIN
 70
               0
  9
$DIMBLK
  1

  9
$DIMASO
 70
               1
  9
$DIMSHO
 70
               1
  9
$DIMPOST
  1

  9
$DIMAPOST
  1

  9
$DIMALT
 70
               0
  9
$DIMALTD
 70
               2
  9
$DIMALTF
 40
25.399999999999999
  9
$DIMLFAC
 40
1.0
  9
$DIMTOFL
 70
               0
  9
$DIMTVP
 40
0.0
  9
$DIMTIX
 70
               0
  9
$DIMSOXD
 70
               0
  9
$DIMSAH
 70
               0
  9
$DIMBLK1
  1

  9
$DIMBLK2
  1

  9
$DIMSTYLE
  2
Standard
  9
$DIMCLRD
 70
               0
  9
$DIMCLRE
 70
               0
  9
$DIMCLRT
 70
               0
  9
$DIMTFAC
 40
1.0
  9
$DIMGAP
 40
0.09
  9
$DIMJUST
 70
               0
  9
$DIMSD1
 70
               0
  9
$DIMSD2
 70
               0
  9
$DIMTOLJ
 70
               1
  9
$DIMTZIN
 70
               0
  9
$DIMALTZ
 70
               0
  9
$DIMALTTZ
 70
               0
  9
$DIMUPT
 70
               0
  9
$DIMDEC
 70
               4
  9
$DIMTDEC
 70
               4
  9
$DIMALTU
 70
               2
  9
$DIMALTTD
 70
               2
  9
$DIMTXSTY
  7
Standard
  9
$DIMAUNIT
 70
               0
  9
$DIMADEC
 70
               0
  9
$DIMALTRND
 40
0.0
  9
$DIMAZIN
 70
               0
  9
$DIMDSEP
 70
               0
  9
$DIMATFIT
 70
               3
  9
$DIMFRAC
 70
               0
  9
$DIMLDRBLK
  1

  9
$DIMLUNIT
 70
               2
  9
$DIMLWD
 70
               0
  9
$DIMLWE
 70
               0
  9
$DIMTMOVE
 70
               0
  9
$LUNITS
 70
               2
  9
$LUPREC
 70
               4
  9
$SKETCHINC
 40
0.1
  9
$FILLETRAD
 40
0.0
  9
$AUNITS
 70
               0
  9
$AUPREC
 70
               0
  9
$MENU
  1
acad
  9
$ELEVATION
 40
0.0
  9
$PELEVATION
 40
0.0
  9
$THICKNESS
 40
0.0
  9
$LIMCHECK
 70
               0
  9
$CHAMFERA
 40
0.0
  9
$CHAMFERB
 40
0.0
  9
$CHAMFERC
 40
0.0
  9
$CHAMFERD
 40
0.0
  9
$SKPOLY
 70
               0
  9
$TDCREATE
 40
2458068.698877315
  9
$TDUCREATE
 40
0.000000000
  9
$TDUPDATE
 40
2458068.698877315
  9
$TDUUPDATE
 40
0.000000000
  9
$TDINDWG
 40
0.0000000000
  9
$TDUSRTIMER
 40
0.0000000000
  9
$USRTIMER
 70
               1
  9
$ANGBASE
 50
0.0
  9
$ANGDIR
 70
               0
  9
$PDMODE
 70
               1
  9
$PDSIZE
 40
-2.0
  9
$PLINEWID
 40
0.0
  9
$SPLFRAME
 70
               0
  9
$SPLINETYPE
 70
               6
  9
$SPLINESEGS
 70
               8
  9
$HANDSEED
  5
228
  9
$SURFTAB1
 70
               6
  9
$SURFTAB2
 70
               6
  9
$SURFTYPE
 70
               6
  9
$SURFU
 70
               6
  9
$SURFV
 70
               6
  9
$UCSBASE
  2

  9
$UCSNAME
  2

  9
$UCSORG
 10
0.0
 20
0.0
 30
0.0
  9
$UCSXDIR
 10
1.0
 20
0.0
 30
0.0
  9
$UCSYDIR
 10
0.0
 20
1.0
 30
0.0
  9
$UCSORTHOREF
  2

  9
$UCSORTHOVIEW
 70
               0
  9
$UCSORGTOP
 10
0.0
 20
0.0
 30
0.0
  9
$UCSORGBOTTOM
 10
0.0
 20
0.0
 30
0.0
  9
$UCSORGLEFT
 10
0.0
 20
0.0
 30
0.0
  9
$UCSORGRIGHT
 10
0.0
 20
0.0
 30
0.0
  9
$UCSORGFRONT
 10
0.0
 20
0.0
 30
0.0
  9
$UCSORGBACK
 10
0.0
 20
0.0
 30
0.0
  9
$PUCSBASE
  2

  9
$PUCSNAME
  2

  9
$PUCSORG
 10
0.0
 20
0.0
 30
0.0
  9
$PUCSXDIR
 10
1.0
 20
0.0
 30
0.0
  9
$PUCSYDIR
 10
0.0
 20
1.0
 30
0.0
  9
$PUCSORTHOREF
  2

  9
$PUCSORTHOVIEW
 70
               0
  9
$PUCSORGTOP
 10
0.0
 20
0.0
 30
0.0
  9
$PUCSORGBOTTOM
 10
0.0
 20
0.0
 30
0.0
  9
$PUCSORGLEFT
 10
0.0
 20
0.0
 30
0.0
  9
$PUCSORGRIGHT
 10
0.0
 20
0.0
 30
0.0
  9
$PUCSORGFRONT
 10
0.0
 20
0.0
 30
0.0
  9
$PUCSORGBACK
 10
0.0
 20
0.0
 30
0.0
  9
$USERI1
 70
               0
  9
$USERI2
 70
               0
  9
$USERI3
 70
               0
  9
$USERI4
 70
               0
  9
$USERI5
 70
               0
  9
$USERR1
 40
0.0
  9
$USERR2
 40
0.0
  9
$USERR3
 40
0.0
  9
$USERR4
 40
0.0
  9
$USERR5
 40
0.0
  9
$WORLDVIEW
 70
               1
  9
$SHADEDGE
 70
               3
  9
$SHADEDIF
 70
              70
  9
$TILEMODE
 70
               1
  9
$MAXACTVP
 70
              16
  9
$PINSBASE
 10
0.0
 20
0.0
 30
0.0
  9
$PLIMCHECK
 70
               0
  9
$PEXTMIN
 10
1.0000000000000000E+20
 20
1.0000000000000000E+20
 30
1.0000000000000000E+20
  9
$PEXTMAX
 10
-1.0000000000000000E+20
 20
-1.0000000000000000E+20
 30
-1.0000000000000000E+20
  9
$PLIMMIN
 10
0.0
 20
0.0
  9
$PLIMMAX
 10
12.0
 20
9.0
  9
$UNITMODE
 70
               0
  9
$VISRETAIN
 70
               0
  9
$PLINEGEN
 70
               1
  9
$PSLTSCALE
 70
               0
  9
$TREEDEPTH
 70
            3020
  9
$CMLSTYLE
  2
Standard
  9
$CMLJUST
 70
               0
  9
$CMLSCALE
 40
1.0
  9
$PROXYGRAPHICS
 70
               0
  9
$MEASUREMENT
 70
               1
  9
$CELWEIGHT
370
               0
  9
$ENDCAPS
280
               0
  9
$JOINSTYLE
280
               0
  9
$LWDISPLAY
290
               1
  9
$INSUNITS
 70
               4
  9
$HYPERLINKBASE
  1

  9
$STYLESHEET
  1

  9
$XEDIT
290
               1
  9
$CEPSNTYPE
380
               0
  9
$PSTYLEMODE
290
               1
  9
$FINGERPRINTGUID
  2

  9
$VERSIONGUID
  2

  9
$EXTNAMES
290
               1
  9
$PSVPSCALE
 40
0.0
  0
ENDSEC
  0
SECTION
  2
CLASSES
  0
CLASS
  1
LWPOLYLINE
  2
AcDbPolyline
  3
AutoCAD 2000
 90
    32768
280
               0
281
               1
  0
CLASS
  1
IMAGE
  2
AcDbRasterImage
  3
ISM
 90
    32895
280
               0
281
               1
  0
CLASS
  1
OLE2FRAME
  2
AcDbOle2Frame
  3
AutoCAD 2000
 90
    32768
280
               0
281
               1
  0
CLASS
  1
HATCH
  2
AcDbHatch
  3
AutoCAD 2000
 90
    32768
280
               0
281
               1
  0
CLASS
  1
DICTIONARYVAR
  2
AcDbDictionaryVar
  3
AutoCAD 2000
 90
    32768
280
               0
281
               0
  0
CLASS
  1
RASTERVARIABLES
  2
AcDbRasterVariables
  3
ISM
 90
    32768
280
               0
281
               0
  0
CLASS
  1
IMAGEDEF
  2
AcDbRasterImageDef
  3
ISM
 90
    32768
280
               0
281
               0
  0
CLASS
  1
IMAGEDEF_REACTOR
  2
AcDbRasterImageDefReactor
  3
ISM
 90
    32769
280
               0
281
               0
  0
CLASS
  1
IDBUFFER
  2
AcDbIdBuffer
  3
AutoCAD 2000
 90
    32768
280
               0
281
               0
  0
CLASS
  1
SPATIAL_FILTER
  2
AcDbSpatialFilter
  3
AutoCAD 2000
 90
    32768
280
               0
281
               0
  0
CLASS
  1
XRECORD
  2
AcDbXrecord
  3
AutoCAD 2000
 90
    32768
280
               0
281
               0
  0
CLASS
  1
SORTENTSTABLE
  2
AcDbSortentsTable
  3
AutoCAD 2000
 90
    32768
280
               0
281
               0
  0
CLASS
  1
LAYER_INDEX
  2
AcDbLayerIndex
  3
AutoCAD 2000
 90
    32768
280
               0
281
               0
  0
CLASS
  1
SPATIAL_INDEX
  2
AcDbSpatialIndex
  3
AutoCAD 2000
 90
    32768
280
               0
281
               0
  0
CLASS
  1
OBJECT_PTR
  2
CAseDLPNTableRecord
  3
"ASE-LPNTableRecord"
 90
    32769
280
               0
281
               0
  0
CLASS
  1
LAYOUT
  2
AcDbLayout
  3
AutoCAD 2000
 90
        0
280
               0
281
               0
  0
CLASS
  1
PLOTSETTINGS
  2
AcDbPlotSettings
  3
AutoCAD 2000
 90
    32768
280
               0
281
               0
  0
CLASS
  1
ACDBDICTIONARYWDFLT
  2
AcDbDictionaryWithDefault
  3
AutoCAD 2000
 90
        0
280
               0
281
               0
  0
CLASS
  1
ACDBPLACEHOLDER
  2
AcDbPlaceHolder
  3
AutoCAD 2000
 90
        0
280
               0
281
               0
  0
CLASS
  1
VBA_PROJECT
  2
AcDbVbaProject
  3
acadvba
 90
    32768
280
               0
281
               0
  0
CLASS
  1
WIPEOUT
  2
AcDbWipeout
  3
WipeOut|AutoCAD Express Tool|expresstools@autodesk.com
 90
    32895
280
               0
281
               1
  0
CLASS
  1
WIPEOUTVARIABLES
  2
AcDbWipeoutVariables
  3
WipeOut|AutoCAD Express Tool|expresstools@autodesk.com
 90
        0
280
               0
281
               0
  0
CLASS
  1
RTEXT
  2
RText
  3
RText|AutoCAD Express Tool|expresstools@autodesk.com
 90
    32768
280
               0
281
               1
  0
CLASS
  1
ARCALIGNEDTEXT
  2
AcDbArcAlignedText
  3
ATEXT|AutoCAD Express Tool|expresstools@autodesk.com
 90
    32768
280
               0
281
               1
  0
ENDSEC
  0
SECTION
  2
TABLES
  0
TABLE
  2
VPORT
  5
7
100
AcDbSymbolTable
 70
               1
  0
VPORT
  5
15
100
AcDbSymbolTableRecord
100
AcDbViewportTableRecord
  2
*ACTIVE
 70
               0
 10
0.0
 20
0.0
 11
1.0
 21
1.0
 12
653.3494124830213
 22
319.20980854817515
 13
0.0
 23
0.0
 14
1.0
 24
1.0
 15
0.0
 25
0.0
 16
0.0
 26
0.0
 36
1.0
 17
0.0
 27
0.0
 37
0.0
 40
10.330382903649706
 41
0.688564
 42
50.0
 43
0.0
 44
0.0
 50
0.0
 51
0.0
 71
               0
 72
             100
 73
               1
 74
               1
 75
               0
 76
               0
 77
               0
 78
               0
281
               0
 65
               0
110
0.0
120
0.0
130
0.0
111
1.0
121
0.0
131
0.0
112
0.0
122
1.0
132
0.0
345
0
346
0
 79
               0
146
0.0
  0
ENDTAB
  0
TABLE
  2
LTYPE
  5
4
100
AcDbSymbolTable
 70
              13
  0
LTYPE
  5
11
100
AcDbSymbolTableRecord
100
AcDbLinetypeTableRecord
  2
ByBlock
 70
              64
  3

 72
              65
 73
               0
 40
0.0
  0
LTYPE
  5
12
100
AcDbSymbolTableRecord
100
AcDbLinetypeTableRecord
  2
ByLayer
 70
              64
  3

 72
              65
 73
               0
 40
0.0
  0
LTYPE
  5
13
100
AcDbSymbolTableRecord
100
AcDbLinetypeTableRecord
  2
Continuous
 70
              64
  3
Solid line
 72
              65
 73
               0
 40
0.0
  0
LTYPE
  5
26
100
AcDbSymbolTableRecord
100
AcDbLinetypeTableRecord
  2
STYLE_01
 70
               0
  3

 72
              65
 73
               2
 40
0.15
 49
0.1
 74
               0
 49
-0.05
 74
               0
  0
LTYPE
  5
27
100
AcDbSymbolTableRecord
100
AcDbLinetypeTableRecord
  2
STYLE_02
 70
               0
  3

 72
              65
 73
               6
 40
0.9999999999999999
 49
0.4999999999999999
 74
               0
 49
-0.1
 74
               0
 49
0.1
 74
               0
 49
-0.1
 74
               0
 49
0.1
 74
               0
 49
-0.1
 74
               0
  0
LTYPE
  5
28
100
AcDbSymbolTableRecord
100
AcDbLinetypeTableRecord
  2
STYLE_03
 70
               0
  3

 72
              65
 73
               4
 40
0.7999999999999999
 49
0.4999999999999999
 74
               0
 49
-0.1
 74
               0
 49
0.1
 74
               0
 49
-0.1
 74
               0
  0
LTYPE
  5
29
100
AcDbSymbolTableRecord
100
AcDbLinetypeTableRecord
  2
STYLE_04
 70
               0
  3

 72
              65
 73
               4
 40
1.5999999999999999
 49
0.9999999999999999
 74
               0
 49
-0.2000000000000001
 74
               0
 49
0.2
 74
               0
 49
-0.2
 74
               0
  0
LTYPE
  5
2A
100
AcDbSymbolTableRecord
100
AcDbLinetypeTableRecord
  2
STYLE_05
 70
               0
  3

 72
              65
 73
               2
 40
0.05
 49
0.0002
 74
               0
 49
-0.0498
 74
               0
  0
LTYPE
  5
2B
100
AcDbSymbolTableRecord
100
AcDbLinetypeTableRecord
  2
STYLE_06
 70
               0
  3

 72
              65
 73
               4
 40
0.416656
 49
0.25
 74
               0
 49
-0.083312
 74
               0
 49
0.027772
 74
               0
 49
-0.055572
 74
               0
  0
LTYPE
  5
2C
100
AcDbSymbolTableRecord
100
AcDbLinetypeTableRecord
  2
STYLE_07
 70
               0
  3

 72
              65
 73
               6
 40
0.75
 49
0.25
 74
               0
 49
-0.083312
 74
               0
 49
0.2500000000000001
 74
               0
 49
-0.083344
 74
               0
 49
0.027772
 74
               0
 49
-0.055572
 74
               0
  0
LTYPE
  5
2D
100
AcDbSymbolTableRecord
100
AcDbLinetypeTableRecord
  2
STYLE_08
 70
               0
  3

 72
              65
 73
               6
 40
0.5
 49
0.25
 74
               0
 49
-0.083312
 74
               0
 49
0.027772
 74
               0
 49
-0.055572
 74
               0
 49
0.027772
 74
               0
 49
-0.055572
 74
               0
  0
LTYPE
  5
2E
100
AcDbSymbolTableRecord
100
AcDbLinetypeTableRecord
  2
STYLE_09
 70
               0
  3

 72
              65
 73
               4
 40
2.0
 49
1.5
 74
               0
 49
-0.1111139999999999
 74
               0
 49
0.2777720000000001
 74
               0
 49
-0.1111139999999999
 74
               0
  0
LTYPE
  5
2F
100
AcDbSymbolTableRecord
100
AcDbLinetypeTableRecord
  2
STYLE_10
 70
               0
  3

 72
              65
 73
               6
 40
2.375
 49
1.5
 74
               0
 49
-0.1111139999999999
 74
               0
 49
0.2777720000000001
 74
               0
 49
-0.1111139999999999
 74
               0
 49
0.25
 74
               0
 49
-0.125
 74
               0
  0
ENDTAB
  0
TABLE
  2
LAYER
  5
2
100
AcDbSymbolTable
 70
               6
  0
LAYER
  5
14
100
AcDbSymbolTableRecord
100
AcDbLayerTableRecord
  2
0
 70
               0
 62
               7
  6
Continuous
290
               1
370
              15
390
1D
  0
LAYER
  5
30
100
AcDbSymbolTableRecord
100
AcDbLayerTableRecord
  2
Defpoints
 70
               0
 62
               7
  6
Continuous
290
               0
370
              -3
390
1D
  0
LAYER
  5
31
100
AcDbSymbolTableRecord
100
AcDbLayerTableRecord
  2
一般
 70
               0
 62
               7
  6
Continuous
290
               1
370
               5
390
1D
  0
LAYER
  5
32
100
AcDbSymbolTableRecord
100
AcDbLayerTableRecord
  2
寸法
 70
               0
 62
               7
  6
Continuous
290
               1
370
               5
390
1D
  0
LAYER
  5
33
100
AcDbSymbolTableRecord
100
AcDbLayerTableRecord
  2
レイヤー_1
 70
               0
 62
              19
  6
Continuous
290
               1
370
              15
390
1D
  0
LAYER
  5
34
100
AcDbSymbolTableRecord
100
AcDbLayerTableRecord
  2
FORMAT
 70
               0
 62
               7
  6
Continuous
290
               1
370
              15
390
1D
  0
ENDTAB
  0
TABLE
  2
STYLE
  5
3
100
AcDbSymbolTable
 70
               2
  0
STYLE
  5
17
100
AcDbSymbolTableRecord
100
AcDbTextStyleTableRecord
  2
Standard
 70
               0
 40
0.0
 41
1.0
 50
0.0
 71
               0
 42
0.0
  3
txt
  4
BIGFONT.SHX
  0
STYLE
  5
25
100
AcDbSymbolTableRecord
100
AcDbTextStyleTableRecord
  2
Arial
 70
               0
 40
0.0
 41
1.0
 50
0.0
 71
               0
 42
0.0
  3
Arial
  4

1001
ACAD
1000
Arial
1071
        0
  0
ENDTAB
  0
TABLE
  2
VIEW
  5
5
100
AcDbSymbolTable
 70
               0
  0
ENDTAB
  0
TABLE
  2
UCS
  5
6
100
AcDbSymbolTable
 70
               0
  0
ENDTAB
  0
TABLE
  2
APPID
  5
8
100
AcDbSymbolTable
 70
               1
  0
APPID
  5
16
100
AcDbSymbolTableRecord
100
AcDbRegAppTableRecord
  2
ACAD
 70
               0
  0
ENDTAB
  0
TABLE
  2
DIMSTYLE
  5
9
100
AcDbSymbolTable
 70
               1
100
AcDbDimStyleTable
 71
               0
  0
DIMSTYLE
105
18
100
AcDbSymbolTableRecord
100
AcDbDimStyleTableRecord
  2
Standard
 70
               0
  3

  4

 40
1.0
 41
0.18
 42
0.0625
 43
0.38
 44
0.18
 45
0.0
 46
0.0
 47
0.0
 48
0.0
 71
               0
 72
               0
 73
               1
 74
               1
 75
               0
 76
               0
 77
               0
 78
               0
 79
               0
140
0.18
141
0.09
142
0.0
143
25.399999999999999
144
1.0
145
0.0
146
1.0
147
0.09
148
0.0
170
               0
171
               2
172
               0
173
               0
174
               0
175
               0
176
               0
177
               0
178
               0
179
               0
271
               4
272
               4
273
               2
274
               2
275
               0
276
               0
277
               2
278
              46
279
               0
280
               0
281
               0
282
               0
283
               1
284
               0
285
               0
286
               0
288
               0
340
17
341
0
342
0
343
0
344
0
371
              -2
372
              -2
  0
ENDTAB
  0
TABLE
  2
BLOCK_RECORD
  5
1
100
AcDbSymbolTable
 70
               1
  0
BLOCK_RECORD
  5
A
100
AcDbSymbolTableRecord
100
AcDbBlockTableRecord
  2
*MODEL_SPACE
340
20
  0
BLOCK_RECORD
  5
B
100
AcDbSymbolTableRecord
100
AcDbBlockTableRecord
  2
*PAPER_SPACE
340
21
  0
BLOCK_RECORD
  5
24
100
AcDbSymbolTableRecord
100
AcDbBlockTableRecord
  2
*U0
340
0
102
{BLKREFS
331
227
102
}
  0
ENDTAB
  0
ENDSEC
  0
SECTION
  2
BLOCKS
  0
BLOCK
  5
D
100
AcDbEntity
  8
0
100
AcDbBlockBegin
  2
*MODEL_SPACE
 70
               0
 10
0.0
 20
0.0
 30
0.0
  3
*MODEL_SPACE
  1

  0
ENDBLK
  5
E
100
AcDbEntity
  8
0
100
AcDbBlockEnd
  0
BLOCK
  5
F
100
AcDbEntity
 67
               1
  8
0
100
AcDbBlockBegin
  2
*PAPER_SPACE
 70
               0
 10
0.0
 20
0.0
 30
0.0
  3
*PAPER_SPACE
  1

  0
ENDBLK
  5
10
100
AcDbEntity
 67
               1
  8
0
100
AcDbBlockEnd
  0
BLOCK
  5
35
100
AcDbEntity
  8
一般
100
AcDbBlockBegin
  2
*U0
 70
               1
 10
0.0
 20
0.0
 30
0.0
  3
*U0
  1

  0
LINE
  5
36
100
AcDbEntity
  8
0
370
              15
  6
Continuous
 62
               7
100
AcDbLine
 10
-70.636368361568927
 20
-215.82123475259999
 30
0.0
 11
-70.587123932268909
 21
-217.74100011420001
 31
0.0
  0
LINE
  5
37
100
AcDbEntity
  8
0
370
              15
  6
Continuous
 62
               7
100
AcDbLine
 10
29.379992985031052
 20
-215.17671566839999
 30
0.0
 11
29.330748555831022
 21
-213.25695030680001
 31
0.0
  0
SPLINE
  5
38
100
AcDbEntity
  8
0
370
              15
  6
Continuous
 62
               7
100
AcDbSpline
210
0.0
220
0.0
230
1.0
 70
               8
 71
               2
 72
              14
 73
              11
 74
               0
 42
0.000001
 43
0.000001
 40
0.0
 40
0.0
 40
0.0
 40
1.0
 40
1.0
 40
2.0
 40
3.0
 40
4.0
 40
5.0
 40
6.0
 40
6.0
 40
7.0
 40
7.0
 40
7.0
 10
-98.937614581998147
 20
193.40157872699012
 30
0.0
 10
-98.882517817305384
 20
193.3370592508
 30
0.0
 10
-98.827421052612621
 20
193.27253977460987
 30
0.0
 10
-94.282771379714049
 20
187.8195180835686
 30
0.0
 10
-83.507183683136461
 20
180.04017913985319
 30
0.0
 10
-72.32632605341739
 20
175.45745575871501
 30
0.0
 10
-60.260729721237666
 20
173.30069850225732
 30
0.0
 10
-51.747203508889058
 20
173.81787089137345
 30
0.0
 10
-49.677069250365875
 20
174.14529802679317
 30
0.0
 10
-49.63743588019976
 20
174.15132145423945
 30
0.0
 10
-49.597802510033645
 20
174.15734488168573
 30
0.0
  0
LINE
  5
39
100
AcDbEntity
  8
0
370
              15
  6
Continuous
 62
               7
100
AcDbLine
 10
-79.65571969646895
 20
208.31303516900005
 30
0.0
 11
-79.623374925268919
 21
208.27831355449996
 31
0.0
  0
LINE
  5
3A
100
AcDbEntity
  8
0
370
              15
  6
Continuous
 62
               7
100
AcDbLine
 10
-81.393381927968946
 20
210.88027661390004
 30
0.0
 11
-81.304563524668922
 21
210.69655800759995
 31
0.0
  0
SPLINE
  5
3B
100
AcDbEntity
  8
0
370
              15
  6
Continuous
 62
               7
100
AcDbSpline
210
0.0
220
0.0
230
1.0
 70
               8
 71
               2
 72
              15
 73
              12
 74
               0
 42
0.000001
 43
0.000001
 40
0.0
 40
0.0
 40
0.0
 40
1.0
 40
1.0
 40
2.0
 40
3.0
 40
4.0
 40
5.0
 40
6.0
 40
7.0
 40
7.0
 40
8.0
 40
8.0
 40
8.0
 10
-54.530326869312248
 20
173.67963103724651
 30
0.0
 10
-54.526596844560444
 20
173.67899035248138
 30
0.0
 10
-54.522866819808641
 20
173.67834966771625
 30
0.0
 10
-54.08749971342813
 20
173.60292899383376
 30
0.0
 10
-53.402768638160964
 20
173.4997472284507
 30
0.0
 10
-52.138219923733104
 20
173.32031048962074
 30
0.0
 10
-49.835304947528513
 20
172.94965124449038
 30
0.0
 10
-47.347004386713238
 20
172.48936985837895
 30
0.0
 10
-45.036754477348936
 20
171.96127711989698
 30
0.0
 10
-43.993588836657565
 20
171.67313323501583
 30
0.0
 10
-43.980531979471309
 20
171.66957944092763
 30
0.0
 10
-43.967475122285052
 20
171.66602564683944
 30
0.0
  0
SPLINE
  5
3C
100
AcDbEntity
  8
0
370
              15
  6
Continuous
 62
               7
100
AcDbSpline
210
0.0
220
0.0
230
1.0
 70
               8
 71
               2
 72
              13
 73
              10
 74
               0
 42
0.000001
 43
0.000001
 40
0.0
 40
0.0
 40
0.0
 40
1.0
 40
1.0
 40
2.0
 40
3.0
 40
4.0
 40
5.0
 40
5.0
 40
6.0
 40
6.0
 40
6.0
 10
-32.960783893369339
 20
173.88970201166865
 30
0.0
 10
-32.929421685085359
 20
173.93709864404002
 30
0.0
 10
-32.898059476801379
 20
173.98449527641139
 30
0.0
 10
-32.07802808372621
 20
175.21359804770032
 30
0.0
 10
-29.597673525103616
 20
179.14824140106816
 30
0.0
 10
-27.649011338187265
 20
183.7388626718631
 30
0.0
 10
-26.628159190832079
 20
186.55301789360669
 30
0.0
 10
-26.135788450683307
 20
187.96774739013176
 30
0.0
 10
-26.100545418261405
 20
188.06876830526738
 30
0.0
 10
-26.065302385839502
 20
188.169789220403
 30
0.0
  0
SPLINE
  5
3D
100
AcDbEntity
  8
0
370
              15
  6
Continuous
 62
               7
100
AcDbSpline
210
0.0
220
0.0
230
1.0
 70
               8
 71
               2
 72
              13
 73
              10
 74
               0
 42
0.000001
 43
0.000001
 40
0.0
 40
0.0
 40
0.0
 40
1.0
 40
1.0
 40
2.0
 40
3.0
 40
4.0
 40
5.0
 40
5.0
 40
6.0
 40
6.0
 40
6.0
 10
-26.094519961112539
 20
188.13785183525317
 30
0.0
 10
-26.083765099734919
 20
188.17040680401993
 30
0.0
 10
-26.073010238357298
 20
188.20296177278669
 30
0.0
 10
-25.745490518777771
 20
189.17828037977642
 30
0.0
 10
-24.964958224734161
 20
191.80821658877721
 30
0.0
 10
-24.424481200148293
 20
194.75616048188908
 30
0.0
 10
-23.994546270448197
 20
197.6407987837199
 30
0.0
 10
-23.940009409902402
 20
199.37059872547297
 30
0.0
 10
-23.93963141028452
 20
199.38140896127436
 30
0.0
 10
-23.939253410666637
 20
199.39221919707575
 30
0.0
  0
LINE
  5
3E
100
AcDbEntity
  8
0
370
              15
  6
Continuous
 62
               7
100
AcDbLine
 10
-49.527352030868926
 20
174.13225148030006
 30
0.0
 11
-50.217518131268932
 21
174.06968338870001
 31
0.0
  0
SPLINE
  5
3F
100
AcDbEntity
  8
0
370
              15
  6
Continuous
 62
               7
100
AcDbSpline
210
0.0
220
0.0
230
1.0
 70
               8
 71
               2
 72
              12
 73
               9
 74
               0
 42
0.000001
 43
0.000001
 40
0.0
 40
0.0
 40
0.0
 40
1.0
 40
1.0
 40
2.0
 40
3.0
 40
4.0
 40
4.0
 40
5.0
 40
5.0
 40
5.0
 10
-105.74980973088843
 20
219.85247729332764
 30
0.0
 10
-105.77951558095516
 20
219.78562237128648
 30
0.0
 10
-105.8092214310219
 20
219.71876744924532
 30
0.0
 10
-106.59252126121895
 20
217.98439335103353
 30
0.0
 10
-107.9559384149013
 20
214.58287742242851
 30
0.0
 10
-108.87653530872016
 20
211.26334783925086
 30
0.0
 10
-109.26609013865162
 20
209.64805832287004
 30
0.0
 10
-109.28124327865702
 20
209.58599173947715
 30
0.0
 10
-109.29639641866241
 20
209.52392515608426
 30
0.0
  0
SPLINE
  5
40
100
AcDbEntity
  8
0
370
              15
  6
Continuous
 62
               7
100
AcDbSpline
210
0.0
220
0.0
230
1.0
 70
               8
 71
               2
 72
              13
 73
              10
 74
               0
 42
0.000001
 43
0.000001
 40
0.0
 40
0.0
 40
0.0
 40
1.0
 40
1.0
 40
2.0
 40
3.0
 40
4.0
 40
5.0
 40
5.0
 40
6.0
 40
6.0
 40
6.0
 10
-99.766394402087812
 20
229.8322298805416
 30
0.0
 10
-99.775715899951976
 20
229.82038110057726
 30
0.0
 10
-99.78503739781614
 20
229.80853232061293
 30
0.0
 10
-100.63044314334745
 20
228.75086329611906
 30
0.0
 10
-102.86078539961788
 20
225.48248067386544
 30
0.0
 10
-104.53384719446119
 20
222.410413889084
 30
0.0
 10
-105.30942388590442
 20
220.79989300893669
 30
0.0
 10
-105.70704063657284
 20
219.92924424903254
 30
0.0
 10
-105.72035284448027
 20
219.9002458927767
 30
0.0
 10
-105.73366505238771
 20
219.87124753652085
 30
0.0
  0
SPLINE
  5
41
100
AcDbEntity
  8
0
370
              15
  6
Continuous
 62
               7
100
AcDbSpline
210
0.0
220
0.0
230
1.0
 70
               8
 71
               2
 72
              16
 73
              13
 74
               0
 42
0.000001
 43
0.000001
 40
0.0
 40
0.0
 40
0.0
 40
1.0
 40
1.0
 40
2.0
 40
3.0
 40
4.0
 40
5.0
 40
6.0
 40
7.0
 40
8.0
 40
8.0
 40
9.0
 40
9.0
 40
9.0
 10
-33.427904461639955
 20
248.32059431415144
 30
0.0
 10
-33.427904624337472
 20
248.32059413121402
 30
0.0
 10
-33.42790478703499
 20
248.32059394827661
 30
0.0
 10
-33.431658629169462
 20
248.32191576593766
 30
0.0
 10
-33.529632530822184
 20
248.37881621496399
 30
0.0
 10
-33.7065924438064
 20
248.4789439842308
 30
0.0
 10
-33.934583004691021
 20
248.60576568761655
 30
0.0
 10
-34.193694852556845
 20
248.73687326694358
 30
0.0
 10
-34.424628958991249
 20
248.84191850019806
 30
0.0
 10
-34.569982283753959
 20
248.92650601754235
 30
0.0
 10
-34.607414157682783
 20
248.94871031966113
 30
0.0
 10
-34.608662690419365
 20
248.94944933241788
 30
0.0
 10
-34.609911223155947
 20
248.95018834517464
 30
0.0
  0
SPLINE
  5
42
100
AcDbEntity
  8
0
370
              15
  6
Continuous
 62
               7
100
AcDbSpline
210
0.0
220
0.0
230
1.0
 70
               8
 71
               2
 72
              19
 73
              16
 74
               0
 42
0.000001
 43
0.000001
 40
0.0
 40
0.0
 40
0.0
 40
1.0
 40
1.0
 40
2.0
 40
3.0
 40
4.0
 40
5.0
 40
6.0
 40
7.0
 40
8.0
 40
9.0
 40
10.0
 40
11.0
 40
11.0
 40
12.0
 40
12.0
 40
12.0
 10
-30.43659311216031
 20
245.67785013140349
 30
0.0
 10
-30.454068130688356
 20
245.69656024759649
 30
0.0
 10
-30.471543149216402
 20
245.7152703637895
 30
0.0
 10
-30.993886146799852
 20
246.28014271014672
 30
0.0
 10
-32.485562856068086
 20
247.77150202272583
 30
0.0
 10
-34.246218251982597
 20
249.15881332506626
 30
0.0
 10
-35.171266810783422
 20
249.83373185491268
 30
0.0
 10
-36.133682392311741
 20
250.5049197658243
 30
0.0
 10
-37.360472840762711
 20
251.27801040995064
 30
0.0
 10
-38.04407555314917
 20
251.7037337884517
 30
0.0
 10
-38.417405299174149
 20
251.92010097784703
 30
0.0
 10
-38.618700094794278
 20
252.02967274137518
 30
0.0
 10
-38.714269344361796
 20
252.07022930804283
 30
0.0
 10
-38.709462389245786
 20
252.06029171704677
 30
0.0
 10
-38.7094392291704
 20
252.06021498933546
 30
0.0
 10
-38.709416069095013
 20
252.06013826162416
 30
0.0
  0
SPLINE
  5
43
100
AcDbEntity
  8
0
370
              15
  6
Continuous
 62
               7
100
AcDbSpline
210
0.0
220
0.0
230
1.0
 70
               8
 71
               2
 72
              18
 73
              15
 74
               0
 42
0.000001
 43
0.000001
 40
0.0
 40
0.0
 40
0.0
 40
1.0
 40
1.0
 40
2.0
 40
3.0
 40
4.0
 40
5.0
 40
6.0
 40
7.0
 40
8.0
 40
9.0
 40
10.0
 40
10.0
 40
11.0
 40
11.0
 40
11.0
 10
-41.436396697424115
 20
253.49832491778932
 30
0.0
 10
-41.43606527463011
 20
253.49913018856842
 30
0.0
 10
-41.435733851836105
 20
253.49993545934751
 30
0.0
 10
-41.424803826779836
 20
253.52443750574218
 30
0.0
 10
-41.41873053268084
 20
253.55690535137649
 30
0.0
 10
-41.423979845611186
 20
253.57715125976279
 30
0.0
 10
-41.442441946954816
 20
253.5927947247983
 30
0.0
 10
-41.494012651922887
 20
253.60674495632088
 30
0.0
 10
-41.609485916672313
 20
253.60022060847632
 30
0.0
 10
-41.720471845018253
 20
253.58720453489889
 30
0.0
 10
-41.849283736186393
 20
253.56797909949046
 30
0.0
 10
-42.044717544595173
 20
253.5351635602201
 30
0.0
 10
-42.186390169510716
 20
253.50985556790783
 30
0.0
 10
-42.191084333308126
 20
253.50902181100651
 30
0.0
 10
-42.195778497105536
 20
253.50818805410518
 30
0.0
  0
LINE
  5
44
100
AcDbEntity
  8
0
370
              15
  6
Continuous
 62
               7
100
AcDbLine
 10
-46.67048213546893
 20
255.56283442979998
 30
0.0
 11
-46.583640597968937
 21
255.78499956569999
 31
0.0
  0
SPLINE
  5
45
100
AcDbEntity
  8
0
370
              15
  6
Continuous
 62
               7
100
AcDbSpline
210
0.0
220
0.0
230
1.0
 70
               8
 71
               2
 72
              16
 73
              13
 74
               0
 42
0.000001
 43
0.000001
 40
0.0
 40
0.0
 40
0.0
 40
1.0
 40
1.0
 40
2.0
 40
3.0
 40
4.0
 40
5.0
 40
6.0
 40
7.0
 40
8.0
 40
8.0
 40
9.0
 40
9.0
 40
9.0
 10
-51.496011625170226
 20
257.84164174099817
 30
0.0
 10
-51.512122026462421
 20
257.8461369264939
 30
0.0
 10
-51.528232427754617
 20
257.85063211198963
 30
0.0
 10
-52.690096509969223
 20
258.1841747582705
 30
0.0
 10
-54.841813995165964
 20
258.57779971419654
 30
0.0
 10
-57.01281209485289
 20
258.90550899205653
 30
0.0
 10
-58.674653764398542
 20
259.02950158532576
 30
0.0
 10
-59.892631462014421
 20
259.08608437867815
 30
0.0
 10
-61.834689414045485
 20
259.13552905126085
 30
0.0
 10
-64.06784651599564
 20
259.02317619061034
 30
0.0
 10
-65.112533002383017
 20
258.93712880532473
 30
0.0
 10
-65.147381564793918
 20
258.93436907662971
 30
0.0
 10
-65.182230127204818
 20
258.93160934793468
 30
0.0
  0
SPLINE
  5
46
100
AcDbEntity
  8
0
370
              15
  6
Continuous
 62
               7
100
AcDbSpline
210
0.0
220
0.0
230
1.0
 70
               8
 71
               2
 72
              16
 73
              13
 74
               0
 42
0.000001
 43
0.000001
 40
0.0
 40
0.0
 40
0.0
 40
1.0
 40
1.0
 40
2.0
 40
3.0
 40
4.0
 40
5.0
 40
6.0
 40
7.0
 40
8.0
 40
8.0
 40
9.0
 40
9.0
 40
9.0
 10
-17.307689856775639
 20
222.95613624277735
 30
0.0
 10
-17.333883277809477
 20
223.03024109084271
 30
0.0
 10
-17.360076698843315
 20
223.10434593890807
 30
0.0
 10
-18.524967909102131
 20
226.54322086675018
 30
0.0
 10
-21.231666763724022
 20
231.92027986826884
 30
0.0
 10
-23.052572703181269
 20
235.09113303364711
 30
0.0
 10
-24.365247573341478
 20
237.27565829284936
 30
0.0
 10
-25.323869360727642
 20
238.7675432901292
 30
0.0
 10
-26.592374839201383
 20
240.62651402359666
 30
0.0
 10
-28.609046124317317
 20
243.45824477409246
 30
0.0
 10
-29.734549739752069
 20
244.79445378539208
 30
0.0
 10
-29.75807122368856
 20
244.82269046745358
 30
0.0
 10
-29.781592707625052
 20
244.85092714951509
 30
0.0
  0
LINE
  5
47
100
AcDbEntity
  8
0
370
              15
  6
Continuous
 62
               7
100
AcDbLine
 10
-30.082600851768902
 20
245.22168930969997
 30
0.0
 11
-30.601513980468937
 21
245.86085014679998
 31
0.0
  0
SPLINE
  5
48
100
AcDbEntity
  8
0
370
              15
  6
Continuous
 62
               7
100
AcDbSpline
210
0.0
220
0.0
230
1.0
 70
               8
 71
               2
 72
              18
 73
              15
 74
               0
 42
0.000001
 43
0.000001
 40
0.0
 40
0.0
 40
0.0
 40
1.0
 40
1.0
 40
2.0
 40
3.0
 40
4.0
 40
5.0
 40
6.0
 40
7.0
 40
8.0
 40
9.0
 40
10.0
 40
10.0
 40
11.0
 40
11.0
 40
11.0
 10
-65.182230127204818
 20
258.93160934793468
 30
0.0
 10
-65.21490388908461
 20
258.9272082319946
 30
0.0
 10
-65.247577650964416
 20
258.92280711605451
 30
0.0
 10
-67.254392201473451
 20
258.67111147200359
 30
0.0
 10
-72.612230318165885
 20
257.21270272620922
 30
0.0
 10
-76.986030620067424
 20
255.61038100583181
 30
0.0
 10
-79.624683149807822
 20
254.60995178759021
 30
0.0
 10
-84.484322817816576
 20
252.36753889233458
 30
0.0
 10
-91.735338046350819
 20
247.90686069734952
 30
0.0
 10
-101.66171627282154
 20
239.39390591621125
 30
0.0
 10
-107.51232225859481
 20
231.92711184492276
 30
0.0
 10
-109.78456674703355
 20
229.084903928008
 30
0.0
 10
-110.82505349869089
 20
227.45534943729837
 30
0.0
 10
-110.85099301725896
 20
227.41538447177655
 30
0.0
 10
-110.87693253582704
 20
227.37541950625473
 30
0.0
  0
SPLINE
  5
49
100
AcDbEntity
  8
0
370
              15
  6
Continuous
 62
               7
100
AcDbSpline
210
0.0
220
0.0
230
1.0
 70
               8
 71
               2
 72
              11
 73
               8
 74
               0
 42
0.000001
 43
0.000001
 40
0.0
 40
0.0
 40
0.0
 40
1.0
 40
1.0
 40
2.0
 40
3.0
 40
3.0
 40
4.0
 40
4.0
 40
4.0
 10
-47.045992443596319
 20
256.62474046061118
 30
0.0
 10
-47.060055269800429
 20
256.62839051254599
 30
0.0
 10
-47.07411809600454
 20
256.6320405644808
 30
0.0
 10
-48.43472033166033
 20
256.98161678601275
 30
0.0
 10
-50.498404747073934
 20
257.56462468559744
 30
0.0
 10
-51.319233379375689
 20
257.80251502963552
 30
0.0
 10
-51.346614090211503
 20
257.81043412116304
 30
0.0
 10
-51.373994801047317
 20
257.81835321269057
 30
0.0
  0
LINE
  5
4A
100
AcDbEntity
  8
0
370
              15
  6
Continuous
 62
               7
100
AcDbLine
 10
-18.320228341568949
 20
195.13949580840006
 30
0.0
 11
-16.158524401668942
 21
195.20158877489996
 31
0.0
  0
POLYLINE
  5
4B
100
AcDbEntity
  8
0
370
              15
  6
Continuous
 62
               7
100
AcDb2dPolyline
 66
               1
 10
0.0
 20
0.0
 30
0.0
 75
               5
  0
VERTEX
  5
4C
100
AcDbEntity
  8
0
370
              15
  6
Continuous
 62
               7
100
AcDbVertex
100
AcDb2dVertex
 10
-42.050687716668946
 20
253.94160003510001
 30
0.0
  0
VERTEX
  5
4D
100
AcDbEntity
  8
0
370
              15
  6
Continuous
 62
               7
100
AcDbVertex
100
AcDb2dVertex
 10
-44.403168442068917
 20
254.8472112096
 30
0.0
  0
VERTEX
  5
4E
100
AcDbEntity
  8
0
370
              15
  6
Continuous
 62
               7
100
AcDbVertex
100
AcDb2dVertex
 10
-46.61704960356893
 20
255.69953342389999
 30
0.0
  0
SEQEND
  5
4F
100
AcDbEntity
  8
0
370
              15
  6
Continuous
 62
               7
  0
SPLINE
  5
50
100
AcDbEntity
  8
0
370
              15
  6
Continuous
 62
               7
100
AcDbSpline
210
0.0
220
0.0
230
1.0
 70
               8
 71
               2
 72
              14
 73
              11
 74
               0
 42
0.000001
 43
0.000001
 40
0.0
 40
0.0
 40
0.0
 40
1.0
 40
1.0
 40
2.0
 40
3.0
 40
4.0
 40
5.0
 40
6.0
 40
6.0
 40
7.0
 40
7.0
 40
7.0
 10
-15.596374216962701
 20
195.2879578010037
 30
0.0
 10
-15.584584890880578
 20
195.38446653530974
 30
0.0
 10
-15.572795564798454
 20
195.48097526961578
 30
0.0
 10
-15.302673065043436
 20
197.60207509187705
 30
0.0
 10
-14.71299858221623
 20
203.75812926792787
 30
0.0
 10
-14.9052389846875
 20
210.58792311018988
 30
0.0
 10
-15.497695935777628
 20
215.66760737652567
 30
0.0
 10
-16.709173725022865
 20
221.20970127969463
 30
0.0
 10
-17.751822011956548
 20
224.27585111160806
 30
0.0
 10
-17.773734500705345
 20
224.34247496613204
 30
0.0
 10
-17.795646989454141
 20
224.40909882065603
 30
0.0
  0
SPLINE
  5
51
100
AcDbEntity
  8
0
370
              15
  6
Continuous
 62
               7
100
AcDbSpline
210
0.0
220
0.0
230
1.0
 70
               8
 71
               2
 72
              17
 73
              14
 74
               0
 42
0.000001
 43
0.000001
 40
0.0
 40
0.0
 40
0.0
 40
1.0
 40
1.0
 40
2.0
 40
3.0
 40
4.0
 40
5.0
 40
6.0
 40
7.0
 40
8.0
 40
9.0
 40
9.0
 40
10.0
 40
10.0
 40
10.0
 10
-46.584696312844855
 20
255.78930522870155
 30
0.0
 10
-46.584175420914775
 20
255.79244349410163
 30
0.0
 10
-46.583654528984695
 20
255.79558175950172
 30
0.0
 10
-46.56954234579068
 20
255.8774412747141
 30
0.0
 10
-46.554422154439905
 20
256.00031385771172
 30
0.0
 10
-46.55079398064008
 20
256.09467382173511
 30
0.0
 10
-46.559254386206291
 20
256.18341189397711
 30
0.0
 10
-46.597135056307977
 20
256.30700426589965
 30
0.0
 10
-46.690554164624061
 20
256.39794332755559
 30
0.0
 10
-46.788858961069749
 20
256.47076073532344
 30
0.0
 10
-46.904641287755325
 20
256.53545007604316
 30
0.0
 10
-46.948827457891909
 20
256.55935150830464
 30
0.0
 10
-46.95127843882652
 20
256.56068113580091
 30
0.0
 10
-46.953729419761132
 20
256.56201076329717
 30
0.0
  0
SPLINE
  5
52
100
AcDbEntity
  8
0
370
              15
  6
Continuous
 62
               7
100
AcDbSpline
210
0.0
220
0.0
230
1.0
 70
               8
 71
               2
 72
              19
 73
              16
 74
               0
 42
0.000001
 43
0.000001
 40
0.0
 40
0.0
 40
0.0
 40
1.0
 40
1.0
 40
2.0
 40
3.0
 40
4.0
 40
5.0
 40
6.0
 40
7.0
 40
8.0
 40
9.0
 40
10.0
 40
11.0
 40
11.0
 40
12.0
 40
12.0
 40
12.0
 10
-53.703536963899907
 20
263.15804245259221
 30
0.0
 10
-53.704399854183478
 20
263.15632366523386
 30
0.0
 10
-53.705262744467049
 20
263.1546048778755
 30
0.0
 10
-53.907664174767703
 20
262.74274980931136
 30
0.0
 10
-54.31157357043223
 20
262.28186812288959
 30
0.0
 10
-54.755355793106034
 20
261.83719054702033
 30
0.0
 10
-55.269047061137869
 20
261.41758485181367
 30
0.0
 10
-55.664134057360613
 20
261.15188685397902
 30
0.0
 10
-56.036350277100937
 20
260.94925020708206
 30
0.0
 10
-56.437630833726914
 20
260.77135616843634
 30
0.0
 10
-56.654869505133931
 20
260.70570552744243
 30
0.0
 10
-56.806138241356891
 20
260.66581125418361
 30
0.0
 10
-56.802542942364127
 20
260.66649137347065
 30
0.0
 10
-56.796878596698988
 20
260.66752009408833
 30
0.0
 10
-56.796706064495012
 20
260.66755066624495
 30
0.0
 10
-56.796533532291036
 20
260.66758123840157
 30
0.0
  0
SPLINE
  5
53
100
AcDbEntity
  8
0
370
              15
  6
Continuous
 62
               7
100
AcDbSpline
210
0.0
220
0.0
230
1.0
 70
               8
 71
               2
 72
              17
 73
              14
 74
               0
 42
0.000001
 43
0.000001
 40
0.0
 40
0.0
 40
0.0
 40
1.0
 40
1.0
 40
2.0
 40
3.0
 40
4.0
 40
5.0
 40
6.0
 40
7.0
 40
8.0
 40
9.0
 40
9.0
 40
10.0
 40
10.0
 40
10.0
 10
-34.950825156565301
 20
252.11275097321573
 30
0.0
 10
-34.951119331592068
 20
252.11312202712111
 30
0.0
 10
-34.951413506618835
 20
252.11349308102649
 30
0.0
 10
-34.959466974949507
 20
252.1232683768751
 30
0.0
 10
-35.004077542003003
 20
252.18095325920308
 30
0.0
 10
-35.22666649156649
 20
252.57874552059752
 30
0.0
 10
-35.414718148357323
 20
253.07721669623334
 30
0.0
 10
-35.560404540743193
 20
253.58062068996992
 30
0.0
 10
-35.678478480085047
 20
254.380560921285
 30
0.0
 10
-35.698032555152324
 20
255.05439215621243
 30
0.0
 10
-35.678086156687627
 20
255.64412985360605
 30
0.0
 10
-35.554668587291687
 20
256.06549659957102
 30
0.0
 10
-35.554173545001717
 20
256.06723720021847
 30
0.0
 10
-35.553678502711747
 20
256.06897780086592
 30
0.0
  0
SPLINE
  5
54
100
AcDbEntity
  8
0
370
              15
  6
Continuous
 62
               7
100
AcDbSpline
210
0.0
220
0.0
230
1.0
 70
               8
 71
               2
 72
              16
 73
              13
 74
               0
 42
0.000001
 43
0.000001
 40
0.0
 40
0.0
 40
0.0
 40
1.0
 40
1.0
 40
2.0
 40
3.0
 40
4.0
 40
5.0
 40
6.0
 40
7.0
 40
8.0
 40
8.0
 40
9.0
 40
9.0
 40
9.0
 10
-58.542300736483455
 20
260.50434658081724
 30
0.0
 10
-58.545109596489866
 20
260.50382760206338
 30
0.0
 10
-58.547918456496276
 20
260.50330862330952
 30
0.0
 10
-58.632308967383935
 20
260.48786696662262
 30
0.0
 10
-58.981971300922325
 20
260.4205202907732
 30
0.0
 10
-59.42415534677211
 20
260.26073346469161
 30
0.0
 10
-59.9936312106842
 20
259.97412763955572
 30
0.0
 10
-60.446920771160521
 20
259.60319193629698
 30
0.0
 10
-60.616068874530626
 20
259.42111649510241
 30
0.0
 10
-60.759833396390533
 20
259.20610662804438
 30
0.0
 10
-60.814390608781238
 20
259.0496394041096
 30
0.0
 10
-60.814846373748438
 20
259.04841928371155
 30
0.0
 10
-60.815302138715637
 20
259.04719916331351
 30
0.0
  0
SPLINE
  5
55
100
AcDbEntity
  8
0
370
              15
  6
Continuous
 62
               7
100
AcDbSpline
210
0.0
220
0.0
230
1.0
 70
               8
 71
               2
 72
              16
 73
              13
 74
               0
 42
0.000001
 43
0.000001
 40
0.0
 40
0.0
 40
0.0
 40
1.0
 40
1.0
 40
2.0
 40
3.0
 40
4.0
 40
5.0
 40
6.0
 40
7.0
 40
8.0
 40
8.0
 40
9.0
 40
9.0
 40
9.0
 10
-33.161620160862853
 20
248.08597456039445
 30
0.0
 10
-33.160820260878793
 20
248.08775991814758
 30
0.0
 10
-33.160020360894734
 20
248.08954527590072
 30
0.0
 10
-33.115266997882244
 20
248.18554881116142
 30
0.0
 10
-33.02153130190031
 20
248.45204232584251
 30
0.0
 10
-33.007573074952845
 20
248.73463762952679
 30
0.0
 10
-33.018687068754431
 20
248.93695162306597
 30
0.0
 10
-33.064500147008786
 20
249.30610682291365
 30
0.0
 10
-33.218444345216639
 20
249.85006288255818
 30
0.0
 10
-33.48622157111167
 20
250.35019188788795
 30
0.0
 10
-33.628508473724693
 20
250.57977567187106
 30
0.0
 10
-33.631556351538663
 20
250.58477015200356
 30
0.0
 10
-33.634604229352632
 20
250.58976463213605
 30
0.0
  0
LINE
  5
56
100
AcDbEntity
  8
0
370
              15
  6
Continuous
 62
               7
100
AcDbLine
 10
-50.677553665268917
 20
257.62079692580005
 30
0.0
 11
-51.603307398368926
 21
257.90092232519999
 31
0.0
  0
LINE
  5
57
100
AcDbEntity
  8
0
370
              15
  6
Continuous
 62
               7
100
AcDbLine
 10
-35.572354806168946
 20
256.06737488249996
 30
0.0
 11
-34.9556977257689
 21
259.27083940950001
 31
0.0
  0
LINE
  5
58
100
AcDbEntity
  8
0
370
              15
  6
Continuous
 62
               7
100
AcDbLine
 10
-51.96771170656892
 20
265.91930856960005
 30
0.0
 11
-53.68633164546894
 21
263.14783171390002
 31
0.0
  0
SPLINE
  5
59
100
AcDbEntity
  8
0
370
              15
  6
Continuous
 62
               7
100
AcDbSpline
210
0.0
220
0.0
230
1.0
 70
               8
 71
               2
 72
              16
 73
              13
 74
               0
 42
0.000001
 43
0.000001
 40
0.0
 40
0.0
 40
0.0
 40
1.0
 40
1.0
 40
2.0
 40
3.0
 40
4.0
 40
5.0
 40
6.0
 40
7.0
 40
8.0
 40
8.0
 40
9.0
 40
9.0
 40
9.0
 10
-42.348423985446217
 20
265.4428963770323
 30
0.0
 10
-42.368463517102228
 20
265.45036157916377
 30
0.0
 10
-42.388503048758238
 20
265.45782678129524
 30
0.0
 10
-43.428016956179633
 20
265.85846424131807
 30
0.0
 10
-45.565726382213356
 20
266.5105754022519
 30
0.0
 10
-47.43085962343126
 20
266.88208559537827
 30
0.0
 10
-49.425458366834661
 20
267.08773621063176
 30
0.0
 10
-50.652521615564908
 20
266.84050191075028
 30
0.0
 10
-51.202037323965939
 20
266.62782342487412
 30
0.0
 10
-51.767029950657431
 20
266.26369294868005
 30
0.0
 10
-51.917626660044945
 20
265.9507048366263
 30
0.0
 10
-51.91868540316959
 20
265.9485906551663
 30
0.0
 10
-51.919744146294235
 20
265.9464764737063
 30
0.0
  0
SPLINE
  5
5A
100
AcDbEntity
  8
0
370
              15
  6
Continuous
 62
               7
100
AcDbSpline
210
0.0
220
0.0
230
1.0
 70
               8
 71
               2
 72
              12
 73
               9
 74
               0
 42
0.000001
 43
0.000001
 40
0.0
 40
0.0
 40
0.0
 40
1.0
 40
1.0
 40
2.0
 40
3.0
 40
4.0
 40
4.0
 40
5.0
 40
5.0
 40
5.0
 10
-38.702655693349342
 20
263.69030946040675
 30
0.0
 10
-38.706806250814779
 20
263.69279554637376
 30
0.0
 10
-38.710956808280216
 20
263.69528163234077
 30
0.0
 10
-39.25499553649415
 20
264.02456271218205
 30
0.0
 10
-40.673631264133391
 20
264.74446044209753
 30
0.0
 10
-41.917112072347479
 20
265.26721042385384
 30
0.0
 10
-42.321491956267877
 20
265.43189455539391
 30
0.0
 10
-42.334957970857047
 20
265.4373954662131
 30
0.0
 10
-42.348423985446217
 20
265.4428963770323
 30
0.0
  0
SPLINE
  5
5B
100
AcDbEntity
  8
0
370
              15
  6
Continuous
 62
               7
100
AcDbSpline
210
0.0
220
0.0
230
1.0
 70
               8
 71
               2
 72
              17
 73
              14
 74
               0
 42
0.000001
 43
0.000001
 40
0.0
 40
0.0
 40
0.0
 40
1.0
 40
1.0
 40
2.0
 40
3.0
 40
4.0
 40
5.0
 40
6.0
 40
7.0
 40
8.0
 40
9.0
 40
9.0
 40
10.0
 40
10.0
 40
10.0
 10
-34.988335242386526
 20
259.26277927424042
 30
0.0
 10
-34.987387995193146
 20
259.2688508918215
 30
0.0
 10
-34.986440747999765
 20
259.27492250940259
 30
0.0
 10
-34.9498870145366
 20
259.48200216844214
 30
0.0
 10
-34.926474478540499
 20
259.9291418268449
 30
0.0
 10
-35.036023591870318
 20
260.28559204033479
 30
0.0
 10
-35.184240734088789
 20
260.62656679827819
 30
0.0
 10
-35.643907795957645
 20
261.3733758291005
 30
0.0
 10
-36.787795902040145
 20
262.45126778445774
 30
0.0
 10
-37.953534345251612
 20
263.25244741623965
 30
0.0
 10
-38.513837374485135
 20
263.58171016723099
 30
0.0
 10
-38.690870770382432
 20
263.68351941333935
 30
0.0
 10
-38.696763231865887
 20
263.68691443687305
 30
0.0
 10
-38.702655693349342
 20
263.69030946040675
 30
0.0
  0
LINE
  5
5C
100
AcDbEntity
  8
0
370
              15
  6
Continuous
 62
               7
100
AcDbLine
 10
-107.38170153996894
 20
221.52977835800004
 30
0.0
 11
-105.44412172136894
 21
220.27587129309995
 31
0.0
  0
LINE
  5
5D
100
AcDbEntity
  8
0
370
              15
  6
Continuous
 62
               7
100
AcDbLine
 10
-36.215441107668923
 20
261.9053146668
 30
0.0
 11
-28.692126378568943
 21
281.15225594130004
 31
0.0
  0
LINE
  5
5E
100
AcDbEntity
  8
0
370
              15
  6
Continuous
 62
               7
100
AcDbLine
 10
-41.731387694368934
 20
286.24908940089995
 30
0.0
 11
-49.2539208941689
 21
267.00414481749999
 31
0.0
  0
SPLINE
  5
5F
100
AcDbEntity
  8
0
370
              15
  6
Continuous
 62
               7
100
AcDbSpline
210
0.0
220
0.0
230
1.0
 70
               8
 71
               2
 72
              14
 73
              11
 74
               0
 42
0.000001
 43
0.000001
 40
0.0
 40
0.0
 40
0.0
 40
1.0
 40
1.0
 40
2.0
 40
3.0
 40
4.0
 40
5.0
 40
6.0
 40
6.0
 40
7.0
 40
7.0
 40
7.0
 10
-28.695721462707738
 20
281.14327821735787
 30
0.0
 10
-28.666797513216622
 20
281.21281166511619
 30
0.0
 10
-28.637873563725506
 20
281.28234511287451
 30
0.0
 10
-28.006639693583722
 20
282.81800198736175
 30
0.0
 10
-26.425992161078327
 20
286.38529654453714
 30
0.0
 10
-23.671028539299343
 20
291.27430886405932
 30
0.0
 10
-19.132197254557511
 20
297.18806365837486
 30
0.0
 10
-15.775872857024396
 20
299.60288949281312
 30
0.0
 10
-15.095457286596613
 20
300.05132030351183
 30
0.0
 10
-15.064528878947257
 20
300.07185258699457
 30
0.0
 10
-15.033600471297902
 20
300.0923848704773
 30
0.0
  0
SPLINE
  5
60
100
AcDbEntity
  8
0
370
              15
  6
Continuous
 62
               7
100
AcDbSpline
210
0.0
220
0.0
230
1.0
 70
               8
 71
               2
 72
              14
 73
              11
 74
               0
 42
0.000001
 43
0.000001
 40
0.0
 40
0.0
 40
0.0
 40
1.0
 40
1.0
 40
2.0
 40
3.0
 40
4.0
 40
5.0
 40
6.0
 40
6.0
 40
7.0
 40
7.0
 40
7.0
 10
-22.302935679651327
 20
312.05718771487943
 30
0.0
 10
-22.360847796684553
 20
312.01904503104663
 30
0.0
 10
-22.418759913717778
 20
311.98090234721383
 30
0.0
 10
-23.229997559266778
 20
311.44887688202539
 30
0.0
 10
-27.403473261559029
 20
308.57901399068942
 30
0.0
 10
-34.767899497656501
 20
300.3628084421116
 30
0.0
 10
-39.026359766755192
 20
292.43186846031142
 30
0.0
 10
-40.722181538032416
 20
288.68381602894215
 30
0.0
 10
-41.64355907205065
 20
286.45974345698926
 30
0.0
 10
-41.685675841150029
 20
286.35890529089869
 30
0.0
 10
-41.727792610249409
 20
286.25806712480812
 30
0.0
  0
LINE
  5
61
100
AcDbEntity
  8
0
370
              15
  6
Continuous
 62
               7
100
AcDbLine
 10
-15.033600471268912
 20
300.09238487050004
 30
0.0
 11
-12.795308955068933
 21
301.1618246301
 31
0.0
  0
SPLINE
  5
62
100
AcDbEntity
  8
0
370
              15
  6
Continuous
 62
               7
100
AcDbSpline
210
0.0
220
0.0
230
1.0
 70
               8
 71
               2
 72
              13
 73
              10
 74
               0
 42
0.000001
 43
0.000001
 40
0.0
 40
0.0
 40
0.0
 40
1.0
 40
1.0
 40
2.0
 40
3.0
 40
4.0
 40
5.0
 40
5.0
 40
6.0
 40
6.0
 40
6.0
 10
-16.885210795110126
 20
314.55007000558339
 30
0.0
 10
-16.910612764641414
 20
314.54120092953849
 30
0.0
 10
-16.936014734172701
 20
314.53233185349359
 30
0.0
 10
-17.596991145461331
 20
314.30401882086358
 30
0.0
 10
-19.211076036235724
 20
313.7050730969479
 30
0.0
 10
-20.69159541989761
 20
312.95655803148168
 30
0.0
 10
-21.684480304916448
 20
312.40871054361673
 30
0.0
 10
-22.241076468501305
 20
312.09228056127438
 30
0.0
 10
-22.272006074076316
 20
312.07473413807691
 30
0.0
 10
-22.302935679651327
 20
312.05718771487943
 30
0.0
  0
SPLINE
  5
63
100
AcDbEntity
  8
0
370
              15
  6
Continuous
 62
               7
100
AcDbSpline
210
0.0
220
0.0
230
1.0
 70
               8
 71
               2
 72
              14
 73
              11
 74
               0
 42
0.000001
 43
0.000001
 40
0.0
 40
0.0
 40
0.0
 40
1.0
 40
1.0
 40
2.0
 40
3.0
 40
4.0
 40
5.0
 40
6.0
 40
6.0
 40
7.0
 40
7.0
 40
7.0
 10
-12.79530895505404
 20
301.16182463009011
 30
0.0
 10
-12.767120016437801
 20
301.16996844787718
 30
0.0
 10
-12.738931077821562
 20
301.17811226566425
 30
0.0
 10
-12.006889450606693
 20
301.3955397609077
 30
0.0
 10
-10.870775840263988
 20
301.66540112006646
 30
0.0
 10
-9.8196847774512861
 20
301.81193682603293
 30
0.0
 10
-8.7297635100826909
 20
301.80814865395951
 30
0.0
 10
-7.7455964055376256
 20
301.73896440538192
 30
0.0
 10
-7.1899298023197247
 20
301.68650923870996
 30
0.0
 10
-7.1590677150653192
 20
301.68364914810252
 30
0.0
 10
-7.1282056278109138
 20
301.68078905749508
 30
0.0
  0
SPLINE
  5
64
100
AcDbEntity
  8
0
370
              15
  6
Continuous
 62
               7
100
AcDbSpline
210
0.0
220
0.0
230
1.0
 70
               8
 71
               2
 72
              16
 73
              13
 74
               0
 42
0.000001
 43
0.000001
 40
0.0
 40
0.0
 40
0.0
 40
1.0
 40
1.0
 40
2.0
 40
3.0
 40
4.0
 40
5.0
 40
6.0
 40
7.0
 40
8.0
 40
8.0
 40
9.0
 40
9.0
 40
9.0
 10
23.606568568411788
 20
267.1666390605983
 30
0.0
 10
23.599548504864657
 20
267.31521909307969
 30
0.0
 10
23.59252844131753
 20
267.46379912556102
 30
0.0
 10
23.497513999398357
 20
269.54565464430937
 30
0.0
 10
22.868693530630715
 20
279.12535768304321
 30
0.0
 10
19.19060103534699
 20
293.39774195237692
 30
0.0
 10
14.242316840391089
 20
302.42278768162294
 30
0.0
 10
9.2863480696926732
 20
308.83263439622249
 30
0.0
 10
1.4346364492899504
 20
314.44383270787222
 30
0.0
 10
-3.9383313577017525
 20
315.76634668008506
 30
0.0
 10
-4.9352922891505955
 20
315.97726926729433
 30
0.0
 10
-5.0064858513279269
 20
315.99245079954932
 30
0.0
 10
-5.0776794135052583
 20
316.0076323318043
 30
0.0
  0
SPLINE
  5
65
100
AcDbEntity
  8
0
370
              15
  6
Continuous
 62
               7
100
AcDbSpline
210
0.0
220
0.0
230
1.0
 70
               8
 71
               2
 72
              14
 73
              11
 74
               0
 42
0.000001
 43
0.000001
 40
0.0
 40
0.0
 40
0.0
 40
1.0
 40
1.0
 40
2.0
 40
3.0
 40
4.0
 40
5.0
 40
6.0
 40
6.0
 40
7.0
 40
7.0
 40
7.0
 10
-4.5769445339059605
 20
315.83012266942427
 30
0.0
 10
-4.6106463262806523
 20
315.83386483854076
 30
0.0
 10
-4.6443481186553441
 20
315.83760700765731
 30
0.0
 10
-5.6535405365165445
 20
315.95709835154901
 30
0.0
 10
-7.7632909096029881
 20
316.10792260509947
 30
0.0
 10
-10.864438057746685
 20
315.95210435709663
 30
0.0
 10
-13.772932847996731
 20
315.35144521540184
 30
0.0
 10
-15.686802772440114
 20
314.87068666083394
 30
0.0
 10
-16.76538478537687
 20
314.58199936776822
 30
0.0
 10
-16.825297790243496
 20
314.56603468667583
 30
0.0
 10
-16.885210795110126
 20
314.55007000558339
 30
0.0
  0
SPLINE
  5
66
100
AcDbEntity
  8
0
370
              15
  6
Continuous
 62
               7
100
AcDbSpline
210
0.0
220
0.0
230
1.0
 70
               8
 71
               2
 72
              16
 73
              13
 74
               0
 42
0.000001
 43
0.000001
 40
0.0
 40
0.0
 40
0.0
 40
1.0
 40
1.0
 40
2.0
 40
3.0
 40
4.0
 40
5.0
 40
6.0
 40
7.0
 40
8.0
 40
8.0
 40
9.0
 40
9.0
 40
9.0
 10
-7.1282056278105159
 20
301.68078905749496
 30
0.0
 10
-7.097650767097619
 20
301.67402446699992
 30
0.0
 10
-7.0670959063847221
 20
301.66725987650489
 30
0.0
 10
-6.0557553271450928
 20
301.47386108452906
 30
0.0
 10
-3.9861944447449531
 20
300.6962968193443
 30
0.0
 10
0.0898222459752702
 20
298.02907541407205
 30
0.0
 10
3.8171688207020935
 20
292.31454307669947
 30
0.0
 10
6.4220212280992683
 20
286.63247946735191
 30
0.0
 10
8.8244635775507305
 20
277.64368098438285
 30
0.0
 10
9.4806708672025053
 20
269.63054838142159
 30
0.0
 10
9.6002512416713017
 20
267.02579323689622
 30
0.0
 10
9.6060213442190872
 20
266.90761356832627
 30
0.0
 10
9.6117914467668726
 20
266.78943389975632
 30
0.0
  0
SPLINE
  5
67
100
AcDbEntity
  8
0
370
              15
  6
Continuous
 62
               7
100
AcDbSpline
210
0.0
220
0.0
230
1.0
 70
               8
 71
               2
 72
              11
 73
               8
 74
               0
 42
0.000001
 43
0.000001
 40
0.0
 40
0.0
 40
0.0
 40
1.0
 40
1.0
 40
2.0
 40
3.0
 40
3.0
 40
4.0
 40
4.0
 40
4.0
 10
-19.58194648154101
 20
41.07275098295969
 30
0.0
 10
-19.581828040509109
 20
41.077058718644253
 30
0.0
 10
-19.581709599477207
 20
41.081366454328816
 30
0.0
 10
-18.832968429365607
 20
62.190154682634613
 30
0.0
 10
-14.715948740914811
 20
96.631550726251589
 30
0.0
 10
-12.449077145425505
 20
110.04884362426662
 30
0.0
 10
-12.418869208746528
 20
110.22970630936237
 30
0.0
 10
-12.388661272067552
 20
110.41056899445812
 30
0.0
  0
SPLINE
  5
68
100
AcDbEntity
  8
0
370
              15
  6
Continuous
 62
               7
100
AcDbSpline
210
0.0
220
0.0
230
1.0
 70
               8
 71
               2
 72
              11
 73
               8
 74
               0
 42
0.000001
 43
0.000001
 40
0.0
 40
0.0
 40
0.0
 40
1.0
 40
1.0
 40
2.0
 40
3.0
 40
3.0
 40
4.0
 40
4.0
 40
4.0
 10
-12.388661272067552
 20
110.41056899445812
 30
0.0
 10
-12.352203212941234
 20
110.61733473560452
 30
0.0
 10
-12.315745153814916
 20
110.82410047675091
 30
0.0
 10
-8.3530715967136047
 20
133.58221188424943
 30
0.0
 10
-1.7697786861504454
 20
158.86898232129636
 30
0.0
 10
-0.7538819829737662
 20
162.45705431432486
 30
0.0
 10
-0.7376790671886084
 20
162.51451616861226
 30
0.0
 10
-0.7214761514034507
 20
162.57197802289966
 30
0.0
  0
SPLINE
  5
69
100
AcDbEntity
  8
0
370
              15
  6
Continuous
 62
               7
100
AcDbSpline
210
0.0
220
0.0
230
1.0
 70
               8
 71
               2
 72
              11
 73
               8
 74
               0
 42
0.000001
 43
0.000001
 40
0.0
 40
0.0
 40
0.0
 40
1.0
 40
1.0
 40
2.0
 40
3.0
 40
3.0
 40
4.0
 40
4.0
 40
4.0
 10
-14.217798885857619
 20
166.31937894641089
 30
0.0
 10
-14.289238111580758
 20
166.05692898372519
 30
0.0
 10
-14.360677337303898
 20
165.79447902103948
 30
0.0
 10
-25.405455375725907
 20
125.70503269512233
 30
0.0
 10
-32.701042176112125
 20
63.639098781681923
 30
0.0
 10
-33.549282068464024
 20
42.167772801721298
 30
0.0
 10
-33.562029604605485
 20
41.869231946296736
 30
0.0
 10
-33.574777140746946
 20
41.570691090872174
 30
0.0
  0
LINE
  5
6A
100
AcDbEntity
  8
0
370
              15
  6
Continuous
 62
               7
100
AcDbLine
 10
6.2665895536310501
 20
240.15166994280003
 30
0.0
 11
-13.561235006968943
 21
168.70159038500003
 31
0.0
  0
LINE
  5
6B
100
AcDbEntity
  8
0
370
              15
  6
Continuous
 62
               7
100
AcDbLine
 10
-0.0712738530689165
 20
164.95713597220004
 30
0.0
 11
19.756785913931097
 21
236.40806011970005
 31
0.0
  0
LINE
  5
6C
100
AcDbEntity
  8
0
370
              15
  6
Continuous
 62
               7
100
AcDbLine
 10
-13.561125392468952
 20
168.70162378220004
 30
0.0
 11
-14.222880901968935
 21
166.31891714779999
 31
0.0
  0
LINE
  5
6D
100
AcDbEntity
  8
0
370
              15
  6
Continuous
 62
               7
100
AcDbLine
 10
-0.7321825900689163
 20
162.57783874860002
 30
0.0
 11
-0.0713834675689071
 21
164.95710257500002
 31
0.0
  0
SPLINE
  5
6E
100
AcDbEntity
  8
0
370
              15
  6
Continuous
 62
               7
100
AcDbSpline
210
0.0
220
0.0
230
1.0
 70
               8
 71
               2
 72
              11
 73
               8
 74
               0
 42
0.000001
 43
0.000001
 40
0.0
 40
0.0
 40
0.0
 40
1.0
 40
1.0
 40
2.0
 40
3.0
 40
3.0
 40
4.0
 40
4.0
 40
4.0
 10
-19.695423643174806
 20
21.115501672740379
 30
0.0
 10
-19.698177199140972
 20
21.271122854607142
 30
0.0
 10
-19.700930755107137
 20
21.426744036473906
 30
0.0
 10
-19.84003012825967
 20
27.328744307806403
 30
0.0
 10
-19.71254020916767
 20
36.767446189511531
 30
0.0
 10
-19.588368307910784
 20
40.881646137168445
 30
0.0
 10
-19.583798657475498
 20
41.039813894697431
 30
0.0
 10
-19.579229007040212
 20
41.197981652226417
 30
0.0
  0
SPLINE
  5
6F
100
AcDbEntity
  8
0
370
              15
  6
Continuous
 62
               7
100
AcDbSpline
210
0.0
220
0.0
230
1.0
 70
               8
 71
               2
 72
              13
 73
              10
 74
               0
 42
0.000001
 43
0.000001
 40
0.0
 40
0.0
 40
0.0
 40
1.0
 40
1.0
 40
2.0
 40
3.0
 40
4.0
 40
5.0
 40
5.0
 40
6.0
 40
6.0
 40
6.0
 10
19.755685936382704
 20
236.40428049569061
 30
0.0
 10
19.789918517904383
 20
236.53859127051811
 30
0.0
 10
19.824151099426061
 20
236.67290204534561
 30
0.0
 10
20.30557798219111
 20
238.55256436037746
 30
0.0
 10
22.286334104349706
 20
246.71025681533138
 30
0.0
 10
23.575606139330219
 20
258.44362753731946
 30
0.0
 10
23.61519225980517
 20
264.99697111852106
 30
0.0
 10
23.607498671838769
 20
266.89539595949111
 30
0.0
 10
23.607033620125279
 20
267.03101751004471
 30
0.0
 10
23.606568568411788
 20
267.1666390605983
 30
0.0
  0
SPLINE
  5
70
100
AcDbEntity
  8
0
370
              15
  6
Continuous
 62
               7
100
AcDbSpline
210
0.0
220
0.0
230
1.0
 70
               8
 71
               2
 72
              11
 73
               8
 74
               0
 42
0.000001
 43
0.000001
 40
0.0
 40
0.0
 40
0.0
 40
1.0
 40
1.0
 40
2.0
 40
3.0
 40
3.0
 40
4.0
 40
4.0
 40
4.0
 10
-33.566493999974213
 20
41.579055997106309
 30
0.0
 10
-33.567167551321532
 20
41.563785692418065
 30
0.0
 10
-33.567841102668851
 20
41.548515387729822
 30
0.0
 10
-33.692285550059111
 20
38.706808952936626
 30
0.0
 10
-33.868095365958922
 20
28.471514972282307
 30
0.0
 10
-33.688031145711918
 20
20.943660488032208
 30
0.0
 10
-33.685927793491075
 20
20.847359146764717
 30
0.0
 10
-33.683824441270232
 20
20.751057805497226
 30
0.0
  0
LINE
  5
71
100
AcDbEntity
  8
0
370
              15
  6
Continuous
 62
               7
100
AcDbLine
 10
-33.690510571968943
 20
20.747399048399984
 30
0.0
 11
-27.65050767206894
 21
-214.71859231920001
 31
0.0
  0
LINE
  5
72
100
AcDbEntity
  8
0
370
              15
  6
Continuous
 62
               7
100
AcDbLine
 10
-13.648475937568932
 20
-214.618253788
 30
0.0
 11
-19.695113836068955
 21
21.106399136200025
 31
0.0
  0
SPLINE
  5
73
100
AcDbEntity
  8
0
370
              15
  6
Continuous
 62
               7
100
AcDbSpline
210
0.0
220
0.0
230
1.0
 70
               8
 71
               2
 72
              13
 73
              10
 74
               0
 42
0.000001
 43
0.000001
 40
0.0
 40
0.0
 40
0.0
 40
1.0
 40
1.0
 40
2.0
 40
3.0
 40
4.0
 40
5.0
 40
5.0
 40
6.0
 40
6.0
 40
6.0
 10
9.6117914467668726
 20
266.78943389975632
 30
0.0
 10
9.61218038165417
 20
266.67242810373807
 30
0.0
 10
9.6125693165414674
 20
266.55542230771982
 30
0.0
 10
9.6200308564445578
 20
264.91784237621573
 30
0.0
 10
9.5870638701540685
 20
259.25762025229892
 30
0.0
 10
8.4711911844182879
 20
249.08924423425765
 30
0.0
 10
6.7447362033320957
 20
242.02235299703534
 30
0.0
 10
6.3272005942548191
 20
240.38884852359251
 30
0.0
 10
6.2974450627254015
 20
240.27214904521281
 30
0.0
 10
6.2676895311959839
 20
240.15544956683311
 30
0.0
  0
POLYLINE
  5
74
100
AcDbEntity
  8
0
370
              15
  6
Continuous
 62
               7
100
AcDb2dPolyline
 66
               1
 10
0.0
 20
0.0
 30
0.0
 75
               5
  0
VERTEX
  5
75
100
AcDbEntity
  8
0
370
              15
  6
Continuous
 62
               7
100
AcDbVertex
100
AcDb2dVertex
 10
12.819634680931088
 20
-203.37196330750001
 30
0.0
  0
VERTEX
  5
76
100
AcDbEntity
  8
0
370
              15
  6
Continuous
 62
               7
100
AcDbVertex
100
AcDb2dVertex
 10
15.808891455231063
 20
-204.1205927725
 30
0.0
  0
VERTEX
  5
77
100
AcDbEntity
  8
0
370
              15
  6
Continuous
 62
               7
100
AcDbVertex
100
AcDb2dVertex
 10
18.542338226231053
 20
-204.94231709120001
 30
0.0
  0
VERTEX
  5
78
100
AcDbEntity
  8
0
370
              15
  6
Continuous
 62
               7
100
AcDbVertex
100
AcDb2dVertex
 10
21.000798413231067
 20
-205.83137042089999
 30
0.0
  0
VERTEX
  5
79
100
AcDbEntity
  8
0
370
              15
  6
Continuous
 62
               7
100
AcDbVertex
100
AcDb2dVertex
 10
23.167024698731055
 20
-206.7815161453
 30
0.0
  0
VERTEX
  5
7A
100
AcDbEntity
  8
0
370
              15
  6
Continuous
 62
               7
100
AcDbVertex
100
AcDb2dVertex
 10
25.025816619331025
 20
-207.78608728270001
 30
0.0
  0
VERTEX
  5
7B
100
AcDbEntity
  8
0
370
              15
  6
Continuous
 62
               7
100
AcDbVertex
100
AcDb2dVertex
 10
26.564134728731077
 20
-208.83803677309999
 30
0.0
  0
VERTEX
  5
7C
100
AcDbEntity
  8
0
370
              15
  6
Continuous
 62
               7
100
AcDbVertex
100
AcDb2dVertex
 10
27.771187687131103
 20
-209.92998424539999
 30
0.0
  0
VERTEX
  5
7D
100
AcDbEntity
  8
0
370
              15
  6
Continuous
 62
               7
100
AcDbVertex
100
AcDb2dVertex
 10
28.638501197831104
 20
-211.0542677656
 30
0.0
  0
VERTEX
  5
7E
100
AcDbEntity
  8
0
370
              15
  6
Continuous
 62
               7
100
AcDbVertex
100
AcDb2dVertex
 10
29.159998129131125
 20
-212.20300084839999
 30
0.0
  0
VERTEX
  5
7F
100
AcDbEntity
  8
0
370
              15
  6
Continuous
 62
               7
100
AcDbVertex
100
AcDb2dVertex
 10
29.332017110031032
 20
-213.36812374190001
 30
0.0
  0
VERTEX
  5
80
100
AcDbEntity
  8
0
370
              15
  6
Continuous
 62
               7
100
AcDbVertex
100
AcDb2dVertex
 10
29.153348954931019
 20
-214.5414617065
 30
0.0
  0
VERTEX
  5
81
100
AcDbEntity
  8
0
370
              15
  6
Continuous
 62
               7
100
AcDbVertex
100
AcDb2dVertex
 10
28.625246705231078
 20
-215.714782665
 30
0.0
  0
VERTEX
  5
82
100
AcDbEntity
  8
0
370
              15
  6
Continuous
 62
               7
100
AcDbVertex
100
AcDb2dVertex
 10
27.75142041733109
 20
-216.8798558723
 30
0.0
  0
VERTEX
  5
83
100
AcDbEntity
  8
0
370
              15
  6
Continuous
 62
               7
100
AcDbVertex
100
AcDb2dVertex
 10
26.537995609031057
 20
-218.0285059938
 30
0.0
  0
VERTEX
  5
84
100
AcDbEntity
  8
0
370
              15
  6
Continuous
 62
               7
100
AcDbVertex
100
AcDb2dVertex
 10
24.993487604231021
 20
-219.15267499679999
 30
0.0
  0
VERTEX
  5
85
100
AcDbEntity
  8
0
370
              15
  6
Continuous
 62
               7
100
AcDbVertex
100
AcDb2dVertex
 10
23.12873416083103
 20
-220.24447627320001
 30
0.0
  0
VERTEX
  5
86
100
AcDbEntity
  8
0
370
              15
  6
Continuous
 62
               7
100
AcDbVertex
100
AcDb2dVertex
 10
20.956814140631039
 20
-221.2962492286
 30
0.0
  0
VERTEX
  5
87
100
AcDbEntity
  8
0
370
              15
  6
Continuous
 62
               7
100
AcDbVertex
100
AcDb2dVertex
 10
18.492968171531018
 20
-222.3006148465
 30
0.0
  0
VERTEX
  5
88
100
AcDbEntity
  8
0
370
              15
  6
Continuous
 62
               7
100
AcDbVertex
100
AcDb2dVertex
 10
15.754481436931044
 20
-223.25052731150001
 30
0.0
  0
VERTEX
  5
89
100
AcDbEntity
  8
0
370
              15
  6
Continuous
 62
               7
100
AcDbVertex
100
AcDb2dVertex
 10
12.760568869031047
 20
-224.13932097060001
 30
0.0
  0
VERTEX
  5
8A
100
AcDbEntity
  8
0
370
              15
  6
Continuous
 62
               7
100
AcDbVertex
100
AcDb2dVertex
 10
9.5322321525310514
 20
-224.96076198599999
 30
0.0
  0
VERTEX
  5
8B
100
AcDbEntity
  8
0
370
              15
  6
Continuous
 62
               7
100
AcDbVertex
100
AcDb2dVertex
 10
6.0921198176310583
 20
-225.70908592879999
 30
0.0
  0
VERTEX
  5
8C
100
AcDbEntity
  8
0
370
              15
  6
Continuous
 62
               7
100
AcDbVertex
100
AcDb2dVertex
 10
2.4643713672310952
 20
-226.37904215570001
 30
0.0
  0
VERTEX
  5
8D
100
AcDbEntity
  8
0
370
              15
  6
Continuous
 62
               7
100
AcDbVertex
100
AcDb2dVertex
 10
-1.3255618408689287
 20
-226.9659316728
 30
0.0
  0
VERTEX
  5
8E
100
AcDbEntity
  8
0
370
              15
  6
Continuous
 62
               7
100
AcDbVertex
100
AcDb2dVertex
 10
-5.2510960912689342
 20
-227.46563605540001
 30
0.0
  0
VERTEX
  5
8F
100
AcDbEntity
  8
0
370
              15
  6
Continuous
 62
               7
100
AcDbVertex
100
AcDb2dVertex
 10
-9.2846837861689409
 20
-227.8746507898
 30
0.0
  0
VERTEX
  5
90
100
AcDbEntity
  8
0
370
              15
  6
Continuous
 62
               7
100
AcDbVertex
100
AcDb2dVertex
 10
-13.398031467368909
 20
-228.1901050662
 30
0.0
  0
VERTEX
  5
91
100
AcDbEntity
  8
0
370
              15
  6
Continuous
 62
               7
100
AcDbVertex
100
AcDb2dVertex
 10
-17.562271126068921
 20
-228.40978448760001
 30
0.0
  0
VERTEX
  5
92
100
AcDbEntity
  8
0
370
              15
  6
Continuous
 62
               7
100
AcDbVertex
100
AcDb2dVertex
 10
-21.748199890668943
 20
-228.53215096380001
 30
0.0
  0
VERTEX
  5
93
100
AcDbEntity
  8
0
370
              15
  6
Continuous
 62
               7
100
AcDbVertex
100
AcDb2dVertex
 10
-25.926438395568923
 20
-228.55634353089999
 30
0.0
  0
VERTEX
  5
94
100
AcDbEntity
  8
0
370
              15
  6
Continuous
 62
               7
100
AcDbVertex
100
AcDb2dVertex
 10
-30.067681490768948
 20
-228.4821938229
 30
0.0
  0
VERTEX
  5
95
100
AcDbEntity
  8
0
370
              15
  6
Continuous
 62
               7
100
AcDbVertex
100
AcDb2dVertex
 10
-34.142872217568922
 20
-228.31022168609999
 30
0.0
  0
VERTEX
  5
96
100
AcDbEntity
  8
0
370
              15
  6
Continuous
 62
               7
100
AcDbVertex
100
AcDb2dVertex
 10
-38.123418787068928
 20
-228.04163358580001
 30
0.0
  0
VERTEX
  5
97
100
AcDbEntity
  8
0
370
              15
  6
Continuous
 62
               7
100
AcDbVertex
100
AcDb2dVertex
 10
-41.98138950916892
 20
-227.6783121
 30
0.0
  0
VERTEX
  5
98
100
AcDbEntity
  8
0
370
              15
  6
Continuous
 62
               7
100
AcDbVertex
100
AcDb2dVertex
 10
-45.68972736886893
 20
-227.2228096632
 30
0.0
  0
VERTEX
  5
99
100
AcDbEntity
  8
0
370
              15
  6
Continuous
 62
               7
100
AcDbVertex
100
AcDb2dVertex
 10
-49.222406966768901
 20
-226.678319187
 30
0.0
  0
VERTEX
  5
9A
100
AcDbEntity
  8
0
370
              15
  6
Continuous
 62
               7
100
AcDbVertex
100
AcDb2dVertex
 10
-52.554648985168953
 20
-226.04866274899999
 30
0.0
  0
VERTEX
  5
9B
100
AcDbEntity
  8
0
370
              15
  6
Continuous
 62
               7
100
AcDbVertex
100
AcDb2dVertex
 10
-55.663070468068938
 20
-225.33825574159999
 30
0.0
  0
VERTEX
  5
9C
100
AcDbEntity
  8
0
370
              15
  6
Continuous
 62
               7
100
AcDbVertex
100
AcDb2dVertex
 10
-58.52586916076892
 20
-224.55208549100001
 30
0.0
  0
VERTEX
  5
9D
100
AcDbEntity
  8
0
370
              15
  6
Continuous
 62
               7
100
AcDbVertex
100
AcDb2dVertex
 10
-61.122952830368931
 20
-223.69566376899999
 30
0.0
  0
VERTEX
  5
9E
100
AcDbEntity
  8
0
370
              15
  6
Continuous
 62
               7
100
AcDbVertex
100
AcDb2dVertex
 10
-63.436104721568924
 20
-222.7750010309
 30
0.0
  0
VERTEX
  5
9F
100
AcDbEntity
  8
0
370
              15
  6
Continuous
 62
               7
100
AcDbVertex
100
AcDb2dVertex
 10
-65.449095959668952
 20
-221.7965567464
 30
0.0
  0
VERTEX
  5
A0
100
AcDbEntity
  8
0
370
              15
  6
Continuous
 62
               7
100
AcDbVertex
100
AcDb2dVertex
 10
-67.147803850168927
 20
-220.76719633330001
 30
0.0
  0
VERTEX
  5
A1
100
AcDbEntity
  8
0
370
              15
  6
Continuous
 62
               7
100
AcDbVertex
100
AcDb2dVertex
 10
-68.5203096558689
 20
-219.69413891510001
 30
0.0
  0
VERTEX
  5
A2
100
AcDbEntity
  8
0
370
              15
  6
Continuous
 62
               7
100
AcDbVertex
100
AcDb2dVertex
 10
-69.556987427868918
 20
-218.5849167584
 30
0.0
  0
VERTEX
  5
A3
100
AcDbEntity
  8
0
370
              15
  6
Continuous
 62
               7
100
AcDbVertex
100
AcDb2dVertex
 10
-70.25055888416891
 20
-217.44730753440001
 30
0.0
  0
VERTEX
  5
A4
100
AcDbEntity
  8
0
370
              15
  6
Continuous
 62
               7
100
AcDbVertex
100
AcDb2dVertex
 10
-70.596158120368941
 20
-216.28929534470001
 30
0.0
  0
VERTEX
  5
A5
100
AcDbEntity
  8
0
370
              15
  6
Continuous
 62
               7
100
AcDbVertex
100
AcDb2dVertex
 10
-70.591366951368954
 20
-215.11900378749999
 30
0.0
  0
VERTEX
  5
A6
100
AcDbEntity
  8
0
370
              15
  6
Continuous
 62
               7
100
AcDbVertex
100
AcDb2dVertex
 10
-70.236211676168907
 20
-213.94464450219999
 30
0.0
  0
VERTEX
  5
A7
100
AcDbEntity
  8
0
370
              15
  6
Continuous
 62
               7
100
AcDbVertex
100
AcDb2dVertex
 10
-69.533189525268924
 20
-212.77445556309999
 30
0.0
  0
VERTEX
  5
A8
100
AcDbEntity
  8
0
370
              15
  6
Continuous
 62
               7
100
AcDbVertex
100
AcDb2dVertex
 10
-68.487228533768914
 20
-211.61664618570001
 30
0.0
  0
VERTEX
  5
A9
100
AcDbEntity
  8
0
370
              15
  6
Continuous
 62
               7
100
AcDbVertex
100
AcDb2dVertex
 10
-67.105666949568942
 20
-210.47934062819999
 30
0.0
  0
VERTEX
  5
AA
100
AcDbEntity
  8
0
370
              15
  6
Continuous
 62
               7
100
AcDbVertex
100
AcDb2dVertex
 10
-65.398202462468916
 20
-209.37051837600001
 30
0.0
  0
VERTEX
  5
AB
100
AcDbEntity
  8
0
370
              15
  6
Continuous
 62
               7
100
AcDbVertex
100
AcDb2dVertex
 10
-63.376809673468912
 20
-208.29795722099999
 30
0.0
  0
VERTEX
  5
AC
100
AcDbEntity
  8
0
370
              15
  6
Continuous
 62
               7
100
AcDbVertex
100
AcDb2dVertex
 10
-61.055673528168924
 20
-207.26918312359999
 30
0.0
  0
VERTEX
  5
AD
100
AcDbEntity
  8
0
370
              15
  6
Continuous
 62
               7
100
AcDbVertex
100
AcDb2dVertex
 10
-58.451076879868921
 20
-206.2914133333
 30
0.0
  0
VERTEX
  5
AE
100
AcDbEntity
  8
0
370
              15
  6
Continuous
 62
               7
100
AcDbVertex
100
AcDb2dVertex
 10
-55.581291794068918
 20
-205.37150838240001
 30
0.0
  0
VERTEX
  5
AF
100
AcDbEntity
  8
0
370
              15
  6
Continuous
 62
               7
100
AcDbVertex
100
AcDb2dVertex
 10
-52.46645622666891
 20
-204.51592150830001
 30
0.0
  0
VERTEX
  5
B0
100
AcDbEntity
  8
0
370
              15
  6
Continuous
 62
               7
100
AcDbVertex
100
AcDb2dVertex
 10
-49.12842134476891
 20
-203.7306556323
 30
0.0
  0
VERTEX
  5
B1
100
AcDbEntity
  8
0
370
              15
  6
Continuous
 62
               7
100
AcDbVertex
100
AcDb2dVertex
 10
-45.590602966968945
 20
-203.02122026999999
 30
0.0
  0
VERTEX
  5
B2
100
AcDbEntity
  8
0
370
              15
  6
Continuous
 62
               7
100
AcDbVertex
100
AcDb2dVertex
 10
-41.877828626368952
 20
-202.3925920431
 30
0.0
  0
VERTEX
  5
B3
100
AcDbEntity
  8
0
370
              15
  6
Continuous
 62
               7
100
AcDbVertex
100
AcDb2dVertex
 10
-38.016140786268906
 20
-201.8491820573
 30
0.0
  0
VERTEX
  5
B4
100
AcDbEntity
  8
0
370
              15
  6
Continuous
 62
               7
100
AcDbVertex
100
AcDb2dVertex
 10
-34.032633050468903
 20
-201.39480272989999
 30
0.0
  0
VERTEX
  5
B5
100
AcDbEntity
  8
0
370
              15
  6
Continuous
 62
               7
100
AcDbVertex
100
AcDb2dVertex
 10
-29.955255486768905
 20
-201.03264152649999
 30
0.0
  0
VERTEX
  5
B6
100
AcDbEntity
  8
0
370
              15
  6
Continuous
 62
               7
100
AcDbVertex
100
AcDb2dVertex
 10
-28.005116366368938
 20
-200.894412281
 30
0.0
  0
SEQEND
  5
B7
100
AcDbEntity
  8
0
370
              15
  6
Continuous
 62
               7
  0
ARC
  5
B8
100
AcDbEntity
  8
0
370
              15
  6
Continuous
 62
               7
100
AcDbCircle
 10
-15.819649227868908
 20
-355.65557989320001
 30
0.0
 40
155.13072580486323
100
AcDbArc
 50
83.193549480200033
 51
89.331507531900002
  0
LINE
  5
B9
100
AcDbEntity
  8
0
370
              15
  6
Continuous
 62
               7
100
AcDbLine
 10
2.5657863924310647
 20
-201.61818882919999
 30
0.0
 11
-13.803531657368907
 21
-208.57351485589999
 31
0.0
  0
LINE
  5
BA
100
AcDbEntity
  8
0
370
              15
  6
Continuous
 62
               7
100
AcDbLine
 10
-13.72464068776894
 20
-214.65063043149999
 30
0.0
 11
12.819634680931088
 21
-203.37196330750001
 31
0.0
  0
POLYLINE
  5
BB
100
AcDbEntity
  8
0
370
              15
  6
Continuous
 62
               7
100
AcDb2dPolyline
 66
               1
 10
0.0
 20
0.0
 30
0.0
 75
               5
  0
VERTEX
  5
BC
100
AcDbEntity
  8
0
370
              15
  6
Continuous
 62
               7
100
AcDbVertex
100
AcDb2dVertex
 10
-70.587123932268909
 20
-217.74100011420001
 30
0.0
  0
VERTEX
  5
BD
100
AcDbEntity
  8
0
370
              15
  6
Continuous
 62
               7
100
AcDbVertex
100
AcDb2dVertex
 10
-70.546913691068923
 20
-218.20906070629999
 30
0.0
  0
VERTEX
  5
BE
100
AcDbEntity
  8
0
370
              15
  6
Continuous
 62
               7
100
AcDbVertex
100
AcDb2dVertex
 10
-70.201314454968937
 20
-219.367072896
 30
0.0
  0
VERTEX
  5
BF
100
AcDbEntity
  8
0
370
              15
  6
Continuous
 62
               7
100
AcDbVertex
100
AcDb2dVertex
 10
-69.507742998668945
 20
-220.5046821199
 30
0.0
  0
VERTEX
  5
C0
100
AcDbEntity
  8
0
370
              15
  6
Continuous
 62
               7
100
AcDbVertex
100
AcDb2dVertex
 10
-68.471065226668927
 20
-221.6139042767
 30
0.0
  0
VERTEX
  5
C1
100
AcDbEntity
  8
0
370
              15
  6
Continuous
 62
               7
100
AcDbVertex
100
AcDb2dVertex
 10
-67.098559420968954
 20
-222.68696169489999
 30
0.0
  0
VERTEX
  5
C2
100
AcDbEntity
  8
0
370
              15
  6
Continuous
 62
               7
100
AcDbVertex
100
AcDb2dVertex
 10
-65.399851530468922
 20
-223.71632210800001
 30
0.0
  0
VERTEX
  5
C3
100
AcDbEntity
  8
0
370
              15
  6
Continuous
 62
               7
100
AcDbVertex
100
AcDb2dVertex
 10
-63.386860292268906
 20
-224.6947663924
 30
0.0
  0
VERTEX
  5
C4
100
AcDbEntity
  8
0
370
              15
  6
Continuous
 62
               7
100
AcDbVertex
100
AcDb2dVertex
 10
-61.073708401168901
 20
-225.61542913060001
 30
0.0
  0
VERTEX
  5
C5
100
AcDbEntity
  8
0
370
              15
  6
Continuous
 62
               7
100
AcDbVertex
100
AcDb2dVertex
 10
-58.476624731568947
 20
-226.4718508526
 30
0.0
  0
VERTEX
  5
C6
100
AcDbEntity
  8
0
370
              15
  6
Continuous
 62
               7
100
AcDbVertex
100
AcDb2dVertex
 10
-55.613826038868908
 20
-227.25802110320001
 30
0.0
  0
VERTEX
  5
C7
100
AcDbEntity
  8
0
370
              15
  6
Continuous
 62
               7
100
AcDbVertex
100
AcDb2dVertex
 10
-52.505404555868935
 20
-227.9684281106
 30
0.0
  0
VERTEX
  5
C8
100
AcDbEntity
  8
0
370
              15
  6
Continuous
 62
               7
100
AcDbVertex
100
AcDb2dVertex
 10
-49.173162537568928
 20
-228.5980845485
 30
0.0
  0
VERTEX
  5
C9
100
AcDbEntity
  8
0
370
              15
  6
Continuous
 62
               7
100
AcDbVertex
100
AcDb2dVertex
 10
-45.640482939568912
 20
-229.14257502480001
 30
0.0
  0
VERTEX
  5
CA
100
AcDbEntity
  8
0
370
              15
  6
Continuous
 62
               7
100
AcDbVertex
100
AcDb2dVertex
 10
-41.932145079968947
 20
-229.59807746160001
 30
0.0
  0
VERTEX
  5
CB
100
AcDbEntity
  8
0
370
              15
  6
Continuous
 62
               7
100
AcDbVertex
100
AcDb2dVertex
 10
-38.074174357868955
 20
-229.9613989474
 30
0.0
  0
VERTEX
  5
CC
100
AcDbEntity
  8
0
370
              15
  6
Continuous
 62
               7
100
AcDbVertex
100
AcDb2dVertex
 10
-34.093627788268904
 20
-230.22998704770001
 30
0.0
  0
VERTEX
  5
CD
100
AcDbEntity
  8
0
370
              15
  6
Continuous
 62
               7
100
AcDbVertex
100
AcDb2dVertex
 10
-30.01843706146893
 20
-230.40195918449999
 30
0.0
  0
VERTEX
  5
CE
100
AcDbEntity
  8
0
370
              15
  6
Continuous
 62
               7
100
AcDbVertex
100
AcDb2dVertex
 10
-25.877193966268905
 20
-230.47610889239999
 30
0.0
  0
VERTEX
  5
CF
100
AcDbEntity
  8
0
370
              15
  6
Continuous
 62
               7
100
AcDbVertex
100
AcDb2dVertex
 10
-21.698955461468913
 20
-230.45191632539999
 30
0.0
  0
VERTEX
  5
D0
100
AcDbEntity
  8
0
370
              15
  6
Continuous
 62
               7
100
AcDbVertex
100
AcDb2dVertex
 10
-17.513026696868948
 20
-230.32954984919999
 30
0.0
  0
VERTEX
  5
D1
100
AcDbEntity
  8
0
370
              15
  6
Continuous
 62
               7
100
AcDbVertex
100
AcDb2dVertex
 10
-13.348787038068949
 20
-230.1098704277
 30
0.0
  0
VERTEX
  5
D2
100
AcDbEntity
  8
0
370
              15
  6
Continuous
 62
               7
100
AcDbVertex
100
AcDb2dVertex
 10
-9.2354393568689233
 20
-229.79441615139999
 30
0.0
  0
VERTEX
  5
D3
100
AcDbEntity
  8
0
370
              15
  6
Continuous
 62
               7
100
AcDbVertex
100
AcDb2dVertex
 10
-5.2018516620689041
 20
-229.385401417
 30
0.0
  0
VERTEX
  5
D4
100
AcDbEntity
  8
0
370
              15
  6
Continuous
 62
               7
100
AcDbVertex
100
AcDb2dVertex
 10
-1.2763174115689111
 20
-228.88569703429999
 30
0.0
  0
VERTEX
  5
D5
100
AcDbEntity
  8
0
370
              15
  6
Continuous
 62
               7
100
AcDbVertex
100
AcDb2dVertex
 10
2.5136157965310559
 20
-228.2988075172
 30
0.0
  0
VERTEX
  5
D6
100
AcDbEntity
  8
0
370
              15
  6
Continuous
 62
               7
100
AcDbVertex
100
AcDb2dVertex
 10
6.1413642469310759
 20
-227.62885129040001
 30
0.0
  0
VERTEX
  5
D7
100
AcDbEntity
  8
0
370
              15
  6
Continuous
 62
               7
100
AcDbVertex
100
AcDb2dVertex
 10
9.581476581831069
 20
-226.88052734760001
 30
0.0
  0
VERTEX
  5
D8
100
AcDbEntity
  8
0
370
              15
  6
Continuous
 62
               7
100
AcDbVertex
100
AcDb2dVertex
 10
12.809813298231077
 20
-226.05908633210001
 30
0.0
  0
VERTEX
  5
D9
100
AcDbEntity
  8
0
370
              15
  6
Continuous
 62
               7
100
AcDbVertex
100
AcDb2dVertex
 10
15.803725866231119
 20
-225.17029267300001
 30
0.0
  0
VERTEX
  5
DA
100
AcDbEntity
  8
0
370
              15
  6
Continuous
 62
               7
100
AcDbVertex
100
AcDb2dVertex
 10
18.542212600731048
 20
-224.22038020799999
 30
0.0
  0
VERTEX
  5
DB
100
AcDbEntity
  8
0
370
              15
  6
Continuous
 62
               7
100
AcDbVertex
100
AcDb2dVertex
 10
21.006058569831069
 20
-223.21601459019999
 30
0.0
  0
VERTEX
  5
DC
100
AcDbEntity
  8
0
370
              15
  6
Continuous
 62
               7
100
AcDbVertex
100
AcDb2dVertex
 10
23.17797859003106
 20
-222.16424163479999
 30
0.0
  0
VERTEX
  5
DD
100
AcDbEntity
  8
0
370
              15
  6
Continuous
 62
               7
100
AcDbVertex
100
AcDb2dVertex
 10
25.042732033431051
 20
-221.0724403584
 30
0.0
  0
VERTEX
  5
DE
100
AcDbEntity
  8
0
370
              15
  6
Continuous
 62
               7
100
AcDbVertex
100
AcDb2dVertex
 10
26.587240038231087
 20
-219.94827135540001
 30
0.0
  0
VERTEX
  5
DF
100
AcDbEntity
  8
0
370
              15
  6
Continuous
 62
               7
100
AcDbVertex
100
AcDb2dVertex
 10
27.800664846631051
 20
-218.79962123390001
 30
0.0
  0
VERTEX
  5
E0
100
AcDbEntity
  8
0
370
              15
  6
Continuous
 62
               7
100
AcDbVertex
100
AcDb2dVertex
 10
28.674491134431108
 20
-217.63454802659999
 30
0.0
  0
VERTEX
  5
E1
100
AcDbEntity
  8
0
370
              15
  6
Continuous
 62
               7
100
AcDbVertex
100
AcDb2dVertex
 10
29.202593384231093
 20
-216.46122706809999
 30
0.0
  0
VERTEX
  5
E2
100
AcDbEntity
  8
0
370
              15
  6
Continuous
 62
               7
100
AcDbVertex
100
AcDb2dVertex
 10
29.381261539331106
 20
-215.28788910349999
 30
0.0
  0
VERTEX
  5
E3
100
AcDbEntity
  8
0
370
              15
  6
Continuous
 62
               7
100
AcDbVertex
100
AcDb2dVertex
 10
29.379992985031052
 20
-215.17671566839999
 30
0.0
  0
SEQEND
  5
E4
100
AcDbEntity
  8
0
370
              15
  6
Continuous
 62
               7
  0
LINE
  5
E5
100
AcDbEntity
  8
0
370
              15
  6
Continuous
 62
               7
100
AcDbLine
 10
2.5657863924310647
 20
-201.61818882919999
 30
0.0
 11
2.6150308217310823
 21
-203.53795419080001
 31
0.0
  0
LINE
  5
E6
100
AcDbEntity
  8
0
370
              15
  6
Continuous
 62
               7
100
AcDbLine
 10
-13.754287228068947
 20
-210.4932802175
 30
0.0
 11
2.6150308217310823
 21
-203.53795419080001
 31
0.0
  0
LINE
  5
E7
100
AcDbEntity
  8
0
370
              15
  6
Continuous
 62
               7
100
AcDbLine
 10
3.9652562346310702
 20
-358.90373513689997
 30
0.0
 11
0.6229310303310882
 21
-228.60513582199999
 31
0.0
  0
LINE
  5
E8
100
AcDbEntity
  8
0
370
              15
  6
Continuous
 62
               7
100
AcDbLine
 10
1.1082970005310955
 20
-360.11765760200001
 30
0.0
 11
3.9652562346310702
 21
-358.90373513689997
 31
0.0
  0
LINE
  5
E9
100
AcDbEntity
  8
0
370
              15
  6
Continuous
 62
               7
100
AcDbLine
 10
-16.011529986468915
 20
-230.26166645399999
 30
0.0
 11
1.1082970005310955
 21
-360.11765760200001
 31
0.0
  0
LINE
  5
EA
100
AcDbEntity
  8
0
370
              15
  6
Continuous
 62
               7
100
AcDbLine
 10
-13.702002758668911
 20
-212.53157698929999
 30
0.0
 11
-10.162295861768925
 21
-213.13699335999999
 31
0.0
  0
LINE
  5
EB
100
AcDbEntity
  8
0
370
              15
  6
Continuous
 62
               7
100
AcDbLine
 10
1.1082970005310955
 20
-360.11765760200001
 30
0.0
 11
-0.532318206168938
 21
-359.83705377429999
 31
0.0
  0
LINE
  5
EC
100
AcDbEntity
  8
0
370
              15
  6
Continuous
 62
               7
100
AcDbLine
 10
-0.532318206168938
 20
-359.83705377429999
 30
0.0
 11
-17.605706277968906
 21
-230.3333378687
 31
0.0
  0
LINE
  5
ED
100
AcDbEntity
  8
0
370
              15
  6
Continuous
 62
               7
100
AcDbLine
 10
-0.6701014679689337
 20
-358.79194877980001
 30
0.0
 11
-1.2790659829689019
 21
-358.6877940864
 31
0.0
  0
LINE
  5
EE
100
AcDbEntity
  8
0
370
              15
  6
Continuous
 62
               7
100
AcDbLine
 10
-22.552777668668952
 20
-230.46484687189999
 30
0.0
 11
-1.2790659829689019
 21
-358.6877940864
 31
0.0
  0
LINE
  5
EF
100
AcDbEntity
  8
0
370
              15
  6
Continuous
 62
               7
100
AcDbLine
 10
-47.209416990040253
 20
183.74688751838482
 30
0.0
 11
-47.949367636499105
 21
184.47662689256742
 31
0.0
  0
SPLINE
  5
F0
100
AcDbEntity
  8
0
370
              15
  6
Continuous
 62
               7
100
AcDbSpline
210
0.0
220
0.0
230
1.0
 70
               8
 71
               2
 72
              17
 73
              14
 74
               0
 42
0.000001
 43
0.000001
 40
0.0
 40
0.0
 40
0.0
 40
1.0
 40
1.0
 40
2.0
 40
3.0
 40
4.0
 40
5.0
 40
6.0
 40
7.0
 40
8.0
 40
9.0
 40
9.0
 40
10.0
 40
10.0
 40
10.0
 10
-97.423547577410133
 20
201.80435100227385
 30
0.0
 10
-97.423110007351269
 20
201.80453306030495
 30
0.0
 10
-97.422672437292405
 20
201.80471511833605
 30
0.0
 10
-97.393304021326955
 20
201.81672447128267
 30
0.0
 10
-93.504659118936203
 20
202.97400837543614
 30
0.0
 10
-84.053767195397015
 20
201.39011444782989
 30
0.0
 10
-77.148553821265224
 20
199.42803466113378
 30
0.0
 10
-69.109962069292735
 20
196.75499652317637
 30
0.0
 10
-63.066259420352864
 20
194.0960378852443
 30
0.0
 10
-58.503077706810572
 20
191.82006876275329
 30
0.0
 10
-51.265409639443575
 20
187.61307564076651
 30
0.0
 10
-48.029911838476025
 20
184.55042244392359
 30
0.0
 10
-47.989639737487565
 20
184.51352466824551
 30
0.0
 10
-47.949367636499105
 20
184.47662689256742
 30
0.0
  0
LINE
  5
F1
100
AcDbEntity
  8
0
370
              15
  6
Continuous
 62
               7
100
AcDbLine
 10
-98.567363999698316
 20
203.43089649917886
 30
0.0
 11
-98.671874743711143
 21
203.57634094655998
 31
0.0
  0
SPLINE
  5
F2
100
AcDbEntity
  8
0
370
              15
  6
Continuous
 62
               7
100
AcDbSpline
210
0.0
220
0.0
230
1.0
 70
               8
 71
               2
 72
              11
 73
               8
 74
               0
 42
0.000001
 43
0.000001
 40
0.0
 40
0.0
 40
0.0
 40
1.0
 40
1.0
 40
2.0
 40
3.0
 40
3.0
 40
4.0
 40
4.0
 40
4.0
 10
-105.54435067144503
 20
212.13610928722346
 30
0.0
 10
-105.54390842000068
 20
212.13611921428509
 30
0.0
 10
-105.54346616855632
 20
212.13612914134671
 30
0.0
 10
-104.84926377119261
 20
212.1495200756849
 30
0.0
 10
-103.09366135059882
 20
211.91389354012358
 30
0.0
 10
-102.00934932704142
 20
211.64412928428487
 30
0.0
 10
-102.00884424029327
 20
211.64400363552568
 30
0.0
 10
-102.00833915354512
 20
211.64387798676648
 30
0.0
  0
SPLINE
  5
F3
100
AcDbEntity
  8
0
370
              15
  6
Continuous
 62
               7
100
AcDbSpline
210
0.0
220
0.0
230
1.0
 70
               8
 71
               2
 72
              16
 73
              13
 74
               0
 42
0.000001
 43
0.000001
 40
0.0
 40
0.0
 40
0.0
 40
1.0
 40
1.0
 40
2.0
 40
3.0
 40
4.0
 40
5.0
 40
6.0
 40
7.0
 40
8.0
 40
8.0
 40
9.0
 40
9.0
 40
9.0
 10
-102.00833838957395
 20
211.64387785610006
 30
0.0
 10
-101.94701543901395
 20
211.62436157118862
 30
0.0
 10
-101.88569248845396
 20
211.60484528627717
 30
0.0
 10
-100.54617674985336
 20
211.19053528101711
 30
0.0
 10
-97.733284917355874
 20
210.17320707545537
 30
0.0
 10
-94.81614005733671
 20
208.86960055142629
 30
0.0
 10
-91.905096288352738
 20
207.61531786713249
 30
0.0
 10
-88.842546193253881
 20
206.60210668896752
 30
0.0
 10
-85.655857973319982
 20
205.82046323108898
 30
0.0
 10
-82.654540417243922
 20
205.70677334338893
 30
0.0
 10
-81.540302230931147
 20
205.71658748187474
 30
0.0
 10
-81.489699266931623
 20
205.71684412816683
 30
0.0
 10
-81.4390963029321
 20
205.71710077445891
 30
0.0
  0
SPLINE
  5
F4
100
AcDbEntity
  8
0
370
              15
  6
Continuous
 62
               7
100
AcDbSpline
210
0.0
220
0.0
230
1.0
 70
               8
 71
               2
 72
              13
 73
              10
 74
               0
 42
0.000001
 43
0.000001
 40
0.0
 40
0.0
 40
0.0
 40
1.0
 40
1.0
 40
2.0
 40
3.0
 40
4.0
 40
5.0
 40
5.0
 40
6.0
 40
6.0
 40
6.0
 10
-81.4390963029321
 20
205.71710077445891
 30
0.0
 10
-81.422226192271424
 20
205.71958821442121
 30
0.0
 10
-81.405356081610748
 20
205.7220756543835
 30
0.0
 10
-80.966869766156876
 20
205.78833296872131
 30
0.0
 10
-80.290684298925541
 20
205.8718129278102
 30
0.0
 10
-79.423831988299227
 20
205.93834055109585
 30
0.0
 10
-78.295424174216961
 20
205.87498860811309
 30
0.0
 10
-77.734291704512415
 20
205.82059252424983
 30
0.0
 10
-77.717793534716535
 20
205.8190590552523
 30
0.0
 10
-77.701295364920654
 20
205.81752558625476
 30
0.0
  0
SPLINE
  5
F5
100
AcDbEntity
  8
0
370
              15
  6
Continuous
 62
               7
100
AcDbSpline
210
0.0
220
0.0
230
1.0
 70
               8
 71
               2
 72
              13
 73
              10
 74
               0
 42
0.000001
 43
0.000001
 40
0.0
 40
0.0
 40
0.0
 40
1.0
 40
1.0
 40
2.0
 40
3.0
 40
4.0
 40
5.0
 40
5.0
 40
6.0
 40
6.0
 40
6.0
 10
-77.701295364920654
 20
205.81752558625476
 30
0.0
 10
-77.698662711543406
 20
205.81704946110625
 30
0.0
 10
-77.696030058166158
 20
205.81657333595774
 30
0.0
 10
-77.450443671132959
 20
205.77272416532651
 30
0.0
 10
-77.011049334465881
 20
205.68772961568027
 30
0.0
 10
-76.583660288431176
 20
205.58762555231328
 30
0.0
 10
-76.137005161908107
 20
205.4494238748041
 30
0.0
 10
-75.914584690535307
 20
205.36964699262819
 30
0.0
 10
-75.911999456917059
 20
205.36873545663667
 30
0.0
 10
-75.90941422329881
 20
205.36782392064515
 30
0.0
  0
SPLINE
  5
F6
100
AcDbEntity
  8
0
370
              15
  6
Continuous
 62
               7
100
AcDbSpline
210
0.0
220
0.0
230
1.0
 70
               8
 71
               2
 72
              12
 73
               9
 74
               0
 42
0.000001
 43
0.000001
 40
0.0
 40
0.0
 40
0.0
 40
1.0
 40
1.0
 40
2.0
 40
3.0
 40
4.0
 40
4.0
 40
5.0
 40
5.0
 40
5.0
 10
-75.719496930890315
 20
205.28120604133392
 30
0.0
 10
-75.719828418943607
 20
205.2813514468736
 30
0.0
 10
-75.720159906996898
 20
205.28149685241328
 30
0.0
 10
-75.736729460839555
 20
205.28875961008293
 30
0.0
 10
-75.811246783448368
 20
205.3215167116507
 30
0.0
 10
-75.889802961739676
 20
205.35840278017736
 30
0.0
 10
-75.908837205796303
 20
205.36738247010999
 30
0.0
 10
-75.909165294964211
 20
205.3675371567312
 30
0.0
 10
-75.909493384132119
 20
205.36769184335242
 30
0.0
  0
SPLINE
  5
F7
100
AcDbEntity
  8
0
370
              15
  6
Continuous
 62
               7
100
AcDbSpline
210
0.0
220
0.0
230
1.0
 70
               8
 71
               2
 72
              14
 73
              11
 74
               0
 42
0.000001
 43
0.000001
 40
0.0
 40
0.0
 40
0.0
 40
1.0
 40
1.0
 40
2.0
 40
3.0
 40
4.0
 40
5.0
 40
6.0
 40
6.0
 40
7.0
 40
7.0
 40
7.0
 10
-75.719496930890315
 20
205.28120604133392
 30
0.0
 10
-75.662720179067335
 20
205.25053993740636
 30
0.0
 10
-75.605943427244355
 20
205.2198738334788
 30
0.0
 10
-73.90763395348101
 20
204.29112788951466
 30
0.0
 10
-69.758587094310016
 20
202.19397590670576
 30
0.0
 10
-65.144208189285322
 20
200.40058302082241
 30
0.0
 10
-60.772783767188557
 20
199.11743795096913
 30
0.0
 10
-55.860810703978402
 20
197.71227059244575
 30
0.0
 10
-53.195210759283256
 20
196.86288397943451
 30
0.0
 10
-53.137199485027949
 20
196.84458663782704
 30
0.0
 10
-53.079188210772642
 20
196.82628929621956
 30
0.0
  0
SPLINE
  5
F8
100
AcDbEntity
  8
0
370
              15
  6
Continuous
 62
               7
100
AcDbSpline
210
0.0
220
0.0
230
1.0
 70
               8
 71
               2
 72
              12
 73
               9
 74
               0
 42
0.000001
 43
0.000001
 40
0.0
 40
0.0
 40
0.0
 40
1.0
 40
1.0
 40
2.0
 40
3.0
 40
4.0
 40
4.0
 40
5.0
 40
5.0
 40
5.0
 10
-53.079183953570734
 20
196.82629110510538
 30
0.0
 10
-53.038963870890868
 20
196.81413101351302
 30
0.0
 10
-52.998743788211002
 20
196.80197092192066
 30
0.0
 10
-51.788750744117507
 20
196.44192012440124
 30
0.0
 10
-49.573455093509935
 20
195.71228942763526
 30
0.0
 10
-47.456246716399832
 20
194.85164997815127
 30
0.0
 10
-46.342803978401193
 20
194.36320614593637
 30
0.0
 10
-46.305626061626796
 20
194.34701320337973
 30
0.0
 10
-46.2684481448524
 20
194.33082026082309
 30
0.0
  0
SPLINE
  5
F9
100
AcDbEntity
  8
0
370
              15
  6
Continuous
 62
               7
100
AcDbSpline
210
0.0
220
0.0
230
1.0
 70
               8
 71
               2
 72
              13
 73
              10
 74
               0
 42
0.000001
 43
0.000001
 40
0.0
 40
0.0
 40
0.0
 40
1.0
 40
1.0
 40
2.0
 40
3.0
 40
4.0
 40
5.0
 40
5.0
 40
6.0
 40
6.0
 40
6.0
 10
-46.2684481448524
 20
194.33082026082309
 30
0.0
 10
-46.232604760901253
 20
194.31520012625094
 30
0.0
 10
-46.196761376950107
 20
194.2995799916788
 30
0.0
 10
-45.115850174109639
 20
193.83381391952435
 30
0.0
 10
-42.049930449884513
 20
192.41773786627959
 30
0.0
 10
-39.06757404028194
 20
190.51035976762239
 30
0.0
 10
-37.344660186547387
 20
189.07867829125098
 30
0.0
 10
-36.625517252992822
 20
188.42962339208987
 30
0.0
 10
-36.601413793489726
 20
188.40803914323124
 30
0.0
 10
-36.577310333986631
 20
188.3864548943726
 30
0.0
  0
LINE
  5
FA
100
AcDbEntity
  8
0
370
              15
  6
Continuous
 62
               7
100
AcDbLine
 10
-36.577310333968953
 20
188.3864548944
 30
0.0
 11
-35.112422465768915
 21
186.80985245229999
 31
0.0
  0
SPLINE
  5
FB
100
AcDbEntity
  8
0
370
              15
  6
Continuous
 62
               7
100
AcDbSpline
210
0.0
220
0.0
230
1.0
 70
               8
 71
               2
 72
              15
 73
              12
 74
               0
 42
0.000001
 43
0.000001
 40
0.0
 40
0.0
 40
0.0
 40
1.0
 40
1.0
 40
2.0
 40
3.0
 40
4.0
 40
5.0
 40
6.0
 40
7.0
 40
7.0
 40
8.0
 40
8.0
 40
8.0
 10
-53.027451059720349
 20
196.94868102202258
 30
0.0
 10
-53.027545555142964
 20
196.94871155396459
 30
0.0
 10
-53.02764005056558
 20
196.94874208590659
 30
0.0
 10
-55.883097363197223
 20
197.89941665345759
 30
0.0
 10
-60.203930094997233
 20
199.14084887941942
 30
0.0
 10
-63.478270210991283
 20
200.07456657471312
 30
0.0
 10
-68.821493475624081
 20
201.95134199103643
 30
0.0
 10
-73.066488749307027
 20
204.10001975206001
 30
0.0
 10
-74.025254568508771
 20
204.59705996541561
 30
0.0
 10
-74.025317841574676
 20
204.59710893563442
 30
0.0
 10
-74.02531805043931
 20
204.59710915056576
 30
0.0
 10
-74.025318259303944
 20
204.59710936549709
 30
0.0
  0
SPLINE
  5
FC
100
AcDbEntity
  8
0
370
              15
  6
Continuous
 62
               7
100
AcDbSpline
210
0.0
220
0.0
230
1.0
 70
               8
 71
               2
 72
              12
 73
               9
 74
               0
 42
0.000001
 43
0.000001
 40
0.0
 40
0.0
 40
0.0
 40
1.0
 40
1.0
 40
2.0
 40
3.0
 40
4.0
 40
4.0
 40
5.0
 40
5.0
 40
5.0
 10
-75.136592768571049
 20
205.10132438171092
 30
0.0
 10
-75.137992506865871
 20
205.10165461935037
 30
0.0
 10
-75.139392245160693
 20
205.10198485698982
 30
0.0
 10
-75.249144340674192
 20
205.12705901408606
 30
0.0
 10
-75.444474242406997
 20
205.18034094130257
 30
0.0
 10
-75.623305794237453
 20
205.24387665585334
 30
0.0
 10
-75.716483837940061
 20
205.28004800922781
 30
0.0
 10
-75.717990384415188
 20
205.28062702528086
 30
0.0
 10
-75.719496930890315
 20
205.28120604133392
 30
0.0
  0
SPLINE
  5
FD
100
AcDbEntity
  8
0
370
              15
  6
Continuous
 62
               7
100
AcDbSpline
210
0.0
220
0.0
230
1.0
 70
               8
 71
               2
 72
              12
 73
               9
 74
               0
 42
0.000001
 43
0.000001
 40
0.0
 40
0.0
 40
0.0
 40
1.0
 40
1.0
 40
2.0
 40
3.0
 40
4.0
 40
4.0
 40
5.0
 40
5.0
 40
5.0
 10
-74.025318259303944
 20
204.59710936549709
 30
0.0
 10
-74.025338586719172
 20
204.5971132640222
 30
0.0
 10
-74.025358914134401
 20
204.59711716254731
 30
0.0
 10
-74.030177337035227
 20
204.59807153412714
 30
0.0
 10
-74.185980348393443
 20
204.66103678488082
 30
0.0
 10
-74.726077380954891
 20
204.9106334870844
 30
0.0
 10
-75.126660870271607
 20
205.09671514227784
 30
0.0
 10
-75.131626819421328
 20
205.09901976199438
 30
0.0
 10
-75.136592768571049
 20
205.10132438171092
 30
0.0
  0
SPLINE
  5
FE
100
AcDbEntity
  8
0
370
              15
  6
Continuous
 62
               7
100
AcDbSpline
210
0.0
220
0.0
230
1.0
 70
               8
 71
               2
 72
              13
 73
              10
 74
               0
 42
0.000001
 43
0.000001
 40
0.0
 40
0.0
 40
0.0
 40
1.0
 40
1.0
 40
2.0
 40
3.0
 40
4.0
 40
5.0
 40
5.0
 40
6.0
 40
6.0
 40
6.0
 10
-53.027448003835431
 20
196.94868049935712
 30
0.0
 10
-53.027513374697165
 20
196.94848110838973
 30
0.0
 10
-53.027578745558898
 20
196.94828171742233
 30
0.0
 10
-53.031356511350324
 20
196.93669663527862
 30
0.0
 10
-53.039334033688178
 20
196.9129672127317
 30
0.0
 10
-53.051036074455212
 20
196.88172562677187
 30
0.0
 10
-53.068833738285477
 20
196.84530831411371
 30
0.0
 10
-53.079006744871251
 20
196.82662083393245
 30
0.0
 10
-53.079095349220992
 20
196.82645596951892
 30
0.0
 10
-53.079183953570734
 20
196.82629110510538
 30
0.0
  0
LINE
  5
FF
100
AcDbEntity
  8
0
370
              15
  6
Continuous
 62
               7
100
AcDbLine
 10
-47.852245380468943
 20
183.51191916649998
 30
0.0
 11
-48.662677229868947
 21
184.16617719969997
 31
0.0
  0
LINE
  5
100
100
AcDbEntity
  8
0
370
              15
  6
Continuous
 62
               7
100
AcDbLine
 10
-97.061429637868955
 20
201.20028752370001
 30
0.0
 11
-97.7528634874689
 21
200.97050401700005
 31
0.0
  0
SPLINE
  5
101
100
AcDbEntity
  8
0
370
              15
  6
Continuous
 62
               7
100
AcDbSpline
210
0.0
220
0.0
230
1.0
 70
               8
 71
               2
 72
              17
 73
              14
 74
               0
 42
0.000001
 43
0.000001
 40
0.0
 40
0.0
 40
0.0
 40
1.0
 40
1.0
 40
2.0
 40
3.0
 40
4.0
 40
5.0
 40
6.0
 40
7.0
 40
8.0
 40
9.0
 40
9.0
 40
10.0
 40
10.0
 40
10.0
 10
-48.662677229824325
 20
184.1661771996761
 30
0.0
 10
-48.707549473302876
 20
184.19993204813039
 30
0.0
 10
-48.752421716781427
 20
184.23368689658469
 30
0.0
 10
-50.402029381153156
 20
185.50992946242013
 30
0.0
 10
-55.375328153465759
 20
188.68395075366811
 30
0.0
 10
-61.378424119043117
 20
191.88738723686356
 30
0.0
 10
-67.342728021127343
 20
194.56777037227721
 30
0.0
 10
-72.649130427570341
 20
196.71976148389388
 30
0.0
 10
-77.471566043448874
 20
198.33982659305673
 30
0.0
 10
-84.973720803796468
 20
199.94902036794883
 30
0.0
 10
-93.728397457227445
 20
201.40613246733164
 30
0.0
 10
-97.004619172379805
 20
201.20320578245151
 30
0.0
 10
-97.033024405130604
 20
201.20174665308519
 30
0.0
 10
-97.061429637881403
 20
201.20028752371888
 30
0.0
  0
LINE
  5
102
100
AcDbEntity
  8
0
370
              15
  6
Continuous
 62
               7
100
AcDbLine
 10
-79.809191865068939
 20
208.78759963059997
 30
0.0
 11
-79.175245555568935
 21
208.11184544310004
 31
0.0
  0
LINE
  5
103
100
AcDbEntity
  8
0
370
              15
  6
Continuous
 62
               7
100
AcDbLine
 10
-79.809191865068939
 20
208.78759963059997
 30
0.0
 11
-81.162584747868934
 21
210.80990425770005
 31
0.0
  0
LINE
  5
104
100
AcDbEntity
  8
0
370
              15
  6
Continuous
 62
               7
100
AcDbLine
 10
-81.162585511768938
 20
210.80990438840001
 30
0.0
 11
-81.24884746406893
 21
210.98827234930002
 31
0.0
  0
LINE
  5
105
100
AcDbEntity
  8
0
370
              15
  6
Continuous
 62
               7
100
AcDbLine
 10
-75.136101645068933
 20
205.10234361139999
 30
0.0
 11
-75.788324073868907
 21
205.54360059170006
 31
0.0
  0
LINE
  5
106
100
AcDbEntity
  8
0
370
              15
  6
Continuous
 62
               7
100
AcDbLine
 10
-75.788324073868907
 20
205.54360059170006
 30
0.0
 11
-76.164122619868905
 21
205.7726625862
 31
0.0
  0
LINE
  5
107
100
AcDbEntity
  8
0
370
              15
  6
Continuous
 62
               7
100
AcDbLine
 10
-76.164124056068928
 20
205.77265927170004
 30
0.0
 11
-77.49398041536891
 21
206.67788350410001
 31
0.0
  0
LINE
  5
108
100
AcDbEntity
  8
0
370
              15
  6
Continuous
 62
               7
100
AcDbLine
 10
-77.493981133568909
 20
206.67788184680001
 30
0.0
 11
-79.17524335536892
 21
208.11184862699997
 31
0.0
  0
SPLINE
  5
109
100
AcDbEntity
  8
0
370
              15
  6
Continuous
 62
               7
100
AcDbSpline
210
0.0
220
0.0
230
1.0
 70
               8
 71
               2
 72
              14
 73
              11
 74
               0
 42
0.000001
 43
0.000001
 40
0.0
 40
0.0
 40
0.0
 40
1.0
 40
1.0
 40
2.0
 40
3.0
 40
4.0
 40
5.0
 40
6.0
 40
6.0
 40
7.0
 40
7.0
 40
7.0
 10
-81.546341285325511
 20
210.47833587003686
 30
0.0
 10
-81.545825734904057
 20
210.4772960310849
 30
0.0
 10
-81.545310184482602
 20
210.47625619213295
 30
0.0
 10
-81.505089250141666
 20
210.39509164553749
 30
0.0
 10
-81.321877312162925
 20
210.02799313536423
 30
0.0
 10
-81.097497341498226
 20
209.64356344611519
 30
0.0
 10
-80.922469577608624
 20
209.33255079239268
 30
0.0
 10
-80.673837417205888
 20
208.95658246872915
 30
0.0
 10
-80.522979581278364
 20
208.79540160405281
 30
0.0
 10
-80.522979379262395
 20
208.79540138598782
 30
0.0
 10
-80.522979177246427
 20
208.79540116792282
 30
0.0
  0
LINE
  5
10A
100
AcDbEntity
  8
0
370
              15
  6
Continuous
 62
               7
100
AcDbLine
 10
-80.522979177246427
 20
208.79540116792282
 30
0.0
 11
-80.539004451831701
 21
208.74629715318588
 31
0.0
  0
SPLINE
  5
10B
100
AcDbEntity
  8
0
370
              15
  6
Continuous
 62
               7
100
AcDbSpline
210
0.0
220
0.0
230
1.0
 70
               8
 71
               2
 72
              16
 73
              13
 74
               0
 42
0.000001
 43
0.000001
 40
0.0
 40
0.0
 40
0.0
 40
1.0
 40
1.0
 40
2.0
 40
3.0
 40
4.0
 40
5.0
 40
6.0
 40
7.0
 40
8.0
 40
8.0
 40
9.0
 40
9.0
 40
9.0
 10
-81.477997984219527
 20
205.94540128844574
 30
0.0
 10
-81.528237339356522
 20
205.94515876068078
 30
0.0
 10
-81.578476694493517
 20
205.94491623291583
 30
0.0
 10
-82.685461191484066
 20
205.9321610098159
 30
0.0
 10
-85.471145208024538
 20
206.04497211790772
 30
0.0
 10
-88.288233885705878
 20
206.67949401591693
 30
0.0
 10
-91.576789520912072
 20
207.70264863270177
 30
0.0
 10
-94.809649691371916
 20
209.09557884302308
 30
0.0
 10
-97.732206006876297
 20
210.3995297279007
 30
0.0
 10
-100.55699944113626
 20
211.40306388060969
 30
0.0
 10
-101.90827939982266
 20
211.82280716977505
 30
0.0
 10
-101.9699451401943
 20
211.84222325470085
 30
0.0
 10
-102.03161088056594
 20
211.86163933962666
 30
0.0
  0
SPLINE
  5
10C
100
AcDbEntity
  8
0
370
              15
  6
Continuous
 62
               7
100
AcDbSpline
210
0.0
220
0.0
230
1.0
 70
               8
 71
               2
 72
              14
 73
              11
 74
               0
 42
0.000001
 43
0.000001
 40
0.0
 40
0.0
 40
0.0
 40
1.0
 40
1.0
 40
2.0
 40
3.0
 40
4.0
 40
5.0
 40
6.0
 40
6.0
 40
7.0
 40
7.0
 40
7.0
 10
-81.343922734832333
 20
220.82993472387716
 30
0.0
 10
-81.358194867747855
 20
220.78612995013651
 30
0.0
 10
-81.372467000663377
 20
220.74232517639587
 30
0.0
 10
-81.752196749864467
 20
219.60522251620796
 30
0.0
 10
-82.235468192800724
 20
217.83391627383992
 30
0.0
 10
-82.466102432564114
 20
216.52014155581969
 30
0.0
 10
-82.571116637251961
 20
215.09340396251321
 30
0.0
 10
-82.449583197643662
 20
213.63258782402659
 30
0.0
 10
-82.361157163302536
 20
212.95157487131007
 30
0.0
 10
-82.358307475000927
 20
212.92886732022629
 30
0.0
 10
-82.355457786699318
 20
212.9061597691425
 30
0.0
  0
SPLINE
  5
10D
100
AcDbEntity
  8
0
370
              15
  6
Continuous
 62
               7
100
AcDbSpline
210
0.0
220
0.0
230
1.0
 70
               8
 71
               2
 72
              13
 73
              10
 74
               0
 42
0.000001
 43
0.000001
 40
0.0
 40
0.0
 40
0.0
 40
1.0
 40
1.0
 40
2.0
 40
3.0
 40
4.0
 40
5.0
 40
5.0
 40
6.0
 40
6.0
 40
6.0
 10
-82.355469154542945
 20
212.90615815330398
 30
0.0
 10
-82.353242398516571
 20
212.89636199516241
 30
0.0
 10
-82.351015642490196
 20
212.88656583702084
 30
0.0
 10
-82.276739372141648
 20
212.55300933687158
 30
0.0
 10
-82.071431175412144
 20
211.73612244416745
 30
0.0
 10
-81.819784516714648
 20
211.10367227753272
 30
0.0
 10
-81.661330219828798
 20
210.73501355491669
 30
0.0
 10
-81.554531548085478
 20
210.49667788549505
 30
0.0
 10
-81.550436416705494
 20
210.48750687776595
 30
0.0
 10
-81.546341285325511
 20
210.47833587003686
 30
0.0
  0
LINE
  5
10E
100
AcDbEntity
  8
0
370
              15
  6
Continuous
 62
               7
100
AcDbLine
 10
-48.662677229868947
 20
184.16617719969997
 30
0.0
 11
-47.949367636468921
 21
184.47662689260005
 31
0.0
  0
SPLINE
  5
10F
100
AcDbEntity
  8
0
370
              15
  6
Continuous
 62
               7
100
AcDbSpline
210
0.0
220
0.0
230
1.0
 70
               8
 71
               2
 72
              12
 73
               9
 74
               0
 42
0.000001
 43
0.000001
 40
0.0
 40
0.0
 40
0.0
 40
1.0
 40
1.0
 40
2.0
 40
3.0
 40
4.0
 40
4.0
 40
5.0
 40
5.0
 40
5.0
 10
-97.423548341381306
 20
201.80435113294027
 30
0.0
 10
-97.422548287628146
 20
201.80282899544761
 30
0.0
 10
-97.421548233874987
 20
201.80130685795496
 30
0.0
 10
-97.355158912110753
 20
201.70113679133783
 30
0.0
 10
-97.226460429645371
 20
201.49711690663321
 30
0.0
 10
-97.11443727679152
 20
201.29784323265471
 30
0.0
 10
-97.063201041404952
 20
201.20353599952466
 30
0.0
 10
-97.062315339643177
 20
201.20191176162177
 30
0.0
 10
-97.061429637881403
 20
201.20028752371888
 30
0.0
  0
SPLINE
  5
110
100
AcDbEntity
  8
0
370
              15
  6
Continuous
 62
               7
100
AcDbSpline
210
0.0
220
0.0
230
1.0
 70
               8
 71
               2
 72
              16
 73
              13
 74
               0
 42
0.000001
 43
0.000001
 40
0.0
 40
0.0
 40
0.0
 40
1.0
 40
1.0
 40
2.0
 40
3.0
 40
4.0
 40
5.0
 40
6.0
 40
7.0
 40
8.0
 40
8.0
 40
9.0
 40
9.0
 40
9.0
 10
-46.217872000770839
 20
194.43373261705449
 30
0.0
 10
-46.237108857027451
 20
194.44250333584961
 30
0.0
 10
-46.256345713284063
 20
194.45127405464473
 30
0.0
 10
-46.835763751464796
 20
194.72139546742631
 30
0.0
 10
-47.624485969785425
 20
195.03155598593662
 30
0.0
 10
-47.87967400182508
 20
195.10929427492056
 30
0.0
 10
-48.066935894432774
 20
195.18518643783091
 30
0.0
 10
-49.086255990813569
 20
195.63237301423453
 30
0.0
 10
-50.47530737553636
 20
196.08573347897948
 30
0.0
 10
-51.994666047329289
 20
196.6125656407313
 30
0.0
 10
-53.024918846221667
 20
196.94785980602933
 30
0.0
 10
-53.026183425028549
 20
196.94827015269323
 30
0.0
 10
-53.027448003835431
 20
196.94868049935712
 30
0.0
  0
LINE
  5
111
100
AcDbEntity
  8
0
370
              15
  6
Continuous
 62
               7
100
AcDbLine
 10
-46.173268387468951
 20
194.48817594800005
 30
0.0
 11
-46.111469653768935
 21
194.56433155260004
 31
0.0
  0
LINE
  5
112
100
AcDbEntity
  8
0
370
              15
  6
Continuous
 62
               7
100
AcDbLine
 10
-46.217868944868925
 20
194.43373209440006
 30
0.0
 11
-46.173268295768921
 21
194.48817237210005
 31
0.0
  0
LINE
  5
113
100
AcDbEntity
  8
0
370
              15
  6
Continuous
 62
               7
100
AcDbLine
 10
-75.720995531869605
 20
205.27897556044491
 30
0.0
 11
-75.874862094893942
 21
205.36334630001124
 31
0.0
  0
LINE
  5
114
100
AcDbEntity
  8
0
370
              15
  6
Continuous
 62
               7
100
AcDbLine
 10
-75.874862140768911
 20
205.36334808790002
 30
0.0
 11
-76.233993786168909
 21
205.58159549929997
 31
0.0
  0
SPLINE
  5
115
100
AcDbEntity
  8
0
370
              15
  6
Continuous
 62
               7
100
AcDbSpline
210
0.0
220
0.0
230
1.0
 70
               8
 71
               2
 72
              11
 73
               8
 74
               0
 42
0.000001
 43
0.000001
 40
0.0
 40
0.0
 40
0.0
 40
1.0
 40
1.0
 40
2.0
 40
3.0
 40
3.0
 40
4.0
 40
4.0
 40
4.0
 10
-76.233992441668917
 20
205.58160238960636
 30
0.0
 10
-76.237144704798865
 20
205.58358512338771
 30
0.0
 10
-76.240296967928813
 20
205.58556785716905
 30
0.0
 10
-76.56774596699249
 20
205.78860873242593
 30
0.0
 10
-77.062816355117477
 20
206.12237459568451
 30
0.0
 10
-77.250495050574031
 20
206.25264780253485
 30
0.0
 10
-77.253734250199685
 20
206.25488978082637
 30
0.0
 10
-77.256973449825338
 20
206.2571317591179
 30
0.0
  0
LINE
  5
116
100
AcDbEntity
  8
0
370
              15
  6
Continuous
 62
               7
100
AcDbLine
 10
-78.79651758606893
 20
207.47798649130004
 30
0.0
 11
-77.256986135268946
 21
206.25711283409998
 31
0.0
  0
LINE
  5
117
100
AcDbEntity
  8
0
370
              15
  6
Continuous
 62
               7
100
AcDbLine
 10
-78.79651758606893
 20
207.47798649130004
 30
0.0
 11
-79.284815654268911
 21
207.93245803340005
 31
0.0
  0
LINE
  5
118
100
AcDbEntity
  8
0
370
              15
  6
Continuous
 62
               7
100
AcDbLine
 10
-79.284815654268911
 20
207.93245803340005
 30
0.0
 11
-79.288337581168932
 21
207.94790222899996
 31
0.0
  0
SPLINE
  5
119
100
AcDbEntity
  8
0
370
              15
  6
Continuous
 62
               7
100
AcDbSpline
210
0.0
220
0.0
230
1.0
 70
               8
 71
               2
 72
              16
 73
              13
 74
               0
 42
0.000001
 43
0.000001
 40
0.0
 40
0.0
 40
0.0
 40
1.0
 40
1.0
 40
2.0
 40
3.0
 40
4.0
 40
5.0
 40
6.0
 40
7.0
 40
8.0
 40
8.0
 40
9.0
 40
9.0
 40
9.0
 10
-79.288337581143352
 20
207.94790222899837
 30
0.0
 10
-79.288313539247511
 20
207.94799681747827
 30
0.0
 10
-79.28828949735167
 20
207.94809140595817
 30
0.0
 10
-79.286859354000896
 20
207.95391020350394
 30
0.0
 10
-79.283328982009195
 20
207.96605184004511
 30
0.0
 10
-79.277104194557793
 20
207.98095818814136
 30
0.0
 10
-79.266982948304232
 20
207.99890151267221
 30
0.0
 10
-79.251616692711465
 20
208.0223306869558
 30
0.0
 10
-79.226370946836525
 20
208.05590411812159
 30
0.0
 10
-79.19304730175763
 20
208.09317646502109
 30
0.0
 10
-79.175528370089395
 20
208.1115474237597
 30
0.0
 10
-79.175385862727566
 20
208.11169802536023
 30
0.0
 10
-79.175243355365737
 20
208.11184862696075
 30
0.0
  0
SPLINE
  5
11A
100
AcDbEntity
  8
0
370
              15
  6
Continuous
 62
               7
100
AcDbSpline
210
0.0
220
0.0
230
1.0
 70
               8
 71
               2
 72
              14
 73
              11
 74
               0
 42
0.000001
 43
0.000001
 40
0.0
 40
0.0
 40
0.0
 40
1.0
 40
1.0
 40
2.0
 40
3.0
 40
4.0
 40
5.0
 40
6.0
 40
6.0
 40
7.0
 40
7.0
 40
7.0
 10
-81.248415552899914
 20
210.98775676921582
 30
0.0
 10
-81.260160088574494
 20
211.01908833580029
 30
0.0
 10
-81.271904624249075
 20
211.05041990238476
 30
0.0
 10
-81.639040839893013
 20
211.98710499640993
 30
0.0
 10
-82.105481632145981
 20
213.64149817076111
 30
0.0
 10
-82.227149438587659
 20
214.9514846395632
 30
0.0
 10
-82.224432318604315
 20
217.47785006638424
 30
0.0
 10
-81.452890691686477
 20
220.26434528688367
 30
0.0
 10
-81.140274920093233
 20
221.19919245189317
 30
0.0
 10
-81.130006958558525
 20
221.23039747962167
 30
0.0
 10
-81.119738997023816
 20
221.26160250735018
 30
0.0
  0
SPLINE
  5
11B
100
AcDbEntity
  8
0
370
              15
  6
Continuous
 62
               7
100
AcDbSpline
210
0.0
220
0.0
230
1.0
 70
               8
 71
               2
 72
              13
 73
              10
 74
               0
 42
0.000001
 43
0.000001
 40
0.0
 40
0.0
 40
0.0
 40
1.0
 40
1.0
 40
2.0
 40
3.0
 40
4.0
 40
5.0
 40
5.0
 40
6.0
 40
6.0
 40
6.0
 10
-77.679725383296145
 20
206.03598000595025
 30
0.0
 10
-77.696707415678205
 20
206.03748282799933
 30
0.0
 10
-77.713689448060265
 20
206.0389856500484
 30
0.0
 10
-78.155317326609676
 20
206.07949241085885
 30
0.0
 10
-78.833637501171651
 20
206.12510921203102
 30
0.0
 10
-79.717448407364984
 20
206.14748626353321
 30
0.0
 10
-80.868662900752938
 20
206.03145076401654
 30
0.0
 10
-81.444133812354877
 20
205.95005554099089
 30
0.0
 10
-81.461063887136604
 20
205.94772882768603
 30
0.0
 10
-81.47799396191833
 20
205.94540211438118
 30
0.0
  0
LINE
  5
11C
100
AcDbEntity
  8
0
370
              15
  6
Continuous
 62
               7
100
AcDbLine
 10
-79.868137455668929
 20
207.93741221890002
 30
0.0
 11
-80.538944307368908
 21
208.74623890420003
 31
0.0
  0
SPLINE
  5
11D
100
AcDbEntity
  8
0
370
              15
  6
Continuous
 62
               7
100
AcDbSpline
210
0.0
220
0.0
230
1.0
 70
               8
 71
               2
 72
              12
 73
               9
 74
               0
 42
0.000001
 43
0.000001
 40
0.0
 40
0.0
 40
0.0
 40
1.0
 40
1.0
 40
2.0
 40
3.0
 40
4.0
 40
4.0
 40
5.0
 40
5.0
 40
5.0
 10
-77.779580814116613
 20
206.10820937824144
 30
0.0
 10
-77.788930283814679
 20
206.11526812304925
 30
0.0
 10
-77.798279753512745
 20
206.12232686785705
 30
0.0
 10
-78.079512009717902
 20
206.3334483222684
 30
0.0
 10
-78.890500638843761
 20
206.96520998220717
 30
0.0
 10
-79.610864179432483
 20
207.67508248573472
 30
0.0
 10
-79.852027355469644
 20
207.92104201881784
 30
0.0
 10
-79.860082023564573
 20
207.92922705354022
 30
0.0
 10
-79.868136691659501
 20
207.93741208826259
 30
0.0
  0
LINE
  5
11E
100
AcDbEntity
  8
0
370
              15
  6
Continuous
 62
               7
100
AcDbLine
 10
-77.679725383268917
 20
206.03598000600005
 30
0.0
 11
-77.779580814068922
 21
206.10820937819994
 31
0.0
  0
LINE
  5
11F
100
AcDbEntity
  8
0
370
              15
  6
Continuous
 62
               7
100
AcDbLine
 10
-80.539004451868934
 20
208.74629715319998
 30
0.0
 11
-80.239472191168929
 21
208.43693492520003
 31
0.0
  0
SPLINE
  5
120
100
AcDbEntity
  8
0
370
              15
  6
Continuous
 62
               7
100
AcDbSpline
210
0.0
220
0.0
230
1.0
 70
               8
 71
               2
 72
              12
 73
               9
 74
               0
 42
0.000001
 43
0.000001
 40
0.0
 40
0.0
 40
0.0
 40
1.0
 40
1.0
 40
2.0
 40
3.0
 40
4.0
 40
4.0
 40
5.0
 40
5.0
 40
5.0
 10
-80.239472191153013
 20
208.43693492516365
 30
0.0
 10
-80.22298127414517
 20
208.42310089076295
 30
0.0
 10
-80.206490357137326
 20
208.40926685636225
 30
0.0
 10
-79.778659953611779
 20
208.04825199522725
 30
0.0
 10
-78.644604855437294
 20
207.12629788589527
 30
0.0
 10
-77.572650009840274
 20
206.44972293348292
 30
0.0
 10
-77.276695633946517
 20
206.26918340349948
 30
0.0
 10
-77.266840212374362
 20
206.26315156396265
 30
0.0
 10
-77.256984790802207
 20
206.25711972442582
 30
0.0
  0
SPLINE
  5
121
100
AcDbEntity
  8
0
370
              15
  6
Continuous
 62
               7
100
AcDbSpline
210
0.0
220
0.0
230
1.0
 70
               8
 71
               2
 72
              13
 73
              10
 74
               0
 42
0.000001
 43
0.000001
 40
0.0
 40
0.0
 40
0.0
 40
1.0
 40
1.0
 40
2.0
 40
3.0
 40
4.0
 40
5.0
 40
5.0
 40
6.0
 40
6.0
 40
6.0
 10
-75.90941422329881
 20
205.36782392064515
 30
0.0
 10
-75.909885940395426
 20
205.36802010714763
 30
0.0
 10
-75.910357657492042
 20
205.36821629365011
 30
0.0
 10
-76.017150413683154
 20
205.41255836962216
 30
0.0
 10
-76.297451046651176
 20
205.53380695590408
 30
0.0
 10
-76.855954788592314
 20
205.76872888900948
 30
0.0
 10
-77.451572821033082
 20
205.96393306029506
 30
0.0
 10
-77.665473695059504
 20
206.03146156770026
 30
0.0
 10
-77.672599539177824
 20
206.03372078682526
 30
0.0
 10
-77.679725383296145
 20
206.03598000595025
 30
0.0
  0
SPLINE
  5
122
100
AcDbEntity
  8
0
370
              15
  6
Continuous
 62
               7
100
AcDbSpline
210
0.0
220
0.0
230
1.0
 70
               8
 71
               2
 72
              18
 73
              15
 74
               0
 42
0.000001
 43
0.000001
 40
0.0
 40
0.0
 40
0.0
 40
1.0
 40
1.0
 40
2.0
 40
3.0
 40
4.0
 40
5.0
 40
6.0
 40
7.0
 40
8.0
 40
9.0
 40
10.0
 40
10.0
 40
11.0
 40
11.0
 40
11.0
 10
-81.392936246803501
 20
210.85419818896082
 30
0.0
 10
-81.392956611943603
 20
210.85426739196879
 30
0.0
 10
-81.392976977083705
 20
210.85433659497676
 30
0.0
 10
-81.394352247496201
 20
210.85858299102222
 30
0.0
 10
-81.39584202468761
 20
210.86756960191303
 30
0.0
 10
-81.393656667559569
 20
210.87631126539554
 30
0.0
 10
-81.389034439953704
 20
210.8850517973973
 30
0.0
 10
-81.372156925317356
 20
210.90713649487839
 30
0.0
 10
-81.336762595605748
 20
210.93527185035703
 30
0.0
 10
-81.313656113210911
 20
210.95102696130471
 30
0.0
 10
-81.290113358671121
 20
210.96519257339753
 30
0.0
 10
-81.262808983252668
 20
210.98011038763525
 30
0.0
 10
-81.24886344711517
 20
210.98751748762231
 30
0.0
 10
-81.248639118021956
 20
210.98763706308586
 30
0.0
 10
-81.248414788928741
 20
210.9877566385494
 30
0.0
  0
SPLINE
  5
123
100
AcDbEntity
  8
0
370
              15
  6
Continuous
 62
               7
100
AcDbSpline
210
0.0
220
0.0
230
1.0
 70
               8
 71
               2
 72
              14
 73
              11
 74
               0
 42
0.000001
 43
0.000001
 40
0.0
 40
0.0
 40
0.0
 40
1.0
 40
1.0
 40
2.0
 40
3.0
 40
4.0
 40
5.0
 40
6.0
 40
6.0
 40
7.0
 40
7.0
 40
7.0
 10
-81.265275469796208
 20
221.23317871047982
 30
0.0
 10
-81.265386373293509
 20
221.23287599023041
 30
0.0
 10
-81.265497276790811
 20
221.232573269981
 30
0.0
 10
-81.511207013958753
 20
220.56454937454532
 30
0.0
 10
-82.180741059941269
 20
218.30447473653919
 30
0.0
 10
-82.41530841216165
 20
215.67272731184767
 30
0.0
 10
-82.28958418405584
 20
213.35838754995939
 30
0.0
 10
-81.667883038381703
 20
211.52540795705818
 30
0.0
 10
-81.40989155039243
 20
210.89621584287625
 30
0.0
 10
-81.401413898597966
 20
210.87520701591853
 30
0.0
 10
-81.392936246803501
 20
210.85419818896082
 30
0.0
  0
SPLINE
  5
124
100
AcDbEntity
  8
0
370
              15
  6
Continuous
 62
               7
100
AcDbSpline
210
0.0
220
0.0
230
1.0
 70
               8
 71
               2
 72
              17
 73
              14
 74
               0
 42
0.000001
 43
0.000001
 40
0.0
 40
0.0
 40
0.0
 40
1.0
 40
1.0
 40
2.0
 40
3.0
 40
4.0
 40
5.0
 40
6.0
 40
7.0
 40
8.0
 40
9.0
 40
9.0
 40
10.0
 40
10.0
 40
10.0
 10
-81.265275469796208
 20
221.23317871047982
 30
0.0
 10
-81.265288816323803
 20
221.23321161078678
 30
0.0
 10
-81.265302162851398
 20
221.23324451109374
 30
0.0
 10
-81.267102086187307
 20
221.23740261606304
 30
0.0
 10
-81.270474978916283
 20
221.24992123150844
 30
0.0
 10
-81.265227930881153
 20
221.26297885371287
 30
0.0
 10
-81.249354892228368
 20
221.27729016558908
 30
0.0
 10
-81.211964381719142
 20
221.27812657907452
 30
0.0
 10
-81.185418448837694
 20
221.27562083945531
 30
0.0
 10
-81.159814274742629
 20
221.27094500610644
 30
0.0
 10
-81.133546867812569
 20
221.26493774427422
 30
0.0
 10
-81.120169532296458
 20
221.26170583215958
 30
0.0
 10
-81.119954264660137
 20
221.26165416975488
 30
0.0
 10
-81.119738997023816
 20
221.26160250735018
 30
0.0
  0
SPLINE
  5
125
100
AcDbEntity
  8
0
370
              15
  6
Continuous
 62
               7
100
AcDbSpline
210
0.0
220
0.0
230
1.0
 70
               8
 71
               2
 72
              16
 73
              13
 74
               0
 42
0.000001
 43
0.000001
 40
0.0
 40
0.0
 40
0.0
 40
1.0
 40
1.0
 40
2.0
 40
3.0
 40
4.0
 40
5.0
 40
6.0
 40
7.0
 40
8.0
 40
8.0
 40
9.0
 40
9.0
 40
9.0
 10
-81.477993106222399
 20
205.94539840788036
 30
0.0
 10
-81.477990077379403
 20
205.94516282647288
 30
0.0
 10
-81.477987048536406
 20
205.9449272450654
 30
0.0
 10
-81.477807747283961
 20
205.922764825022
 30
0.0
 10
-81.476045031925921
 20
205.87183938375745
 30
0.0
 10
-81.469605964255649
 20
205.820172711841
 30
0.0
 10
-81.462805046352671
 20
205.78482022011951
 30
0.0
 10
-81.456678886094025
 20
205.76071104978041
 30
0.0
 10
-81.449948025624892
 20
205.74124877281724
 30
0.0
 10
-81.442843509004362
 20
205.72503444610004
 30
0.0
 10
-81.439213094150816
 20
205.71735037858252
 30
0.0
 10
-81.439154698541458
 20
205.71722557652072
 30
0.0
 10
-81.4390963029321
 20
205.71710077445891
 30
0.0
  0
SPLINE
  5
126
100
AcDbEntity
  8
0
370
              15
  6
Continuous
 62
               7
100
AcDbSpline
210
0.0
220
0.0
230
1.0
 70
               8
 71
               2
 72
              17
 73
              14
 74
               0
 42
0.000001
 43
0.000001
 40
0.0
 40
0.0
 40
0.0
 40
1.0
 40
1.0
 40
2.0
 40
3.0
 40
4.0
 40
5.0
 40
6.0
 40
7.0
 40
8.0
 40
9.0
 40
9.0
 40
10.0
 40
10.0
 40
10.0
 10
-102.03161164453711
 20
211.86163947029297
 30
0.0
 10
-102.03167461217195
 20
211.8614396239476
 30
0.0
 10
-102.0317375798068
 20
211.86123977760224
 30
0.0
 10
-102.03570561226518
 20
211.84885965210901
 30
0.0
 10
-102.0429396522881
 20
211.8239931360938
 30
0.0
 10
-102.04818841971239
 20
211.7966521625799
 30
0.0
 10
-102.04999545139223
 20
211.75879052439757
 30
0.0
 10
-102.04472815268279
 20
211.72279005996211
 30
0.0
 10
-102.0375202317861
 20
211.69677915101943
 30
0.0
 10
-102.02682939653111
 20
211.6736857192011
 30
0.0
 10
-102.01484713548051
 20
211.65386992231174
 30
0.0
 10
-102.00854128311788
 20
211.64419114346197
 30
0.0
 10
-102.0084402183315
 20
211.64403456511423
 30
0.0
 10
-102.00833915354512
 20
211.64387798676648
 30
0.0
  0
SPLINE
  5
127
100
AcDbEntity
  8
0
370
              15
  6
Continuous
 62
               7
100
AcDbSpline
210
0.0
220
0.0
230
1.0
 70
               8
 71
               2
 72
              16
 73
              13
 74
               0
 42
0.000001
 43
0.000001
 40
0.0
 40
0.0
 40
0.0
 40
1.0
 40
1.0
 40
2.0
 40
3.0
 40
4.0
 40
5.0
 40
6.0
 40
7.0
 40
8.0
 40
8.0
 40
9.0
 40
9.0
 40
9.0
 10
-77.679725383296145
 20
206.03598000595025
 30
0.0
 10
-77.67976919394097
 20
206.03576518262975
 30
0.0
 10
-77.679813004585796
 20
206.03555035930924
 30
0.0
 10
-77.682366847427474
 20
206.02308845654125
 30
0.0
 10
-77.692515676220111
 20
205.97290854285609
 30
0.0
 10
-77.699659596163926
 20
205.91575084721126
 30
0.0
 10
-77.702288811201171
 20
205.88403196993647
 30
0.0
 10
-77.703256370893243
 20
205.86214545091059
 30
0.0
 10
-77.703106330496425
 20
205.84255979227487
 30
0.0
 10
-77.701968361846625
 20
205.82547417846308
 30
0.0
 10
-77.701315921690863
 20
205.81777529282419
 30
0.0
 10
-77.701305643305759
 20
205.81765043953948
 30
0.0
 10
-77.701295364920654
 20
205.81752558625476
 30
0.0
  0
SPLINE
  5
128
100
AcDbEntity
  8
0
370
              15
  6
Continuous
 62
               7
100
AcDbSpline
210
0.0
220
0.0
230
1.0
 70
               8
 71
               2
 72
              16
 73
              13
 74
               0
 42
0.000001
 43
0.000001
 40
0.0
 40
0.0
 40
0.0
 40
1.0
 40
1.0
 40
2.0
 40
3.0
 40
4.0
 40
5.0
 40
6.0
 40
7.0
 40
8.0
 40
8.0
 40
9.0
 40
9.0
 40
9.0
 10
-80.239472191153013
 20
208.43693492516365
 30
0.0
 10
-80.239036993249059
 20
208.43732603449524
 30
0.0
 10
-80.238601795345105
 20
208.43771714382683
 30
0.0
 10
-80.211406704297289
 20
208.46193568989645
 30
0.0
 10
-80.156733912120828
 20
208.51309399146044
 30
0.0
 10
-80.107990978262293
 20
208.56955093697024
 30
0.0
 10
-80.057525171848951
 20
208.64256520776826
 30
0.0
 10
-80.040171489168117
 20
208.69227716078024
 30
0.0
 10
-80.034462172875507
 20
208.72292633603843
 30
0.0
 10
-80.042825283155182
 20
208.75086707819082
 30
0.0
 10
-80.048818236964038
 20
208.76284867653033
 30
0.0
 10
-80.048910760984242
 20
208.76304465896698
 30
0.0
 10
-80.049003285004446
 20
208.76324064140363
 30
0.0
  0
SPLINE
  5
129
100
AcDbEntity
  8
0
370
              15
  6
Continuous
 62
               7
100
AcDbSpline
210
0.0
220
0.0
230
1.0
 70
               8
 71
               2
 72
              12
 73
               9
 74
               0
 42
0.000001
 43
0.000001
 40
0.0
 40
0.0
 40
0.0
 40
1.0
 40
1.0
 40
2.0
 40
3.0
 40
4.0
 40
4.0
 40
5.0
 40
5.0
 40
5.0
 10
-79.638462245759214
 20
208.30678308111851
 30
0.0
 10
-79.637687601224414
 20
208.30587277173805
 30
0.0
 10
-79.636912956689613
 20
208.30496246235759
 30
0.0
 10
-79.589126985175469
 20
208.24834237093501
 30
0.0
 10
-79.478692288181648
 20
208.12369602885281
 30
0.0
 10
-79.384395434723544
 20
208.03478225082085
 30
0.0
 10
-79.35867594799241
 20
208.01105574796827
 30
0.0
 10
-79.35826170926596
 20
208.01067262008394
 30
0.0
 10
-79.357847470539511
 20
208.0102894921996
 30
0.0
  0
SPLINE
  5
12A
100
AcDbEntity
  8
0
370
              15
  6
Continuous
 62
               7
100
AcDbSpline
210
0.0
220
0.0
230
1.0
 70
               8
 71
               2
 72
              12
 73
               9
 74
               0
 42
0.000001
 43
0.000001
 40
0.0
 40
0.0
 40
0.0
 40
1.0
 40
1.0
 40
2.0
 40
3.0
 40
4.0
 40
4.0
 40
5.0
 40
5.0
 40
5.0
 10
-82.355457786699318
 20
212.9061597691425
 30
0.0
 10
-82.351607957649875
 20
212.89834767951487
 30
0.0
 10
-82.347758128600432
 20
212.89053558988724
 30
0.0
 10
-82.169873639631632
 20
212.53015336860835
 30
0.0
 10
-81.855653702677998
 20
211.88757075691001
 30
0.0
 10
-81.590974544270964
 20
211.33528260512162
 30
0.0
 10
-81.463786339072598
 20
211.06787936396552
 30
0.0
 10
-81.46101510567992
 20
211.06205812724306
 30
0.0
 10
-81.458243872287241
 20
211.05623689052061
 30
0.0
  0
SPLINE
  5
12B
100
AcDbEntity
  8
0
370
              15
  6
Continuous
 62
               7
100
AcDbSpline
210
0.0
220
0.0
230
1.0
 70
               8
 71
               2
 72
              13
 73
              10
 74
               0
 42
0.000001
 43
0.000001
 40
0.0
 40
0.0
 40
0.0
 40
1.0
 40
1.0
 40
2.0
 40
3.0
 40
4.0
 40
5.0
 40
5.0
 40
6.0
 40
6.0
 40
6.0
 10
-82.195551083324503
 20
215.88008672351748
 30
0.0
 10
-82.195820138608738
 20
215.87822342479558
 30
0.0
 10
-82.196089193892973
 20
215.87636012607368
 30
0.0
 10
-82.308666706171195
 20
215.13132095019228
 30
0.0
 10
-82.222808232358645
 20
213.97562232438474
 30
0.0
 10
-82.022867419367273
 20
212.87131892391517
 30
0.0
 10
-81.619733158729261
 20
211.640208216563
 30
0.0
 10
-81.402766986762387
 20
211.05208177357622
 30
0.0
 10
-81.395611509525466
 20
211.03245078240997
 30
0.0
 10
-81.388456032288545
 20
211.01281979124371
 30
0.0
  0
POLYLINE
  5
12C
100
AcDbEntity
  8
0
370
              15
  6
Continuous
 62
               7
100
AcDb2dPolyline
 66
               1
 10
0.0
 20
0.0
 30
0.0
 75
               5
  0
VERTEX
  5
12D
100
AcDbEntity
  8
0
370
              15
  6
Continuous
 62
               7
100
AcDbVertex
100
AcDb2dVertex
 10
-81.320305340068941
 20
210.79986820379997
 30
0.0
  0
VERTEX
  5
12E
100
AcDbEntity
  8
0
370
              15
  6
Continuous
 62
               7
100
AcDbVertex
100
AcDb2dVertex
 10
-81.284405202768923
 20
210.68771037420004
 30
0.0
  0
VERTEX
  5
12F
100
AcDbEntity
  8
0
370
              15
  6
Continuous
 62
               7
100
AcDbVertex
100
AcDb2dVertex
 10
-81.257002270568918
 20
210.63063314880003
 30
0.0
  0
VERTEX
  5
130
100
AcDbEntity
  8
0
370
              15
  6
Continuous
 62
               7
100
AcDbVertex
100
AcDb2dVertex
 10
-81.24973230306891
 20
210.61569227869995
 30
0.0
  0
VERTEX
  5
131
100
AcDbEntity
  8
0
370
              15
  6
Continuous
 62
               7
100
AcDbVertex
100
AcDb2dVertex
 10
-81.247138514468915
 20
210.61041523409995
 30
0.0
  0
VERTEX
  5
132
100
AcDbEntity
  8
0
370
              15
  6
Continuous
 62
               7
100
AcDbVertex
100
AcDb2dVertex
 10
-81.246817825968932
 20
210.60978675219997
 30
0.0
  0
VERTEX
  5
133
100
AcDbEntity
  8
0
370
              15
  6
Continuous
 62
               7
100
AcDbVertex
100
AcDb2dVertex
 10
-81.246817825968932
 20
210.60978675219997
 30
0.0
  0
SEQEND
  5
134
100
AcDbEntity
  8
0
370
              15
  6
Continuous
 62
               7
  0
SPLINE
  5
135
100
AcDbEntity
  8
0
370
              15
  6
Continuous
 62
               7
100
AcDbSpline
210
0.0
220
0.0
230
1.0
 70
               8
 71
               2
 72
              13
 73
              10
 74
               0
 42
0.000001
 43
0.000001
 40
0.0
 40
0.0
 40
0.0
 40
1.0
 40
1.0
 40
2.0
 40
3.0
 40
4.0
 40
5.0
 40
5.0
 40
6.0
 40
6.0
 40
6.0
 10
-81.311290008300134
 20
210.74769041601689
 30
0.0
 10
-81.307082911671628
 20
210.73948737801732
 30
0.0
 10
-81.302875815043123
 20
210.73128434001774
 30
0.0
 10
-81.160939313394451
 20
210.45167660015579
 30
0.0
 10
-80.79332765757276
 20
209.77123772545031
 30
0.0
 10
-80.429690758133162
 20
209.26210862118876
 30
0.0
 10
-80.207606058609755
 20
208.96747781375802
 30
0.0
 10
-80.060314114852403
 20
208.77784044982059
 30
0.0
 10
-80.054658699928453
 20
208.77054054561205
 30
0.0
 10
-80.049003285004503
 20
208.76324064140351
 30
0.0
  0
LINE
  5
136
100
AcDbEntity
  8
0
370
              15
  6
Continuous
 62
               7
100
AcDbLine
 10
-79.831620818268945
 20
208.50662177200002
 30
0.0
 11
-81.305214683568906
 21
210.67284973410005
 31
0.0
  0
LINE
  5
137
100
AcDbEntity
  8
0
370
              15
  6
Continuous
 62
               7
100
AcDbLine
 10
-79.284956956268942
 20
207.93231700369995
 30
0.0
 11
-79.831620818268945
 21
208.50662177200002
 31
0.0
  0
SPLINE
  5
138
100
AcDbEntity
  8
0
370
              15
  6
Continuous
 62
               7
100
AcDbSpline
210
0.0
220
0.0
230
1.0
 70
               8
 71
               2
 72
              13
 73
              10
 74
               0
 42
0.000001
 43
0.000001
 40
0.0
 40
0.0
 40
0.0
 40
1.0
 40
1.0
 40
2.0
 40
3.0
 40
4.0
 40
5.0
 40
5.0
 40
6.0
 40
6.0
 40
6.0
 10
-36.424200765961743
 20
188.51866909665262
 30
0.0
 10
-36.448604289684582
 20
188.54028835757265
 30
0.0
 10
-36.47300781340742
 20
188.56190761849268
 30
0.0
 10
-37.196929471573796
 20
189.21339732941829
 30
0.0
 10
-38.948586203739225
 20
190.64518441316909
 30
0.0
 10
-41.955820476862343
 20
192.54941174922851
 30
0.0
 10
-45.056456812867552
 20
193.94548227737107
 30
0.0
 10
-46.145473199178909
 20
194.40311141483278
 30
0.0
 10
-46.181679828066919
 20
194.41842171751557
 30
0.0
 10
-46.217886456954929
 20
194.43373202019836
 30
0.0
  0
SPLINE
  5
139
100
AcDbEntity
  8
0
370
              15
  6
Continuous
 62
               7
100
AcDbSpline
210
0.0
220
0.0
230
1.0
 70
               8
 71
               2
 72
              17
 73
              14
 74
               0
 42
0.000001
 43
0.000001
 40
0.0
 40
0.0
 40
0.0
 40
1.0
 40
1.0
 40
2.0
 40
3.0
 40
4.0
 40
5.0
 40
6.0
 40
7.0
 40
8.0
 40
9.0
 40
9.0
 40
10.0
 40
10.0
 40
10.0
 10
-81.162584747828916
 20
210.80990425773723
 30
0.0
 10
-81.162808369535426
 20
210.80977913455212
 30
0.0
 10
-81.163031991241937
 20
210.809654011367
 30
0.0
 10
-81.191717027662477
 20
210.79398822338612
 30
0.0
 10
-81.232010936459446
 20
210.76874580527328
 30
0.0
 10
-81.257107755548233
 20
210.75005449300079
 30
0.0
 10
-81.287175059368153
 20
210.72408037445859
 30
0.0
 10
-81.300764020096878
 20
210.70551495826953
 30
0.0
 10
-81.306175186440996
 20
210.69629589737394
 30
0.0
 10
-81.308360054423119
 20
210.68611595688617
 30
0.0
 10
-81.306601580253684
 20
210.67724327545102
 30
0.0
 10
-81.30511539669935
 20
210.67306253187883
 30
0.0
 10
-81.305092665962391
 20
210.67299457800073
 30
0.0
 10
-81.305069935225433
 20
210.67292662412262
 30
0.0
  0
SPLINE
  5
13A
100
AcDbEntity
  8
0
370
              15
  6
Continuous
 62
               7
100
AcDbSpline
210
0.0
220
0.0
230
1.0
 70
               8
 71
               2
 72
              15
 73
              12
 74
               0
 42
0.000001
 43
0.000001
 40
0.0
 40
0.0
 40
0.0
 40
1.0
 40
1.0
 40
2.0
 40
3.0
 40
4.0
 40
5.0
 40
6.0
 40
7.0
 40
7.0
 40
8.0
 40
8.0
 40
8.0
 10
-81.119738997023816
 20
221.26160250735018
 30
0.0
 10
-81.09702893813521
 20
221.31501361327622
 30
0.0
 10
-81.074318879246604
 20
221.36842471920227
 30
0.0
 10
-80.757381171836457
 20
222.1168660186172
 30
0.0
 10
-79.464873922629337
 20
225.09898467781011
 30
0.0
 10
-77.401993610096142
 20
228.10656025390745
 30
0.0
 10
-76.165968713024867
 20
229.7345090601483
 30
0.0
 10
-75.010238667436326
 20
231.058759461818
 30
0.0
 10
-74.047278983924159
 20
231.91238696313326
 30
0.0
 10
-73.675117864070543
 20
232.2177967148375
 30
0.0
 10
-73.66273594698383
 20
232.22803340834918
 30
0.0
 10
-73.650354029897116
 20
232.23827010186085
 30
0.0
  0
SPLINE
  5
13B
100
AcDbEntity
  8
0
370
              15
  6
Continuous
 62
               7
100
AcDbSpline
210
0.0
220
0.0
230
1.0
 70
               8
 71
               2
 72
              13
 73
              10
 74
               0
 42
0.000001
 43
0.000001
 40
0.0
 40
0.0
 40
0.0
 40
1.0
 40
1.0
 40
2.0
 40
3.0
 40
4.0
 40
5.0
 40
5.0
 40
6.0
 40
6.0
 40
6.0
 10
-46.217886456954929
 20
194.43373202019836
 30
0.0
 10
-46.217947004756255
 20
194.43357462643434
 30
0.0
 10
-46.21800755255758
 20
194.43341723267031
 30
0.0
 10
-46.224806319808792
 20
194.41537123474995
 30
0.0
 10
-46.239582787502556
 20
194.38045185216163
 30
0.0
 10
-46.253604137929685
 20
194.35522688853189
 30
0.0
 10
-46.263454484856808
 20
194.33891039815671
 30
0.0
 10
-46.268281958391569
 20
194.33109019945323
 30
0.0
 10
-46.268365051621984
 20
194.33095523013816
 30
0.0
 10
-46.2684481448524
 20
194.33082026082309
 30
0.0
  0
LINE
  5
13C
100
AcDbEntity
  8
0
370
              15
  6
Continuous
 62
               7
100
AcDbLine
 10
-80.239472191168929
 20
208.43693492520003
 30
0.0
 11
-80.522979177268937
 21
208.79540116789997
 31
0.0
  0
SPLINE
  5
13D
100
AcDbEntity
  8
0
370
              15
  6
Continuous
 62
               7
100
AcDbSpline
210
0.0
220
0.0
230
1.0
 70
               8
 71
               2
 72
              16
 73
              13
 74
               0
 42
0.000001
 43
0.000001
 40
0.0
 40
0.0
 40
0.0
 40
1.0
 40
1.0
 40
2.0
 40
3.0
 40
4.0
 40
5.0
 40
6.0
 40
7.0
 40
8.0
 40
8.0
 40
9.0
 40
9.0
 40
9.0
 10
-81.546341285325511
 20
210.47833587003686
 30
0.0
 10
-81.545859956282598
 20
210.47861511670141
 30
0.0
 10
-81.545378627239685
 20
210.47889436336595
 30
0.0
 10
-81.515337116312068
 20
210.49615183452727
 30
0.0
 10
-81.441429605261916
 20
210.54092605922528
 30
0.0
 10
-81.379213404288905
 20
210.59249155713042
 30
0.0
 10
-81.330097688869202
 20
210.64403790625249
 30
0.0
 10
-81.303441432444558
 20
210.69287108895776
 30
0.0
 10
-81.302677727563761
 20
210.71694868568636
 30
0.0
 10
-81.306488995766742
 20
210.73557595398893
 30
0.0
 10
-81.311147997074315
 20
210.74730869150062
 30
0.0
 10
-81.311219002687224
 20
210.74749955375876
 30
0.0
 10
-81.311290008300134
 20
210.74769041601689
 30
0.0
  0
SPLINE
  5
13E
100
AcDbEntity
  8
0
370
              15
  6
Continuous
 62
               7
100
AcDbSpline
210
0.0
220
0.0
230
1.0
 70
               8
 71
               2
 72
              15
 73
              12
 74
               0
 42
0.000001
 43
0.000001
 40
0.0
 40
0.0
 40
0.0
 40
1.0
 40
1.0
 40
2.0
 40
3.0
 40
4.0
 40
5.0
 40
6.0
 40
7.0
 40
7.0
 40
8.0
 40
8.0
 40
8.0
 10
-81.265274392632918
 20
221.2331811963561
 30
0.0
 10
-81.242421919952861
 20
221.28683118718379
 30
0.0
 10
-81.219569447272804
 20
221.34048117801149
 30
0.0
 10
-80.900644936055116
 20
222.09227247634203
 30
0.0
 10
-79.601331680578298
 20
225.08514206657082
 30
0.0
 10
-77.52906850681704
 20
228.09918498371826
 30
0.0
 10
-76.289297905454347
 20
229.72576418417896
 30
0.0
 10
-75.126163481551814
 20
231.05274927096445
 30
0.0
 10
-74.129812172860269
 20
231.92911752953501
 30
0.0
 10
-73.72834629640117
 20
232.25419598035023
 30
0.0
 10
-73.714991140663855
 20
232.26509714165354
 30
0.0
 10
-73.70163598492654
 20
232.27599830295685
 30
0.0
  0
LINE
  5
13F
100
AcDbEntity
  8
0
370
              15
  6
Continuous
 62
               7
100
AcDbLine
 10
-81.305251972668927
 20
210.67283172320003
 30
0.0
 11
-81.393084860868939
 21
210.85412374019995
 31
0.0
  0
SPLINE
  5
140
100
AcDbEntity
  8
0
370
              15
  6
Continuous
 62
               7
100
AcDbSpline
210
0.0
220
0.0
230
1.0
 70
               8
 71
               2
 72
              15
 73
              12
 74
               0
 42
0.000001
 43
0.000001
 40
0.0
 40
0.0
 40
0.0
 40
1.0
 40
1.0
 40
2.0
 40
3.0
 40
4.0
 40
5.0
 40
6.0
 40
7.0
 40
7.0
 40
8.0
 40
8.0
 40
8.0
 10
-36.423580275766753
 20
188.51852291070543
 30
0.0
 10
-36.42367327923607
 20
188.51837257348672
 30
0.0
 10
-36.423766282705387
 20
188.518222236268
 30
0.0
 10
-36.435137576209101
 20
188.49908935861436
 30
0.0
 10
-36.457024115391434
 20
188.46926953884156
 30
0.0
 10
-36.483044353555258
 20
188.44201804349257
 30
0.0
 10
-36.519190251133793
 20
188.41339947136839
 30
0.0
 10
-36.548628262902852
 20
188.39829083907989
 30
0.0
 10
-36.567516860243856
 20
188.39032892656292
 30
0.0
 10
-36.57700454752181
 20
188.38658034137745
 30
0.0
 10
-36.577157486616628
 20
188.38651940579223
 30
0.0
 10
-36.577310425711445
 20
188.386458470207
 30
0.0
  0
SPLINE
  5
141
100
AcDbEntity
  8
0
370
              15
  6
Continuous
 62
               7
100
AcDbSpline
210
0.0
220
0.0
230
1.0
 70
               8
 71
               2
 72
              13
 73
              10
 74
               0
 42
0.000001
 43
0.000001
 40
0.0
 40
0.0
 40
0.0
 40
1.0
 40
1.0
 40
2.0
 40
3.0
 40
4.0
 40
5.0
 40
5.0
 40
6.0
 40
6.0
 40
6.0
 10
-35.11254155426893
 20
186.80887864990984
 30
0.0
 10
-35.098482167148475
 20
186.79044722475521
 30
0.0
 10
-35.084422780028021
 20
186.77201579960058
 30
0.0
 10
-34.658171633889353
 20
186.21922707783438
 30
0.0
 10
-33.703750124980999
 20
184.89003016967536
 30
0.0
 10
-33.132538350653519
 20
183.77451602010819
 30
0.0
 10
-32.884305143473327
 20
183.25324541449777
 30
0.0
 10
-32.762599859474719
 20
182.99252701072339
 30
0.0
 10
-32.753896891619732
 20
182.97390460303342
 30
0.0
 10
-32.745193923764745
 20
182.95528219534344
 30
0.0
  0
SPLINE
  5
142
100
AcDbEntity
  8
0
370
              15
  6
Continuous
 62
               7
100
AcDbSpline
210
0.0
220
0.0
230
1.0
 70
               8
 71
               2
 72
              16
 73
              13
 74
               0
 42
0.000001
 43
0.000001
 40
0.0
 40
0.0
 40
0.0
 40
1.0
 40
1.0
 40
2.0
 40
3.0
 40
4.0
 40
5.0
 40
6.0
 40
7.0
 40
8.0
 40
8.0
 40
9.0
 40
9.0
 40
9.0
 10
-33.09981292567214
 20
174.00985284772457
 30
0.0
 10
-33.101071565977762
 20
174.00759681296978
 30
0.0
 10
-33.102330206283384
 20
174.00534077821499
 30
0.0
 10
-33.17012849609732
 20
173.88225986272505
 30
0.0
 10
-33.382132532092825
 20
173.52810786636996
 30
0.0
 10
-33.65960045988713
 20
173.23742469883132
 30
0.0
 10
-33.844794227860106
 20
173.12360167423776
 30
0.0
 10
-33.963180645598058
 20
173.08157097112223
 30
0.0
 10
-34.051125045978708
 20
173.06980619003741
 30
0.0
 10
-34.143902932170406
 20
173.06810972371579
 30
0.0
 10
-34.205306299672472
 20
173.07220162549515
 30
0.0
 10
-34.207359328438955
 20
173.07232033189445
 30
0.0
 10
-34.209412357205437
 20
173.07243903829374
 30
0.0
  0
SPLINE
  5
143
100
AcDbEntity
  8
0
370
              15
  6
Continuous
 62
               7
100
AcDbSpline
210
0.0
220
0.0
230
1.0
 70
               8
 71
               2
 72
              16
 73
              13
 74
               0
 42
0.000001
 43
0.000001
 40
0.0
 40
0.0
 40
0.0
 40
1.0
 40
1.0
 40
2.0
 40
3.0
 40
4.0
 40
5.0
 40
6.0
 40
7.0
 40
8.0
 40
8.0
 40
9.0
 40
9.0
 40
9.0
 10
-34.339407680642452
 20
173.05652469200868
 30
0.0
 10
-34.33978107513299
 20
173.05783360613083
 30
0.0
 10
-34.340154469623528
 20
173.05914252025298
 30
0.0
 10
-34.352163616115249
 20
173.10399403042857
 30
0.0
 10
-34.375528491368968
 20
173.16405893495062
 30
0.0
 10
-34.405634000450547
 20
173.22070149513138
 30
0.0
 10
-34.457984395034245
 20
173.26604991592387
 30
0.0
 10
-34.517140323824535
 20
173.29871320622442
 30
0.0
 10
-34.593709122526022
 20
173.31748568226215
 30
0.0
 10
-34.662418340931524
 20
173.3299155325268
 30
0.0
 10
-34.707379592328707
 20
173.33665961818679
 30
0.0
 10
-34.708274677158229
 20
173.3367966019552
 30
0.0
 10
-34.709169761987752
 20
173.33693358572361
 30
0.0
  0
SPLINE
  5
144
100
AcDbEntity
  8
0
370
              15
  6
Continuous
 62
               7
100
AcDbSpline
210
0.0
220
0.0
230
1.0
 70
               8
 71
               2
 72
              15
 73
              12
 74
               0
 42
0.000001
 43
0.000001
 40
0.0
 40
0.0
 40
0.0
 40
1.0
 40
1.0
 40
2.0
 40
3.0
 40
4.0
 40
5.0
 40
6.0
 40
7.0
 40
7.0
 40
8.0
 40
8.0
 40
8.0
 10
-34.972757755410655
 20
173.3921589112108
 30
0.0
 10
-34.973313321443086
 20
173.39204646395746
 30
0.0
 10
-34.973868887475518
 20
173.39193401670411
 30
0.0
 10
-34.999539916412445
 20
173.38690609231571
 30
0.0
 10
-35.079359314488372
 20
173.36860057115427
 30
0.0
 10
-35.158189692354014
 20
173.32126256438596
 30
0.0
 10
-35.263085472003056
 20
173.22990436221153
 30
0.0
 10
-35.355929032417905
 20
173.09925972872736
 30
0.0
 10
-35.399150061768452
 20
173.02320414892699
 30
0.0
 10
-35.422789469228164
 20
172.97705712947686
 30
0.0
 10
-35.423173067499803
 20
172.97631737455845
 30
0.0
 10
-35.423556665771443
 20
172.97557761964003
 30
0.0
  0
SPLINE
  5
145
100
AcDbEntity
  8
0
370
              15
  6
Continuous
 62
               7
100
AcDbSpline
210
0.0
220
0.0
230
1.0
 70
               8
 71
               2
 72
              13
 73
              10
 74
               0
 42
0.000001
 43
0.000001
 40
0.0
 40
0.0
 40
0.0
 40
1.0
 40
1.0
 40
2.0
 40
3.0
 40
4.0
 40
5.0
 40
5.0
 40
6.0
 40
6.0
 40
6.0
 10
-35.496886948866617
 20
172.90183241442401
 30
0.0
 10
-35.496800934943664
 20
172.90194216394758
 30
0.0
 10
-35.496714921020711
 20
172.90205191347115
 30
0.0
 10
-35.486391011123189
 20
172.91552572153307
 30
0.0
 10
-35.464783784909216
 20
172.94045159019959
 30
0.0
 10
-35.445495056244383
 20
172.95760479169451
 30
0.0
 10
-35.431266773062745
 20
172.9692828435434
 30
0.0
 10
-35.423811167750429
 20
172.97524513626297
 30
0.0
 10
-35.423698406372139
 20
172.97533557457132
 30
0.0
 10
-35.42358564499385
 20
172.97542601287967
 30
0.0
  0
SPLINE
  5
146
100
AcDbEntity
  8
0
370
              15
  6
Continuous
 62
               7
100
AcDbSpline
210
0.0
220
0.0
230
1.0
 70
               8
 71
               2
 72
              15
 73
              12
 74
               0
 42
0.000001
 43
0.000001
 40
0.0
 40
0.0
 40
0.0
 40
1.0
 40
1.0
 40
2.0
 40
3.0
 40
4.0
 40
5.0
 40
6.0
 40
7.0
 40
7.0
 40
8.0
 40
8.0
 40
8.0
 10
-35.496886948866617
 20
172.90183241442401
 30
0.0
 10
-35.522288887273916
 20
172.89111854057506
 30
0.0
 10
-35.547690825681215
 20
172.88040466672612
 30
0.0
 10
-36.822274020986399
 20
172.32737969405548
 30
0.0
 10
-38.82145132695301
 20
171.62291439433204
 30
0.0
 10
-40.134795883340459
 20
171.3299080173764
 30
0.0
 10
-41.073060068660467
 20
171.22697247097858
 30
0.0
 10
-42.099041183532606
 20
171.25427715923627
 30
0.0
 10
-43.188999953152049
 20
171.5170619837055
 30
0.0
 10
-43.682401448216169
 20
171.66245227066588
 30
0.0
 10
-43.698815741416311
 20
171.66720913882608
 30
0.0
 10
-43.715230034616454
 20
171.67196600698628
 30
0.0
  0
LINE
  5
147
100
AcDbEntity
  8
0
370
              15
  6
Continuous
 62
               7
100
AcDbLine
 10
-34.943078244268904
 20
186.94363936529999
 30
0.0
 11
-36.423580275768913
 21
188.51852291069997
 31
0.0
  0
SPLINE
  5
148
100
AcDbEntity
  8
0
370
              15
  6
Continuous
 62
               7
100
AcDbSpline
210
0.0
220
0.0
230
1.0
 70
               8
 71
               2
 72
              13
 73
              10
 74
               0
 42
0.000001
 43
0.000001
 40
0.0
 40
0.0
 40
0.0
 40
1.0
 40
1.0
 40
2.0
 40
3.0
 40
4.0
 40
5.0
 40
5.0
 40
6.0
 40
6.0
 40
6.0
 10
-32.548747101338549
 20
183.06432432227166
 30
0.0
 10
-32.557554267369241
 20
183.08306485039117
 30
0.0
 10
-32.566361433399933
 20
183.10180537851068
 30
0.0
 10
-32.826078458443064
 20
183.664176695577
 30
0.0
 10
-33.518548592841384
 20
185.01154075463228
 30
0.0
 10
-34.321248216833666
 20
186.12660114665914
 30
0.0
 10
-34.714337772111818
 20
186.64635275992714
 30
0.0
 10
-34.913308366803719
 20
186.90614471731237
 30
0.0
 10
-34.927510760336261
 20
186.92470162415424
 30
0.0
 10
-34.941713153868804
 20
186.9432585309961
 30
0.0
  0
SPLINE
  5
149
100
AcDbEntity
  8
0
370
              15
  6
Continuous
 62
               7
100
AcDbSpline
210
0.0
220
0.0
230
1.0
 70
               8
 71
               2
 72
              14
 73
              11
 74
               0
 42
0.000001
 43
0.000001
 40
0.0
 40
0.0
 40
0.0
 40
1.0
 40
1.0
 40
2.0
 40
3.0
 40
4.0
 40
5.0
 40
6.0
 40
6.0
 40
7.0
 40
7.0
 40
7.0
 10
-102.03157413727153
 20
211.86162869652298
 30
0.0
 10
-102.04918662123377
 20
211.86557613991243
 30
0.0
 10
-102.06679910519601
 20
211.86952358330188
 30
0.0
 10
-102.52602296303091
 20
211.97349807914611
 30
0.0
 10
-103.21738242141593
 20
212.11783426359364
 30
0.0
 10
-104.08265663978015
 20
212.27085598119982
 30
0.0
 10
-104.85081000605059
 20
212.32360577452198
 30
0.0
 10
-105.30974871049561
 20
212.34183563098816
 30
0.0
 10
-105.56492810320559
 20
212.34902087486387
 30
0.0
 10
-105.57911661562481
 20
212.34943231577535
 30
0.0
 10
-105.59330512804404
 20
212.34984375668682
 30
0.0
  0
SPLINE
  5
14A
100
AcDbEntity
  8
0
370
              15
  6
Continuous
 62
               7
100
AcDbSpline
210
0.0
220
0.0
230
1.0
 70
               8
 71
               2
 72
              16
 73
              13
 74
               0
 42
0.000001
 43
0.000001
 40
0.0
 40
0.0
 40
0.0
 40
1.0
 40
1.0
 40
2.0
 40
3.0
 40
4.0
 40
5.0
 40
6.0
 40
7.0
 40
8.0
 40
8.0
 40
9.0
 40
9.0
 40
9.0
 10
-35.1124224658099
 20
186.80985245228669
 30
0.0
 10
-35.112255939106817
 20
186.80989688960557
 30
0.0
 10
-35.112089412403733
 20
186.80994132692445
 30
0.0
 10
-35.10309131887702
 20
186.81230830412142
 30
0.0
 10
-35.083832036804822
 20
186.81777954001143
 30
0.0
 10
-35.05090802207296
 20
186.83031012291042
 30
0.0
 10
-35.019574550328727
 20
186.8516971449917
 30
0.0
 10
-34.989229439438233
 20
186.87628401993629
 30
0.0
 10
-34.964196779087771
 20
186.90862022391457
 30
0.0
 10
-34.949776270585957
 20
186.9320715812762
 30
0.0
 10
-34.943288708008296
 20
186.94327864336094
 30
0.0
 10
-34.943183476161622
 20
186.9434590043536
 30
0.0
 10
-34.943078244314947
 20
186.94363936534626
 30
0.0
  0
SPLINE
  5
14B
100
AcDbEntity
  8
0
370
              15
  6
Continuous
 62
               7
100
AcDbSpline
210
0.0
220
0.0
230
1.0
 70
               8
 71
               2
 72
              16
 73
              13
 74
               0
 42
0.000001
 43
0.000001
 40
0.0
 40
0.0
 40
0.0
 40
1.0
 40
1.0
 40
2.0
 40
3.0
 40
4.0
 40
5.0
 40
6.0
 40
7.0
 40
8.0
 40
8.0
 40
9.0
 40
9.0
 40
9.0
 10
-32.548716359040256
 20
183.06431194394781
 30
0.0
 10
-32.54883384498855
 20
183.06415375730853
 30
0.0
 10
-32.548951330936845
 20
183.06399557066925
 30
0.0
 10
-32.556179214622077
 20
183.05414979376326
 30
0.0
 10
-32.57125151432551
 20
183.0348820777607
 30
0.0
 10
-32.596310747526886
 20
183.0089578233742
 30
0.0
 10
-32.628256836366617
 20
182.98819961181653
 30
0.0
 10
-32.666490033472925
 20
182.96859900652692
 30
0.0
 10
-32.706901537480505
 20
182.95965973837906
 30
0.0
 10
-32.732127196126541
 20
182.95653615335641
 30
0.0
 10
-32.744785767413745
 20
182.95532276102085
 30
0.0
 10
-32.744989845589245
 20
182.95530247818215
 30
0.0
 10
-32.745193923764745
 20
182.95528219534344
 30
0.0
  0
LINE
  5
14C
100
AcDbEntity
  8
0
370
              15
  6
Continuous
 62
               7
100
AcDbLine
 10
-105.59177026576894
 20
212.34922903539996
 30
0.0
 11
-106.76112605206895
 21
212.19325806239999
 31
0.0
  0
SPLINE
  5
14D
100
AcDbEntity
  8
0
370
              15
  6
Continuous
 62
               7
100
AcDbSpline
210
0.0
220
0.0
230
1.0
 70
               8
 71
               2
 72
              11
 73
               8
 74
               0
 42
0.000001
 43
0.000001
 40
0.0
 40
0.0
 40
0.0
 40
1.0
 40
1.0
 40
2.0
 40
3.0
 40
3.0
 40
4.0
 40
4.0
 40
4.0
 10
-97.4235532708298
 20
201.80434587888647
 30
0.0
 10
-97.425802392136447
 20
201.80397401144501
 30
0.0
 10
-97.428051513443094
 20
201.80360214400355
 30
0.0
 10
-97.703156126030748
 20
201.75847046930835
 30
0.0
 10
-98.094830053414896
 20
201.69098421828494
 30
0.0
 10
-98.227670135200967
 20
201.66775226125708
 30
0.0
 10
-98.229814814442008
 20
201.66737772475608
 30
0.0
 10
-98.23195949368305
 20
201.66700318825508
 30
0.0
  0
SPLINE
  5
14E
100
AcDbEntity
  8
0
370
              15
  6
Continuous
 62
               7
100
AcDbSpline
210
0.0
220
0.0
230
1.0
 70
               8
 71
               2
 72
              15
 73
              12
 74
               0
 42
0.000001
 43
0.000001
 40
0.0
 40
0.0
 40
0.0
 40
1.0
 40
1.0
 40
2.0
 40
3.0
 40
4.0
 40
5.0
 40
6.0
 40
7.0
 40
7.0
 40
8.0
 40
8.0
 40
8.0
 10
-89.113423652323704
 20
184.11385303611473
 30
0.0
 10
-89.133563108775448
 20
184.11911222745226
 30
0.0
 10
-89.153702565227192
 20
184.12437141878979
 30
0.0
 10
-90.799913345533966
 20
184.53093936399716
 30
0.0
 10
-93.236238329979457
 20
185.5319340199319
 30
0.0
 10
-95.19111047059333
 20
186.5435844193363
 30
0.0
 10
-97.279570127073086
 20
187.93291165471533
 30
0.0
 10
-98.739459705139936
 20
189.4173422037951
 30
0.0
 10
-99.487446971927838
 20
190.27931125498367
 30
0.0
 10
-99.856627093971994
 20
190.71749597773328
 30
0.0
 10
-99.883016734481018
 20
190.74876552457562
 30
0.0
 10
-99.909406374990041
 20
190.78003507141796
 30
0.0
  0
SPLINE
  5
14F
100
AcDbEntity
  8
0
370
              15
  6
Continuous
 62
               7
100
AcDbSpline
210
0.0
220
0.0
230
1.0
 70
               8
 71
               2
 72
              12
 73
               9
 74
               0
 42
0.000001
 43
0.000001
 40
0.0
 40
0.0
 40
0.0
 40
1.0
 40
1.0
 40
2.0
 40
3.0
 40
4.0
 40
4.0
 40
5.0
 40
5.0
 40
5.0
 10
-99.909406374990041
 20
190.78003507141796
 30
0.0
 10
-99.918064208308309
 20
190.79349463183684
 30
0.0
 10
-99.926722041626576
 20
190.80695419225572
 30
0.0
 10
-100.15187225116402
 20
191.15786055664773
 30
0.0
 10
-100.80116050139138
 20
192.15402137205854
 30
0.0
 10
-101.50053381153525
 20
193.08490338196339
 30
0.0
 10
-101.77853931736369
 20
193.44139419657813
 30
0.0
 10
-101.78671790156521
 20
193.45191938325007
 30
0.0
 10
-101.79489648576673
 20
193.46244456992201
 30
0.0
  0
SPLINE
  5
150
100
AcDbEntity
  8
0
370
              15
  6
Continuous
 62
               7
100
AcDbSpline
210
0.0
220
0.0
230
1.0
 70
               8
 71
               2
 72
              14
 73
              11
 74
               0
 42
0.000001
 43
0.000001
 40
0.0
 40
0.0
 40
0.0
 40
1.0
 40
1.0
 40
2.0
 40
3.0
 40
4.0
 40
5.0
 40
6.0
 40
6.0
 40
7.0
 40
7.0
 40
7.0
 10
-101.79489648576673
 20
193.46244456992201
 30
0.0
 10
-101.79629138578609
 20
193.4638688785779
 30
0.0
 10
-101.79768628580545
 20
193.46529318723378
 30
0.0
 10
-101.91730428361693
 20
193.59224252424372
 30
0.0
 10
-102.18168826676235
 20
193.82132709089228
 30
0.0
 10
-102.53911426444294
 20
194.07847497447335
 30
0.0
 10
-102.88441615392109
 20
194.2660998093919
 30
0.0
 10
-103.05512012568197
 20
194.34595773340652
 30
0.0
 10
-103.11343993958882
 20
194.37285359429814
 30
0.0
 10
-103.11568189549833
 20
194.37388918311063
 30
0.0
 10
-103.11792385140784
 20
194.37492477192313
 30
0.0
  0
SPLINE
  5
151
100
AcDbEntity
  8
0
370
              15
  6
Continuous
 62
               7
100
AcDbSpline
210
0.0
220
0.0
230
1.0
 70
               8
 71
               2
 72
              12
 73
               9
 74
               0
 42
0.000001
 43
0.000001
 40
0.0
 40
0.0
 40
0.0
 40
1.0
 40
1.0
 40
2.0
 40
3.0
 40
4.0
 40
4.0
 40
5.0
 40
5.0
 40
5.0
 10
-103.27005424774391
 20
194.44435221064657
 30
0.0
 10
-103.26979112720421
 20
194.44423842932162
 30
0.0
 10
-103.26952800666452
 20
194.44412464799666
 30
0.0
 10
-103.2531886336174
 20
194.43707016948611
 30
0.0
 10
-103.1893008782951
 20
194.40927491567459
 30
0.0
 10
-103.1323461487447
 20
194.38175786162014
 30
0.0
 10
-103.1184329235915
 20
194.37498420422946
 30
0.0
 10
-103.11820825384892
 20
194.37487495132183
 30
0.0
 10
-103.11798358410634
 20
194.37476569841419
 30
0.0
  0
SPLINE
  5
152
100
AcDbEntity
  8
0
370
              15
  6
Continuous
 62
               7
100
AcDbSpline
210
0.0
220
0.0
230
1.0
 70
               8
 71
               2
 72
              17
 73
              14
 74
               0
 42
0.000001
 43
0.000001
 40
0.0
 40
0.0
 40
0.0
 40
1.0
 40
1.0
 40
2.0
 40
3.0
 40
4.0
 40
5.0
 40
6.0
 40
7.0
 40
8.0
 40
9.0
 40
9.0
 40
10.0
 40
10.0
 40
10.0
 10
-103.27005424774391
 20
194.44435221064657
 30
0.0
 10
-103.29867507195478
 20
194.46105197002765
 30
0.0
 10
-103.32729589616564
 20
194.47775172940874
 30
0.0
 10
-104.18799726838624
 20
194.9726148799142
 30
0.0
 10
-105.89060620257378
 20
196.04494693463005
 30
0.0
 10
-107.12699216967432
 20
197.07686845795297
 30
0.0
 10
-107.85893792384103
 20
197.82848871168494
 30
0.0
 10
-108.68637356521212
 20
198.95063484748891
 30
0.0
 10
-109.11240801649119
 20
200.20788578815086
 30
0.0
 10
-109.38705944129667
 20
201.60876279629804
 30
0.0
 10
-109.57243482441559
 20
203.76237510433452
 30
0.0
 10
-109.69023103574186
 20
205.01320744315456
 30
0.0
 10
-109.69280197461349
 20
205.04053644743556
 30
0.0
 10
-109.69537291348512
 20
205.06786545171656
 30
0.0
  0
SPLINE
  5
153
100
AcDbEntity
  8
0
370
              15
  6
Continuous
 62
               7
100
AcDbSpline
210
0.0
220
0.0
230
1.0
 70
               8
 71
               2
 72
              14
 73
              11
 74
               0
 42
0.000001
 43
0.000001
 40
0.0
 40
0.0
 40
0.0
 40
1.0
 40
1.0
 40
2.0
 40
3.0
 40
4.0
 40
5.0
 40
6.0
 40
6.0
 40
7.0
 40
7.0
 40
7.0
 10
-109.69537291348512
 20
205.06786545171656
 30
0.0
 10
-109.6957329026916
 20
205.08500438341753
 30
0.0
 10
-109.69609289189809
 20
205.1021433151185
 30
0.0
 10
-109.70632226389129
 20
205.54914436659487
 30
0.0
 10
-109.71192732346189
 20
206.2206568850554
 30
0.0
 10
-109.69678702646392
 20
207.05658057135133
 30
0.0
 10
-109.61693581640945
 20
207.78826910564817
 30
0.0
 10
-109.55867659465302
 20
208.22349385886184
 30
0.0
 10
-109.52392959438463
 20
208.46515182841506
 30
0.0
 10
-109.52200710023489
 20
208.47858987901776
 30
0.0
 10
-109.52008460608515
 20
208.49202792962046
 30
0.0
  0
LINE
  5
154
100
AcDbEntity
  8
0
370
              15
  6
Continuous
 62
               7
100
AcDbLine
 10
-109.52008460606895
 20
208.4920279296
 30
0.0
 11
-109.36159556476893
 21
209.16892546199995
 31
0.0
  0
LINE
  5
155
100
AcDbEntity
  8
0
370
              15
  6
Continuous
 62
               7
100
AcDbLine
 10
-106.71964723386894
 20
211.99362614079996
 30
0.0
 11
-105.54359865696891
 21
212.1369274484
 31
0.0
  0
SPLINE
  5
156
100
AcDbEntity
  8
0
370
              15
  6
Continuous
 62
               7
100
AcDbSpline
210
0.0
220
0.0
230
1.0
 70
               8
 71
               2
 72
              16
 73
              13
 74
               0
 42
0.000001
 43
0.000001
 40
0.0
 40
0.0
 40
0.0
 40
1.0
 40
1.0
 40
2.0
 40
3.0
 40
4.0
 40
5.0
 40
6.0
 40
7.0
 40
8.0
 40
8.0
 40
9.0
 40
9.0
 40
9.0
 10
-105.59330512804404
 20
212.34984375668671
 30
0.0
 10
-105.59334762380529
 20
212.34962415156389
 30
0.0
 10
-105.59339011956654
 20
212.34940454644106
 30
0.0
 10
-105.59610763828441
 20
212.33579943497273
 30
0.0
 10
-105.60062650025314
 20
212.30847665714873
 30
0.0
 10
-105.60248785875324
 20
212.27157470246016
 30
0.0
 10
-105.59382919530684
 20
212.22222191925118
 30
0.0
 10
-105.57770143060326
 20
212.18393455357295
 30
0.0
 10
-105.56410110228073
 20
212.16203469164361
 30
0.0
 10
-105.55122485072381
 20
212.14482154974189
 30
0.0
 10
-105.54456461153738
 20
212.13638220913435
 30
0.0
 10
-105.54445764149121
 20
212.13624574817891
 30
0.0
 10
-105.54435067144503
 20
212.13610928722346
 30
0.0
  0
SPLINE
  5
157
100
AcDbEntity
  8
0
370
              15
  6
Continuous
 62
               7
100
AcDbSpline
210
0.0
220
0.0
230
1.0
 70
               8
 71
               2
 72
              15
 73
              12
 74
               0
 42
0.000001
 43
0.000001
 40
0.0
 40
0.0
 40
0.0
 40
1.0
 40
1.0
 40
2.0
 40
3.0
 40
4.0
 40
5.0
 40
6.0
 40
7.0
 40
7.0
 40
8.0
 40
8.0
 40
8.0
 10
-33.818854052471508
 20
173.16921943402144
 30
0.0
 10
-33.81777817566099
 20
173.16921636765625
 30
0.0
 10
-33.816702298850473
 20
173.16921330129105
 30
0.0
 10
-33.784516994820862
 20
173.16885625803923
 30
0.0
 10
-33.719007027979544
 20
173.17145318898679
 30
0.0
 10
-33.558319022642067
 20
173.20384745644162
 30
0.0
 10
-33.287372124108558
 20
173.43943880334791
 30
0.0
 10
-33.090123843122043
 20
173.70289466804513
 30
0.0
 10
-32.945468230013475
 20
173.94587041828231
 30
0.0
 10
-32.872517612336978
 20
174.07907187802357
 30
0.0
 10
-32.871338370604192
 20
174.08120474144198
 30
0.0
 10
-32.870159128871407
 20
174.08333760486039
 30
0.0
  0
SPLINE
  5
158
100
AcDbEntity
  8
0
370
              15
  6
Continuous
 62
               7
100
AcDbSpline
210
0.0
220
0.0
230
1.0
 70
               8
 71
               2
 72
              12
 73
               9
 74
               0
 42
0.000001
 43
0.000001
 40
0.0
 40
0.0
 40
0.0
 40
1.0
 40
1.0
 40
2.0
 40
3.0
 40
4.0
 40
4.0
 40
5.0
 40
5.0
 40
5.0
 10
-47.209414352505448
 20
183.74689316443778
 30
0.0
 10
-47.211092087191489
 20
183.74635328722536
 30
0.0
 10
-47.212769821877529
 20
183.74581341001294
 30
0.0
 10
-47.323561000078243
 20
183.71062877788745
 30
0.0
 10
-47.544902538255471
 20
183.63508002409594
 30
0.0
 10
-47.752048550516221
 20
183.55313119937352
 30
0.0
 10
-47.848904780987354
 20
183.51328770438909
 30
0.0
 10
-47.850575080708879
 20
183.51260343543589
 30
0.0
 10
-47.852245380430404
 20
183.5119191664827
 30
0.0
  0
SPLINE
  5
159
100
AcDbEntity
  8
0
370
              15
  6
Continuous
 62
               7
100
AcDbSpline
210
0.0
220
0.0
230
1.0
 70
               8
 71
               2
 72
              17
 73
              14
 74
               0
 42
0.000001
 43
0.000001
 40
0.0
 40
0.0
 40
0.0
 40
1.0
 40
1.0
 40
2.0
 40
3.0
 40
4.0
 40
5.0
 40
6.0
 40
7.0
 40
8.0
 40
9.0
 40
9.0
 40
10.0
 40
10.0
 40
10.0
 10
-34.100138601472722
 20
173.13585097528562
 30
0.0
 10
-34.100292335662274
 20
173.13566038863348
 30
0.0
 10
-34.100446069851827
 20
173.13546980198134
 30
0.0
 10
-34.109902851503008
 20
173.12356709652977
 30
0.0
 10
-34.129625254788763
 20
173.10070979941656
 30
0.0
 10
-34.152718150887424
 20
173.08058744063544
 30
0.0
 10
-34.180105568544761
 20
173.06439842123723
 30
0.0
 10
-34.2111303688079
 20
173.05234329855955
 30
0.0
 10
-34.253612052332628
 20
173.04256099384691
 30
0.0
 10
-34.295124632987992
 20
173.04592855991939
 30
0.0
 10
-34.324368807862854
 20
173.05250049742745
 30
0.0
 10
-34.338937502962821
 20
173.05640137447722
 30
0.0
 10
-34.339172591802637
 20
173.05646303324295
 30
0.0
 10
-34.339407680642452
 20
173.05652469200868
 30
0.0
  0
SPLINE
  5
15A
100
AcDbEntity
  8
0
370
              15
  6
Continuous
 62
               7
100
AcDbSpline
210
0.0
220
0.0
230
1.0
 70
               8
 71
               2
 72
              16
 73
              13
 74
               0
 42
0.000001
 43
0.000001
 40
0.0
 40
0.0
 40
0.0
 40
1.0
 40
1.0
 40
2.0
 40
3.0
 40
4.0
 40
5.0
 40
6.0
 40
7.0
 40
8.0
 40
8.0
 40
9.0
 40
9.0
 40
9.0
 10
-106.76112605207241
 20
212.19325806235122
 30
0.0
 10
-106.76116573115327
 20
212.19307920651426
 30
0.0
 10
-106.76120541023413
 20
212.19290035067729
 30
0.0
 10
-106.76338469149543
 20
212.18324686537267
 30
0.0
 10
-106.76763295604046
 20
212.16245842187141
 30
0.0
 10
-106.77167865540086
 20
212.12455836955178
 30
0.0
 10
-106.76390953148039
 20
212.07801066415846
 30
0.0
 10
-106.75230982241355
 20
212.04506761535652
 30
0.0
 10
-106.73948462543517
 20
212.02197065984387
 30
0.0
 10
-106.72658963717303
 20
212.00316706643252
 30
0.0
 10
-106.71986456655127
 20
211.99392518247032
 30
0.0
 10
-106.719756664195
 20
211.99377579230958
 30
0.0
 10
-106.71964876183874
 20
211.99362640214883
 30
0.0
  0
LINE
  5
15B
100
AcDbEntity
  8
0
370
              15
  6
Continuous
 62
               7
100
AcDbLine
 10
-109.3270805645689
 20
209.53215211190002
 30
0.0
 11
-109.53078813346893
 21
208.59791319110002
 31
0.0
  0
SPLINE
  5
15C
100
AcDbEntity
  8
0
370
              15
  6
Continuous
 62
               7
100
AcDbSpline
210
0.0
220
0.0
230
1.0
 70
               8
 71
               2
 72
              14
 73
              11
 74
               0
 42
0.000001
 43
0.000001
 40
0.0
 40
0.0
 40
0.0
 40
1.0
 40
1.0
 40
2.0
 40
3.0
 40
4.0
 40
5.0
 40
6.0
 40
6.0
 40
7.0
 40
7.0
 40
7.0
 10
-109.53078813344642
 20
208.59791319110093
 30
0.0
 10
-109.53080822772115
 20
208.59776372915502
 30
0.0
 10
-109.53082832199588
 20
208.59761426720911
 30
0.0
 10
-109.5321198002345
 20
208.58834450878521
 30
0.0
 10
-109.53419404533558
 20
208.56983974838499
 30
0.0
 10
-109.53480058435558
 20
208.54432812560287
 30
0.0
 10
-109.52905384918118
 20
208.51925191956195
 30
0.0
 10
-109.52330439340891
 20
208.50128430009727
 30
0.0
 10
-109.52018425206016
 20
208.4923172576332
 30
0.0
 10
-109.52013442907266
 20
208.49217259362683
 30
0.0
 10
-109.52008460608515
 20
208.49202792962046
 30
0.0
  0
SPLINE
  5
15D
100
AcDbEntity
  8
0
370
              15
  6
Continuous
 62
               7
100
AcDbSpline
210
0.0
220
0.0
230
1.0
 70
               8
 71
               2
 72
              12
 73
               9
 74
               0
 42
0.000001
 43
0.000001
 40
0.0
 40
0.0
 40
0.0
 40
1.0
 40
1.0
 40
2.0
 40
3.0
 40
4.0
 40
4.0
 40
5.0
 40
5.0
 40
5.0
 10
-97.752863252588824
 20
200.97050499995635
 30
0.0
 10
-97.754077182806569
 20
200.9724657405381
 30
0.0
 10
-97.755291113024313
 20
200.97442648111985
 30
0.0
 10
-97.830075743133577
 20
201.09636310517237
 30
0.0
 10
-97.980169975990393
 20
201.32822874517251
 30
0.0
 10
-98.142723208575077
 20
201.55045139511367
 30
0.0
 10
-98.229179787349878
 20
201.66335403610958
 30
0.0
 10
-98.230569640516464
 20
201.66517861218233
 30
0.0
 10
-98.23195949368305
 20
201.66700318825508
 30
0.0
  0
SPLINE
  5
15E
100
AcDbEntity
  8
0
370
              15
  6
Continuous
 62
               7
100
AcDbSpline
210
0.0
220
0.0
230
1.0
 70
               8
 71
               2
 72
              14
 73
              11
 74
               0
 42
0.000001
 43
0.000001
 40
0.0
 40
0.0
 40
0.0
 40
1.0
 40
1.0
 40
2.0
 40
3.0
 40
4.0
 40
5.0
 40
6.0
 40
6.0
 40
7.0
 40
7.0
 40
7.0
 10
-109.71541604615014
 20
205.18684903766462
 30
0.0
 10
-109.71543624805186
 20
205.18666865732825
 30
0.0
 10
-109.71545644995358
 20
205.18648827699189
 30
0.0
 10
-109.71677948835013
 20
205.17529407027541
 30
0.0
 10
-109.7186438978781
 20
205.15302343662131
 30
0.0
 10
-109.71775888945756
 20
205.12549282051782
 30
0.0
 10
-109.70950498936814
 20
205.09907323465791
 30
0.0
 10
-109.70044275353898
 20
205.07845036427898
 30
0.0
 10
-109.69552984305481
 20
205.06819645669236
 30
0.0
 10
-109.69545137826996
 20
205.06803095420446
 30
0.0
 10
-109.69537291348512
 20
205.06786545171656
 30
0.0
  0
SPLINE
  5
15F
100
AcDbEntity
  8
0
370
              15
  6
Continuous
 62
               7
100
AcDbSpline
210
0.0
220
0.0
230
1.0
 70
               8
 71
               2
 72
              20
 73
              17
 74
               0
 42
0.000001
 43
0.000001
 40
0.0
 40
0.0
 40
0.0
 40
1.0
 40
1.0
 40
2.0
 40
3.0
 40
4.0
 40
5.0
 40
6.0
 40
7.0
 40
8.0
 40
9.0
 40
10.0
 40
11.0
 40
12.0
 40
12.0
 40
13.0
 40
13.0
 40
13.0
 10
-109.53082859146541
 20
208.59791962010183
 30
0.0
 10
-109.5298977171977
 20
208.59216358102088
 30
0.0
 10
-109.52896684292999
 20
208.58640754193993
 30
0.0
 10
-109.51548529004212
 20
208.5061735908015
 30
0.0
 10
-109.4965084727733
 20
208.33947404178366
 30
0.0
 10
-109.51164238516309
 20
208.12022863382185
 30
0.0
 10
-109.57671850140666
 20
207.90090744077679
 30
0.0
 10
-109.61852412852924
 20
207.80337006166837
 30
0.0
 10
-109.63531624865423
 20
207.65166965857929
 30
0.0
 10
-109.6787040100234
 20
207.21755004544002
 30
0.0
 10
-109.72243103186752
 20
206.69106428464954
 30
0.0
 10
-109.73936030452874
 20
206.39371291787438
 30
0.0
 10
-109.75996932550611
 20
205.85323909920953
 30
0.0
 10
-109.72472899168604
 20
205.29453440171392
 30
0.0
 10
-109.71550580878515
 20
205.18789112186391
 30
0.0
 10
-109.71546092746765
 20
205.18737007976426
 30
0.0
 10
-109.71541604615014
 20
205.18684903766462
 30
0.0
  0
SPLINE
  5
160
100
AcDbEntity
  8
0
370
              15
  6
Continuous
 62
               7
100
AcDbSpline
210
0.0
220
0.0
230
1.0
 70
               8
 71
               2
 72
              14
 73
              11
 74
               0
 42
0.000001
 43
0.000001
 40
0.0
 40
0.0
 40
0.0
 40
1.0
 40
1.0
 40
2.0
 40
3.0
 40
4.0
 40
5.0
 40
6.0
 40
6.0
 40
7.0
 40
7.0
 40
7.0
 10
-25.63674030341825
 20
186.4574522345265
 30
0.0
 10
-25.618080118286812
 20
186.51345694389664
 30
0.0
 10
-25.599419933155374
 20
186.56946165326679
 30
0.0
 10
-25.33716782127361
 20
187.3535825258067
 30
0.0
 10
-24.313142089179834
 20
190.48913766668943
 30
0.0
 10
-23.734371495422963
 20
194.04172010873617
 30
0.0
 10
-23.485884448719716
 20
196.03200419142513
 30
0.0
 10
-23.430217176886103
 20
197.98604041160877
 30
0.0
 10
-23.621187470207857
 20
199.06323466146716
 30
0.0
 10
-23.622694410526847
 20
199.07227985712592
 30
0.0
 10
-23.624201350845837
 20
199.08132505278468
 30
0.0
  0
SPLINE
  5
161
100
AcDbEntity
  8
0
370
              15
  6
Continuous
 62
               7
100
AcDbSpline
210
0.0
220
0.0
230
1.0
 70
               8
 71
               2
 72
              12
 73
               9
 74
               0
 42
0.000001
 43
0.000001
 40
0.0
 40
0.0
 40
0.0
 40
1.0
 40
1.0
 40
2.0
 40
3.0
 40
4.0
 40
4.0
 40
5.0
 40
5.0
 40
5.0
 10
-26.484137151999548
 20
186.84831205331079
 30
0.0
 10
-26.481741224977142
 20
186.84717249008912
 30
0.0
 10
-26.479345297954737
 20
186.84603292686745
 30
0.0
 10
-26.256656588707799
 20
186.73974990830129
 30
0.0
 10
-25.924402153533876
 20
186.58466087942497
 30
0.0
 10
-25.723809530855405
 20
186.49718258435814
 30
0.0
 10
-25.637623624548311
 20
186.45785378948995
 30
0.0
 10
-25.637183491925711
 20
186.45765327334095
 30
0.0
 10
-25.636743359303111
 20
186.45745275719196
 30
0.0
  0
LINE
  5
162
100
AcDbEntity
  8
0
370
              15
  6
Continuous
 62
               7
100
AcDbLine
 10
-25.636741596468923
 20
186.45745347879995
 30
0.0
 11
-26.498750411668922
 21
186.80412409569999
 31
0.0
  0
SPLINE
  5
163
100
AcDbEntity
  8
0
370
              15
  6
Continuous
 62
               7
100
AcDbSpline
210
0.0
220
0.0
230
1.0
 70
               8
 71
               2
 72
              13
 73
              10
 74
               0
 42
0.000001
 43
0.000001
 40
0.0
 40
0.0
 40
0.0
 40
1.0
 40
1.0
 40
2.0
 40
3.0
 40
4.0
 40
5.0
 40
5.0
 40
6.0
 40
6.0
 40
6.0
 10
-25.636743359303111
 20
186.45745275719196
 30
0.0
 10
-25.636856883500101
 20
186.45714362583749
 30
0.0
 10
-25.636970407697092
 20
186.45683449448302
 30
0.0
 10
-26.294884972080283
 20
184.65397858878032
 30
0.0
 10
-27.962415203135933
 20
181.21674094703883
 30
0.0
 10
-29.499674144780599
 20
178.7490213249464
 30
0.0
 10
-30.479145586048318
 20
177.44429251644442
 30
0.0
 10
-30.888149291512363
 20
176.92647396177313
 30
0.0
 10
-30.901761435413292
 20
176.90915458336917
 30
0.0
 10
-30.91537357931422
 20
176.89183520496522
 30
0.0
  0
LINE
  5
164
100
AcDbEntity
  8
0
370
              15
  6
Continuous
 62
               7
100
AcDbLine
 10
-31.037569787968934
 20
176.7455121818
 30
0.0
 11
-30.915387704168936
 21
176.89175839929999
 31
0.0
  0
LINE
  5
165
100
AcDbEntity
  8
0
370
              15
  6
Continuous
 62
               7
100
AcDbLine
 10
-26.484119823368914
 20
186.84831927920004
 30
0.0
 11
-26.498753467568903
 21
186.80412461840001
 31
0.0
  0
SPLINE
  5
166
100
AcDbEntity
  8
0
370
              15
  6
Continuous
 62
               7
100
AcDbSpline
210
0.0
220
0.0
230
1.0
 70
               8
 71
               2
 72
              18
 73
              15
 74
               0
 42
0.000001
 43
0.000001
 40
0.0
 40
0.0
 40
0.0
 40
1.0
 40
1.0
 40
2.0
 40
3.0
 40
4.0
 40
5.0
 40
6.0
 40
7.0
 40
8.0
 40
9.0
 40
10.0
 40
10.0
 40
11.0
 40
11.0
 40
11.0
 10
-30.91537357931422
 20
176.89183520496522
 30
0.0
 10
-30.915168846133739
 20
176.8917107545264
 30
0.0
 10
-30.914964112953257
 20
176.89158630408758
 30
0.0
 10
-30.90225050134039
 20
176.88380135013085
 30
0.0
 10
-30.877049884438108
 20
176.86899648552026
 30
0.0
 10
-30.853123090841265
 20
176.85699259008811
 30
0.0
 10
-30.828394531207934
 20
176.84763094871118
 30
0.0
 10
-30.796559684332962
 20
176.83983519702019
 30
0.0
 10
-30.769922790884991
 20
176.84089434802502
 30
0.0
 10
-30.754780096064948
 20
176.84653406623761
 30
0.0
 10
-30.745950719850427
 20
176.85528562919535
 30
0.0
 10
-30.740158312064906
 20
176.86677886416328
 30
0.0
 10
-30.737726824465923
 20
176.87293365839275
 30
0.0
 10
-30.737686657880531
 20
176.87303209621223
 30
0.0
 10
-30.737646491295138
 20
176.8731305340317
 30
0.0
  0
SPLINE
  5
167
100
AcDbEntity
  8
0
370
              15
  6
Continuous
 62
               7
100
AcDbSpline
210
0.0
220
0.0
230
1.0
 70
               8
 71
               2
 72
              18
 73
              15
 74
               0
 42
0.000001
 43
0.000001
 40
0.0
 40
0.0
 40
0.0
 40
1.0
 40
1.0
 40
2.0
 40
3.0
 40
4.0
 40
5.0
 40
6.0
 40
7.0
 40
8.0
 40
9.0
 40
10.0
 40
10.0
 40
11.0
 40
11.0
 40
11.0
 10
-25.636743359303111
 20
186.45745275719196
 30
0.0
 10
-25.63666283503126
 20
186.45741678751898
 30
0.0
 10
-25.636582310759408
 20
186.457380817846
 30
0.0
 10
-25.626392861306655
 20
186.45284415146523
 30
0.0
 10
-25.597918361085974
 20
186.44000553904584
 30
0.0
 10
-25.567127523783697
 20
186.424122716081
 30
0.0
 10
-25.543626283593468
 20
186.40928784468463
 30
0.0
 10
-25.52487267058801
 20
186.39444551311942
 30
0.0
 10
-25.508022324417865
 20
186.37548477099313
 30
0.0
 10
-25.501912010287796
 20
186.36038901146776
 30
0.0
 10
-25.502614613997977
 20
186.35097602965311
 30
0.0
 10
-25.507082572616511
 20
186.34277135478669
 30
0.0
 10
-25.509884768872482
 20
186.33886562683506
 30
0.0
 10
-25.509928805672743
 20
186.33880222979138
 30
0.0
 10
-25.509972842473005
 20
186.33873883274771
 30
0.0
  0
SPLINE
  5
168
100
AcDbEntity
  8
0
370
              15
  6
Continuous
 62
               7
100
AcDbSpline
210
0.0
220
0.0
230
1.0
 70
               8
 71
               2
 72
              14
 73
              11
 74
               0
 42
0.000001
 43
0.000001
 40
0.0
 40
0.0
 40
0.0
 40
1.0
 40
1.0
 40
2.0
 40
3.0
 40
4.0
 40
5.0
 40
6.0
 40
6.0
 40
7.0
 40
7.0
 40
7.0
 10
-30.737646491295138
 20
176.8731305340317
 30
0.0
 10
-30.717592763386378
 20
176.89910962071531
 30
0.0
 10
-30.697539035477618
 20
176.92508870739891
 30
0.0
 10
-30.092917266191009
 20
177.69827682303435
 30
0.0
 10
-29.083292292450707
 20
179.10363260230508
 30
0.0
 10
-28.00412008347034
 20
180.86413075604162
 30
0.0
 10
-26.787663808415502
 20
183.20150297359305
 30
0.0
 10
-25.898977798120811
 20
185.3327420265764
 30
0.0
 10
-25.534446480879168
 20
186.27588180807743
 30
0.0
 10
-25.522209661676087
 20
186.30731032041257
 30
0.0
 10
-25.509972842473005
 20
186.33873883274771
 30
0.0
  0
SPLINE
  5
169
100
AcDbEntity
  8
0
370
              15
  6
Continuous
 62
               7
100
AcDbSpline
210
0.0
220
0.0
230
1.0
 70
               8
 71
               2
 72
              14
 73
              11
 74
               0
 42
0.000001
 43
0.000001
 40
0.0
 40
0.0
 40
0.0
 40
1.0
 40
1.0
 40
2.0
 40
3.0
 40
4.0
 40
5.0
 40
6.0
 40
6.0
 40
7.0
 40
7.0
 40
7.0
 10
-25.509972842473005
 20
186.33873883274771
 30
0.0
 10
-25.4913769869395
 20
186.39447123532813
 30
0.0
 10
-25.472781131405995
 20
186.45020363790854
 30
0.0
 10
-25.211440815810462
 20
187.23051046727721
 30
0.0
 10
-24.189710188908336
 20
190.35378520443896
 30
0.0
 10
-23.608422977171912
 20
193.89589947293769
 30
0.0
 10
-23.358344317236273
 20
195.88402924532886
 30
0.0
 10
-23.298340991242398
 20
197.84413282505579
 30
0.0
 10
-23.48493519399095
 20
198.92859923336903
 30
0.0
 10
-23.486423036066427
 20
198.93781807186019
 30
0.0
 10
-23.487910878141903
 20
198.94703691035136
 30
0.0
  0
SPLINE
  5
16A
100
AcDbEntity
  8
0
370
              15
  6
Continuous
 62
               7
100
AcDbSpline
210
0.0
220
0.0
230
1.0
 70
               8
 71
               2
 72
              13
 73
              10
 74
               0
 42
0.000001
 43
0.000001
 40
0.0
 40
0.0
 40
0.0
 40
1.0
 40
1.0
 40
2.0
 40
3.0
 40
4.0
 40
5.0
 40
5.0
 40
6.0
 40
6.0
 40
6.0
 10
-103.58160615607464
 20
194.63453191012377
 30
0.0
 10
-103.58132051477527
 20
194.63428918431293
 30
0.0
 10
-103.5810348734759
 20
194.6340464585021
 30
0.0
 10
-103.5555421168513
 20
194.61197401457139
 30
0.0
 10
-103.49433594770106
 20
194.56380482604482
 30
0.0
 10
-103.42422048326345
 20
194.52114455491778
 30
0.0
 10
-103.33382302829834
 20
194.4741434999861
 30
0.0
 10
-103.27217183791997
 20
194.44535374406712
 30
0.0
 10
-103.27111304283194
 20
194.44485297735685
 30
0.0
 10
-103.27005424774391
 20
194.44435221064657
 30
0.0
  0
SPLINE
  5
16B
100
AcDbEntity
  8
0
370
              15
  6
Continuous
 62
               7
100
AcDbSpline
210
0.0
220
0.0
230
1.0
 70
               8
 71
               2
 72
              16
 73
              13
 74
               0
 42
0.000001
 43
0.000001
 40
0.0
 40
0.0
 40
0.0
 40
1.0
 40
1.0
 40
2.0
 40
3.0
 40
4.0
 40
5.0
 40
6.0
 40
7.0
 40
8.0
 40
8.0
 40
9.0
 40
9.0
 40
9.0
 10
-109.71540873306331
 20
205.18685032388487
 30
0.0
 10
-109.71540582225542
 20
205.18681722214734
 30
0.0
 10
-109.71540291144753
 20
205.18678412040981
 30
0.0
 10
-109.64367093793906
 20
204.39719133952735
 30
0.0
 10
-109.53375266823575
 20
202.84499690499695
 30
0.0
 10
-109.40362616337931
 20
201.66589524623396
 30
0.0
 10
-109.31656453490011
 20
200.94143543816494
 30
0.0
 10
-109.21363214920932
 20
200.35279984233239
 30
0.0
 10
-109.02021890452009
 20
199.75917739384477
 30
0.0
 10
-108.78954099011621
 20
199.38653895888706
 30
0.0
 10
-108.72955899862704
 20
199.2952096043191
 30
0.0
 10
-108.72756881001369
 20
199.29216253199263
 30
0.0
 10
-108.72557862140035
 20
199.28911545966616
 30
0.0
  0
SPLINE
  5
16C
100
AcDbEntity
  8
0
370
              15
  6
Continuous
 62
               7
100
AcDbSpline
210
0.0
220
0.0
230
1.0
 70
               8
 71
               2
 72
              17
 73
              14
 74
               0
 42
0.000001
 43
0.000001
 40
0.0
 40
0.0
 40
0.0
 40
1.0
 40
1.0
 40
2.0
 40
3.0
 40
4.0
 40
5.0
 40
6.0
 40
7.0
 40
8.0
 40
9.0
 40
9.0
 40
10.0
 40
10.0
 40
10.0
 10
-30.855946926317344
 20
176.72796715824643
 30
0.0
 10
-30.855992104611389
 20
176.72786210744653
 30
0.0
 10
-30.856037282905433
 20
176.72775705664662
 30
0.0
 10
-30.858745840260823
 20
176.72116151261935
 30
0.0
 10
-30.86517752911071
 20
176.70888241428997
 30
0.0
 10
-30.875782272577496
 20
176.69906841819886
 30
0.0
 10
-30.895378890249432
 20
176.69308934799972
 30
0.0
 10
-30.929642812620202
 20
176.69448320438596
 30
0.0
 10
-30.968869730319099
 20
176.7072220333971
 30
0.0
 10
-30.998077438149878
 20
176.72183598683216
 30
0.0
 10
-31.024043972178887
 20
176.73723892405349
 30
0.0
 10
-31.037130691490617
 20
176.74535030204947
 30
0.0
 10
-31.037341558747116
 20
176.74548029375973
 30
0.0
 10
-31.037552426003614
 20
176.74561028546998
 30
0.0
  0
LINE
  5
16D
100
AcDbEntity
  8
0
370
              15
  6
Continuous
 62
               7
100
AcDbLine
 10
-30.855946926268913
 20
176.72796715820004
 30
0.0
 11
-30.735726462668921
 21
176.87182623620004
 31
0.0
  0
SPLINE
  5
16E
100
AcDbEntity
  8
0
370
              15
  6
Continuous
 62
               7
100
AcDbSpline
210
0.0
220
0.0
230
1.0
 70
               8
 71
               2
 72
              10
 73
               7
 74
               0
 42
0.000001
 43
0.000001
 40
0.0
 40
0.0
 40
0.0
 40
1.0
 40
1.0
 40
2.0
 40
2.0
 40
3.0
 40
3.0
 40
3.0
 10
-35.497379101208921
 20
172.89926778321876
 30
0.0
 10
-35.497266634064104
 20
172.89934218774289
 30
0.0
 10
-35.497154166919287
 20
172.89941659226702
 30
0.0
 10
-35.455985261616817
 20
172.92660404098092
 30
0.0
 10
-35.4150479816672
 20
172.95427271066251
 30
0.0
 10
-35.414936114869178
 20
172.95434818602843
 30
0.0
 10
-35.414824248071156
 20
172.95442366139434
 30
0.0
  0
SPLINE
  5
16F
100
AcDbEntity
  8
0
370
              15
  6
Continuous
 62
               7
100
AcDbSpline
210
0.0
220
0.0
230
1.0
 70
               8
 71
               2
 72
              12
 73
               9
 74
               0
 42
0.000001
 43
0.000001
 40
0.0
 40
0.0
 40
0.0
 40
1.0
 40
1.0
 40
2.0
 40
3.0
 40
4.0
 40
4.0
 40
5.0
 40
5.0
 40
5.0
 10
-35.423556665771443
 20
172.97557761964003
 30
0.0
 10
-35.423467918832458
 20
172.97568878864206
 30
0.0
 10
-35.423379171893473
 20
172.97579995764409
 30
0.0
 10
-35.383346154295609
 20
173.02680317877048
 30
0.0
 10
-35.299472363626691
 20
173.10935517054963
 30
0.0
 10
-35.192994799568837
 20
173.1993019250923
 30
0.0
 10
-35.121256990271021
 20
173.25475138522222
 30
0.0
 10
-35.119935299886336
 20
173.25578312678203
 30
0.0
 10
-35.118613609501651
 20
173.25681486834185
 30
0.0
  0
LINE
  5
170
100
AcDbEntity
  8
0
370
              15
  6
Continuous
 62
               7
100
AcDbLine
 10
-34.985157847368939
 20
173.33875389189996
 30
0.0
 11
-34.917147815268933
 21
173.38051075400006
 31
0.0
  0
SPLINE
  5
171
100
AcDbEntity
  8
0
370
              15
  6
Continuous
 62
               7
100
AcDbSpline
210
0.0
220
0.0
230
1.0
 70
               8
 71
               2
 72
              15
 73
              12
 74
               0
 42
0.000001
 43
0.000001
 40
0.0
 40
0.0
 40
0.0
 40
1.0
 40
1.0
 40
2.0
 40
3.0
 40
4.0
 40
5.0
 40
6.0
 40
7.0
 40
7.0
 40
8.0
 40
8.0
 40
8.0
 10
-35.681617713754505
 20
172.75863411335911
 30
0.0
 10
-35.681288043030506
 20
172.75875733955269
 30
0.0
 10
-35.680958372306506
 20
172.75888056574627
 30
0.0
 10
-35.671062981722329
 20
172.76255664601251
 30
0.0
 10
-35.640768601668057
 20
172.77403228184551
 30
0.0
 10
-35.600344723405826
 20
172.79483374023573
 30
0.0
 10
-35.570248513914621
 20
172.819351118545
 30
0.0
 10
-35.54834423545644
 20
172.84113425639737
 30
0.0
 10
-35.51774109530821
 20
172.87592247579209
 30
0.0
 10
-35.497540262792981
 20
172.90102910237567
 30
0.0
 10
-35.497213605829799
 20
172.90143075839984
 30
0.0
 10
-35.496886948866617
 20
172.90183241442401
 30
0.0
  0
LINE
  5
172
100
AcDbEntity
  8
0
370
              15
  6
Continuous
 62
               7
100
AcDbLine
 10
-35.681035884768946
 20
172.75944320229996
 30
0.0
 11
-35.237506396068952
 21
173.01371617120003
 31
0.0
  0
LINE
  5
173
100
AcDbEntity
  8
0
370
              15
  6
Continuous
 62
               7
100
AcDbLine
 10
-35.237506396068952
 20
173.01371617120003
 30
0.0
 11
-35.000698612668927
 21
173.14356736390005
 31
0.0
  0
LINE
  5
174
100
AcDbEntity
  8
0
370
              15
  6
Continuous
 62
               7
100
AcDbLine
 10
-35.000702869868903
 20
173.14356555500001
 30
0.0
 11
-34.682425637368951
 21
173.34331856469998
 31
0.0
  0
ARC
  5
175
100
AcDbEntity
  8
0
370
              15
  6
Continuous
 62
               7
100
AcDbCircle
 10
-43.140943294068947
 20
188.48701726809998
 30
0.0
 40
17.359097637881582
100
AcDbArc
 50
282.62617996499995
 51
293.22905100010007
  0
SPLINE
  5
176
100
AcDbEntity
  8
0
370
              15
  6
Continuous
 62
               7
100
AcDbSpline
210
0.0
220
0.0
230
1.0
 70
               8
 71
               2
 72
              13
 73
              10
 74
               0
 42
0.000001
 43
0.000001
 40
0.0
 40
0.0
 40
0.0
 40
1.0
 40
1.0
 40
2.0
 40
3.0
 40
4.0
 40
5.0
 40
5.0
 40
6.0
 40
6.0
 40
6.0
 10
-36.294378165568318
 20
172.53512657320346
 30
0.0
 10
-36.294371774435362
 20
172.53512638806427
 30
0.0
 10
-36.294365383302406
 20
172.53512620292508
 30
0.0
 10
-36.292444898844494
 20
172.53509902599478
 30
0.0
 10
-36.25592574177351
 20
172.54509441617483
 30
0.0
 10
-36.17362219447385
 20
172.57265358861798
 30
0.0
 10
-35.906957165013111
 20
172.67061111014823
 30
0.0
 10
-35.686013192680477
 20
172.75692995768213
 30
0.0
 10
-35.683815453217491
 20
172.75778203552068
 30
0.0
 10
-35.681617713754505
 20
172.75863411335922
 30
0.0
  0
SPLINE
  5
177
100
AcDbEntity
  8
0
370
              15
  6
Continuous
 62
               7
100
AcDbSpline
210
0.0
220
0.0
230
1.0
 70
               8
 71
               2
 72
              17
 73
              14
 74
               0
 42
0.000001
 43
0.000001
 40
0.0
 40
0.0
 40
0.0
 40
1.0
 40
1.0
 40
2.0
 40
3.0
 40
4.0
 40
5.0
 40
6.0
 40
7.0
 40
8.0
 40
9.0
 40
9.0
 40
10.0
 40
10.0
 40
10.0
 10
-99.942121193991156
 20
190.9013286895597
 30
0.0
 10
-99.942189624773832
 20
190.90119232320376
 30
0.0
 10
-99.942258055556508
 20
190.90105595684781
 30
0.0
 10
-99.946550753722804
 20
190.89258313829123
 30
0.0
 10
-99.954579138817323
 20
190.87583919610245
 30
0.0
 10
-99.96569064322459
 20
190.84685814713202
 30
0.0
 10
-99.963704648814414
 20
190.81869129050449
 30
0.0
 10
-99.956972221519138
 20
190.80359107236893
 30
0.0
 10
-99.946410717427838
 20
190.79125815032683
 30
0.0
 10
-99.92997685673582
 20
190.78475052077533
 30
0.0
 10
-99.916568875979451
 20
190.78149120226635
 30
0.0
 10
-99.909629268989576
 20
190.78008144734235
 30
0.0
 10
-99.909517821989809
 20
190.78005825938016
 30
0.0
 10
-99.909406374990041
 20
190.78003507141796
 30
0.0
  0
SPLINE
  5
178
100
AcDbEntity
  8
0
370
              15
  6
Continuous
 62
               7
100
AcDbSpline
210
0.0
220
0.0
230
1.0
 70
               8
 71
               2
 72
              11
 73
               8
 74
               0
 42
0.000001
 43
0.000001
 40
0.0
 40
0.0
 40
0.0
 40
1.0
 40
1.0
 40
2.0
 40
3.0
 40
3.0
 40
4.0
 40
4.0
 40
4.0
 10
-103.11792385140784
 20
194.37492477192313
 30
0.0
 10
-103.11767190959254
 20
194.37480973667152
 30
0.0
 10
-103.11741996777725
 20
194.37469470141991
 30
0.0
 10
-103.00064354610235
 20
194.32168618572257
 30
0.0
 10
-102.78680276940422
 20
194.21102198900883
 30
0.0
 10
-102.67973131184179
 20
194.15281317107474
 30
0.0
 10
-102.67799769398205
 20
194.15187603046508
 30
0.0
 10
-102.67626407612231
 20
194.15093888985541
 30
0.0
  0
SPLINE
  5
179
100
AcDbEntity
  8
0
370
              15
  6
Continuous
 62
               7
100
AcDbSpline
210
0.0
220
0.0
230
1.0
 70
               8
 71
               2
 72
              17
 73
              14
 74
               0
 42
0.000001
 43
0.000001
 40
0.0
 40
0.0
 40
0.0
 40
1.0
 40
1.0
 40
2.0
 40
3.0
 40
4.0
 40
5.0
 40
6.0
 40
7.0
 40
8.0
 40
9.0
 40
9.0
 40
10.0
 40
10.0
 40
10.0
 10
-101.84940540370404
 20
193.62024140661629
 30
0.0
 10
-101.84945391486444
 20
193.6200734852045
 30
0.0
 10
-101.84950242602484
 20
193.61990556379271
 30
0.0
 10
-101.8525692910287
 20
193.60947781848733
 30
0.0
 10
-101.85882398292851
 20
193.5861241433164
 30
0.0
 10
-101.86286457878269
 20
193.55379945165271
 30
0.0
 10
-101.85717274124094
 20
193.52494818889022
 30
0.0
 10
-101.84937052450987
 20
193.50597152219063
 30
0.0
 10
-101.83665685616772
 20
193.48679900049319
 30
0.0
 10
-101.81830485872045
 20
193.47389333407898
 30
0.0
 10
-101.80303999831374
 20
193.46615913942503
 30
0.0
 10
-101.79514995554335
 20
193.46256171660593
 30
0.0
 10
-101.79502322065504
 20
193.46250314326397
 30
0.0
 10
-101.79489648576673
 20
193.46244456992201
 30
0.0
  0
SPLINE
  5
17A
100
AcDbEntity
  8
0
370
              15
  6
Continuous
 62
               7
100
AcDbSpline
210
0.0
220
0.0
230
1.0
 70
               8
 71
               2
 72
              14
 73
              11
 74
               0
 42
0.000001
 43
0.000001
 40
0.0
 40
0.0
 40
0.0
 40
1.0
 40
1.0
 40
2.0
 40
3.0
 40
4.0
 40
5.0
 40
6.0
 40
6.0
 40
7.0
 40
7.0
 40
7.0
 10
-47.015755467729534
 20
256.66647961051012
 30
0.0
 10
-47.02955168537828
 20
256.67032982331881
 30
0.0
 10
-47.043347903027026
 20
256.6741800361275
 30
0.0
 10
-47.513523484793083
 20
256.80709867234714
 30
0.0
 10
-48.381862106096648
 20
257.03105937186456
 30
0.0
 10
-48.995746840686465
 20
257.14404774696459
 30
0.0
 10
-49.70365186712057
 20
257.2391148049112
 30
0.0
 10
-50.226872050765834
 20
257.21584392488694
 30
0.0
 10
-50.357988628408108
 20
257.20722717335002
 30
0.0
 10
-50.362373676782127
 20
257.20694978941128
 30
0.0
 10
-50.366758725156146
 20
257.20667240547255
 30
0.0
  0
LINE
  5
17B
100
AcDbEntity
  8
0
370
              15
  6
Continuous
 62
               7
100
AcDbLine
 10
-41.759237871668901
 20
253.51680898929999
 30
0.0
 11
-42.070174721068938
 21
253.73267628509996
 31
0.0
  0
SPLINE
  5
17C
100
AcDbEntity
  8
0
370
              15
  6
Continuous
 62
               7
100
AcDbSpline
210
0.0
220
0.0
230
1.0
 70
               8
 71
               2
 72
              13
 73
              10
 74
               0
 42
0.000001
 43
0.000001
 40
0.0
 40
0.0
 40
0.0
 40
1.0
 40
1.0
 40
2.0
 40
3.0
 40
4.0
 40
5.0
 40
5.0
 40
6.0
 40
6.0
 40
6.0
 10
-28.647771926672121
 20
207.29124207763391
 30
0.0
 10
-28.642618371593628
 20
207.28834935064339
 30
0.0
 10
-28.637464816515134
 20
207.28545662365286
 30
0.0
 10
-28.482744785390409
 20
207.19903412204781
 30
0.0
 10
-28.174709879182771
 20
207.02191260183622
 30
0.0
 10
-27.665555258220863
 20
206.69648962589838
 30
0.0
 10
-27.044682814702625
 20
206.17910136994055
 30
0.0
 10
-26.751034019578796
 20
205.90794989585527
 30
0.0
 10
-26.746283272063906
 20
205.90361354451733
 30
0.0
 10
-26.741532524549015
 20
205.89927719317939
 30
0.0
  0
SPLINE
  5
17D
100
AcDbEntity
  8
0
370
              15
  6
Continuous
 62
               7
100
AcDbSpline
210
0.0
220
0.0
230
1.0
 70
               8
 71
               2
 72
              14
 73
              11
 74
               0
 42
0.000001
 43
0.000001
 40
0.0
 40
0.0
 40
0.0
 40
1.0
 40
1.0
 40
2.0
 40
3.0
 40
4.0
 40
5.0
 40
6.0
 40
6.0
 40
7.0
 40
7.0
 40
7.0
 10
-43.571105642053951
 20
216.69099868535682
 30
0.0
 10
-43.51926118691101
 20
216.65823645216142
 30
0.0
 10
-43.467416731768068
 20
216.62547421896602
 30
0.0
 10
-41.899917918000185
 20
215.63991013271811
 30
0.0
 10
-37.556643660047015
 20
212.8051971714707
 30
0.0
 10
-33.452617422198998
 20
210.10429358590022
 30
0.0
 10
-30.780482040867966
 20
208.45781847996886
 30
0.0
 10
-29.214881106775451
 20
207.59888565761173
 30
0.0
 10
-28.71869531266934
 20
207.32974380747203
 30
0.0
 10
-28.68323361967073
 20
207.31049294255297
 30
0.0
 10
-28.647771926672121
 20
207.29124207763391
 30
0.0
  0
SPLINE
  5
17E
100
AcDbEntity
  8
0
370
              15
  6
Continuous
 62
               7
100
AcDbSpline
210
0.0
220
0.0
230
1.0
 70
               8
 71
               2
 72
              11
 73
               8
 74
               0
 42
0.000001
 43
0.000001
 40
0.0
 40
0.0
 40
0.0
 40
1.0
 40
1.0
 40
2.0
 40
3.0
 40
3.0
 40
4.0
 40
4.0
 40
4.0
 10
-48.010669183252318
 20
219.28502589651669
 30
0.0
 10
-47.995324840402233
 20
219.27649160368185
 30
0.0
 10
-47.979980497552148
 20
219.26795731084701
 30
0.0
 10
-47.094269430277549
 20
218.77868020700271
 30
0.0
 10
-44.912656449362473
 20
217.52055829189703
 30
0.0
 10
-43.598087415824622
 20
216.70757372510946
 30
0.0
 10
-43.584596528939286
 20
216.69928620523314
 30
0.0
 10
-43.571105642053951
 20
216.69099868535682
 30
0.0
  0
SPLINE
  5
17F
100
AcDbEntity
  8
0
370
              15
  6
Continuous
 62
               7
100
AcDbSpline
210
0.0
220
0.0
230
1.0
 70
               8
 71
               2
 72
              13
 73
              10
 74
               0
 42
0.000001
 43
0.000001
 40
0.0
 40
0.0
 40
0.0
 40
1.0
 40
1.0
 40
2.0
 40
3.0
 40
4.0
 40
5.0
 40
5.0
 40
6.0
 40
6.0
 40
6.0
 10
-42.207819806882341
 20
253.487614267396
 30
0.0
 10
-42.207550809622589
 20
253.48682527104569
 30
0.0
 10
-42.207281812362837
 20
253.48603627469538
 30
0.0
 10
-42.190508313181496
 20
253.43724060905083
 30
0.0
 10
-42.1431132512635
 20
253.29320721617103
 30
0.0
 10
-42.108625485105264
 20
253.14751816369312
 30
0.0
 10
-42.099189968055427
 20
253.10329586258547
 30
0.0
 10
-42.09898305760224
 20
253.10238904496703
 30
0.0
 10
-42.09898282161042
 20
253.10238804795165
 30
0.0
 10
-42.0989825856186
 20
253.10238705093627
 30
0.0
  0
LINE
  5
180
100
AcDbEntity
  8
0
370
              15
  6
Continuous
 62
               7
100
AcDbLine
 10
-42.188613072268922
 20
253.52181057370001
 30
0.0
 11
-42.207819806868926
 21
253.48761426739998
 31
0.0
  0
SPLINE
  5
181
100
AcDbEntity
  8
0
370
              15
  6
Continuous
 62
               7
100
AcDbSpline
210
0.0
220
0.0
230
1.0
 70
               8
 71
               2
 72
              15
 73
              12
 74
               0
 42
0.000001
 43
0.000001
 40
0.0
 40
0.0
 40
0.0
 40
1.0
 40
1.0
 40
2.0
 40
3.0
 40
4.0
 40
5.0
 40
6.0
 40
7.0
 40
7.0
 40
8.0
 40
8.0
 40
8.0
 10
-34.5584644704645
 20
248.87714122128523
 30
0.0
 10
-34.570273119437971
 20
248.88911811308725
 30
0.0
 10
-34.582081768411442
 20
248.90109500488927
 30
0.0
 10
-34.928727136287577
 20
249.26006946114853
 30
0.0
 10
-35.698166676173557
 20
249.96156038011088
 30
0.0
 10
-36.545845965685928
 20
250.56496397191211
 30
0.0
 10
-37.529372349372679
 20
251.21595251366898
 30
0.0
 10
-39.173570634952554
 20
252.27999866310824
 30
0.0
 10
-40.811097587227934
 20
253.1678673093885
 30
0.0
 10
-41.371984556060212
 20
253.45999503007545
 30
0.0
 10
-41.390632779754881
 20
253.46973984754271
 30
0.0
 10
-41.40928100344955
 20
253.47948466500998
 30
0.0
  0
LINE
  5
182
100
AcDbEntity
  8
0
370
              15
  6
Continuous
 62
               7
100
AcDbLine
 10
-75.981307832968909
 20
233.95302732829998
 30
0.0
 11
-76.284274532468928
 21
235.75536553920006
 31
0.0
  0
LINE
  5
183
100
AcDbEntity
  8
0
370
              15
  6
Continuous
 62
               7
100
AcDbLine
 10
-76.284274526668909
 20
235.75536531570003
 30
0.0
 11
-75.75218999916892
 21
235.33741214930001
 31
0.0
  0
SPLINE
  5
184
100
AcDbEntity
  8
0
370
              15
  6
Continuous
 62
               7
100
AcDbSpline
210
0.0
220
0.0
230
1.0
 70
               8
 71
               2
 72
              12
 73
               9
 74
               0
 42
0.000001
 43
0.000001
 40
0.0
 40
0.0
 40
0.0
 40
1.0
 40
1.0
 40
2.0
 40
3.0
 40
4.0
 40
4.0
 40
5.0
 40
5.0
 40
5.0
 10
-75.75218999913595
 20
235.33741214927272
 30
0.0
 10
-75.676876927167612
 20
235.28564964608336
 30
0.0
 10
-75.601563855199274
 20
235.23388714289399
 30
0.0
 10
-74.547711354724967
 20
234.5085308686713
 30
0.0
 10
-70.267595868171881
 20
231.59559535605933
 30
0.0
 10
-65.694192772111521
 20
229.00767379558215
 30
0.0
 10
-64.534065325518313
 20
228.35858665471903
 30
0.0
 10
-64.451219633455182
 20
228.3121968937561
 30
0.0
 10
-64.368373941392051
 20
228.26580713279316
 30
0.0
  0
SPLINE
  5
185
100
AcDbEntity
  8
0
370
              15
  6
Continuous
 62
               7
100
AcDbSpline
210
0.0
220
0.0
230
1.0
 70
               8
 71
               2
 72
              11
 73
               8
 74
               0
 42
0.000001
 43
0.000001
 40
0.0
 40
0.0
 40
0.0
 40
1.0
 40
1.0
 40
2.0
 40
3.0
 40
3.0
 40
4.0
 40
4.0
 40
4.0
 10
-64.368375337624045
 20
228.26581239988991
 30
0.0
 10
-64.325444117159222
 20
228.24396660315898
 30
0.0
 10
-64.282512896694399
 20
228.22212080642805
 30
0.0
 10
-61.785420411075094
 20
226.97237237513968
 30
0.0
 10
-58.140885150288383
 20
224.94733414599568
 30
0.0
 10
-56.828384512055877
 20
224.19597047732316
 30
0.0
 10
-56.784638860853292
 20
224.17098696254311
 30
0.0
 10
-56.740893209650707
 20
224.14600344776306
 30
0.0
  0
LINE
  5
186
100
AcDbEntity
  8
0
370
              15
  6
Continuous
 62
               7
100
AcDbLine
 10
-56.740874542668948
 20
224.14604822549995
 30
0.0
 11
-52.608097121368914
 21
221.70186408109998
 31
0.0
  0
SPLINE
  5
187
100
AcDbEntity
  8
0
370
              15
  6
Continuous
 62
               7
100
AcDbSpline
210
0.0
220
0.0
230
1.0
 70
               8
 71
               2
 72
              13
 73
              10
 74
               0
 42
0.000001
 43
0.000001
 40
0.0
 40
0.0
 40
0.0
 40
1.0
 40
1.0
 40
2.0
 40
3.0
 40
4.0
 40
5.0
 40
5.0
 40
6.0
 40
6.0
 40
6.0
 10
-51.128140703177948
 20
219.61124432724478
 30
0.0
 10
-51.176308050365677
 20
219.63615144487756
 30
0.0
 10
-51.224475397553405
 20
219.66105856251033
 30
0.0
 10
-56.277458594841889
 20
222.31641572917351
 30
0.0
 10
-63.750976297562815
 20
226.31108566948342
 30
0.0
 10
-68.343670140605397
 20
228.85464786775151
 30
0.0
 10
-73.143156212469123
 20
231.79068536921568
 30
0.0
 10
-75.892946566631096
 20
233.88657282051156
 30
0.0
 10
-75.937130086221956
 20
233.91986728081463
 30
0.0
 10
-75.981313605812815
 20
233.9531617411177
 30
0.0
  0
LINE
  5
188
100
AcDbEntity
  8
0
370
              15
  6
Continuous
 62
               7
100
AcDbLine
 10
-52.608097121368914
 20
221.70186408109998
 30
0.0
 11
-50.771571775668903
 21
220.74520759159998
 31
0.0
  0
SPLINE
  5
189
100
AcDbEntity
  8
0
370
              15
  6
Continuous
 62
               7
100
AcDbSpline
210
0.0
220
0.0
230
1.0
 70
               8
 71
               2
 72
              17
 73
              14
 74
               0
 42
0.000001
 43
0.000001
 40
0.0
 40
0.0
 40
0.0
 40
1.0
 40
1.0
 40
2.0
 40
3.0
 40
4.0
 40
5.0
 40
6.0
 40
7.0
 40
8.0
 40
9.0
 40
9.0
 40
10.0
 40
10.0
 40
10.0
 10
-54.23170783448704
 20
247.84393025497832
 30
0.0
 10
-54.251935898591498
 20
247.82164864524128
 30
0.0
 10
-54.272163962695956
 20
247.79936703550425
 30
0.0
 10
-56.302940209148616
 20
245.47408388658619
 30
0.0
 10
-59.92776787226579
 20
242.37163988814586
 30
0.0
 10
-62.99228018033925
 20
240.1732570854947
 30
0.0
 10
-66.697568061897456
 20
238.542511536853
 30
0.0
 10
-68.731349031870636
 20
237.66368301915088
 30
0.0
 10
-70.016041723397322
 20
237.00960011317341
 30
0.0
 10
-71.078596318968707
 20
236.49316270143265
 30
0.0
 10
-73.612759368713498
 20
235.66931885916995
 30
0.0
 10
-75.706256097028628
 20
235.3453328762746
 30
0.0
 10
-75.729223048082289
 20
235.34137251277366
 30
0.0
 10
-75.75218999913595
 20
235.33741214927272
 30
0.0
  0
LINE
  5
18A
100
AcDbEntity
  8
0
370
              15
  6
Continuous
 62
               7
100
AcDbLine
 10
-54.231707834468907
 20
247.84393025500003
 30
0.0
 11
-51.350671490368924
 21
251.10458019910004
 31
0.0
  0
LINE
  5
18B
100
AcDbEntity
  8
0
370
              15
  6
Continuous
 62
               7
100
AcDbLine
 10
-76.284274526668909
 20
235.75536531570003
 30
0.0
 11
-76.324108497868949
 21
235.78359896020004
 31
0.0
  0
LINE
  5
18C
100
AcDbEntity
  8
0
370
              15
  6
Continuous
 62
               7
100
AcDbLine
 10
-76.324108497868949
 20
235.78359896020004
 30
0.0
 11
-76.233714603668929
 21
235.79790279710005
 31
0.0
  0
SPLINE
  5
18D
100
AcDbEntity
  8
0
370
              15
  6
Continuous
 62
               7
100
AcDbSpline
210
0.0
220
0.0
230
1.0
 70
               8
 71
               2
 72
              13
 73
              10
 74
               0
 42
0.000001
 43
0.000001
 40
0.0
 40
0.0
 40
0.0
 40
1.0
 40
1.0
 40
2.0
 40
3.0
 40
4.0
 40
5.0
 40
5.0
 40
6.0
 40
6.0
 40
6.0
 10
-76.233714603665518
 20
235.79790279714985
 30
0.0
 10
-76.223928081012119
 20
235.79949115204431
 30
0.0
 10
-76.214141558358719
 20
235.80107950693878
 30
0.0
 10
-75.691041236734733
 20
235.88475200937262
 30
0.0
 10
-74.291052752964774
 20
236.12682804281837
 30
0.0
 10
-72.502092892207358
 20
236.53626481745835
 30
0.0
 10
-71.146011047934323
 20
237.04455067578135
 30
0.0
 10
-70.608093517763663
 20
237.2670107310887
 30
0.0
 10
-70.590133096063383
 20
237.27437426626898
 30
0.0
 10
-70.572172674363102
 20
237.28173780144925
 30
0.0
  0
LINE
  5
18E
100
AcDbEntity
  8
0
370
              15
  6
Continuous
 62
               7
100
AcDbLine
 10
-70.5721726743689
 20
237.28173780140003
 30
0.0
 11
-70.163271774168933
 21
237.49146872150004
 31
0.0
  0
SPLINE
  5
18F
100
AcDbEntity
  8
0
370
              15
  6
Continuous
 62
               7
100
AcDbSpline
210
0.0
220
0.0
230
1.0
 70
               8
 71
               2
 72
              13
 73
              10
 74
               0
 42
0.000001
 43
0.000001
 40
0.0
 40
0.0
 40
0.0
 40
1.0
 40
1.0
 40
2.0
 40
3.0
 40
4.0
 40
5.0
 40
5.0
 40
6.0
 40
6.0
 40
6.0
 10
-70.163271774186612
 20
237.49146872150368
 30
0.0
 10
-70.134987917474731
 20
237.50527694403155
 30
0.0
 10
-70.106704060762851
 20
237.51908516655942
 30
0.0
 10
-68.400920524247496
 20
238.36215248551571
 30
0.0
 10
-65.70955531791877
 20
239.48165478779151
 30
0.0
 10
-62.495135048772838
 20
240.96593149000864
 30
0.0
 10
-60.058095335714071
 20
242.73361497020358
 30
0.0
 10
-59.433222711269579
 20
243.21899307662795
 30
0.0
 10
-59.414767172643693
 20
243.23323753735451
 30
0.0
 10
-59.396311634017806
 20
243.24748199808107
 30
0.0
  0
SPLINE
  5
190
100
AcDbEntity
  8
0
370
              15
  6
Continuous
 62
               7
100
AcDbSpline
210
0.0
220
0.0
230
1.0
 70
               8
 71
               2
 72
              13
 73
              10
 74
               0
 42
0.000001
 43
0.000001
 40
0.0
 40
0.0
 40
0.0
 40
1.0
 40
1.0
 40
2.0
 40
3.0
 40
4.0
 40
5.0
 40
5.0
 40
6.0
 40
6.0
 40
6.0
 10
-59.396311634017806
 20
243.24748199808107
 30
0.0
 10
-59.376725241215368
 20
243.26355136188039
 30
0.0
 10
-59.35713884841293
 20
243.27962072567971
 30
0.0
 10
-58.171125527345609
 20
244.23095937620019
 30
0.0
 10
-55.548890722330199
 20
246.68305479676042
 30
0.0
 10
-53.369036337036889
 20
249.09686542728093
 30
0.0
 10
-52.020018664878236
 20
250.62475776412816
 30
0.0
 10
-51.465650431192202
 20
251.22884973908231
 30
0.0
 10
-51.457967223962228
 20
251.23725118128613
 30
0.0
 10
-51.450284016732255
 20
251.24565262348995
 30
0.0
  0
SPLINE
  5
191
100
AcDbEntity
  8
0
370
              15
  6
Continuous
 62
               7
100
AcDbSpline
210
0.0
220
0.0
230
1.0
 70
               8
 71
               2
 72
              16
 73
              13
 74
               0
 42
0.000001
 43
0.000001
 40
0.0
 40
0.0
 40
0.0
 40
1.0
 40
1.0
 40
2.0
 40
3.0
 40
4.0
 40
5.0
 40
6.0
 40
7.0
 40
8.0
 40
8.0
 40
9.0
 40
9.0
 40
9.0
 10
-51.450284016732255
 20
251.24565262348995
 30
0.0
 10
-51.447270277848858
 20
251.24889806901695
 30
0.0
 10
-51.444256538965462
 20
251.25214351454395
 30
0.0
 10
-51.35379111947104
 20
251.34958956197556
 30
0.0
 10
-50.244275575783021
 20
252.5425794873936
 30
0.0
 10
-48.916185633745087
 20
253.78585363261254
 30
0.0
 10
-47.87087238255252
 20
254.67861045278096
 30
0.0
 10
-47.102935734180775
 20
255.27320178831269
 30
0.0
 10
-46.794522755495265
 20
255.54989299394117
 30
0.0
 10
-46.655094949764859
 20
255.696668290346
 30
0.0
 10
-46.603721927990009
 20
255.75211684020883
 30
0.0
 10
-46.600038802841809
 20
255.75608507829469
 30
0.0
 10
-46.596355677693609
 20
255.76005331638055
 30
0.0
  0
LINE
  5
192
100
AcDbEntity
  8
0
370
              15
  6
Continuous
 62
               7
100
AcDbLine
 10
-46.94880063456894
 20
255.25526027000001
 30
0.0
 11
-46.70072818896891
 21
255.57427410970001
 31
0.0
  0
LINE
  5
193
100
AcDbEntity
  8
0
370
              15
  6
Continuous
 62
               7
100
AcDbLine
 10
-46.949265434868934
 20
255.25434562160001
 30
0.0
 11
-47.187764647068931
 21
255.05078175100005
 31
0.0
  0
SPLINE
  5
194
100
AcDbEntity
  8
0
370
              15
  6
Continuous
 62
               7
100
AcDbSpline
210
0.0
220
0.0
230
1.0
 70
               8
 71
               2
 72
              14
 73
              11
 74
               0
 42
0.000001
 43
0.000001
 40
0.0
 40
0.0
 40
0.0
 40
1.0
 40
1.0
 40
2.0
 40
3.0
 40
4.0
 40
5.0
 40
6.0
 40
6.0
 40
7.0
 40
7.0
 40
7.0
 10
-51.350671490321801
 20
251.10458019905752
 30
0.0
 10
-51.331872188571836
 20
251.12458289610322
 30
0.0
 10
-51.313072886821871
 20
251.14458559314892
 30
0.0
 10
-50.822699260206534
 20
251.66778873160024
 30
0.0
 10
-50.086834705134706
 20
252.43620780425169
 30
0.0
 10
-49.398500789450608
 20
253.12651259238237
 30
0.0
 10
-48.310378766861206
 20
254.12450495415874
 30
0.0
 10
-47.498409514876286
 20
254.79773451693086
 30
0.0
 10
-47.207821167018821
 20
255.03389725587488
 30
0.0
 10
-47.198047853557668
 20
255.04186142636996
 30
0.0
 10
-47.188274540096515
 20
255.04982559686505
 30
0.0
  0
LINE
  5
195
100
AcDbEntity
  8
0
370
              15
  6
Continuous
 62
               7
100
AcDbLine
 10
-50.771581000368926
 20
220.74519110239999
 30
0.0
 11
-48.01061239116892
 21
219.2851404388
 31
0.0
  0
SPLINE
  5
196
100
AcDbEntity
  8
0
370
              15
  6
Continuous
 62
               7
100
AcDbSpline
210
0.0
220
0.0
230
1.0
 70
               8
 71
               2
 72
              13
 73
              10
 74
               0
 42
0.000001
 43
0.000001
 40
0.0
 40
0.0
 40
0.0
 40
1.0
 40
1.0
 40
2.0
 40
3.0
 40
4.0
 40
5.0
 40
5.0
 40
6.0
 40
6.0
 40
6.0
 10
-46.753428122608213
 20
217.142055869101
 30
0.0
 10
-46.712941382484118
 20
217.11808573283673
 30
0.0
 10
-46.672454642360023
 20
217.09411559657246
 30
0.0
 10
-43.791260261459954
 20
215.40004555588825
 30
0.0
 10
-38.439179051678522
 20
211.93273558077669
 30
0.0
 10
-34.101788463396971
 20
209.0649070292767
 30
0.0
 10
-31.488365296979893
 20
207.50146282299443
 30
0.0
 10
-30.447873765881795
 20
206.90392327082509
 30
0.0
 10
-30.400385191911809
 20
206.87654553126987
 30
0.0
 10
-30.352896617941823
 20
206.84916779171465
 30
0.0
  0
LINE
  5
197
100
AcDbEntity
  8
0
370
              15
  6
Continuous
 62
               7
100
AcDbLine
 10
-51.01237554006893
 20
219.47657698820001
 30
0.0
 11
-50.641416285268903
 21
219.28359091389996
 31
0.0
  0
SPLINE
  5
198
100
AcDbEntity
  8
0
370
              15
  6
Continuous
 62
               7
100
AcDbSpline
210
0.0
220
0.0
230
1.0
 70
               8
 71
               2
 72
              11
 73
               8
 74
               0
 42
0.000001
 43
0.000001
 40
0.0
 40
0.0
 40
0.0
 40
1.0
 40
1.0
 40
2.0
 40
3.0
 40
3.0
 40
4.0
 40
4.0
 40
4.0
 10
-46.753450733486417
 20
217.14200014551523
 30
0.0
 10
-46.771852448830387
 20
217.15256068418086
 30
0.0
 10
-46.790254164174357
 20
217.16312122284648
 30
0.0
 10
-48.146728695693056
 20
217.9493991765155
 30
0.0
 10
-50.033610722264186
 20
218.96303033325148
 30
0.0
 10
-50.603286459315242
 20
219.26385125334957
 30
0.0
 10
-50.622267420790635
 20
219.27388610053919
 30
0.0
 10
-50.641248382266028
 20
219.2839209477288
 30
0.0
  0
LINE
  5
199
100
AcDbEntity
  8
0
370
              15
  6
Continuous
 62
               7
100
AcDbLine
 10
-70.287260909868948
 20
237.68062434219996
 30
0.0
 11
-70.69403100686894
 21
237.46747706619999
 31
0.0
  0
SPLINE
  5
19A
100
AcDbEntity
  8
0
370
              15
  6
Continuous
 62
               7
100
AcDbSpline
210
0.0
220
0.0
230
1.0
 70
               8
 71
               2
 72
              15
 73
              12
 74
               0
 42
0.000001
 43
0.000001
 40
0.0
 40
0.0
 40
0.0
 40
1.0
 40
1.0
 40
2.0
 40
3.0
 40
4.0
 40
5.0
 40
6.0
 40
7.0
 40
7.0
 40
8.0
 40
8.0
 40
8.0
 10
-74.357578283675352
 20
236.33431892354395
 30
0.0
 10
-74.354907950078896
 20
236.34009968790912
 30
0.0
 10
-74.352237616482441
 20
236.34588045227429
 30
0.0
 10
-74.24763669112734
 20
236.5924342685787
 30
0.0
 10
-74.024421746051232
 20
236.91771410034482
 30
0.0
 10
-73.829537345254764
 20
237.08031701046218
 30
0.0
 10
-73.616429244989646
 20
237.16018684801543
 30
0.0
 10
-73.391595174649623
 20
237.18962676574938
 30
0.0
 10
-72.017961651990319
 20
237.30559196829131
 30
0.0
 10
-70.73956728538802
 20
237.4621341747096
 30
0.0
 10
-70.716797982960983
 20
237.46480475398249
 30
0.0
 10
-70.694028680533947
 20
237.46747533325538
 30
0.0
  0
SPLINE
  5
19B
100
AcDbEntity
  8
0
370
              15
  6
Continuous
 62
               7
100
AcDbSpline
210
0.0
220
0.0
230
1.0
 70
               8
 71
               2
 72
              21
 73
              18
 74
               0
 42
0.000001
 43
0.000001
 40
0.0
 40
0.0
 40
0.0
 40
1.0
 40
1.0
 40
2.0
 40
3.0
 40
4.0
 40
5.0
 40
6.0
 40
7.0
 40
8.0
 40
9.0
 40
10.0
 40
11.0
 40
12.0
 40
13.0
 40
13.0
 40
14.0
 40
14.0
 40
14.0
 10
-76.254081096497643
 20
235.91672786652362
 30
0.0
 10
-76.242902153419934
 20
235.92058319807279
 30
0.0
 10
-76.231723210342224
 20
235.92443852962197
 30
0.0
 10
-76.074972164155653
 20
235.97818716267091
 30
0.0
 10
-75.765936012880601
 20
236.08979005943468
 30
0.0
 10
-75.433330929951737
 20
236.23625499514469
 30
0.0
 10
-75.136423407889467
 20
236.41553723112543
 30
0.0
 10
-74.966178305089713
 20
236.5724121238211
 30
0.0
 10
-74.902158791054134
 20
236.64531255334157
 30
0.0
 10
-74.859843951783247
 20
236.68843776080337
 30
0.0
 10
-74.825137494050793
 20
236.71230814925593
 30
0.0
 10
-74.794472909303735
 20
236.72140830938633
 30
0.0
 10
-74.722744600778398
 20
236.70238017604754
 30
0.0
 10
-74.569982644010722
 20
236.59208060633318
 30
0.0
 10
-74.423571542994566
 20
236.42071206631908
 30
0.0
 10
-74.361732848955782
 20
236.33969518965023
 30
0.0
 10
-74.359655566315567
 20
236.33700705659709
 30
0.0
 10
-74.357578283675352
 20
236.33431892354395
 30
0.0
  0
LINE
  5
19C
100
AcDbEntity
  8
0
370
              15
  6
Continuous
 62
               7
100
AcDbLine
 10
-76.254081096468937
 20
235.91672786649997
 30
0.0
 11
-76.46386048426892
 21
235.8823781525
 31
0.0
  0
LINE
  5
19D
100
AcDbEntity
  8
0
370
              15
  6
Continuous
 62
               7
100
AcDbLine
 10
-76.46384973416933
 20
235.88230244501085
 30
0.0
 11
-76.533926770021807
 21
235.92686457458785
 31
0.0
  0
LINE
  5
19E
100
AcDbEntity
  8
0
370
              15
  6
Continuous
 62
               7
100
AcDbLine
 10
-76.46386048426892
 20
235.8823781525
 30
0.0
 11
-76.678439856368911
 21
235.8385801997
 31
0.0
  0
SPLINE
  5
19F
100
AcDbEntity
  8
0
370
              15
  6
Continuous
 62
               7
100
AcDbSpline
210
0.0
220
0.0
230
1.0
 70
               8
 71
               2
 72
              12
 73
               9
 74
               0
 42
0.000001
 43
0.000001
 40
0.0
 40
0.0
 40
0.0
 40
1.0
 40
1.0
 40
2.0
 40
3.0
 40
4.0
 40
4.0
 40
5.0
 40
5.0
 40
5.0
 10
-76.678432703055236
 20
235.83853701351802
 30
0.0
 10
-76.72462917889932
 20
235.8288766716235
 30
0.0
 10
-76.770825654743405
 20
235.81921632972899
 30
0.0
 10
-78.161720716855356
 20
235.53067840564859
 30
0.0
 10
-80.617963219398504
 20
234.99354686010042
 30
0.0
 10
-82.797519368773962
 20
234.46025186690304
 30
0.0
 10
-83.902351570108792
 20
234.17846721279921
 30
0.0
 10
-83.939252182781601
 20
234.16909293172461
 30
0.0
 10
-83.976152795454411
 20
234.15971865065001
 30
0.0
  0
SPLINE
  5
1A0
100
AcDbEntity
  8
0
370
              15
  6
Continuous
 62
               7
100
AcDbSpline
210
0.0
220
0.0
230
1.0
 70
               8
 71
               2
 72
              15
 73
              12
 74
               0
 42
0.000001
 43
0.000001
 40
0.0
 40
0.0
 40
0.0
 40
1.0
 40
1.0
 40
2.0
 40
3.0
 40
4.0
 40
5.0
 40
6.0
 40
7.0
 40
7.0
 40
8.0
 40
8.0
 40
8.0
 10
-51.012457697373449
 20
219.47641884714312
 30
0.0
 10
-51.012597121018459
 20
219.47650066162237
 30
0.0
 10
-51.012736544663468
 20
219.47658247610161
 30
0.0
 10
-51.030535762031533
 20
219.48661819083122
 30
0.0
 10
-51.058209208701996
 20
219.50593514006789
 30
0.0
 10
-51.083265233088397
 20
219.52938921885629
 30
0.0
 10
-51.107897374709907
 20
219.56130875076315
 30
0.0
 10
-51.119548146943131
 20
219.58676542508579
 30
0.0
 10
-51.125357678974794
 20
219.602879971231
 30
0.0
 10
-51.128052905345939
 20
219.61098312182162
 30
0.0
 10
-51.128096804261943
 20
219.6111137245332
 30
0.0
 10
-51.128140703177948
 20
219.61124432724478
 30
0.0
  0
SPLINE
  5
1A1
100
AcDbEntity
  8
0
370
              15
  6
Continuous
 62
               7
100
AcDbSpline
210
0.0
220
0.0
230
1.0
 70
               8
 71
               2
 72
              13
 73
              10
 74
               0
 42
0.000001
 43
0.000001
 40
0.0
 40
0.0
 40
0.0
 40
1.0
 40
1.0
 40
2.0
 40
3.0
 40
4.0
 40
5.0
 40
5.0
 40
6.0
 40
6.0
 40
6.0
 10
-83.976152794021218
 20
234.15971859477759
 30
0.0
 10
-84.016773133763039
 20
234.14975987044573
 30
0.0
 10
-84.05739347350486
 20
234.13980114611388
 30
0.0
 10
-85.116482550480598
 20
233.87783318086053
 30
0.0
 10
-87.194023014381443
 20
233.39567785135694
 30
0.0
 10
-88.847606441250647
 20
233.07655499888051
 30
0.0
 10
-91.119918438098281
 20
232.62783784943849
 30
0.0
 10
-92.794461569391601
 20
232.22437200387992
 30
0.0
 10
-92.827953085100418
 20
232.21645846049984
 30
0.0
 10
-92.861444600809236
 20
232.20854491711975
 30
0.0
  0
SPLINE
  5
1A2
100
AcDbEntity
  8
0
370
              15
  6
Continuous
 62
               7
100
AcDbSpline
210
0.0
220
0.0
230
1.0
 70
               8
 71
               2
 72
              17
 73
              14
 74
               0
 42
0.000001
 43
0.000001
 40
0.0
 40
0.0
 40
0.0
 40
1.0
 40
1.0
 40
2.0
 40
3.0
 40
4.0
 40
5.0
 40
6.0
 40
7.0
 40
8.0
 40
9.0
 40
9.0
 40
10.0
 40
10.0
 40
10.0
 10
-92.861444600809236
 20
232.20854491711975
 30
0.0
 10
-92.885487731638207
 20
232.20302103157917
 30
0.0
 10
-92.909530862467179
 20
232.19749714603859
 30
0.0
 10
-93.634029052816615
 20
232.02948017887388
 30
0.0
 10
-94.882650264180185
 20
231.75765609369034
 30
0.0
 10
-96.579907075074445
 20
231.43443259757839
 30
0.0
 10
-98.079160045439309
 20
231.13510188869191
 30
0.0
 10
-98.947982024955635
 20
231.01428558689167
 30
0.0
 10
-99.714813742510373
 20
230.99323531667483
 30
0.0
 10
-100.69495555897286
 20
231.11625044476136
 30
0.0
 10
-101.3892853601581
 20
231.29901333699195
 30
0.0
 10
-101.58108143986577
 20
231.35097595908212
 30
0.0
 10
-101.59174295639919
 20
231.35385465277795
 30
0.0
 10
-101.60240447293261
 20
231.35673334647379
 30
0.0
  0
LINE
  5
1A3
100
AcDbEntity
  8
0
370
              15
  6
Continuous
 62
               7
100
AcDbLine
 10
-101.60240446146894
 20
231.3567328995
 30
0.0
 11
-101.7210393371689
 21
231.38712646329998
 31
0.0
  0
SPLINE
  5
1A4
100
AcDbEntity
  8
0
370
              15
  6
Continuous
 62
               7
100
AcDbSpline
210
0.0
220
0.0
230
1.0
 70
               8
 71
               2
 72
              15
 73
              12
 74
               0
 42
0.000001
 43
0.000001
 40
0.0
 40
0.0
 40
0.0
 40
1.0
 40
1.0
 40
2.0
 40
3.0
 40
4.0
 40
5.0
 40
6.0
 40
7.0
 40
7.0
 40
8.0
 40
8.0
 40
8.0
 10
-59.690736069944748
 20
243.58608243589026
 30
0.0
 10
-59.690763394405522
 20
243.58605324825686
 30
0.0
 10
-59.690790718866296
 20
243.58602406062346
 30
0.0
 10
-59.721975907345879
 20
243.55350856261441
 30
0.0
 10
-60.446547795298486
 20
242.95555549950973
 30
0.0
 10
-62.491958723281115
 20
241.41547660047274
 30
0.0
 10
-64.782566969895342
 20
240.18868261865134
 30
0.0
 10
-66.728524341770921
 20
239.29947164127043
 30
0.0
 10
-69.104585252635431
 20
238.28340403945424
 30
0.0
 10
-70.273517529313878
 20
237.68758030660854
 30
0.0
 10
-70.280389581522556
 20
237.68410160753382
 30
0.0
 10
-70.287261633731234
 20
237.6806229084591
 30
0.0
  0
SPLINE
  5
1A5
100
AcDbEntity
  8
0
370
              15
  6
Continuous
 62
               7
100
AcDbSpline
210
0.0
220
0.0
230
1.0
 70
               8
 71
               2
 72
              14
 73
              11
 74
               0
 42
0.000001
 43
0.000001
 40
0.0
 40
0.0
 40
0.0
 40
1.0
 40
1.0
 40
2.0
 40
3.0
 40
4.0
 40
5.0
 40
6.0
 40
6.0
 40
7.0
 40
7.0
 40
7.0
 10
-59.690737506162449
 20
243.58607912138871
 30
0.0
 10
-59.690359508543864
 20
243.58580935779867
 30
0.0
 10
-59.689981510925278
 20
243.58553959420863
 30
0.0
 10
-59.657315324173211
 20
243.56281401644515
 30
0.0
 10
-59.589223693693711
 20
243.50897692088813
 30
0.0
 10
-59.533355487065521
 20
243.4511354599482
 30
0.0
 10
-59.462345713473198
 20
243.36757120432799
 30
0.0
 10
-59.411389241778508
 20
243.27633116784978
 30
0.0
 10
-59.39678628908716
 20
243.2483826575185
 30
0.0
 10
-59.396548961552483
 20
243.24793232779979
 30
0.0
 10
-59.396311634017806
 20
243.24748199808107
 30
0.0
  0
SPLINE
  5
1A6
100
AcDbEntity
  8
0
370
              15
  6
Continuous
 62
               7
100
AcDbSpline
210
0.0
220
0.0
230
1.0
 70
               8
 71
               2
 72
              12
 73
               9
 74
               0
 42
0.000001
 43
0.000001
 40
0.0
 40
0.0
 40
0.0
 40
1.0
 40
1.0
 40
2.0
 40
3.0
 40
4.0
 40
4.0
 40
5.0
 40
5.0
 40
5.0
 10
-70.287261633731234
 20
237.6806229084591
 30
0.0
 10
-70.287027239016894
 20
237.68031181714645
 30
0.0
 10
-70.286792844302553
 20
237.68000072583379
 30
0.0
 10
-70.264666624335675
 20
237.65105205459565
 30
0.0
 10
-70.222607288202582
 20
237.59175135243527
 30
0.0
 10
-70.183245007068294
 20
237.52656809741609
 30
0.0
 10
-70.163688241329666
 20
237.49219681213594
 30
0.0
 10
-70.163479631505353
 20
237.49183292497622
 30
0.0
 10
-70.163271021681041
 20
237.4914690378165
 30
0.0
  0
SPLINE
  5
1A7
100
AcDbEntity
  8
0
370
              15
  6
Continuous
 62
               7
100
AcDbSpline
210
0.0
220
0.0
230
1.0
 70
               8
 71
               2
 72
              13
 73
              10
 74
               0
 42
0.000001
 43
0.000001
 40
0.0
 40
0.0
 40
0.0
 40
1.0
 40
1.0
 40
2.0
 40
3.0
 40
4.0
 40
5.0
 40
5.0
 40
6.0
 40
6.0
 40
6.0
 10
-70.694027939493807
 20
237.46747609654778
 30
0.0
 10
-70.721405419992223
 20
237.45625860659305
 30
0.0
 10
-70.748782900490639
 20
237.44504111663832
 30
0.0
 10
-71.675516190736104
 20
237.05420644734227
 30
0.0
 10
-73.361851111625569
 20
236.46774815659262
 30
0.0
 10
-74.670635335824144
 20
236.18404322131278
 30
0.0
 10
-75.642798210292469
 20
236.01432710695758
 30
0.0
 10
-76.192976802742336
 20
235.92654302324388
 30
0.0
 10
-76.22352894961999
 20
235.92163544488375
 30
0.0
 10
-76.254081096497643
 20
235.91672786652362
 30
0.0
  0
LINE
  5
1A8
100
AcDbEntity
  8
0
370
              15
  6
Continuous
 62
               7
100
AcDbLine
 10
-76.388503721968945
 20
234.06496151939996
 30
0.0
 11
-76.678432703068935
 21
235.83853701349994
 31
0.0
  0
SPLINE
  5
1A9
100
AcDbEntity
  8
0
370
              15
  6
Continuous
 62
               7
100
AcDbSpline
210
0.0
220
0.0
230
1.0
 70
               8
 71
               2
 72
              12
 73
               9
 74
               0
 42
0.000001
 43
0.000001
 40
0.0
 40
0.0
 40
0.0
 40
1.0
 40
1.0
 40
2.0
 40
3.0
 40
4.0
 40
4.0
 40
5.0
 40
5.0
 40
5.0
 10
-81.190128371718728
 20
233.10753810918243
 30
0.0
 10
-81.16797437729771
 20
233.11266650108968
 30
0.0
 10
-81.145820382876693
 20
233.11779489299693
 30
0.0
 10
-80.481803420999015
 20
233.27250690782546
 30
0.0
 10
-78.856207622088718
 20
233.63353501621191
 30
0.0
 10
-77.157798537177811
 20
233.93561233466039
 30
0.0
 10
-76.436561243576804
 20
234.05683434524713
 30
0.0
 10
-76.412533138035869
 20
234.06089382540989
 30
0.0
 10
-76.388505032494933
 20
234.06495330557266
 30
0.0
  0
LINE
  5
1AA
100
AcDbEntity
  8
0
370
              15
  6
Continuous
 62
               7
100
AcDbLine
 10
-83.180194096368936
 20
232.57592382259998
 30
0.0
 11
-81.190128371668933
 21
233.10753810920005
 31
0.0
  0
LINE
  5
1AB
100
AcDbEntity
  8
0
370
              15
  6
Continuous
 62
               7
100
AcDbLine
 10
-76.254081096497643
 20
235.91672786652362
 30
0.0
 11
-76.233715367636748
 21
235.79790292781627
 31
0.0
  0
SPLINE
  5
1AC
100
AcDbEntity
  8
0
370
              15
  6
Continuous
 62
               7
100
AcDbSpline
210
0.0
220
0.0
230
1.0
 70
               8
 71
               2
 72
              12
 73
               9
 74
               0
 42
0.000001
 43
0.000001
 40
0.0
 40
0.0
 40
0.0
 40
1.0
 40
1.0
 40
2.0
 40
3.0
 40
4.0
 40
4.0
 40
5.0
 40
5.0
 40
5.0
 10
-70.694031006844327
 20
237.46747706619249
 30
0.0
 10
-70.693804631177628
 20
237.46717568130435
 30
0.0
 10
-70.693578255510928
 20
237.46687429641622
 30
0.0
 10
-70.672217362094372
 20
237.43882282878269
 30
0.0
 10
-70.631241669960147
 20
237.3810250984526
 30
0.0
 10
-70.592173613712404
 20
237.31665305056299
 30
0.0
 10
-70.572593310025283
 20
237.28246006395023
 30
0.0
 10
-70.572384491472704
 20
237.28209807658425
 30
0.0
 10
-70.572175672920125
 20
237.28173608921827
 30
0.0
  0
SPLINE
  5
1AD
100
AcDbEntity
  8
0
370
              15
  6
Continuous
 62
               7
100
AcDbSpline
210
0.0
220
0.0
230
1.0
 70
               8
 71
               2
 72
              15
 73
              12
 74
               0
 42
0.000001
 43
0.000001
 40
0.0
 40
0.0
 40
0.0
 40
1.0
 40
1.0
 40
2.0
 40
3.0
 40
4.0
 40
5.0
 40
6.0
 40
7.0
 40
7.0
 40
8.0
 40
8.0
 40
8.0
 10
-76.678439856343104
 20
235.83858019971706
 30
0.0
 10
-76.677649237430145
 20
235.83866503405801
 30
0.0
 10
-76.676858618517187
 20
235.83874986839896
 30
0.0
 10
-76.627777342691431
 20
235.84454321800627
 30
0.0
 10
-76.555511454608379
 20
235.84835182862776
 30
0.0
 10
-76.500549982958589
 20
235.84665124772539
 30
0.0
 10
-76.447175638646954
 20
235.83726707018081
 30
0.0
 10
-76.393182724246955
 20
235.8199162582298
 30
0.0
 10
-76.344688587181892
 20
235.79501779891359
 30
0.0
 10
-76.324753652205104
 20
235.78395339885878
 30
0.0
 10
-76.324431459880557
 20
235.78377635662798
 30
0.0
 10
-76.324109267556011
 20
235.78359931439718
 30
0.0
  0
SPLINE
  5
1AE
100
AcDbEntity
  8
0
370
              15
  6
Continuous
 62
               7
100
AcDbSpline
210
0.0
220
0.0
230
1.0
 70
               8
 71
               2
 72
              15
 73
              12
 74
               0
 42
0.000001
 43
0.000001
 40
0.0
 40
0.0
 40
0.0
 40
1.0
 40
1.0
 40
2.0
 40
3.0
 40
4.0
 40
5.0
 40
6.0
 40
7.0
 40
7.0
 40
8.0
 40
8.0
 40
8.0
 10
-76.388503718323008
 20
234.06496137795943
 30
0.0
 10
-76.388054573048393
 20
234.06500450412193
 30
0.0
 10
-76.387605427773778
 20
234.06504763028443
 30
0.0
 10
-76.359755668582508
 20
234.06791184389454
 30
0.0
 10
-76.294536649508004
 20
234.07226626101249
 30
0.0
 10
-76.226570622487358
 20
234.06488067595456
 30
0.0
 10
-76.17783564715505
 20
234.05325757803087
 30
0.0
 10
-76.091888500610921
 20
234.02611830487115
 30
0.0
 10
-76.008459599005661
 20
233.972051339926
 30
0.0
 10
-75.982158929619445
 20
233.95361777702124
 30
0.0
 10
-75.981733381284229
 20
233.95332255266669
 30
0.0
 10
-75.981307832949014
 20
233.95302732831215
 30
0.0
  0
SPLINE
  5
1AF
100
AcDbEntity
  8
0
370
              15
  6
Continuous
 62
               7
100
AcDbSpline
210
0.0
220
0.0
230
1.0
 70
               8
 71
               2
 72
              13
 73
              10
 74
               0
 42
0.000001
 43
0.000001
 40
0.0
 40
0.0
 40
0.0
 40
1.0
 40
1.0
 40
2.0
 40
3.0
 40
4.0
 40
5.0
 40
5.0
 40
6.0
 40
6.0
 40
6.0
 10
-90.899700803788832
 20
230.87840569635807
 30
0.0
 10
-90.859010265864796
 20
230.88741686421673
 30
0.0
 10
-90.818319727940761
 20
230.89642803207539
 30
0.0
 10
-89.603393933893798
 20
231.16753023427702
 30
0.0
 10
-87.220074521691785
 20
231.66602691998901
 30
0.0
 10
-85.286676047422972
 20
232.04644490715918
 30
0.0
 10
-83.954634522669309
 20
232.37226538451409
 30
0.0
 10
-83.228526259603754
 20
232.56329359552535
 30
0.0
 10
-83.204360177964432
 20
232.56960870906528
 30
0.0
 10
-83.18019409632511
 20
232.5759238226052
 30
0.0
  0
SPLINE
  5
1B0
100
AcDbEntity
  8
0
370
              15
  6
Continuous
 62
               7
100
AcDbSpline
210
0.0
220
0.0
230
1.0
 70
               8
 71
               2
 72
              15
 73
              12
 74
               0
 42
0.000001
 43
0.000001
 40
0.0
 40
0.0
 40
0.0
 40
1.0
 40
1.0
 40
2.0
 40
3.0
 40
4.0
 40
5.0
 40
6.0
 40
7.0
 40
7.0
 40
8.0
 40
8.0
 40
8.0
 10
-15.846679762235212
 20
195.1951002497857
 30
0.0
 10
-15.853342495619941
 20
195.19593356265972
 30
0.0
 10
-15.86000522900467
 20
195.19676687553374
 30
0.0
 10
-16.110386069814851
 20
195.21992406810034
 30
0.0
 10
-16.590203429658843
 20
195.35457454935886
 30
0.0
 10
-16.979667027742877
 20
195.58512632433747
 30
0.0
 10
-17.259251187445258
 20
195.77209104513997
 30
0.0
 10
-17.705354996933679
 20
196.07955964110579
 30
0.0
 10
-18.367651788361897
 20
196.50729591648246
 30
0.0
 10
-18.731394122646051
 20
196.7368886670298
 30
0.0
 10
-18.742053318450431
 20
196.7436320744481
 30
0.0
 10
-18.75271251425481
 20
196.7503754818664
 30
0.0
  0
SPLINE
  5
1B1
100
AcDbEntity
  8
0
370
              15
  6
Continuous
 62
               7
100
AcDbSpline
210
0.0
220
0.0
230
1.0
 70
               8
 71
               2
 72
              16
 73
              13
 74
               0
 42
0.000001
 43
0.000001
 40
0.0
 40
0.0
 40
0.0
 40
1.0
 40
1.0
 40
2.0
 40
3.0
 40
4.0
 40
5.0
 40
6.0
 40
7.0
 40
8.0
 40
8.0
 40
9.0
 40
9.0
 40
9.0
 10
-18.75271251425481
 20
196.7503754818664
 30
0.0
 10
-18.764962154309288
 20
196.75909436341317
 30
0.0
 10
-18.777211794363765
 20
196.76781324495994
 30
0.0
 10
-19.143276927929307
 20
197.02481684034581
 30
0.0
 10
-19.810557702090577
 20
197.53459222690185
 30
0.0
 10
-20.839904589946215
 20
198.43230422316265
 30
0.0
 10
-22.157563375670904
 20
199.65852579536022
 30
0.0
 10
-23.016502266694644
 20
200.55345005637878
 30
0.0
 10
-23.864909745813449
 20
201.58944753025196
 30
0.0
 10
-24.649247958975863
 20
202.93766409573959
 30
0.0
 10
-25.023664645732012
 20
203.64954588810554
 30
0.0
 10
-25.031155371691156
 20
203.66363076485652
 30
0.0
 10
-25.0386460976503
 20
203.67771564160751
 30
0.0
  0
LINE
  5
1B2
100
AcDbEntity
  8
0
370
              15
  6
Continuous
 62
               7
100
AcDbLine
 10
-25.038646097668945
 20
203.6777156416
 30
0.0
 11
-25.134996507268951
 21
203.84644670820001
 31
0.0
  0
SPLINE
  5
1B3
100
AcDbEntity
  8
0
370
              15
  6
Continuous
 62
               7
100
AcDbSpline
210
0.0
220
0.0
230
1.0
 70
               8
 71
               2
 72
              13
 73
              10
 74
               0
 42
0.000001
 43
0.000001
 40
0.0
 40
0.0
 40
0.0
 40
1.0
 40
1.0
 40
2.0
 40
3.0
 40
4.0
 40
5.0
 40
5.0
 40
6.0
 40
6.0
 40
6.0
 10
-17.72576250438685
 20
224.15808720978134
 30
0.0
 10
-17.716427736506901
 20
224.13145641388888
 30
0.0
 10
-17.707092968626952
 20
224.10482561799643
 30
0.0
 10
-17.20339571835045
 20
222.71322792698902
 30
0.0
 10
-15.994293757914917
 20
218.28736948911774
 30
0.0
 10
-14.833129721024122
 20
210.01754578231885
 30
0.0
 10
-15.128455457974198
 20
199.98756363535631
 30
0.0
 10
-15.846401892623746
 20
195.19694594925409
 30
0.0
 10
-15.846540969464442
 20
195.19600405457226
 30
0.0
 10
-15.846680046305138
 20
195.19506215989043
 30
0.0
  0
LINE
  5
1B4
100
AcDbEntity
  8
0
370
              15
  6
Continuous
 62
               7
100
AcDbLine
 10
-27.023776042768915
 20
203.61732001300004
 30
0.0
 11
-26.863268578368931
 21
203.33843534710002
 31
0.0
  0
SPLINE
  5
1B5
100
AcDbEntity
  8
0
370
              15
  6
Continuous
 62
               7
100
AcDbSpline
210
0.0
220
0.0
230
1.0
 70
               8
 71
               2
 72
              18
 73
              15
 74
               0
 42
0.000001
 43
0.000001
 40
0.0
 40
0.0
 40
0.0
 40
1.0
 40
1.0
 40
2.0
 40
3.0
 40
4.0
 40
5.0
 40
6.0
 40
7.0
 40
8.0
 40
9.0
 40
10.0
 40
10.0
 40
11.0
 40
11.0
 40
11.0
 10
-26.863264412922248
 20
203.33844073186356
 30
0.0
 10
-26.858907422924275
 20
203.33048896488486
 30
0.0
 10
-26.854550432926303
 20
203.32253719790617
 30
0.0
 10
-26.583853193496722
 20
202.82740084009947
 30
0.0
 10
-26.141657793955616
 20
202.01733568402847
 30
0.0
 10
-25.684886354458328
 20
201.28173767083069
 30
0.0
 10
-25.041319411801382
 20
200.49206364848465
 30
0.0
 10
-24.431254306400305
 20
199.8710270983695
 30
0.0
 10
-23.896438895635399
 20
199.35123254150994
 30
0.0
 10
-22.739277105252469
 20
198.19778807510465
 30
0.0
 10
-21.624874951641502
 20
197.24588300472874
 30
0.0
 10
-20.88783471567119
 20
196.68440360593161
 30
0.0
 10
-20.455563559011566
 20
196.3794312998599
 30
0.0
 10
-20.441071253444889
 20
196.36912241568831
 30
0.0
 10
-20.426578947878212
 20
196.35881353151672
 30
0.0
  0
SPLINE
  5
1B6
100
AcDbEntity
  8
0
370
              15
  6
Continuous
 62
               7
100
AcDbSpline
210
0.0
220
0.0
230
1.0
 70
               8
 71
               2
 72
              16
 73
              13
 74
               0
 42
0.000001
 43
0.000001
 40
0.0
 40
0.0
 40
0.0
 40
1.0
 40
1.0
 40
2.0
 40
3.0
 40
4.0
 40
5.0
 40
6.0
 40
7.0
 40
8.0
 40
8.0
 40
9.0
 40
9.0
 40
9.0
 10
-20.426578947878212
 20
196.35881353151672
 30
0.0
 10
-20.41517225748477
 20
196.35146336515618
 30
0.0
 10
-20.403765567091327
 20
196.34411319879564
 30
0.0
 10
-20.198090475302408
 20
196.21150596339953
 30
0.0
 10
-19.654742179840738
 20
195.86224168403612
 30
0.0
 10
-19.155461535299921
 20
195.55369370691335
 30
0.0
 10
-18.89655533236008
 20
195.40098293451115
 30
0.0
 10
-18.70846930570751
 20
195.28729937169157
 30
0.0
 10
-18.535066241720912
 20
195.20293520840073
 30
0.0
 10
-18.386453669090244
 20
195.18100071237586
 30
0.0
 10
-18.318035987086816
 20
195.18049886952963
 30
0.0
 10
-18.316542946672328
 20
195.1804631242843
 30
0.0
 10
-18.31504990625784
 20
195.18042737903897
 30
0.0
  0
SPLINE
  5
1B7
100
AcDbEntity
  8
0
370
              15
  6
Continuous
 62
               7
100
AcDbSpline
210
0.0
220
0.0
230
1.0
 70
               8
 71
               2
 72
              14
 73
              11
 74
               0
 42
0.000001
 43
0.000001
 40
0.0
 40
0.0
 40
0.0
 40
1.0
 40
1.0
 40
2.0
 40
3.0
 40
4.0
 40
5.0
 40
6.0
 40
6.0
 40
7.0
 40
7.0
 40
7.0
 10
-51.815888699632509
 20
251.79109818554048
 30
0.0
 10
-51.822448204677968
 20
251.78383601139893
 30
0.0
 10
-51.829007709723427
 20
251.77657383725739
 30
0.0
 10
-52.264986820837223
 20
251.29591086793175
 30
0.0
 10
-53.590015431047888
 20
249.77626301284749
 30
0.0
 10
-55.212329893034664
 20
247.94594749497981
 30
0.0
 10
-56.706295620938064
 20
246.34660475477028
 30
0.0
 10
-58.567738740372803
 20
244.5433011294997
 30
0.0
 10
-59.659812312222286
 20
243.61272142147925
 30
0.0
 10
-59.675274909192368
 20
243.59940027143398
 30
0.0
 10
-59.690737506162449
 20
243.58607912138871
 30
0.0
  0
LINE
  5
1B8
100
AcDbEntity
  8
0
370
              15
  6
Continuous
 62
               7
100
AcDbLine
 10
-25.134995397668931
 20
203.84645261560001
 30
0.0
 11
-26.741422698468952
 21
205.89929450119996
 31
0.0
  0
SPLINE
  5
1B9
100
AcDbEntity
  8
0
370
              15
  6
Continuous
 62
               7
100
AcDbSpline
210
0.0
220
0.0
230
1.0
 70
               8
 71
               2
 72
              17
 73
              14
 74
               0
 42
0.000001
 43
0.000001
 40
0.0
 40
0.0
 40
0.0
 40
1.0
 40
1.0
 40
2.0
 40
3.0
 40
4.0
 40
5.0
 40
6.0
 40
7.0
 40
8.0
 40
9.0
 40
9.0
 40
10.0
 40
10.0
 40
10.0
 10
-51.815889980920915
 20
251.79107869079235
 30
0.0
 10
-51.815138022603506
 20
251.79070498545195
 30
0.0
 10
-51.814386064286097
 20
251.79033128011156
 30
0.0
 10
-51.791794667313454
 20
251.77917325118528
 30
0.0
 10
-51.734969050826336
 20
251.75025216230699
 30
0.0
 10
-51.649908924866779
 20
251.69600689262063
 30
0.0
 10
-51.568284803419076
 20
251.61071768644422
 30
0.0
 10
-51.503253198846821
 20
251.51315594861978
 30
0.0
 10
-51.470109838622236
 20
251.42882146535055
 30
0.0
 10
-51.457668999704239
 20
251.37244249584796
 30
0.0
 10
-51.450633883955149
 20
251.29769691635465
 30
0.0
 10
-51.450338466844059
 20
251.24728609590898
 30
0.0
 10
-51.450324898750935
 20
251.24647309712799
 30
0.0
 10
-51.450311330657811
 20
251.245660098347
 30
0.0
  0
LINE
  5
1BA
100
AcDbEntity
  8
0
370
              15
  6
Continuous
 62
               7
100
AcDbLine
 10
-105.44612211236891
 20
230.73251510670002
 30
0.0
 11
-103.47303911846892
 21
231.40406268000004
 31
0.0
  0
SPLINE
  5
1BB
100
AcDbEntity
  8
0
370
              15
  6
Continuous
 62
               7
100
AcDbSpline
210
0.0
220
0.0
230
1.0
 70
               8
 71
               2
 72
              16
 73
              13
 74
               0
 42
0.000001
 43
0.000001
 40
0.0
 40
0.0
 40
0.0
 40
1.0
 40
1.0
 40
2.0
 40
3.0
 40
4.0
 40
5.0
 40
6.0
 40
7.0
 40
8.0
 40
8.0
 40
9.0
 40
9.0
 40
9.0
 10
-111.20984397096031
 20
225.37070032059569
 30
0.0
 10
-111.21215244374851
 20
225.37843758906718
 30
0.0
 10
-111.21446091653671
 20
225.38617485753866
 30
0.0
 10
-111.28784733847452
 20
225.61883582191092
 30
0.0
 10
-111.40232090315622
 20
226.22540068512183
 30
0.0
 10
-111.06973398694463
 20
227.23555502096656
 30
0.0
 10
-110.02577189751075
 20
228.17888940188993
 30
0.0
 10
-108.55713524167992
 20
229.18121692525278
 30
0.0
 10
-106.6127764038673
 20
230.16332700949704
 30
0.0
 10
-105.8068631581833
 20
230.55706239200344
 30
0.0
 10
-105.49119610550314
 20
230.71058697433489
 30
0.0
 10
-105.46865910895907
 20
230.72155104049614
 30
0.0
 10
-105.44612211241501
 20
230.73251510665739
 30
0.0
  0
SPLINE
  5
1BC
100
AcDbEntity
  8
0
370
              15
  6
Continuous
 62
               7
100
AcDbSpline
210
0.0
220
0.0
230
1.0
 70
               8
 71
               2
 72
              14
 73
              11
 74
               0
 42
0.000001
 43
0.000001
 40
0.0
 40
0.0
 40
0.0
 40
1.0
 40
1.0
 40
2.0
 40
3.0
 40
4.0
 40
5.0
 40
6.0
 40
6.0
 40
7.0
 40
7.0
 40
7.0
 10
-110.18746083405891
 20
223.89443731987581
 30
0.0
 10
-110.19262298786636
 20
223.90031979262062
 30
0.0
 10
-110.1977851416738
 20
223.90620226536544
 30
0.0
 10
-110.33268223036161
 20
224.05931338144785
 30
0.0
 10
-110.61401351050408
 20
224.38683374935977
 30
0.0
 10
-110.88644183748032
 20
224.7516768581288
 30
0.0
 10
-111.06631213014587
 20
225.07070226809481
 30
0.0
 10
-111.1683526822648
 20
225.28264292421193
 30
0.0
 10
-111.20568683177059
 20
225.36189261892582
 30
0.0
 10
-111.20776540136545
 20
225.36629646976075
 30
0.0
 10
-111.20984397096031
 20
225.37070032059569
 30
0.0
  0
SPLINE
  5
1BD
100
AcDbEntity
  8
0
370
              15
  6
Continuous
 62
               7
100
AcDbSpline
210
0.0
220
0.0
230
1.0
 70
               8
 71
               2
 72
              18
 73
              15
 74
               0
 42
0.000001
 43
0.000001
 40
0.0
 40
0.0
 40
0.0
 40
1.0
 40
1.0
 40
2.0
 40
3.0
 40
4.0
 40
5.0
 40
6.0
 40
7.0
 40
8.0
 40
9.0
 40
10.0
 40
10.0
 40
11.0
 40
11.0
 40
11.0
 10
-100.07016400496535
 20
229.90922600923159
 30
0.0
 10
-100.06427175168055
 20
229.90768455879265
 30
0.0
 10
-100.05837949839575
 20
229.90614310835372
 30
0.0
 10
-99.699694059659734
 20
229.80948311389636
 30
0.0
 10
-99.01188426440153
 20
229.65867611552653
 30
0.0
 10
-98.280878685359241
 20
229.55808277341123
 30
0.0
 10
-97.598256374847935
 20
229.59172460759532
 30
0.0
 10
-97.09316399323346
 20
229.67222431950972
 30
0.0
 10
-96.209696780373164
 20
229.83023662538483
 30
0.0
 10
-94.68826628847124
 20
230.08223799057987
 30
0.0
 10
-93.329981810608203
 20
230.35371295427331
 30
0.0
 10
-91.892692232795909
 20
230.66042805792131
 30
0.0
 10
-90.961522215323768
 20
230.8648682264311
 30
0.0
 10
-90.9306115095563
 20
230.87163696139459
 30
0.0
 10
-90.899700803788832
 20
230.87840569635807
 30
0.0
  0
LINE
  5
1BE
100
AcDbEntity
  8
0
370
              15
  6
Continuous
 62
               7
100
AcDbLine
 10
-30.352896617968938
 20
206.84916779169998
 30
0.0
 11
-28.657476959368907
 21
205.62056547069994
 31
0.0
  0
SPLINE
  5
1BF
100
AcDbEntity
  8
0
370
              15
  6
Continuous
 62
               7
100
AcDbSpline
210
0.0
220
0.0
230
1.0
 70
               8
 71
               2
 72
              13
 73
              10
 74
               0
 42
0.000001
 43
0.000001
 40
0.0
 40
0.0
 40
0.0
 40
1.0
 40
1.0
 40
2.0
 40
3.0
 40
4.0
 40
5.0
 40
5.0
 40
6.0
 40
6.0
 40
6.0
 10
-109.33243336877943
 20
223.4726578713404
 30
0.0
 10
-109.32858028663598
 20
223.46793685296075
 30
0.0
 10
-109.32472720449253
 20
223.46321583458109
 30
0.0
 10
-109.1517105498243
 20
223.24692131338679
 30
0.0
 10
-108.77492613031704
 20
222.82368209500271
 30
0.0
 10
-108.45000302020439
 20
222.52106201072581
 30
0.0
 10
-108.19969570913138
 20
222.29665439978442
 30
0.0
 10
-108.02336840475873
 20
222.14247997337338
 30
0.0
 10
-108.01750982822948
 20
222.1373447486481
 30
0.0
 10
-108.01165125170023
 20
222.13220952392282
 30
0.0
  0
SPLINE
  5
1C0
100
AcDbEntity
  8
0
370
              15
  6
Continuous
 62
               7
100
AcDbSpline
210
0.0
220
0.0
230
1.0
 70
               8
 71
               2
 72
              16
 73
              13
 74
               0
 42
0.000001
 43
0.000001
 40
0.0
 40
0.0
 40
0.0
 40
1.0
 40
1.0
 40
2.0
 40
3.0
 40
4.0
 40
5.0
 40
6.0
 40
7.0
 40
8.0
 40
8.0
 40
9.0
 40
9.0
 40
9.0
 10
-109.33239693203681
 20
223.47271848359185
 30
0.0
 10
-109.3385494599891
 20
223.48241553959338
 30
0.0
 10
-109.34470198794138
 20
223.4921125955949
 30
0.0
 10
-109.53532263425102
 20
223.7839127679764
 30
0.0
 10
-109.94843246333021
 20
224.58667838562292
 30
0.0
 10
-109.77688790179927
 20
225.76439484529283
 30
0.0
 10
-108.67999223097353
 20
226.82818535565264
 30
0.0
 10
-107.35930727828649
 20
227.67993714458873
 30
0.0
 10
-105.71195388851855
 20
228.49222447869226
 30
0.0
 10
-104.4467125047294
 20
229.05709369344368
 30
0.0
 10
-103.94814924693002
 20
229.27714712636828
 30
0.0
 10
-103.91256843543282
 20
229.29286329628195
 30
0.0
 10
-103.87698762393562
 20
229.30857946619562
 30
0.0
  0
LINE
  5
1C1
100
AcDbEntity
  8
0
370
              15
  6
Continuous
 62
               7
100
AcDbLine
 10
-103.87698762396893
 20
229.30857946619994
 30
0.0
 11
-102.04815000636891
 21
229.91898328629998
 31
0.0
  0
LINE
  5
1C2
100
AcDbEntity
  8
0
370
              15
  6
Continuous
 62
               7
100
AcDbLine
 10
-101.72103371256894
 20
231.38713426849995
 30
0.0
 11
-103.47303911846892
 21
231.40406268000004
 31
0.0
  0
LINE
  5
1C3
100
AcDbEntity
  8
0
370
              15
  6
Continuous
 62
               7
100
AcDbLine
 10
-28.657480015268945
 20
205.62056599339996
 30
0.0
 11
-27.023791590568905
 21
203.61724643690002
 31
0.0
  0
LINE
  5
1C4
100
AcDbEntity
  8
0
370
              15
  6
Continuous
 62
               7
100
AcDbLine
 10
-47.187764647068931
 20
255.05078175100005
 30
0.0
 11
-42.414441790068949
 21
253.27156810999998
 31
0.0
  0
SPLINE
  5
1C5
100
AcDbEntity
  8
0
370
              15
  6
Continuous
 62
               7
100
AcDbSpline
210
0.0
220
0.0
230
1.0
 70
               8
 71
               2
 72
              15
 73
              12
 74
               0
 42
0.000001
 43
0.000001
 40
0.0
 40
0.0
 40
0.0
 40
1.0
 40
1.0
 40
2.0
 40
3.0
 40
4.0
 40
5.0
 40
6.0
 40
7.0
 40
7.0
 40
8.0
 40
8.0
 40
8.0
 10
-46.936368766495647
 20
256.41928196570382
 30
0.0
 10
-46.937082733413192
 20
256.41813917170407
 30
0.0
 10
-46.937796700330736
 20
256.41699637770432
 30
0.0
 10
-47.042815656410866
 20
256.23881020763406
 30
0.0
 10
-47.660466697973547
 20
255.73204356314443
 30
0.0
 10
-48.249823014894204
 20
255.25795450138469
 30
0.0
 10
-49.0810715833437
 20
254.55519283016258
 30
0.0
 10
-50.392497314509384
 20
253.3134437468002
 30
0.0
 10
-51.486223917000743
 20
252.14810243972579
 30
0.0
 10
-51.795315733470417
 20
251.81333267667321
 30
0.0
 10
-51.805602857195666
 20
251.80220568373278
 30
0.0
 10
-51.815889980920915
 20
251.79107869079235
 30
0.0
  0
LINE
  5
1C6
100
AcDbEntity
  8
0
370
              15
  6
Continuous
 62
               7
100
AcDbLine
 10
-42.098703459468922
 20
253.10293497769999
 30
0.0
 11
-42.413772435768905
 21
253.27311303720001
 31
0.0
  0
SPLINE
  5
1C7
100
AcDbEntity
  8
0
370
              15
  6
Continuous
 62
               7
100
AcDbSpline
210
0.0
220
0.0
230
1.0
 70
               8
 71
               2
 72
              18
 73
              15
 74
               0
 42
0.000001
 43
0.000001
 40
0.0
 40
0.0
 40
0.0
 40
1.0
 40
1.0
 40
2.0
 40
3.0
 40
4.0
 40
5.0
 40
6.0
 40
7.0
 40
8.0
 40
9.0
 40
10.0
 40
10.0
 40
11.0
 40
11.0
 40
11.0
 10
-46.93628207183643
 20
256.41961505891959
 30
0.0
 10
-46.935269102830105
 20
256.41922318580316
 30
0.0
 10
-46.93425613382378
 20
256.41883131268673
 30
0.0
 10
-46.903791740283097
 20
256.40719163921494
 30
0.0
 10
-46.843802556464979
 20
256.38245879075225
 30
0.0
 10
-46.773647749932408
 20
256.34597244624069
 30
0.0
 10
-46.680929328554257
 20
256.26699459753058
 30
0.0
 10
-46.609124281348087
 20
256.15332660175477
 30
0.0
 10
-46.577910898193451
 20
256.06228972841666
 30
0.0
 10
-46.561430090326027
 20
255.96969395048063
 30
0.0
 10
-46.565789588108075
 20
255.86742943648755
 30
0.0
 10
-46.585833862903129
 20
255.79222319353153
 30
0.0
 10
-46.596033012623749
 20
255.76106020668306
 30
0.0
 10
-46.596194345158679
 20
255.7605567615318
 30
0.0
 10
-46.596355677693609
 20
255.76005331638055
 30
0.0
  0
LINE
  5
1C8
100
AcDbEntity
  8
0
370
              15
  6
Continuous
 62
               7
100
AcDbLine
 10
-52.486878280468929
 20
258.01883429889995
 30
0.0
 11
-50.321572713668942
 21
257.40708103949999
 31
0.0
  0
LINE
  5
1C9
100
AcDbEntity
  8
0
370
              15
  6
Continuous
 62
               7
100
AcDbLine
 10
-47.054295488968918
 20
256.59281862889998
 30
0.0
 11
-47.000845453568942
 21
256.58959815640003
 31
0.0
  0
LINE
  5
1CA
100
AcDbEntity
  8
0
370
              15
  6
Continuous
 62
               7
100
AcDbLine
 10
-100.27259410206891
 20
229.95792845940002
 30
0.0
 11
-100.07016969836893
 21
229.90922088579998
 31
0.0
  0
LINE
  5
1CB
100
AcDbEntity
  8
0
370
              15
  6
Continuous
 62
               7
100
AcDbLine
 10
-102.04814998346892
 20
229.91898239240004
 30
0.0
 11
-100.2726523863689
 21
229.95786041270003
 31
0.0
  0
LINE
  5
1CC
100
AcDbEntity
  8
0
370
              15
  6
Continuous
 62
               7
100
AcDbLine
 10
-42.414441790068949
 20
253.27156810999998
 30
0.0
 11
-42.20716568226895
 21
253.48915833080002
 31
0.0
  0
LINE
  5
1CD
100
AcDbEntity
  8
0
370
              15
  6
Continuous
 62
               7
100
AcDbLine
 10
-42.20716568226895
 20
253.48915833080002
 30
0.0
 11
-46.949265434868934
 21
255.25434562160001
 31
0.0
  0
LINE
  5
1CE
100
AcDbEntity
  8
0
370
              15
  6
Continuous
 62
               7
100
AcDbLine
 10
-111.20984397096895
 20
225.37070032060001
 30
0.0
 11
-109.33239693206893
 21
223.47271848360003
 31
0.0
  0
LINE
  5
1CF
100
AcDbEntity
  8
0
370
              15
  6
Continuous
 62
               7
100
AcDbLine
 10
-15.626254367468945
 20
195.53913377549998
 30
0.0
 11
-15.84667976226892
 21
195.19510024980002
 31
0.0
  0
SPLINE
  5
1D0
100
AcDbEntity
  8
0
370
              15
  6
Continuous
 62
               7
100
AcDbSpline
210
0.0
220
0.0
230
1.0
 70
               8
 71
               2
 72
              10
 73
               7
 74
               0
 42
0.000001
 43
0.000001
 40
0.0
 40
0.0
 40
0.0
 40
1.0
 40
1.0
 40
2.0
 40
2.0
 40
3.0
 40
3.0
 40
3.0
 10
-108.01165125170023
 20
222.13220952392282
 30
0.0
 10
-108.01137776648021
 20
222.13198004226871
 30
0.0
 10
-108.01110428126019
 20
222.13175056061459
 30
0.0
 10
-107.93285991502755
 20
222.06616379941011
 30
0.0
 10
-107.85499824220163
 20
221.99950863431263
 30
0.0
 10
-107.85472590220228
 20
221.99927573135227
 30
0.0
 10
-107.85445356220292
 20
221.99904282839191
 30
0.0
  0
SPLINE
  5
1D1
100
AcDbEntity
  8
0
370
              15
  6
Continuous
 62
               7
100
AcDbSpline
210
0.0
220
0.0
230
1.0
 70
               8
 71
               2
 72
              12
 73
               9
 74
               0
 42
0.000001
 43
0.000001
 40
0.0
 40
0.0
 40
0.0
 40
1.0
 40
1.0
 40
2.0
 40
3.0
 40
4.0
 40
4.0
 40
5.0
 40
5.0
 40
5.0
 10
-107.74064943010943
 20
222.01384762529096
 30
0.0
 10
-107.73106523233163
 20
222.00575961588629
 30
0.0
 10
-107.72148103455383
 20
221.99767160648162
 30
0.0
 10
-107.43501603530994
 20
221.75465227253108
 30
0.0
 10
-106.62032518426837
 20
221.08674597491404
 30
0.0
 10
-105.73999242338549
 20
220.49278481876559
 30
0.0
 10
-105.45308407680737
 20
220.30402301387085
 30
0.0
 10
-105.44353677192736
 20
220.29772512764004
 30
0.0
 10
-105.43398946704734
 20
220.29142724140922
 30
0.0
  0
SPLINE
  5
1D2
100
AcDbEntity
  8
0
370
              15
  6
Continuous
 62
               7
100
AcDbSpline
210
0.0
220
0.0
230
1.0
 70
               8
 71
               2
 72
              16
 73
              13
 74
               0
 42
0.000001
 43
0.000001
 40
0.0
 40
0.0
 40
0.0
 40
1.0
 40
1.0
 40
2.0
 40
3.0
 40
4.0
 40
5.0
 40
6.0
 40
7.0
 40
8.0
 40
8.0
 40
9.0
 40
9.0
 40
9.0
 10
-107.85445356220292
 20
221.99904282839191
 30
0.0
 10
-107.85439526769623
 20
221.99900581711336
 30
0.0
 10
-107.85433697318955
 20
221.99896880583481
 30
0.0
 10
-107.85119868767838
 20
221.99695473624217
 30
0.0
 10
-107.84434152900887
 20
221.9928141326476
 30
0.0
 10
-107.82921176216853
 20
221.98586259190427
 30
0.0
 10
-107.80545585684244
 20
221.98677809224307
 30
0.0
 10
-107.78067188106978
 20
221.9922772717116
 30
0.0
 10
-107.75874780183248
 20
222.00343507706918
 30
0.0
 10
-107.74682978386902
 20
222.01021952036695
 30
0.0
 10
-107.74084245404025
 20
222.01373473392096
 30
0.0
 10
-107.74074594207484
 20
222.01379117960596
 30
0.0
 10
-107.74064943010943
 20
222.01384762529096
 30
0.0
  0
POLYLINE
  5
1D3
100
AcDbEntity
  8
0
370
              15
  6
Continuous
 62
               7
100
AcDb2dPolyline
 66
               1
 10
0.0
 20
0.0
 30
0.0
 75
               5
  0
VERTEX
  5
1D4
100
AcDbEntity
  8
0
370
              15
  6
Continuous
 62
               7
100
AcDbVertex
100
AcDb2dVertex
 10
-33.779799508168921
 20
250.77987764670002
 30
0.0
  0
VERTEX
  5
1D5
100
AcDbEntity
  8
0
370
              15
  6
Continuous
 62
               7
100
AcDbVertex
100
AcDb2dVertex
 10
-34.046670296368902
 20
251.16161913880001
 30
0.0
  0
VERTEX
  5
1D6
100
AcDbEntity
  8
0
370
              15
  6
Continuous
 62
               7
100
AcDbVertex
100
AcDb2dVertex
 10
-34.88591091986892
 20
252.0958028197
 30
0.0
  0
VERTEX
  5
1D7
100
AcDbEntity
  8
0
370
              15
  6
Continuous
 62
               7
100
AcDbVertex
100
AcDb2dVertex
 10
-36.017041224868919
 20
253.08199129920001
 30
0.0
  0
VERTEX
  5
1D8
100
AcDbEntity
  8
0
370
              15
  6
Continuous
 62
               7
100
AcDbVertex
100
AcDb2dVertex
 10
-37.412203669368907
 20
254.09590237489999
 30
0.0
  0
VERTEX
  5
1D9
100
AcDbEntity
  8
0
370
              15
  6
Continuous
 62
               7
100
AcDbVertex
100
AcDb2dVertex
 10
-39.037050094268906
 20
255.11256974749995
 30
0.0
  0
VERTEX
  5
1DA
100
AcDbEntity
  8
0
370
              15
  6
Continuous
 62
               7
100
AcDbVertex
100
AcDb2dVertex
 10
-40.851569231268954
 20
256.10695875409999
 30
0.0
  0
VERTEX
  5
1DB
100
AcDbEntity
  8
0
370
              15
  6
Continuous
 62
               7
100
AcDbVertex
100
AcDb2dVertex
 10
-42.81108080006895
 20
257.05458689839998
 30
0.0
  0
VERTEX
  5
1DC
100
AcDbEntity
  8
0
370
              15
  6
Continuous
 62
               7
100
AcDbVertex
100
AcDb2dVertex
 10
-44.867337228568928
 20
257.93211695599996
 30
0.0
  0
VERTEX
  5
1DD
100
AcDbEntity
  8
0
370
              15
  6
Continuous
 62
               7
100
AcDbVertex
100
AcDb2dVertex
 10
-46.96970490386893
 20
258.71794292790003
 30
0.0
  0
VERTEX
  5
1DE
100
AcDbEntity
  8
0
370
              15
  6
Continuous
 62
               7
100
AcDbVertex
100
AcDb2dVertex
 10
-49.066417613768905
 20
259.3927160536
 30
0.0
  0
VERTEX
  5
1DF
100
AcDbEntity
  8
0
370
              15
  6
Continuous
 62
               7
100
AcDbVertex
100
AcDb2dVertex
 10
-51.105845235968943
 20
259.93981997039998
 30
0.0
  0
VERTEX
  5
1E0
100
AcDbEntity
  8
0
370
              15
  6
Continuous
 62
               7
100
AcDbVertex
100
AcDb2dVertex
 10
-53.037772163268912
 20
260.34578386429996
 30
0.0
  0
VERTEX
  5
1E1
100
AcDbEntity
  8
0
370
              15
  6
Continuous
 62
               7
100
AcDbVertex
100
AcDb2dVertex
 10
-54.814627852568933
 20
260.60061138740002
 30
0.0
  0
VERTEX
  5
1E2
100
AcDbEntity
  8
0
370
              15
  6
Continuous
 62
               7
100
AcDbVertex
100
AcDb2dVertex
 10
-56.392657744168943
 20
260.69802804870005
 30
0.0
  0
VERTEX
  5
1E3
100
AcDbEntity
  8
0
370
              15
  6
Continuous
 62
               7
100
AcDbVertex
100
AcDb2dVertex
 10
-57.733012572268919
 20
260.63563290549996
 30
0.0
  0
VERTEX
  5
1E4
100
AcDbEntity
  8
0
370
              15
  6
Continuous
 62
               7
100
AcDbVertex
100
AcDb2dVertex
 10
-58.354317713568932
 20
260.53410248279999
 30
0.0
  0
SEQEND
  5
1E5
100
AcDbEntity
  8
0
370
              15
  6
Continuous
 62
               7
  0
SPLINE
  5
1E6
100
AcDbEntity
  8
0
370
              15
  6
Continuous
 62
               7
100
AcDbSpline
210
0.0
220
0.0
230
1.0
 70
               8
 71
               2
 72
              13
 73
              10
 74
               0
 42
0.000001
 43
0.000001
 40
0.0
 40
0.0
 40
0.0
 40
1.0
 40
1.0
 40
2.0
 40
3.0
 40
4.0
 40
5.0
 40
5.0
 40
6.0
 40
6.0
 40
6.0
 10
-24.099481413108705
 20
192.19748803298739
 30
0.0
 10
-24.094075085979696
 20
192.20114576009638
 30
0.0
 10
-24.088668758850687
 20
192.20480348720537
 30
0.0
 10
-23.318400578150872
 20
192.71880644615999
 30
0.0
 10
-22.071160695303021
 20
193.74229777318988
 30
0.0
 10
-21.285708707524108
 20
194.41269735118055
 30
0.0
 10
-20.352188210597134
 20
195.20869458766856
 30
0.0
 10
-19.610922533688878
 20
195.82959461530015
 30
0.0
 10
-19.605757016765565
 20
195.83392393305428
 30
0.0
 10
-19.600591499842253
 20
195.83825325080841
 30
0.0
  0
LINE
  5
1E7
100
AcDbEntity
  8
0
370
              15
  6
Continuous
 62
               7
100
AcDbLine
 10
-22.836258139568926
 20
191.47363525230003
 30
0.0
 11
-24.248927261368905
 21
190.55188666070001
 31
0.0
  0
SPLINE
  5
1E8
100
AcDbEntity
  8
0
370
              15
  6
Continuous
 62
               7
100
AcDbSpline
210
0.0
220
0.0
230
1.0
 70
               8
 71
               2
 72
              13
 73
              10
 74
               0
 42
0.000001
 43
0.000001
 40
0.0
 40
0.0
 40
0.0
 40
1.0
 40
1.0
 40
2.0
 40
3.0
 40
4.0
 40
5.0
 40
5.0
 40
6.0
 40
6.0
 40
6.0
 10
-18.129871122868948
 20
195.14496172933275
 30
0.0
 10
-18.145767149509155
 20
195.13114558127626
 30
0.0
 10
-18.161663176149361
 20
195.11732943321977
 30
0.0
 10
-18.702574943888507
 20
194.64459650920685
 30
0.0
 10
-19.903137868893381
 20
193.63008290879259
 30
0.0
 10
-21.119651615023756
 20
192.70317936354297
 30
0.0
 10
-22.177028805284735
 20
191.93987953044928
 30
0.0
 10
-22.770334598862902
 20
191.52033169243623
 30
0.0
 10
-22.803301899903502
 20
191.49698429561926
 30
0.0
 10
-22.836269200944102
 20
191.47363689880228
 30
0.0
  0
LINE
  5
1E9
100
AcDbEntity
  8
0
370
              15
  6
Continuous
 62
               7
100
AcDbLine
 10
-109.33239706966894
 20
223.47272384730002
 30
0.0
 11
-110.18754792326892
 21
223.89432640400003
 31
0.0
  0
SPLINE
  5
1EA
100
AcDbEntity
  8
0
370
              15
  6
Continuous
 62
               7
100
AcDbSpline
210
0.0
220
0.0
230
1.0
 70
               8
 71
               2
 72
              15
 73
              12
 74
               0
 42
0.000001
 43
0.000001
 40
0.0
 40
0.0
 40
0.0
 40
1.0
 40
1.0
 40
2.0
 40
3.0
 40
4.0
 40
5.0
 40
6.0
 40
7.0
 40
7.0
 40
8.0
 40
8.0
 40
8.0
 10
-108.67169567823264
 20
222.57818020075354
 30
0.0
 10
-108.6717028674707
 20
222.57818708017425
 30
0.0
 10
-108.67171005670876
 20
222.57819395959496
 30
0.0
 10
-108.67364863243067
 20
222.58002933264879
 30
0.0
 10
-108.67040496808708
 20
222.57811142524247
 30
0.0
 10
-108.65604145590122
 20
222.56870369561784
 30
0.0
 10
-108.56524804220918
 20
222.50452575296686
 30
0.0
 10
-108.35040040223673
 20
222.35031883545753
 30
0.0
 10
-108.03830736135369
 20
222.12886809101644
 30
0.0
 10
-107.8599635073608
 20
222.0032747590916
 30
0.0
 10
-107.8570933408388
 20
222.00125168523726
 30
0.0
 10
-107.8542231743168
 20
221.99922861138293
 30
0.0
  0
SPLINE
  5
1EB
100
AcDbEntity
  8
0
370
              15
  6
Continuous
 62
               7
100
AcDbSpline
210
0.0
220
0.0
230
1.0
 70
               8
 71
               2
 72
              18
 73
              15
 74
               0
 42
0.000001
 43
0.000001
 40
0.0
 40
0.0
 40
0.0
 40
1.0
 40
1.0
 40
2.0
 40
3.0
 40
4.0
 40
5.0
 40
6.0
 40
7.0
 40
8.0
 40
9.0
 40
10.0
 40
10.0
 40
11.0
 40
11.0
 40
11.0
 10
-108.40858041961415
 20
222.25142558377183
 30
0.0
 10
-108.40825965296786
 20
222.25149239253778
 30
0.0
 10
-108.40793888632156
 20
222.25155920130373
 30
0.0
 10
-108.39942731797173
 20
222.25317195668754
 30
0.0
 10
-108.38345670369175
 20
222.25835578320152
 30
0.0
 10
-108.37905353851066
 20
222.26952253261027
 30
0.0
 10
-108.38096519128105
 20
222.28047656697277
 30
0.0
 10
-108.39565480045518
 20
222.30927884767766
 30
0.0
 10
-108.44988937726377
 20
222.36687559355096
 30
0.0
 10
-108.48537704014892
 20
222.40246425017585
 30
0.0
 10
-108.54658115161457
 20
222.46161979989301
 30
0.0
 10
-108.62915281492461
 20
222.53871996553085
 30
0.0
 10
-108.66866458094982
 20
222.57536717225446
 30
0.0
 10
-108.67018012959123
 20
222.576773686504
 30
0.0
 10
-108.67169567823264
 20
222.57818020075354
 30
0.0
  0
LINE
  5
1EC
100
AcDbEntity
  8
0
370
              15
  6
Continuous
 62
               7
100
AcDbLine
 10
-109.14393569066895
 20
222.91129913140003
 30
0.0
 11
-110.18746083406892
 21
223.89443731990002
 31
0.0
  0
LINE
  5
1ED
100
AcDbEntity
  8
0
370
              15
  6
Continuous
 62
               7
100
AcDbLine
 10
-108.40858041956891
 20
222.25142558380003
 30
0.0
 11
-109.14396342296895
 21
222.91131277490001
 31
0.0
  0
SPLINE
  5
1EE
100
AcDbEntity
  8
0
370
              15
  6
Continuous
 62
               7
100
AcDbSpline
210
0.0
220
0.0
230
1.0
 70
               8
 71
               2
 72
              11
 73
               8
 74
               0
 42
0.000001
 43
0.000001
 40
0.0
 40
0.0
 40
0.0
 40
1.0
 40
1.0
 40
2.0
 40
3.0
 40
3.0
 40
4.0
 40
4.0
 40
4.0
 10
-108.67163710760245
 20
222.5782573650697
 30
0.0
 10
-108.67153255307458
 20
222.57818954320805
 30
0.0
 10
-108.67142799854672
 20
222.57812172134641
 30
0.0
 10
-108.59801684876838
 20
222.53048470875319
 30
0.0
 10
-108.48147238036761
 20
222.46245359943691
 30
0.0
 10
-108.43870087822692
 20
222.43786663893809
 30
0.0
 10
-108.43790924689473
 20
222.43741069186973
 30
0.0
 10
-108.43711761556254
 20
222.43695474480137
 30
0.0
  0
LINE
  5
1EF
100
AcDbEntity
  8
0
370
              15
  6
Continuous
 62
               7
100
AcDbLine
 10
-107.35939225306895
 20
221.56420463009999
 30
0.0
 11
-108.40858041956891
 21
222.25142558380003
 31
0.0
  0
LINE
  5
1F0
100
AcDbEntity
  8
0
370
              15
  6
Continuous
 62
               7
100
AcDbLine
 10
-7.3122984871689454
 20
301.6865074323
 30
0.0
 11
-6.7313201451689082
 21
301.52476899440001
 31
0.0
  0
SPLINE
  5
1F1
100
AcDbEntity
  8
0
370
              15
  6
Continuous
 62
               7
100
AcDbSpline
210
0.0
220
0.0
230
1.0
 70
               8
 71
               2
 72
              17
 73
              14
 74
               0
 42
0.000001
 43
0.000001
 40
0.0
 40
0.0
 40
0.0
 40
1.0
 40
1.0
 40
2.0
 40
3.0
 40
4.0
 40
5.0
 40
6.0
 40
7.0
 40
8.0
 40
9.0
 40
9.0
 40
10.0
 40
10.0
 40
10.0
 10
-50.583937553222242
 20
174.01784865976413
 30
0.0
 10
-50.583038853822146
 20
174.01787586772542
 30
0.0
 10
-50.582140154422049
 20
174.01790307568672
 30
0.0
 10
-49.675881000617082
 20
174.05544716493114
 30
0.0
 10
-48.472778194312909
 20
174.315826793253
 30
0.0
 10
-46.878237789817646
 20
174.73277598389768
 30
0.0
 10
-45.888995132186821
 20
175.47536406733786
 30
0.0
 10
-45.051416077299265
 20
176.66531676664613
 30
0.0
 10
-45.047853059161397
 20
178.75631310798917
 30
0.0
 10
-45.948724394612199
 20
181.16998485419072
 30
0.0
 10
-47.558327404275062
 20
183.16277893760264
 30
0.0
 10
-47.833949088213146
 20
183.49011884006643
 30
0.0
 10
-47.843097234321775
 20
183.50101900327456
 30
0.0
 10
-47.852245380430404
 20
183.5119191664827
 30
0.0
  0
SPLINE
  5
1F2
100
AcDbEntity
  8
0
370
              15
  6
Continuous
 62
               7
100
AcDbSpline
210
0.0
220
0.0
230
1.0
 70
               8
 71
               2
 72
              16
 73
              13
 74
               0
 42
0.000001
 43
0.000001
 40
0.0
 40
0.0
 40
0.0
 40
1.0
 40
1.0
 40
2.0
 40
3.0
 40
4.0
 40
5.0
 40
6.0
 40
7.0
 40
8.0
 40
8.0
 40
9.0
 40
9.0
 40
9.0
 10
-97.752863487489535
 20
200.97050401700608
 30
0.0
 10
-97.769736196119496
 20
200.96303208813583
 30
0.0
 10
-97.786608904749457
 20
200.95556015926559
 30
0.0
 10
-98.299458661589071
 20
200.7345048837667
 30
0.0
 10
-99.172892203117087
 20
200.28384190161785
 30
0.0
 10
-99.838988444731498
 20
199.74022531316757
 30
0.0
 10
-100.99403121224354
 20
198.28691448155246
 30
0.0
 10
-100.63236820485626
 20
196.1590846542897
 30
0.0
 10
-99.966062922912201
 20
194.81258779719531
 30
0.0
 10
-99.270312448320666
 20
193.7773094301732
 30
0.0
 10
-98.937958865502353
 20
193.4035753092619
 30
0.0
 10
-98.937383954969548
 20
193.40293102653658
 30
0.0
 10
-98.936809044436743
 20
193.40228674381126
 30
0.0
  0
LINE
  5
1F3
100
AcDbEntity
  8
0
370
              15
  6
Continuous
 62
               7
100
AcDbLine
 10
-79.357847470568956
 20
208.01028949219995
 30
0.0
 11
-78.796513903768911
 21
207.47799120180002
 31
0.0
  0
SPLINE
  5
1F4
100
AcDbEntity
  8
0
370
              15
  6
Continuous
 62
               7
100
AcDbSpline
210
0.0
220
0.0
230
1.0
 70
               8
 71
               2
 72
              11
 73
               8
 74
               0
 42
0.000001
 43
0.000001
 40
0.0
 40
0.0
 40
0.0
 40
1.0
 40
1.0
 40
2.0
 40
3.0
 40
3.0
 40
4.0
 40
4.0
 40
4.0
 10
-79.867164918959915
 20
223.95999068912352
 30
0.0
 10
-79.872874375103109
 20
223.94949843548449
 30
0.0
 10
-79.878583831246303
 20
223.93900618184546
 30
0.0
 10
-80.050358552024178
 20
223.62453115208257
 30
0.0
 10
-80.850561470107309
 20
222.11876775618225
 30
0.0
 10
-81.343915138938243
 20
220.82995454353545
 30
0.0
 10
-81.343918936885288
 20
220.8299446337063
 30
0.0
 10
-81.343922734832333
 20
220.82993472387716
 30
0.0
  0
SPLINE
  5
1F5
100
AcDbEntity
  8
0
370
              15
  6
Continuous
 62
               7
100
AcDbSpline
210
0.0
220
0.0
230
1.0
 70
               8
 71
               2
 72
              20
 73
              17
 74
               0
 42
0.000001
 43
0.000001
 40
0.0
 40
0.0
 40
0.0
 40
1.0
 40
1.0
 40
2.0
 40
3.0
 40
4.0
 40
5.0
 40
6.0
 40
7.0
 40
8.0
 40
9.0
 40
10.0
 40
11.0
 40
12.0
 40
12.0
 40
13.0
 40
13.0
 40
13.0
 10
-47.209415972172607
 20
183.74689700160502
 30
0.0
 10
-47.20903253072369
 20
183.74661122952966
 30
0.0
 10
-47.208649089274772
 20
183.7463254574543
 30
0.0
 10
-47.169660202637189
 20
183.71699619736842
 30
0.0
 10
-46.254066137048071
 20
182.95291428060568
 30
0.0
 10
-44.054414971070102
 20
180.7328250618674
 30
0.0
 10
-42.902943757838258
 20
178.60921156875327
 30
0.0
 10
-42.6305454224008
 20
177.31461295078554
 30
0.0
 10
-42.916297821918803
 20
176.2464431115518
 30
0.0
 10
-43.792035542901189
 20
175.54277353067482
 30
0.0
 10
-45.553355426445634
 20
174.67046358394418
 30
0.0
 10
-48.007288962190657
 20
174.01796796802773
 30
0.0
 10
-49.480587161288426
 20
173.87377162444079
 30
0.0
 10
-50.746812386393842
 20
173.79358305443327
 30
0.0
 10
-51.778663325640807
 20
173.86714896111084
 30
0.0
 10
-51.785037717462458
 20
173.86759157212151
 30
0.0
 10
-51.79141210928411
 20
173.86803418313218
 30
0.0
  0
SPLINE
  5
1F6
100
AcDbEntity
  8
0
370
              15
  6
Continuous
 62
               7
100
AcDbSpline
210
0.0
220
0.0
230
1.0
 70
               8
 71
               2
 72
              16
 73
              13
 74
               0
 42
0.000001
 43
0.000001
 40
0.0
 40
0.0
 40
0.0
 40
1.0
 40
1.0
 40
2.0
 40
3.0
 40
4.0
 40
5.0
 40
6.0
 40
7.0
 40
8.0
 40
8.0
 40
9.0
 40
9.0
 40
9.0
 10
-32.745193832039931
 20
182.95527861950893
 30
0.0
 10
-32.731103929985622
 20
182.90952499627832
 30
0.0
 10
-32.717014027931313
 20
182.86377137304771
 30
0.0
 10
-32.518013411280819
 20
182.22295510616993
 30
0.0
 10
-32.150938595468048
 20
180.94643807827902
 30
0.0
 10
-31.780664741503116
 20
178.96516083667325
 30
0.0
 10
-31.963467014103614
 20
177.11188333432563
 30
0.0
 10
-32.204307415082596
 20
176.05948644636692
 30
0.0
 10
-32.532559751649771
 20
174.98814744173035
 30
0.0
 10
-32.935792247521974
 20
174.26263192614715
 30
0.0
 10
-33.089599298686707
 20
174.02581160249156
 30
0.0
 10
-33.094706112179423
 20
174.01783222510807
 30
0.0
 10
-33.09981292567214
 20
174.00985284772457
 30
0.0
  0
SPLINE
  5
1F7
100
AcDbEntity
  8
0
370
              15
  6
Continuous
 62
               7
100
AcDbSpline
210
0.0
220
0.0
230
1.0
 70
               8
 71
               2
 72
              17
 73
              14
 74
               0
 42
0.000001
 43
0.000001
 40
0.0
 40
0.0
 40
0.0
 40
1.0
 40
1.0
 40
2.0
 40
3.0
 40
4.0
 40
5.0
 40
6.0
 40
7.0
 40
8.0
 40
9.0
 40
9.0
 40
10.0
 40
10.0
 40
10.0
 10
-97.691043913691814
 20
191.98836493889621
 30
0.0
 10
-97.694981141931422
 20
191.991693076724
 30
0.0
 10
-97.698918370171029
 20
191.9950212145518
 30
0.0
 10
-99.024203833294152
 20
193.11207698120518
 30
0.0
 10
-100.89604846129917
 20
195.19608745553523
 30
0.0
 10
-101.78781903856962
 20
196.87884110925575
 30
0.0
 10
-102.17045598689877
 20
198.31526876946566
 30
0.0
 10
-101.95831832664025
 20
199.67260984426719
 30
0.0
 10
-101.19370757489587
 20
200.47365486092747
 30
0.0
 10
-100.30634893356726
 20
201.08541022053419
 30
0.0
 10
-98.935160128127094
 20
201.50373259527692
 30
0.0
 10
-98.275582791217616
 20
201.65661468063354
 30
0.0
 10
-98.253771142450333
 20
201.66180893444431
 30
0.0
 10
-98.23195949368305
 20
201.66700318825508
 30
0.0
  0
SPLINE
  5
1F8
100
AcDbEntity
  8
0
370
              15
  6
Continuous
 62
               7
100
AcDbSpline
210
0.0
220
0.0
230
1.0
 70
               8
 71
               2
 72
              16
 73
              13
 74
               0
 42
0.000001
 43
0.000001
 40
0.0
 40
0.0
 40
0.0
 40
1.0
 40
1.0
 40
2.0
 40
3.0
 40
4.0
 40
5.0
 40
6.0
 40
7.0
 40
8.0
 40
8.0
 40
9.0
 40
9.0
 40
9.0
 10
-109.36159556478582
 20
209.16892546196743
 30
0.0
 10
-109.36051078759816
 20
209.17440456078361
 30
0.0
 10
-109.3594260104105
 20
209.1798836595998
 30
0.0
 10
-109.32753687832182
 20
209.34476487265954
 30
0.0
 10
-109.18432707642823
 20
209.98006516601572
 30
0.0
 10
-108.86719792505515
 20
210.51025255949605
 30
0.0
 10
-108.54968644902685
 20
210.94450154961783
 30
0.0
 10
-107.99572438147179
 20
211.46042790740864
 30
0.0
 10
-107.48046106781889
 20
211.71558150341014
 30
0.0
 10
-107.04756142966532
 20
211.88522721753679
 30
0.0
 10
-106.74006241004257
 20
211.98676322692768
 30
0.0
 10
-106.72985408092934
 20
211.99019544716407
 30
0.0
 10
-106.71964575181612
 20
211.99362766740046
 30
0.0
  0
SPLINE
  5
1F9
100
AcDbEntity
  8
0
370
              15
  6
Continuous
 62
               7
100
AcDbSpline
210
0.0
220
0.0
230
1.0
 70
               8
 71
               2
 72
              16
 73
              13
 74
               0
 42
0.000001
 43
0.000001
 40
0.0
 40
0.0
 40
0.0
 40
1.0
 40
1.0
 40
2.0
 40
3.0
 40
4.0
 40
5.0
 40
6.0
 40
7.0
 40
8.0
 40
8.0
 40
9.0
 40
9.0
 40
9.0
 10
-32.870159128871407
 20
174.08333760486039
 30
0.0
 10
-32.865096136224551
 20
174.09132569318388
 30
0.0
 10
-32.860033143577695
 20
174.09931378150736
 30
0.0
 10
-32.707125339775061
 20
174.33359801141319
 30
0.0
 10
-32.36452302731935
 20
174.95920724000689
 30
0.0
 10
-31.967461995347136
 20
176.12502704817405
 30
0.0
 10
-31.692525466139543
 20
177.52785618834639
 30
0.0
 10
-31.595841503236713
 20
179.24442883881727
 30
0.0
 10
-31.946959800526585
 20
181.0473425297896
 30
0.0
 10
-32.318603009548653
 20
182.32919889130108
 30
0.0
 10
-32.520063407103393
 20
182.97243918508332
 30
0.0
 10
-32.534389883071825
 20
183.01837556451557
 30
0.0
 10
-32.548716359040256
 20
183.06431194394781
 30
0.0
  0
SPLINE
  5
1FA
100
AcDbEntity
  8
0
370
              15
  6
Continuous
 62
               7
100
AcDbSpline
210
0.0
220
0.0
230
1.0
 70
               8
 71
               2
 72
              16
 73
              13
 74
               0
 42
0.000001
 43
0.000001
 40
0.0
 40
0.0
 40
0.0
 40
1.0
 40
1.0
 40
2.0
 40
3.0
 40
4.0
 40
5.0
 40
6.0
 40
7.0
 40
8.0
 40
8.0
 40
9.0
 40
9.0
 40
9.0
 10
-106.76034481629334
 20
212.19296809608818
 30
0.0
 10
-106.77053370411436
 20
212.1894025487411
 30
0.0
 10
-106.78072259193537
 20
212.18583700139402
 30
0.0
 10
-107.08835666223602
 20
212.08112917220376
 30
0.0
 10
-107.51946893091564
 20
211.90452074777249
 30
0.0
 10
-107.99491713004822
 20
211.65854335484596
 30
0.0
 10
-108.55598909286077
 20
211.14277398181468
 30
0.0
 10
-108.89981773826626
 20
210.66954032480089
 30
0.0
 10
-109.19203768675816
 20
210.17589864625961
 30
0.0
 10
-109.30621462438829
 20
209.6415883898253
 30
0.0
 10
-109.32576479560417
 20
209.53898244689867
 30
0.0
 10
-109.32642268010214
 20
209.53556727939321
 30
0.0
 10
-109.32708056460011
 20
209.53215211188774
 30
0.0
  0
LINE
  5
1FB
100
AcDbEntity
  8
0
370
              15
  6
Continuous
 62
               7
100
AcDbLine
 10
-26.281772902068937
 20
187.60868169590003
 30
0.0
 11
-26.484137151968909
 21
186.84831205329999
 31
0.0
  0
SPLINE
  5
1FC
100
AcDbEntity
  8
0
370
              15
  6
Continuous
 62
               7
100
AcDbSpline
210
0.0
220
0.0
230
1.0
 70
               8
 71
               2
 72
              13
 73
              10
 74
               0
 42
0.000001
 43
0.000001
 40
0.0
 40
0.0
 40
0.0
 40
1.0
 40
1.0
 40
2.0
 40
3.0
 40
4.0
 40
5.0
 40
5.0
 40
6.0
 40
6.0
 40
6.0
 10
-28.543725815557238
 20
181.74562374160178
 30
0.0
 10
-28.531938708223507
 20
181.77098888881727
 30
0.0
 10
-28.520151600889776
 20
181.79635403603277
 30
0.0
 10
-28.067142814058272
 20
182.75922818076378
 30
0.0
 10
-27.431139467631667
 20
184.22906970134545
 30
0.0
 10
-26.828709630454554
 20
185.793858240384
 30
0.0
 10
-26.498737164901442
 20
186.80412740220049
 30
0.0
 10
-26.498754385173001
 20
186.80411535865096
 30
0.0
 10
-26.49875443531495
 20
186.80411524689521
 30
0.0
 10
-26.498754485456899
 20
186.80411513513945
 30
0.0
  0
LINE
  5
1FD
100
AcDbEntity
  8
0
370
              15
  6
Continuous
 62
               7
100
AcDbLine
 10
-51.51454544046895
 20
257.77169209960005
 30
0.0
 11
-52.486878280468929
 21
258.01883429889995
 31
0.0
  0
SPLINE
  5
1FE
100
AcDbEntity
  8
0
370
              15
  6
Continuous
 62
               7
100
AcDbSpline
210
0.0
220
0.0
230
1.0
 70
               8
 71
               2
 72
              18
 73
              15
 74
               0
 42
0.000001
 43
0.000001
 40
0.0
 40
0.0
 40
0.0
 40
1.0
 40
1.0
 40
2.0
 40
3.0
 40
4.0
 40
5.0
 40
6.0
 40
7.0
 40
8.0
 40
9.0
 40
10.0
 40
10.0
 40
11.0
 40
11.0
 40
11.0
 10
-47.000845453587246
 20
256.58959815642436
 30
0.0
 10
-47.000680332396982
 20
256.58959180036618
 30
0.0
 10
-47.000515211206718
 20
256.589585444308
 30
0.0
 10
-46.979180521890086
 20
256.58899801842256
 30
0.0
 10
-46.94118955578999
 20
256.58547088155228
 30
0.0
 10
-46.913060248974361
 20
256.57697683108631
 30
0.0
 10
-46.895204362048545
 20
256.56410773044661
 30
0.0
 10
-46.886514764824639
 20
256.54754320484312
 30
0.0
 10
-46.885553459000491
 20
256.52786298882563
 30
0.0
 10
-46.890883130432755
 20
256.505646541121
 30
0.0
 10
-46.901063764954515
 20
256.4814744089806
 30
0.0
 10
-46.920046837056688
 20
256.44622812645071
 30
0.0
 10
-46.935281787549272
 20
256.42127256301376
 30
0.0
 10
-46.935781929692851
 20
256.42044381096667
 30
0.0
 10
-46.93628207183643
 20
256.41961505891959
 30
0.0
  0
POLYLINE
  5
1FF
100
AcDbEntity
  8
0
370
              15
  6
Continuous
 62
               7
100
AcDb2dPolyline
 66
               1
 10
0.0
 20
0.0
 30
0.0
 75
               5
  0
VERTEX
  5
200
100
AcDbEntity
  8
0
370
              15
  6
Continuous
 62
               7
100
AcDbVertex
100
AcDb2dVertex
 10
-33.108428341768942
 20
248.1557107845
 30
0.0
  0
VERTEX
  5
201
100
AcDbEntity
  8
0
370
              15
  6
Continuous
 62
               7
100
AcDbVertex
100
AcDb2dVertex
 10
-33.064373707268928
 20
248.69358498320003
 30
0.0
  0
VERTEX
  5
202
100
AcDbEntity
  8
0
370
              15
  6
Continuous
 62
               7
100
AcDbVertex
100
AcDb2dVertex
 10
-33.310177759868949
 20
249.49934352499997
 30
0.0
  0
VERTEX
  5
203
100
AcDbEntity
  8
0
370
              15
  6
Continuous
 62
               7
100
AcDbVertex
100
AcDb2dVertex
 10
-33.893736081868937
 20
250.40295560569996
 30
0.0
  0
VERTEX
  5
204
100
AcDbEntity
  8
0
370
              15
  6
Continuous
 62
               7
100
AcDbVertex
100
AcDb2dVertex
 10
-34.800683134368953
 20
251.38217029140003
 30
0.0
  0
VERTEX
  5
205
100
AcDbEntity
  8
0
370
              15
  6
Continuous
 62
               7
100
AcDbVertex
100
AcDb2dVertex
 10
-36.008685281068935
 20
252.41287660130001
 30
0.0
  0
VERTEX
  5
206
100
AcDbEntity
  8
0
370
              15
  6
Continuous
 62
               7
100
AcDbVertex
100
AcDb2dVertex
 10
-37.487998321968902
 20
253.46969442969998
 30
0.0
  0
VERTEX
  5
207
100
AcDbEntity
  8
0
370
              15
  6
Continuous
 62
               7
100
AcDbVertex
100
AcDb2dVertex
 10
-39.202195714868921
 20
254.52660207070005
 30
0.0
  0
VERTEX
  5
208
100
AcDbEntity
  8
0
370
              15
  6
Continuous
 62
               7
100
AcDbVertex
100
AcDb2dVertex
 10
-41.10907138826893
 20
255.55757390710005
 30
0.0
  0
VERTEX
  5
209
100
AcDbEntity
  8
0
370
              15
  6
Continuous
 62
               7
100
AcDbVertex
100
AcDb2dVertex
 10
-43.161668906668908
 20
256.53722433819996
 30
0.0
  0
VERTEX
  5
20A
100
AcDbEntity
  8
0
370
              15
  6
Continuous
 62
               7
100
AcDbVertex
100
AcDb2dVertex
 10
-45.309443355968924
 20
257.44143427020003
 30
0.0
  0
VERTEX
  5
20B
100
AcDbEntity
  8
0
370
              15
  6
Continuous
 62
               7
100
AcDbVertex
100
AcDb2dVertex
 10
-47.499514606168916
 20
258.24793443030001
 30
0.0
  0
VERTEX
  5
20C
100
AcDbEntity
  8
0
370
              15
  6
Continuous
 62
               7
100
AcDbVertex
100
AcDb2dVertex
 10
-49.677955808268948
 20
258.93686754960004
 30
0.0
  0
VERTEX
  5
20D
100
AcDbEntity
  8
0
370
              15
  6
Continuous
 62
               7
100
AcDbVertex
100
AcDb2dVertex
 10
-51.791125851768911
 20
259.49126962150001
 30
0.0
  0
VERTEX
  5
20E
100
AcDbEntity
  8
0
370
              15
  6
Continuous
 62
               7
100
AcDbVertex
100
AcDb2dVertex
 10
-53.786988400568916
 20
259.89749151189994
 30
0.0
  0
VERTEX
  5
20F
100
AcDbEntity
  8
0
370
              15
  6
Continuous
 62
               7
100
AcDbVertex
100
AcDb2dVertex
 10
-55.616401179768943
 20
260.14552839869998
 30
0.0
  0
VERTEX
  5
210
100
AcDbEntity
  8
0
370
              15
  6
Continuous
 62
               7
100
AcDbVertex
100
AcDb2dVertex
 10
-57.234315688568913
 20
260.22927511540001
 30
0.0
  0
VERTEX
  5
211
100
AcDbEntity
  8
0
370
              15
  6
Continuous
 62
               7
100
AcDbVertex
100
AcDb2dVertex
 10
-58.60089652226894
 20
260.14666744550004
 30
0.0
  0
VERTEX
  5
212
100
AcDbEntity
  8
0
370
              15
  6
Continuous
 62
               7
100
AcDbVertex
100
AcDb2dVertex
 10
-59.682493821568912
 20
259.89973952030005
 30
0.0
  0
VERTEX
  5
213
100
AcDbEntity
  8
0
370
              15
  6
Continuous
 62
               7
100
AcDbVertex
100
AcDb2dVertex
 10
-60.452476726368943
 20
259.49457036189995
 30
0.0
  0
VERTEX
  5
214
100
AcDbEntity
  8
0
370
              15
  6
Continuous
 62
               7
100
AcDbVertex
100
AcDb2dVertex
 10
-60.862437238268953
 20
259.00429754490006
 30
0.0
  0
SEQEND
  5
215
100
AcDbEntity
  8
0
370
              15
  6
Continuous
 62
               7
  0
POLYLINE
  5
216
100
AcDbEntity
  8
0
370
              15
  6
Continuous
 62
               7
100
AcDb2dPolyline
 66
               1
 10
0.0
 20
0.0
 30
0.0
 75
               5
  0
VERTEX
  5
217
100
AcDbEntity
  8
0
370
              15
  6
Continuous
 62
               7
100
AcDbVertex
100
AcDb2dVertex
 10
-38.593952716568921
 20
263.04036715919995
 30
0.0
  0
VERTEX
  5
218
100
AcDbEntity
  8
0
370
              15
  6
Continuous
 62
               7
100
AcDbVertex
100
AcDb2dVertex
 10
-40.058122727568943
 20
263.83012113960001
 30
0.0
  0
VERTEX
  5
219
100
AcDbEntity
  8
0
370
              15
  6
Continuous
 62
               7
100
AcDbVertex
100
AcDb2dVertex
 10
-41.65507891466892
 20
264.56731957390002
 30
0.0
  0
VERTEX
  5
21A
100
AcDbEntity
  8
0
370
              15
  6
Continuous
 62
               7
100
AcDbVertex
100
AcDb2dVertex
 10
-43.323445882868938
 20
265.22363414769995
 30
0.0
  0
VERTEX
  5
21B
100
AcDbEntity
  8
0
370
              15
  6
Continuous
 62
               7
100
AcDbVertex
100
AcDb2dVertex
 10
-44.999113686068924
 20
265.7738431944
 30
0.0
  0
VERTEX
  5
21C
100
AcDbEntity
  8
0
370
              15
  6
Continuous
 62
               7
100
AcDbVertex
100
AcDb2dVertex
 10
-46.617684841968909
 20
266.19680093520003
 30
0.0
  0
VERTEX
  5
21D
100
AcDbEntity
  8
0
370
              15
  6
Continuous
 62
               7
100
AcDbVertex
100
AcDb2dVertex
 10
-48.116958848168949
 20
266.47625472209995
 30
0.0
  0
VERTEX
  5
21E
100
AcDbEntity
  8
0
370
              15
  6
Continuous
 62
               7
100
AcDbVertex
100
AcDb2dVertex
 10
-49.439320963768907
 20
266.60146618629994
 30
0.0
  0
VERTEX
  5
21F
100
AcDbEntity
  8
0
370
              15
  6
Continuous
 62
               7
100
AcDbVertex
100
AcDb2dVertex
 10
-50.5339531064689
 20
266.56761995019997
 30
0.0
  0
VERTEX
  5
220
100
AcDbEntity
  8
0
370
              15
  6
Continuous
 62
               7
100
AcDbVertex
100
AcDb2dVertex
 10
-51.358789604168905
 20
266.37601941339994
 30
0.0
  0
VERTEX
  5
221
100
AcDbEntity
  8
0
370
              15
  6
Continuous
 62
               7
100
AcDbVertex
100
AcDb2dVertex
 10
-51.882128121568925
 20
266.0340285776
 30
0.0
  0
VERTEX
  5
222
100
AcDbEntity
  8
0
370
              15
  6
Continuous
 62
               7
100
AcDbVertex
100
AcDb2dVertex
 10
-51.96771170656892
 20
265.91930856960005
 30
0.0
  0
SEQEND
  5
223
100
AcDbEntity
  8
0
370
              15
  6
Continuous
 62
               7
  0
SPLINE
  5
224
100
AcDbEntity
  8
0
370
              15
  6
Continuous
 62
               7
100
AcDbSpline
210
0.0
220
0.0
230
1.0
 70
               8
 71
               2
 72
              16
 73
              13
 74
               0
 42
0.000001
 43
0.000001
 40
0.0
 40
0.0
 40
0.0
 40
1.0
 40
1.0
 40
2.0
 40
3.0
 40
4.0
 40
5.0
 40
6.0
 40
7.0
 40
8.0
 40
8.0
 40
9.0
 40
9.0
 40
9.0
 10
-34.96249697928441
 20
259.27239780496859
 30
0.0
 10
-34.962395122876998
 20
259.27254399190792
 30
0.0
 10
-34.962293266469587
 20
259.27269017884726
 30
0.0
 10
-34.899640756341043
 20
259.36181674784871
 30
0.0
 10
-34.908815885812643
 20
259.65705380539566
 30
0.0
 10
-35.156190649849734
 20
260.16114832622009
 30
0.0
 10
-35.704673568416851
 20
260.9236401013311
 30
0.0
 10
-36.626621225927508
 20
261.73257452568771
 30
0.0
 10
-37.296645027852705
 20
262.21098333547343
 30
0.0
 10
-38.029994185195434
 20
262.69065397145459
 30
0.0
 10
-38.558885883851971
 20
263.01852209676861
 30
0.0
 10
-38.576418698179495
 20
263.029448274397
 30
0.0
 10
-38.593951512507019
 20
263.04037445202539
 30
0.0
  0
ENDBLK
  5
225
100
AcDbEntity
  8
一般
100
AcDbBlockEnd
  0
ENDSEC
  0
SECTION
  2
ENTITIES
  0
MTEXT
  5
226
100
AcDbEntity
  8
0
 62
               7
100
AcDbMText
 10
639.875
 20
323.5492243738704
 30
0.0
 40
3.2165481187767901
 41
0.0
 71
               1
 72
               1
  1
HCA-D38K^I\PHCA-D38M^I
  7
Arial
 73
               1
 44
0.9673603504928808
  0
INSERT
  5
227
100
AcDbEntity
  8
一般
 62
               7
100
AcDbBlockReference
  2
*U0
 10
594.5
 20
420.5
 30
0.0
 41
0.25
 42
0.25
 43
0.25
  0
ENDSEC
  0
SECTION
  2
OBJECTS
  0
DICTIONARY
  5
19
100
AcDbDictionary
280
               0
281
               1
  3
ACAD_GROUP
350
1A
  3
ACAD_MLINESTYLE
350
1B
  3
ACAD_LAYOUT
350
1E
  3
ACAD_PLOTSETTINGS
350
22
  3
ACAD_PLOTSTYLENAME
350
1F
  3
ACAD_WIPEOUT_VARS
350
23
  0
DICTIONARY
  5
1A
102
{ACAD_REACTORS
330
19
102
}
100
AcDbDictionary
280
               0
281
               1
  0
DICTIONARY
  5
1B
102
{ACAD_REACTORS
330
19
102
}
100
AcDbDictionary
280
               0
281
               1
  3
Standard
350
1C
  0
MLINESTYLE
  5
1C
102
{ACAD_REACTORS
330
1B
102
}
100
AcDbMlineStyle
  2
Standard
 70
               0
  3

 62
               0
 51
90.0
 52
90.0
 71
               2
 49
0.5
 62
             256
  6
ByLayer
 49
-0.5
 62
             256
  6
ByLayer
  0
ACDBDICTIONARYWDFLT
  5
1F
102
{ACAD_REACTORS
330
19
102
}
100
AcDbDictionary
281
               1
  3
Normal
350
1D
100
AcDbDictionaryWithDefault
340
1D
  0
ACDBPLACEHOLDER
  5
1D
102
{ACAD_REACTORS
330
1F
102
}
  0
LAYOUT
  5
20
102
{ACAD_REACTORS
330
1E
102
}
100
AcDbPlotSettings
  1

  2

  4

  6

 40
0.0
 41
0.0
 42
0.0
 43
0.0
 44
0.0
 45
0.0
 46
0.0
 47
0.0
 48
0.0
 49
0.0
140
0.0
141
0.0
142
1.0
143
1.0
 70
            1024
 72
               0
 73
               0
 74
               0
  7

 75
               0
147
1.0
148
0.0
149
0.0
100
AcDbLayout
  1
Model
 70
               0
 71
               0
 10
0.0
 20
0.0
 11
0.0
 21
0.0
 12
0.0
 22
0.0
 32
0.0
 14
0.0
 24
0.0
 34
0.0
 15
0.0
 25
0.0
 35
0.0
146
0.0
 13
0.0
 23
0.0
 33
0.0
 16
0.0
 26
0.0
 36
0.0
 17
0.0
 27
0.0
 37
0.0
 76
               0
330
A
331
0
345
0
346
0
  0
LAYOUT
  5
21
102
{ACAD_REACTORS
330
1E
102
}
100
AcDbPlotSettings
  1

  2

  4

  6

 40
0.0
 41
0.0
 42
0.0
 43
0.0
 44
0.0
 45
0.0
 46
0.0
 47
0.0
 48
0.0
 49
0.0
140
0.0
141
0.0
142
1.0
143
1.0
 70
               0
 72
               0
 73
               0
 74
               0
  7

 75
               0
147
1.0
148
0.0
149
0.0
100
AcDbLayout
  1
Layout1
 70
               0
 71
               0
 10
0.0
 20
0.0
 11
0.0
 21
0.0
 12
0.0
 22
0.0
 32
0.0
 14
0.0
 24
0.0
 34
0.0
 15
0.0
 25
0.0
 35
0.0
146
0.0
 13
0.0
 23
0.0
 33
0.0
 16
0.0
 26
0.0
 36
0.0
 17
0.0
 27
0.0
 37
0.0
 76
               0
330
B
331
0
345
0
346
0
  0
DICTIONARY
  5
1E
102
{ACAD_REACTORS
330
19
102
}
100
AcDbDictionary
280
               0
281
               1
  3
Layout1
350
21
  3
Model
350
20
  0
DICTIONARY
  5
22
102
{ACAD_REACTORS
330
19
102
}
100
AcDbDictionary
280
               0
281
               1
  0
WIPEOUTVARIABLES
  5
23
100
AcDbWipeoutVariables
 70
               1
  0
ENDSEC
  0
EOF
