  0
SECTION
  2
HEADER
  9
$ACADVER
  1
AC1015
  9
$ACADMAINTVER
 70
     6
  9
$DWGCODEPAGE
  3
DOS932
  9
$INSBASE
 10
0.0
 20
0.0
 30
0.0
  9
$EXTMIN
 10
0.0
 20
0.0
 30
0.0
  9
$EXTMAX
 10
2100.0
 20
2970.0
 30
0.0
  9
$LIMMIN
 10
0.0
 20
0.0
  9
$LIMMAX
 10
2100.0
 20
2970.0
  9
$ORTHOMODE
 70
     0
  9
$REGENMODE
 70
     1
  9
$FILLMODE
 70
     1
  9
$QTEXTMODE
 70
     0
  9
$MIRRTEXT
 70
     1
  9
$LTSCALE
 40
10.0
  9
$ATTMODE
 70
     1
  9
$TEXTSIZE
 40
35.0
  9
$TRACEWID
 40
1.0
  9
$TEXTSTYLE
  7
Standard
  9
$CLAYER
  8
0
  9
$CELTYPE
  6
ByLayer
  9
$CECOLOR
 62
   256
  9
$CELTSCALE
 40
1.0
  9
$DISPSILH
 70
     0
  9
$DIMSCALE
 40
1.0
  9
$DIMASZ
 40
15.0
  9
$DIMEXO
 40
10.0
  9
$DIMDLI
 40
3.75
  9
$DIMRND
 40
0.0
  9
$DIMDLE
 40
0.0
  9
$DIMEXE
 40
10.0
  9
$DIMTP
 40
0.0
  9
$DIMTM
 40
0.0
  9
$DIMTXT
 40
35.0
  9
$DIMCEN
 40
2.5
  9
$DIMTSZ
 40
0.0
  9
$DIMTOL
 70
     0
  9
$DIMLIM
 70
     0
  9
$DIMTIH
 70
     1
  9
$DIMTOH
 70
     1
  9
$DIMSE1
 70
     0
  9
$DIMSE2
 70
     0
  9
$DIMTAD
 70
     1
  9
$DIMZIN
 70
     0
  9
$DIMBLK
  1

  9
$DIMASO
 70
     1
  9
$DIMSHO
 70
     1
  9
$DIMPOST
  1

  9
$DIMAPOST
  1

  9
$DIMALT
 70
     0
  9
$DIMALTD
 70
     3
  9
$DIMALTF
 40
0.0393700787
  9
$DIMLFAC
 40
1.0
  9
$DIMTOFL
 70
     1
  9
$DIMTVP
 40
0.0
  9
$DIMTIX
 70
     0
  9
$DIMSOXD
 70
     0
  9
$DIMSAH
 70
     0
  9
$DIMBLK1
  1

  9
$DIMBLK2
  1

  9
$DIMSTYLE
  2
ISO-25
  9
$DIMCLRD
 70
     0
  9
$DIMCLRE
 70
     0
  9
$DIMCLRT
 70
     0
  9
$DIMTFAC
 40
1.0
  9
$DIMGAP
 40
15.0
  9
$DIMJUST
 70
     0
  9
$DIMSD1
 70
     0
  9
$DIMSD2
 70
     0
  9
$DIMTOLJ
 70
     0
  9
$DIMTZIN
 70
     0
  9
$DIMALTZ
 70
     0
  9
$DIMALTTZ
 70
     0
  9
$DIMUPT
 70
     0
  9
$DIMDEC
 70
     1
  9
$DIMTDEC
 70
     1
  9
$DIMALTU
 70
     2
  9
$DIMALTTD
 70
     3
  9
$DIMTXSTY
  7
Standard
  9
$DIMAUNIT
 70
     0
  9
$DIMADEC
 70
     2
  9
$DIMALTRND
 40
0.0
  9
$DIMAZIN
 70
     0
  9
$DIMDSEP
 70
    44
  9
$DIMATFIT
 70
     3
  9
$DIMFRAC
 70
     0
  9
$DIMLDRBLK
  1

  9
$DIMLUNIT
 70
     2
  9
$DIMLWD
 70
    -2
  9
$DIMLWE
 70
    -2
  9
$DIMTMOVE
 70
     0
  9
$LUNITS
 70
     2
  9
$LUPREC
 70
     2
  9
$SKETCHINC
 40
1.0
  9
$FILLETRAD
 40
0.0
  9
$AUNITS
 70
     0
  9
$AUPREC
 70
     2
  9
$MENU
  1
.
  9
$ELEVATION
 40
0.0
  9
$PELEVATION
 40
0.0
  9
$THICKNESS
 40
0.0
  9
$LIMCHECK
 70
     0
  9
$CHAMFERA
 40
0.0
  9
$CHAMFERB
 40
0.0
  9
$CHAMFERC
 40
0.0
  9
$CHAMFERD
 40
0.0
  9
$SKPOLY
 70
     0
  9
$TDCREATE
 40
2460151.591750752
  9
$TDUCREATE
 40
2460151.216750752
  9
$TDUPDATE
 40
2460151.59175103
  9
$TDUUPDATE
 40
2460151.21675103
  9
$TDINDWG
 40
0.0000000116
  9
$TDUSRTIMER
 40
0.0000000116
  9
$USRTIMER
 70
     1
  9
$ANGBASE
 50
0.0
  9
$ANGDIR
 70
     0
  9
$PDMODE
 70
     0
  9
$PDSIZE
 40
-1.0
  9
$PLINEWID
 40
0.0
  9
$SPLFRAME
 70
     0
  9
$SPLINETYPE
 70
     6
  9
$SPLINESEGS
 70
     8
  9
$HANDSEED
  5
CB
  9
$SURFTAB1
 70
     6
  9
$SURFTAB2
 70
     6
  9
$SURFTYPE
 70
     6
  9
$SURFU
 70
     6
  9
$SURFV
 70
     6
  9
$UCSBASE
  2

  9
$UCSNAME
  2

  9
$UCSORG
 10
0.0
 20
0.0
 30
0.0
  9
$UCSXDIR
 10
1.0
 20
0.0
 30
0.0
  9
$UCSYDIR
 10
0.0
 20
1.0
 30
0.0
  9
$UCSORTHOREF
  2

  9
$UCSORTHOVIEW
 70
     0
  9
$UCSORGTOP
 10
0.0
 20
0.0
 30
0.0
  9
$UCSORGBOTTOM
 10
0.0
 20
0.0
 30
0.0
  9
$UCSORGLEFT
 10
0.0
 20
0.0
 30
0.0
  9
$UCSORGRIGHT
 10
0.0
 20
0.0
 30
0.0
  9
$UCSORGFRONT
 10
0.0
 20
0.0
 30
0.0
  9
$UCSORGBACK
 10
0.0
 20
0.0
 30
0.0
  9
$PUCSBASE
  2

  9
$PUCSNAME
  2

  9
$PUCSORG
 10
0.0
 20
0.0
 30
0.0
  9
$PUCSXDIR
 10
1.0
 20
0.0
 30
0.0
  9
$PUCSYDIR
 10
0.0
 20
1.0
 30
0.0
  9
$PUCSORTHOREF
  2

  9
$PUCSORTHOVIEW
 70
     0
  9
$PUCSORGTOP
 10
0.0
 20
0.0
 30
0.0
  9
$PUCSORGBOTTOM
 10
0.0
 20
0.0
 30
0.0
  9
$PUCSORGLEFT
 10
0.0
 20
0.0
 30
0.0
  9
$PUCSORGRIGHT
 10
0.0
 20
0.0
 30
0.0
  9
$PUCSORGFRONT
 10
0.0
 20
0.0
 30
0.0
  9
$PUCSORGBACK
 10
0.0
 20
0.0
 30
0.0
  9
$USERI1
 70
     0
  9
$USERI2
 70
     0
  9
$USERI3
 70
     0
  9
$USERI4
 70
     0
  9
$USERI5
 70
     0
  9
$USERR1
 40
0.0
  9
$USERR2
 40
0.0
  9
$USERR3
 40
0.0
  9
$USERR4
 40
0.0
  9
$USERR5
 40
0.0
  9
$WORLDVIEW
 70
     1
  9
$SHADEDGE
 70
     3
  9
$SHADEDIF
 70
    70
  9
$TILEMODE
 70
     1
  9
$MAXACTVP
 70
    64
  9
$PINSBASE
 10
0.0
 20
0.0
 30
0.0
  9
$PLIMCHECK
 70
     0
  9
$PEXTMIN
 10
1.0000000000E+20
 20
1.0000000000E+20
 30
1.0000000000E+20
  9
$PEXTMAX
 10
-1.0000000000E+20
 20
-1.0000000000E+20
 30
-1.0000000000E+20
  9
$PLIMMIN
 10
0.0
 20
0.0
  9
$PLIMMAX
 10
420.0
 20
297.0
  9
$UNITMODE
 70
     0
  9
$VISRETAIN
 70
     1
  9
$PLINEGEN
 70
     0
  9
$PSLTSCALE
 70
     1
  9
$TREEDEPTH
 70
  3020
  9
$CMLSTYLE
  2
Standard
  9
$CMLJUST
 70
     0
  9
$CMLSCALE
 40
20.0
  9
$PROXYGRAPHICS
 70
     1
  9
$MEASUREMENT
 70
     1
  9
$CELWEIGHT
370
    -1
  9
$ENDCAPS
280
     0
  9
$JOINSTYLE
280
     0
  9
$LWDISPLAY
290
     1
  9
$INSUNITS
 70
     4
  9
$HYPERLINKBASE
  1

  9
$STYLESHEET
  1

  9
$XEDIT
290
     1
  9
$CEPSNTYPE
380
     0
  9
$PSTYLEMODE
290
     1
  9
$FINGERPRINTGUID
  2
{3750f260-db21-4625-8cfa-4534bccb4301}
  9
$VERSIONGUID
  2
{FAEB1C32-E019-11D5-929B-00C0DF256EC4}
  9
$EXTNAMES
290
     1
  9
$PSVPSCALE
 40
0.0
  9
$OLESTARTUP
290
     0
  0
ENDSEC
  0
SECTION
  2
CLASSES
  0
CLASS
  1
ACDBDICTIONARYWDFLT
  2
AcDbDictionaryWithDefault
  3
ObjectDBX Classes
 90
        0
280
     0
281
     0
  0
CLASS
  1
VISUALSTYLE
  2
AcDbVisualStyle
  3
ObjectDBX Classes
 90
     4095
280
     0
281
     0
  0
CLASS
  1
MATERIAL
  2
AcDbMaterial
  3
ObjectDBX Classes
 90
     1153
280
     0
281
     0
  0
CLASS
  1
SCALE
  2
AcDbScale
  3
ObjectDBX Classes
 90
     1153
280
     0
281
     0
  0
CLASS
  1
TABLESTYLE
  2
AcDbTableStyle
  3
ObjectDBX Classes
 90
     4095
280
     0
281
     0
  0
CLASS
  1
MLEADERSTYLE
  2
AcDbMLeaderStyle
  3
ACDB_MLEADERSTYLE_CLASS
 90
     4095
280
     0
281
     0
  0
CLASS
  1
SUN
  2
AcDbSun
  3
SCENEOE
 90
     1153
280
     0
281
     0
  0
CLASS
  1
ACDBPLACEHOLDER
  2
AcDbPlaceHolder
  3
ObjectDBX Classes
 90
        0
280
     0
281
     0
  0
CLASS
  1
LAYOUT
  2
AcDbLayout
  3
ObjectDBX Classes
 90
        0
280
     0
281
     0
  0
ENDSEC
  0
SECTION
  2
TABLES
  0
TABLE
  2
VPORT
  5
8
330
0
100
AcDbSymbolTable
 70
     1
  0
VPORT
  5
29
330
8
100
AcDbSymbolTableRecord
100
AcDbViewportTableRecord
  2
*Active
 70
     0
 10
0.0
 20
0.0
 11
1.0
 21
1.0
 12
1050.0
 22
1485.0
 13
0.0
 23
0.0
 14
10.0
 24
10.0
 15
10.0
 25
10.0
 16
0.0
 26
0.0
 36
1.0
 17
0.0
 27
0.0
 37
0.0
 40
2970.0
 41
0.7070707071
 42
50.0
 43
0.0
 44
0.0
 50
0.0
 51
0.0
 71
     0
 72
  2000
 73
     1
 74
     3
 75
     0
 76
     0
 77
     0
 78
     0
281
     0
 65
     1
110
0.0
120
0.0
130
0.0
111
1.0
121
0.0
131
0.0
112
0.0
122
1.0
132
0.0
 79
     0
146
0.0
  0
ENDTAB
  0
TABLE
  2
LTYPE
  5
5
330
0
100
AcDbSymbolTable
 70
     6
  0
LTYPE
  5
14
330
5
100
AcDbSymbolTableRecord
100
AcDbLinetypeTableRecord
  2
ByBlock
 70
     0
  3

 72
    65
 73
     0
 40
0.0
  0
LTYPE
  5
15
330
5
100
AcDbSymbolTableRecord
100
AcDbLinetypeTableRecord
  2
ByLayer
 70
     0
  3

 72
    65
 73
     0
 40
0.0
  0
LTYPE
  5
16
330
5
100
AcDbSymbolTableRecord
100
AcDbLinetypeTableRecord
  2
Continuous
 70
     0
  3
Solid line
 72
    65
 73
     0
 40
0.0
  0
LTYPE
  5
5E
330
5
100
AcDbSymbolTableRecord
100
AcDbLinetypeTableRecord
  2
HIDDEN
 70
     0
  3
Hidden __ __ __ __ __ __ __ __ __ __ __ __ __ __
 72
    65
 73
     2
 40
1.905
 49
1.27
 74
     0
 49
-0.635
 74
     0
  0
LTYPE
  5
5F
330
5
100
AcDbSymbolTableRecord
100
AcDbLinetypeTableRecord
  2
PHANTOM
 70
     0
  3
Phantom ______  __  __  ______  __  __  ______
 72
    65
 73
     6
 40
12.7
 49
6.35
 74
     0
 49
-1.27
 74
     0
 49
1.27
 74
     0
 49
-1.27
 74
     0
 49
1.27
 74
     0
 49
-1.27
 74
     0
  0
LTYPE
  5
60
330
5
100
AcDbSymbolTableRecord
100
AcDbLinetypeTableRecord
  2
CENTER
 70
     0
  3
Center ____ _ ____ _ ____ _ ____ _ ____ _ ____
 72
    65
 73
     4
 40
10.16
 49
6.35
 74
     0
 49
-1.27
 74
     0
 49
1.27
 74
     0
 49
-1.27
 74
     0
  0
LTYPE
  5
61
330
5
100
AcDbSymbolTableRecord
100
AcDbLinetypeTableRecord
  2
CENTERX2
 70
     0
  3
Center (2x) ________  __  ________  __  _____
 72
    65
 73
     4
 40
20.32
 49
12.7
 74
     0
 49
-2.54
 74
     0
 49
2.54
 74
     0
 49
-2.54
 74
     0
  0
LTYPE
  5
62
330
5
100
AcDbSymbolTableRecord
100
AcDbLinetypeTableRecord
  2
DOT2
 70
     0
  3
Dot (.5x) ........................................
 72
    65
 73
     2
 40
0.635
 49
0.0
 74
     0
 49
-0.635
 74
     0
  0
ENDTAB
  0
TABLE
  2
LAYER
  5
2
330
0
100
AcDbSymbolTable
 70
     2
  0
LAYER
  5
10
330
2
100
AcDbSymbolTableRecord
100
AcDbLayerTableRecord
  2
0
 70
     0
 62
     7
  6
Continuous
370
    -3
390
F
  0
LAYER
  5
63
330
2
100
AcDbSymbolTableRecord
100
AcDbLayerTableRecord
  2
FORMAT
 70
     0
 62
     7
  6
Continuous
370
    -3
390
F
  0
ENDTAB
  0
TABLE
  2
STYLE
  5
3
330
0
100
AcDbSymbolTable
 70
     2
  0
STYLE
  5
11
330
3
100
AcDbSymbolTableRecord
100
AcDbTextStyleTableRecord
  2
Standard
 70
     0
 40
0.0
 41
1.0
 50
0.0
 71
     0
 42
35.0
  3
txt
  4
bigfont
  0
STYLE
  5
64
330
3
100
AcDbSymbolTableRecord
100
AcDbTextStyleTableRecord
  2
SLDTEXTSTYLE0
 70
     0
 40
0.0
 41
0.7
 50
0.0
 71
     0
 42
35.0
  3
TXT
  4
bigfont
  0
ENDTAB
  0
TABLE
  2
VIEW
  5
6
330
0
100
AcDbSymbolTable
 70
     0
  0
ENDTAB
  0
TABLE
  2
UCS
  5
7
330
0
100
AcDbSymbolTable
 70
     0
  0
ENDTAB
  0
TABLE
  2
APPID
  5
9
330
0
100
AcDbSymbolTable
 70
     1
  0
APPID
  5
12
330
9
100
AcDbSymbolTableRecord
100
AcDbRegAppTableRecord
  2
ACAD
 70
     0
  0
ENDTAB
  0
TABLE
  2
DIMSTYLE
  5
A
330
0
100
AcDbSymbolTable
 70
     1
100
AcDbDimStyleTable
  0
DIMSTYLE
105
27
330
A
100
AcDbSymbolTableRecord
100
AcDbDimStyleTableRecord
  2
ISO-25
 70
     0
 41
2.5
 42
0.625
 43
3.75
 44
1.25
 73
     0
 74
     0
 77
     1
 78
     8
140
2.5
141
2.5
143
0.0393700787
147
0.625
171
     3
172
     1
178
     0
271
     2
272
     2
274
     3
278
    44
283
     0
284
     8
340
11
  0
ENDTAB
  0
TABLE
  2
BLOCK_RECORD
  5
1
330
0
100
AcDbSymbolTable
 70
     1
  0
BLOCK_RECORD
  5
1F
330
1
100
AcDbSymbolTableRecord
100
AcDbBlockTableRecord
  2
*Model_Space
340
22
  0
BLOCK_RECORD
  5
1B
330
1
100
AcDbSymbolTableRecord
100
AcDbBlockTableRecord
  2
*Paper_Space
340
1E
  0
BLOCK_RECORD
  5
23
330
1
100
AcDbSymbolTableRecord
100
AcDbBlockTableRecord
  2
*Paper_Space0
340
26
  0
ENDTAB
  0
ENDSEC
  0
SECTION
  2
BLOCKS
  0
BLOCK
  5
20
330
1F
100
AcDbEntity
  8
0
100
AcDbBlockBegin
  2
*Model_Space
 70
     0
 10
0.0
 20
0.0
 30
0.0
  3
*Model_Space
  1

  0
ENDBLK
  5
21
330
1F
100
AcDbEntity
  8
0
100
AcDbBlockEnd
  0
BLOCK
  5
1C
330
1B
100
AcDbEntity
 67
     1
  8
0
100
AcDbBlockBegin
  2
*Paper_Space
 70
     0
 10
0.0
 20
0.0
 30
0.0
  3
*Paper_Space
  1

  0
ENDBLK
  5
1D
330
1B
100
AcDbEntity
 67
     1
  8
0
100
AcDbBlockEnd
  0
BLOCK
  5
24
330
23
100
AcDbEntity
  8
0
100
AcDbBlockBegin
  2
*Paper_Space0
 70
     0
 10
0.0
 20
0.0
 30
0.0
  3
*Paper_Space0
  1

  0
ENDBLK
  5
25
330
23
100
AcDbEntity
  8
0
100
AcDbBlockEnd
  0
ENDSEC
  0
SECTION
  2
ENTITIES
  0
MTEXT
  5
65
330
1F
100
AcDbEntity
  8
0
  6
Continuous
 62
     7
370
     0
100
AcDbMText
 10
1364.823402024
 20
1072.9160846267
 30
0.0
 40
35.0
 41
0.0
 71
     1
 72
     1
  1
HCA-D39K
  7
SLDTEXTSTYLE0
 73
     1
 44
1.0
  0
LINE
  5
66
330
1F
100
AcDbEntity
  8
0
  6
Continuous
 62
     7
370
    25
100
AcDbLine
 10
1155.4903725716
 20
1150.1048711134
 30
0.0
 11
1155.4903725716
 21
1150.683577531
 31
0.0
  0
LINE
  5
67
330
1F
100
AcDbEntity
  8
0
  6
Continuous
 62
     7
370
    25
100
AcDbLine
 10
1131.4903725716
 20
1122.6704368355
 30
0.0
 11
1131.4903725716
 21
1122.0950265347
 31
0.0
  0
LINE
  5
68
330
1F
100
AcDbEntity
  8
0
  6
Continuous
 62
     7
370
    25
100
AcDbLine
 10
1131.7760737873
 20
1121.4879634399
 30
0.0
 11
1132.0254452843
 21
1121.2556571098
 31
0.0
  0
LINE
  5
69
330
1F
100
AcDbEntity
  8
0
  6
Continuous
 62
     7
370
    25
100
AcDbLine
 10
1154.2778655757
 20
1121.4208434712
 30
0.0
 11
1154.9652911362
 21
1122.0608986188
 31
0.0
  0
LINE
  5
6A
330
1F
100
AcDbEntity
  8
0
  6
Continuous
 62
     7
370
    25
100
AcDbLine
 10
1043.4903725716
 20
1152.5499482074
 30
0.0
 11
1043.4903725716
 21
1148.6862449022
 31
0.0
  0
LINE
  5
6B
330
1F
100
AcDbEntity
  8
0
  6
Continuous
 62
     7
370
    25
100
AcDbLine
 10
1243.4903725716
 20
1148.6862449022
 30
0.0
 11
1243.4903725716
 21
1152.5499482074
 31
0.0
  0
SPLINE
  5
6C
330
1F
100
AcDbEntity
  8
0
  6
Continuous
 62
     7
370
    25
100
AcDbSpline
210
0.0
220
0.0
230
1.0
 70
     8
 71
     3
 72
    11
 73
     7
 74
     0
 42
0.00000001
 43
0.00000001
 40
0.0
 40
0.0
 40
0.0
 40
0.0
 40
0.2333554925005647
 40
0.5468018080081348
 40
0.8588065553958145
 40
1.0
 40
1.0
 40
1.0
 40
1.0
 10
953.6942399530967
 20
1763.573248584891
 30
0.0
 10
953.7982495322934
 20
1766.789521263366
 30
0.0
 10
954.0419662125629
 20
1774.325935756086
 30
0.0
 10
953.6526401368127
 20
1786.165740206954
 30
0.0
 10
952.966684748906
 20
1796.719372535975
 30
0.0
 10
952.1602224553413
 20
1802.912556531319
 30
0.0
 10
951.9089699323085
 20
1804.842036826743
 30
0.0
  0
SPLINE
  5
6D
330
1F
100
AcDbEntity
  8
0
  6
Continuous
 62
     7
370
    25
100
AcDbSpline
210
0.0
220
0.0
230
1.0
 70
     8
 71
     3
 72
    11
 73
     7
 74
     0
 42
0.00000001
 43
0.00000001
 40
0.0
 40
0.0
 40
0.0
 40
0.0
 40
0.1539147327496912
 40
0.4700813904744163
 40
0.7848714665851018
 40
1.0
 40
1.0
 40
1.0
 40
1.0
 10
809.6131508031402
 20
1804.849235339137
 30
0.0
 10
809.3411498784325
 20
1802.745206268781
 30
0.0
 10
808.5104134660525
 20
1796.319148845156
 30
0.0
 10
807.8316642914006
 20
1785.510965661412
 30
0.0
 10
807.474257892539
 20
1773.843104983758
 30
0.0
 10
807.7270678897434
 20
1766.538702212317
 30
0.0
 10
807.8296999599396
 20
1763.573368616845
 30
0.0
  0
SPLINE
  5
6E
330
1F
100
AcDbEntity
  8
0
  6
Continuous
 62
     7
370
    25
100
AcDbSpline
210
0.0
220
0.0
230
1.0
 70
     8
 71
     3
 72
    20
 73
    16
 74
     0
 42
0.00000001
 43
0.00000001
 40
0.0
 40
0.0
 40
0.0
 40
0.0
 40
0.0074205601418853
 40
0.0935790826035509
 40
0.1773467553333835
 40
0.2601910227809727
 40
0.342760904846987
 40
0.4253194773902827
 40
0.5079586205249361
 40
0.5906986090260126
 40
0.6735334231881249
 40
0.7564502909081012
 40
0.8394371420454982
 40
0.9313300975620645
 40
1.0
 40
1.0
 40
1.0
 40
1.0
 10
917.0466074695471
 20
1713.951451805928
 30
0.0
 10
917.1935339237555
 20
1714.002284436934
 30
0.0
 10
919.0463917312691
 20
1714.643323776934
 30
0.0
 10
922.4575346281455
 20
1716.255138848957
 30
0.0
 10
927.2126474124161
 20
1718.826252367189
 30
0.0
 10
931.6818346595045
 20
1721.843883560332
 30
0.0
 10
935.8626260706261
 20
1725.262081381768
 30
0.0
 10
939.7102066963241
 20
1729.085250431894
 30
0.0
 10
943.1780378647484
 20
1733.2840661822
 30
0.0
 10
946.2206640892551
 20
1737.823449162754
 30
0.0
 10
948.795877434756
 20
1742.659352574517
 30
0.0
 10
950.875972902521
 20
1747.742257633534
 30
0.0
 10
952.4639420445459
 20
1753.206985318207
 30
0.0
 10
953.4722070067372
 20
1758.504786513615
 30
0.0
 10
953.6282565337629
 20
1762.047427559101
 30
0.0
 10
953.6949961641659
 20
1763.562552651326
 30
0.0
  0
SPLINE
  5
6F
330
1F
100
AcDbEntity
  8
0
  6
Continuous
 62
     7
370
    25
100
AcDbSpline
210
0.0
220
0.0
230
1.0
 70
     8
 71
     3
 72
    20
 73
    16
 74
     0
 42
0.00000001
 43
0.00000001
 40
0.0
 40
0.0
 40
0.0
 40
0.0
 40
0.0625844416118544
 40
0.1488271937206929
 40
0.2334132008606482
 40
0.3164778885334388
 40
0.3981371250553466
 40
0.4785005281552956
 40
0.5576863924080028
 40
0.6358416939467142
 40
0.7131732260236058
 40
0.7900019743770968
 40
0.8668645049484852
 40
0.9447004874247856
 40
1.0
 40
1.0
 40
1.0
 40
1.0
 10
807.8270139483915
 20
1763.5625401026
 30
0.0
 10
807.8802819830626
 20
1762.187110858865
 30
0.0
 10
808.0069545539276
 20
1758.916309534537
 30
0.0
 10
808.9130231927446
 20
1753.851114108912
 30
0.0
 10
810.3913425253361
 20
1748.467921622159
 30
0.0
 10
812.398183474905
 20
1743.365607675914
 30
0.0
 10
814.8575849695061
 20
1738.57803410326
 30
0.0
 10
817.7268246145846
 20
1734.133920655768
 30
0.0
 10
820.9545814549224
 20
1730.054669398498
 30
0.0
 10
824.4932585618949
 20
1726.353843412857
 30
0.0
 10
828.2987683619442
 20
1723.038250225625
 30
0.0
 10
832.3334907410342
 20
1720.099789349439
 30
0.0
 10
836.5809693488759
 20
1717.540006967478
 30
0.0
 10
840.5582517084961
 20
1715.512627024444
 30
0.0
 10
843.1554896997999
 20
1714.492211905843
 30
0.0
 10
844.2342853651131
 20
1714.068369573929
 30
0.0
  0
SPLINE
  5
70
330
1F
100
AcDbEntity
  8
0
  6
Continuous
 62
     7
370
    25
100
AcDbSpline
210
0.0
220
0.0
230
1.0
 70
     8
 71
     3
 72
    18
 73
    14
 74
     0
 42
0.00000001
 43
0.00000001
 40
0.0
 40
0.0
 40
0.0
 40
0.0
 40
0.0318803842061653
 40
0.1362357016037654
 40
0.2410224907670055
 40
0.3461751762930356
 40
0.4516444449693192
 40
0.5573942782641494
 40
0.6633998131241267
 40
0.7696459115486403
 40
0.8761263592654919
 40
0.9828436601680445
 40
1.0
 40
1.0
 40
1.0
 40
1.0
 10
844.2165180720021
 20
1714.100494735331
 30
0.0
 10
844.9482020592003
 20
1713.793478100058
 30
0.0
 10
848.0749360628927
 20
1712.48149181909
 30
0.0
 10
853.826986152661
 20
1710.733758510193
 30
0.0
 10
861.4304240644244
 20
1708.889873426169
 30
0.0
 10
869.196431492125
 20
1707.684806278887
 30
0.0
 10
877.053177141003
 20
1707.080621015123
 30
0.0
 10
884.9558521124161
 20
1707.099330405598
 30
0.0
 10
892.8497452095463
 20
1707.74676976733
 30
0.0
 10
900.6919481826736
 20
1709.005662327366
 30
0.0
 10
908.4033369606084
 20
1710.94148905673
 30
0.0
 10
913.8987320021287
 20
1712.628215094744
 30
0.0
 10
916.7329126467938
 20
1713.841322166372
 30
0.0
 10
917.1254430188465
 20
1714.009335934677
 30
0.0
  0
SPLINE
  5
71
330
1F
100
AcDbEntity
  8
0
  6
Continuous
 62
     7
370
    25
100
AcDbSpline
210
0.0
220
0.0
230
1.0
 70
     8
 71
     3
 72
    46
 73
    42
 74
     0
 42
0.00000001
 43
0.00000001
 40
0.0
 40
0.0
 40
0.0
 40
0.0
 40
0.0042853488839715
 40
0.0303080490791072
 40
0.0564828736700188
 40
0.0827995969838609
 40
0.1092507272151013
 40
0.1358310859205547
 40
0.1625374823411263
 40
0.1893684539171894
 40
0.2163240523401835
 40
0.2434056605145853
 40
0.2706158307218996
 40
0.2979581386000565
 40
0.3254370515875154
 40
0.353057814404719
 40
0.3808259791961342
 40
0.4087474640540898
 40
0.4368294561747449
 40
0.4650798586207384
 40
0.4935074392867065
 40
0.5221221033917873
 40
0.5509353337018367
 40
0.579960862838709
 40
0.6061644458723612
 40
0.6323695932434122
 40
0.6585712433190579
 40
0.6847650968273103
 40
0.710945335222869
 40
0.7371039818976273
 40
0.7632297935997624
 40
0.7893062627250622
 40
0.8153078146881549
 40
0.8411920186464421
 40
0.8668819875433145
 40
0.8922209048201074
 40
0.9168293767628621
 40
0.9394843847107845
 40
0.9572146083504944
 40
0.9735391055382744
 40
1.0
 40
1.0
 40
1.0
 40
1.0
 10
1157.45358029367
 20
2012.217014091341
 30
0.0
 10
1157.46528172787
 20
2012.703507662057
 30
0.0
 10
1157.548039900337
 20
2016.144224256468
 30
0.0
 10
1157.182940545223
 20
2022.528679868367
 30
0.0
 10
1156.318706173394
 20
2031.342546367699
 30
0.0
 10
1154.852496781132
 20
2040.099083300631
 30
0.0
 10
1152.844808559438
 20
2048.763175069277
 30
0.0
 10
1150.277731074527
 20
2057.296434444049
 30
0.0
 10
1147.157808024046
 20
2065.661731967432
 30
0.0
 10
1143.488158546127
 20
2073.822038876974
 30
0.0
 10
1139.275924309885
 20
2081.740815503159
 30
0.0
 10
1134.530198788574
 20
2089.38199025482
 30
0.0
 10
1129.262539515033
 20
2096.710056050165
 30
0.0
 10
1123.486794682066
 20
2103.690142250749
 30
0.0
 10
1117.219122852926
 20
2110.288101312696
 30
0.0
 10
1110.477995474836
 20
2116.470572488092
 30
0.0
 10
1103.284213781343
 20
2122.205076352709
 30
0.0
 10
1095.660837133419
 20
2127.460187071502
 30
0.0
 10
1087.633096098606
 20
2132.205670144993
 30
0.0
 10
1079.228284124569
 20
2136.412597644685
 30
0.0
 10
1070.475721113874
 20
2140.053412489268
 30
0.0
 10
1061.406589580991
 20
2143.102021336237
 30
0.0
 10
1052.053837918646
 20
2145.533846054373
 30
0.0
 10
1042.787951521363
 20
2147.263075047034
 30
0.0
 10
1033.689220377576
 20
2148.344611616921
 30
0.0
 10
1024.828293908771
 20
2148.84136648466
 30
0.0
 10
1015.924325828573
 20
2148.789622406371
 30
0.0
 10
1007.01241993794
 20
2148.190610373632
 30
0.0
 10
998.1279390554113
 20
2147.048038480724
 30
0.0
 10
989.3066928643808
 20
2145.368269536382
 30
0.0
 10
980.5851458632907
 20
2143.160604234538
 30
0.0
 10
972.0008696868538
 20
2140.437810383307
 30
0.0
 10
963.5935846969376
 20
2137.217158223267
 30
0.0
 10
955.4075247308512
 20
2133.522688008997
 30
0.0
 10
947.4975165033245
 20
2129.390613567763
 30
0.0
 10
939.9465265328723
 20
2124.885404894746
 30
0.0
 10
932.9377959898937
 20
2120.160471447466
 30
0.0
 10
926.8840963348855
 20
2115.606641728129
 30
0.0
 10
921.7847922817319
 20
2111.396682493457
 30
0.0
 10
916.4970149386044
 20
2106.717474475683
 30
0.0
 10
912.9701116262128
 20
2103.182528455692
 30
0.0
 10
910.788876098666
 20
2100.996318865065
 30
0.0
  0
SPLINE
  5
72
330
1F
100
AcDbEntity
  8
0
  6
Continuous
 62
     7
370
    25
100
AcDbSpline
210
0.0
220
0.0
230
1.0
 70
     8
 71
     3
 72
    22
 73
    18
 74
     0
 42
0.00000001
 43
0.00000001
 40
0.0
 40
0.0
 40
0.0
 40
0.0
 40
0.0836857713608957
 40
0.1175701878153801
 40
0.1738430516741123
 40
0.2323191229009959
 40
0.2950959133795839
 40
0.3606740235692427
 40
0.4284504638280535
 40
0.4979448655098566
 40
0.5688166118767756
 40
0.6408147387769804
 40
0.7137514569985252
 40
0.7874841045967407
 40
0.8619030348865029
 40
0.9369233030848253
 40
1.0
 40
1.0
 40
1.0
 40
1.0
 10
910.788876098666
 20
2100.996318865065
 30
0.0
 10
908.5079475280795
 20
2098.552693179934
 30
0.0
 10
905.303469681053
 20
2095.119642064083
 30
0.0
 10
900.8818039002349
 20
2089.770077984809
 30
0.0
 10
897.2475064221966
 20
2085.081661196556
 30
0.0
 10
893.1595630663342
 20
2079.299977728658
 30
0.0
 10
889.1418357531549
 20
2073.031997967237
 30
0.0
 10
885.2529863716424
 20
2066.263520135799
 30
0.0
 10
881.5951078630527
 20
2059.080400312652
 30
0.0
 10
878.2378036596251
 20
2051.538200645622
 30
0.0
 10
875.2364746206155
 20
2043.687654804644
 30
0.0
 10
872.634905671182
 20
2035.574591967482
 30
0.0
 10
870.4701628845586
 20
2027.242084326581
 30
0.0
 10
868.7666630393214
 20
2018.731087252656
 30
0.0
 10
867.5668444283817
 20
2010.082625007138
 30
0.0
 10
866.861961404198
 20
2001.817808744451
 30
0.0
 10
866.8161589435147
 20
1996.454848892459
 30
0.0
 10
866.7952383684094
 20
1994.005281714249
 30
0.0
  0
SPLINE
  5
73
330
1F
100
AcDbEntity
  8
0
  6
Continuous
 62
     7
370
    25
100
AcDbSpline
210
0.0
220
0.0
230
1.0
 70
     8
 71
     3
 72
    21
 73
    17
 74
     0
 42
0.00000001
 43
0.00000001
 40
0.0
 40
0.0
 40
0.0
 40
0.0
 40
0.0469506359775671
 40
0.1308094766967004
 40
0.2144775362915481
 40
0.2979199952750143
 40
0.3810787493206895
 40
0.4638531819824275
 40
0.5460588421400746
 40
0.6273267239418385
 40
0.7068121238590196
 40
0.7821002850855542
 40
0.8459377587079663
 40
0.8962339172944006
 40
0.9548640956860401
 40
1.0
 40
1.0
 40
1.0
 40
1.0
 10
894.8246580119253
 20
1994.008548905943
 30
0.0
 10
894.8150665855366
 20
1995.485422323484
 30
0.0
 10
894.7883438491868
 20
1999.600149097111
 30
0.0
 10
895.3348782618551
 20
2006.384407569319
 30
0.0
 10
896.411043940796
 20
2014.304786285662
 30
0.0
 10
898.0336310056063
 20
2022.158919877683
 30
0.0
 10
900.1579537725951
 20
2029.902568754545
 30
0.0
 10
902.774330040716
 20
2037.491671719224
 30
0.0
 10
905.8533744902397
 20
2044.87407735632
 30
0.0
 10
909.3507808070332
 20
2051.979862788659
 30
0.0
 10
913.1730513381218
 20
2058.683377606285
 30
0.0
 10
917.0778227701524
 20
2064.687787640568
 30
0.0
 10
920.7324637413606
 20
2069.714394489757
 30
0.0
 10
924.2639711279886
 20
2074.152651800661
 30
0.0
 10
927.5643671591366
 20
2077.991250636346
 30
0.0
 10
929.9084023808796
 20
2080.466664959161
 30
0.0
 10
930.9280048050871
 20
2081.543414327537
 30
0.0
  0
SPLINE
  5
74
330
1F
100
AcDbEntity
  8
0
  6
Continuous
 62
     7
370
    25
100
AcDbSpline
210
0.0
220
0.0
230
1.0
 70
     8
 71
     3
 72
    43
 73
    39
 74
     0
 42
0.00000001
 43
0.00000001
 40
0.0
 40
0.0
 40
0.0
 40
0.0
 40
0.0313209742603415
 40
0.0440284211453027
 40
0.0651286358444327
 40
0.0870596045291322
 40
0.110608318805185
 40
0.135213689102473
 40
0.1606518950306695
 40
0.1867457204500919
 40
0.2133710081425487
 40
0.2404378078738729
 40
0.2678804112767976
 40
0.2956505407986876
 40
0.3237127494974608
 40
0.3520412208202297
 40
0.380617476145617
 40
0.4094286757353989
 40
0.4384663105939257
 40
0.467725154288007
 40
0.4972023916080345
 40
0.5268968747342254
 40
0.556808482817229
 40
0.58693758039897
 40
0.617284584886117
 40
0.6478496631900384
 40
0.6786325820398434
 40
0.7096327350293293
 40
0.7408476763913813
 40
0.772276220869514
 40
0.8039188605905165
 40
0.8357779218750739
 40
0.8678585721269781
 40
0.9001700737917137
 40
0.9292407019480061
 40
0.9582658415635844
 40
0.9872406043911969
 40
1.0
 40
1.0
 40
1.0
 40
1.0
 10
930.9280048050871
 20
2081.543414327537
 30
0.0
 10
933.0454417761888
 20
2083.655704273187
 30
0.0
 10
936.0219585964317
 20
2086.624985833048
 30
0.0
 10
940.6987659517048
 20
2090.716799554481
 30
0.0
 10
944.8158188565352
 20
2094.078506770869
 30
0.0
 10
949.9144125632929
 20
2097.850221560963
 30
0.0
 10
955.4620460542399
 20
2101.544318564219
 30
0.0
 10
961.471115160398
 20
2105.102318275999
 30
0.0
 10
967.8637084734405
 20
2108.426370166901
 30
0.0
 10
974.5876077236419
 20
2111.44895728323
 30
0.0
 10
981.5939886651938
 20
2114.116237422183
 30
0.0
 10
988.837756063805
 20
2116.385131126631
 30
0.0
 10
996.275911210337
 20
2118.220671415473
 30
0.0
 10
1003.86676959466
 20
2119.594280975614
 30
0.0
 10
1011.569455443545
 20
2120.482614405507
 30
0.0
 10
1019.343598161568
 20
2120.866750989988
 30
0.0
 10
1027.149144681448
 20
2120.731623554185
 30
0.0
 10
1034.946241273393
 20
2120.065607658463
 30
0.0
 10
1042.695154781693
 20
2118.860227269995
 30
0.0
 10
1050.356216548619
 20
2117.109950466561
 30
0.0
 10
1057.889781224063
 20
2114.812059837377
 30
0.0
 10
1065.256199601114
 20
2111.966588155702
 30
0.0
 10
1072.415809880365
 20
2108.576312201381
 30
0.0
 10
1079.328955439327
 20
2104.646797040173
 30
0.0
 10
1085.956039070481
 20
2100.186480383073
 30
0.0
 10
1092.257622957872
 20
2095.206782587523
 30
0.0
 10
1098.194581622148
 20
2089.722223802028
 30
0.0
 10
1103.72820570874
 20
2083.750633857089
 30
0.0
 10
1108.820563206111
 20
2077.313191063296
 30
0.0
 10
1113.434826119642
 20
2070.434371117228
 30
0.0
 10
1117.535733366822
 20
2063.141724304558
 30
0.0
 10
1121.089414613065
 20
2055.465674992617
 30
0.0
 10
1124.06496446348
 20
2047.439516736082
 30
0.0
 10
1126.344261557701
 20
2039.3981486355
 30
0.0
 10
1127.984427237129
 20
2031.434200588077
 30
0.0
 10
1129.002175417506
 20
2023.625936421138
 30
0.0
 10
1129.488834577961
 20
2017.207604111951
 30
0.0
 10
1129.439383404203
 20
2013.387327237149
 30
0.0
 10
1129.424264683401
 20
2012.219352949251
 30
0.0
  0
LINE
  5
75
330
1F
100
AcDbEntity
  8
0
  6
Continuous
 62
     7
370
    25
100
AcDbLine
 10
894.758547821
 20
1974.6848719936
 30
0.0
 11
894.758547821
 21
1994.0033885194
 31
0.0
  0
LINE
  5
76
330
1F
100
AcDbEntity
  8
0
  6
Continuous
 62
     7
370
    25
100
AcDbLine
 10
866.758547821
 20
1994.0033885194
 30
0.0
 11
866.758547821
 21
1974.6848719936
 31
0.0
  0
LINE
  5
77
330
1F
100
AcDbEntity
  8
0
  6
Continuous
 62
     7
370
    25
100
AcDbLine
 10
1129.4903725716
 20
2012.2239336047
 30
0.0
 11
1129.4903725716
 21
1152.5499482074
 31
0.0
  0
LINE
  5
78
330
1F
100
AcDbEntity
  8
0
  6
Continuous
 62
     7
370
    25
100
AcDbLine
 10
1157.4903725716
 20
1152.5499482074
 30
0.0
 11
1157.4903725716
 21
2012.2239336047
 31
0.0
  0
LINE
  5
79
330
1F
100
AcDbEntity
  8
0
  6
Continuous
 62
     7
370
    25
100
AcDbLine
 10
1002.2473206501
 20
1878.0434532373
 30
0.0
 11
947.3366972121
 21
1895.5048480949
 31
0.0
  0
LINE
  5
7A
330
1F
100
AcDbEntity
  8
0
  6
Continuous
 62
     7
370
    25
100
AcDbLine
 10
814.1803984299
 20
1895.5048480949
 30
0.0
 11
759.269774992
 21
1878.0434532373
 31
0.0
  0
LINE
  5
7B
330
1F
100
AcDbEntity
  8
0
  6
Continuous
 62
     7
370
    25
100
AcDbLine
 10
1040.67193145
 20
1843.25181384
 30
0.0
 11
1039.7220934242
 21
1850.7199873388
 31
0.0
  0
LINE
  5
7C
330
1F
100
AcDbEntity
  8
0
  6
Continuous
 62
     7
370
    25
100
AcDbLine
 10
721.7950022179
 20
1850.7199873388
 30
0.0
 11
720.845164192
 21
1843.25181384
 31
0.0
  0
SPLINE
  5
7D
330
1F
100
AcDbEntity
  8
0
  6
Continuous
 62
     7
370
    25
100
AcDbSpline
210
0.0
220
0.0
230
1.0
 70
     8
 71
     3
 72
    17
 73
    13
 74
     0
 42
0.00000001
 43
0.00000001
 40
0.0
 40
0.0
 40
0.0
 40
0.0
 40
0.0068628475511117
 40
0.1284695210102053
 40
0.24970327774821
 40
0.3706120511373646
 40
0.491217103275789
 40
0.6111769290240293
 40
0.7301125035094109
 40
0.8477539247580739
 40
0.9647390493735128
 40
1.0
 40
1.0
 40
1.0
 40
1.0
 10
741.3750902391595
 20
1870.980228452994
 30
0.0
 10
741.2954643346732
 20
1870.942911405626
 30
0.0
 10
739.8049020377315
 20
1870.244352510761
 30
0.0
 10
737.2619057218291
 20
1868.815702661211
 30
0.0
 10
733.7847509901
 20
1866.687437435331
 30
0.0
 10
730.7495177882896
 20
1864.471114942888
 30
0.0
 10
728.1055799622279
 20
1862.168513974799
 30
0.0
 10
725.880994802132
 20
1859.765102085262
 30
0.0
 10
724.0747508125087
 20
1857.251773625192
 30
0.0
 10
722.7656615761206
 20
1854.611593483262
 30
0.0
 10
722.0214192859323
 20
1852.503720796896
 30
0.0
 10
721.9162721965322
 20
1851.274133407082
 30
0.0
 10
721.8919196060174
 20
1850.989354832828
 30
0.0
  0
SPLINE
  5
7E
330
1F
100
AcDbEntity
  8
0
  6
Continuous
 62
     7
370
    25
100
AcDbSpline
210
0.0
220
0.0
230
1.0
 70
     8
 71
     3
 72
    16
 73
    12
 74
     0
 42
0.00000001
 43
0.00000001
 40
0.0
 40
0.0
 40
0.0
 40
0.0
 40
0.0498044201976153
 40
0.1709356318385635
 40
0.2967226820798756
 40
0.4272768953951177
 40
0.5607718137020818
 40
0.6953060695417979
 40
0.8298194025959666
 40
0.9641483573554258
 40
1.0
 40
1.0
 40
1.0
 40
1.0
 10
1039.658033601026
 20
1850.626027047065
 30
0.0
 10
1039.628740181468
 20
1851.025671798573
 30
0.0
 10
1039.52820112969
 20
1852.397307646135
 30
0.0
 10
1038.725557567578
 20
1854.699149205781
 30
0.0
 10
1037.308747863523
 20
1857.488286968939
 30
0.0
 10
1035.291872586303
 20
1860.196733699278
 30
0.0
 10
1032.742482506397
 20
1862.811112633178
 30
0.0
 10
1029.688419384114
 20
1865.321305793046
 30
0.0
 10
1026.114856724536
 20
1867.717766900414
 30
0.0
 10
1023.160855808701
 20
1869.473349876473
 30
0.0
 10
1021.25340317578
 20
1870.402260911223
 30
0.0
 10
1020.851563534834
 20
1870.5979529406
 30
0.0
  0
SPLINE
  5
7F
330
1F
100
AcDbEntity
  8
0
  6
Continuous
 62
     7
370
    25
100
AcDbSpline
210
0.0
220
0.0
230
1.0
 70
     8
 71
     3
 72
    19
 73
    15
 74
     0
 42
0.00000001
 43
0.00000001
 40
0.0
 40
0.0
 40
0.0
 40
0.0
 40
0.0625994954287111
 40
0.1557646634403439
 40
0.248826692633341
 40
0.3416751246024802
 40
0.4342856050830431
 40
0.5267215249696291
 40
0.6190784589101579
 40
0.7110258367209074
 40
0.800401993453899
 40
0.8855085891777812
 40
0.9680394094430973
 40
1.0
 40
1.0
 40
1.0
 40
1.0
 10
839.4288998128636
 20
1920.516164739845
 30
0.0
 10
838.533982877764
 20
1920.317802090613
 30
0.0
 10
836.3071848141659
 20
1919.824221573945
 30
0.0
 10
833.0577934371561
 20
1918.935945819137
 30
0.0
 10
829.666515073248
 20
1917.868725754432
 30
0.0
 10
826.5949990692403
 20
1916.717532420678
 30
0.0
 10
823.8377297060566
 20
1915.48466223656
 30
0.0
 10
821.3983838429498
 20
1914.159561320982
 30
0.0
 10
819.2739243667663
 20
1912.723261068196
 30
0.0
 10
817.4826466324864
 20
1911.151440640194
 30
0.0
 10
816.0407070924276
 20
1909.417575799836
 30
0.0
 10
815.0450343024377
 20
1907.498917051793
 30
0.0
 10
814.5238982743236
 20
1905.831058647362
 30
0.0
 10
814.5662470114818
 20
1904.843490095546
 30
0.0
 10
814.5780687773173
 20
1904.567807632515
 30
0.0
  0
SPLINE
  5
80
330
1F
100
AcDbEntity
  8
0
  6
Continuous
 62
     7
370
    25
100
AcDbSpline
210
0.0
220
0.0
230
1.0
 70
     8
 71
     3
 72
    18
 73
    14
 74
     0
 42
0.00000001
 43
0.00000001
 40
0.0
 40
0.0
 40
0.0
 40
0.0
 40
0.0368857304052003
 40
0.1320709030494816
 40
0.2248018950549716
 40
0.3267227177710817
 40
0.4321681636995873
 40
0.5351419746664601
 40
0.637751747690884
 40
0.7408912022522166
 40
0.8443822840681976
 40
0.9480039028026352
 40
1.0
 40
1.0
 40
1.0
 40
1.0
 10
946.9345140782164
 20
1904.617880522885
 30
0.0
 10
946.9418272748168
 20
1904.935713991144
 30
0.0
 10
946.968012481632
 20
1906.07373003993
 30
0.0
 10
946.3109331413947
 20
1907.923721567507
 30
0.0
 10
945.0676609534369
 20
1910.005257494983
 30
0.0
 10
943.3133229284482
 20
1911.859430712368
 30
0.0
 10
941.1137305923419
 20
1913.543699730337
 30
0.0
 10
938.5159148567486
 20
1915.070110296107
 30
0.0
 10
935.5527456790237
 20
1916.462886746729
 30
0.0
 10
932.206206627014
 20
1917.753375609047
 30
0.0
 10
928.457134293994
 20
1918.940436611835
 30
0.0
 10
925.0792476875814
 20
1919.863619362798
 30
0.0
 10
922.8374679230881
 20
1920.347912698248
 30
0.0
 10
922.0884285362049
 20
1920.509728229284
 30
0.0
  0
LINE
  5
81
330
1F
100
AcDbEntity
  8
0
  6
Continuous
 62
     7
370
    25
100
AcDbLine
 10
947.5556234768
 20
1889.4495039909
 30
0.0
 11
947.0050356885
 21
1904.678368932
 31
0.0
  0
LINE
  5
82
330
1F
100
AcDbEntity
  8
0
  6
Continuous
 62
     7
370
    25
100
AcDbLine
 10
814.5120599535
 20
1904.678368932
 30
0.0
 11
813.9614721652
 21
1889.4495039909
 31
0.0
  0
LINE
  5
83
330
1F
100
AcDbEntity
  8
0
  6
Continuous
 62
     7
370
    25
100
AcDbLine
 10
922.2567310503
 20
1915.8546009077
 30
0.0
 11
920.6829875286
 21
1959.3832225973
 31
0.0
  0
LINE
  5
84
330
1F
100
AcDbEntity
  8
0
  6
Continuous
 62
     7
370
    25
100
AcDbLine
 10
840.8341081134
 20
1959.3832225973
 30
0.0
 11
839.2603645917
 21
1915.8546009077
 31
0.0
  0
SPLINE
  5
85
330
1F
100
AcDbEntity
  8
0
  6
Continuous
 62
     7
370
    25
100
AcDbSpline
210
0.0
220
0.0
230
1.0
 70
     8
 71
     3
 72
    15
 73
    11
 74
     0
 42
0.00000001
 43
0.00000001
 40
0.0
 40
0.0
 40
0.0
 40
0.0
 40
0.0576029362367574
 40
0.2139421624220775
 40
0.3707852786688684
 40
0.5283187059498337
 40
0.6806507649713125
 40
0.8204590246867107
 40
0.9528604951642279
 40
0.9999999999999999
 40
0.9999999999999999
 40
0.9999999999999999
 40
0.9999999999999999
 10
850.439798212889
 20
1968.396619187229
 30
0.0
 10
850.1363205421991
 20
1968.294605864341
 30
0.0
 10
849.0091788831816
 20
1967.915719781089
 30
0.0
 10
847.3275262718676
 20
1967.165321217439
 30
0.0
 10
845.388387915933
 20
1966.122568440076
 30
0.0
 10
843.7351482938324
 20
1964.926996341646
 30
0.0
 10
842.3633527503607
 20
1963.546159836047
 30
0.0
 10
841.3897541341412
 20
1961.937054329954
 30
0.0
 10
840.8623448492614
 20
1960.50273701305
 30
0.0
 10
840.8936088397842
 20
1959.65290942492
 30
0.0
 10
840.9018173784194
 20
1959.42978235529
 30
0.0
  0
SPLINE
  5
86
330
1F
100
AcDbEntity
  8
0
  6
Continuous
 62
     7
370
    25
100
AcDbSpline
210
0.0
220
0.0
230
1.0
 70
     8
 71
     3
 72
    14
 73
    10
 74
     0
 42
0.00000001
 43
0.00000001
 40
0.0
 40
0.0
 40
0.0
 40
0.0
 40
0.0602003712294077
 40
0.2091563152930947
 40
0.3720496443757916
 40
0.5597851854853393
 40
0.7559930597718201
 40
0.9348267191779565
 40
1.0
 40
1.0
 40
1.0
 40
1.0
 10
920.6138309456909
 20
1959.348690673785
 30
0.0
 10
920.6228453421181
 20
1959.612175396015
 30
0.0
 10
920.6541643838914
 20
1960.527609844544
 30
0.0
 10
920.0777736315636
 20
1962.065219206976
 30
0.0
 10
918.977588730599
 20
1963.779881404245
 30
0.0
 10
917.3870237092318
 20
1965.270460591601
 30
0.0
 10
915.4343896942898
 20
1966.526608343844
 30
0.0
 10
913.7214938617605
 20
1967.403289352811
 30
0.0
 10
912.5960127961498
 20
1967.823764041996
 30
0.0
 10
912.2954012910823
 20
1967.936071154946
 30
0.0
  0
LINE
  5
87
330
1F
100
AcDbEntity
  8
0
  6
Continuous
 62
     7
370
    25
100
AcDbLine
 10
930.3618930728
 20
1911.5853626592
 30
0.0
 11
929.379583539
 21
1913.5917383851
 31
0.0
  0
LINE
  5
88
330
1F
100
AcDbEntity
  8
0
  6
Continuous
 62
     7
370
    25
100
AcDbLine
 10
832.137512103
 20
1913.5917383851
 30
0.0
 11
831.1552025692
 21
1911.5853626592
 31
0.0
  0
SPLINE
  5
89
330
1F
100
AcDbEntity
  8
0
  6
Continuous
 62
     7
370
    25
100
AcDbSpline
210
0.0
220
0.0
230
1.0
 70
     8
 71
     3
 72
    11
 73
     7
 74
     0
 42
0.00000001
 43
0.00000001
 40
0.0
 40
0.0
 40
0.0
 40
0.0
 40
0.2528714892278035
 40
0.5232698040307853
 40
0.7771839749616781
 40
1.0
 40
1.0
 40
1.0
 40
1.0
 10
839.4165317051483
 20
1920.174071714931
 30
0.0
 10
838.6786257128252
 20
1919.781667458995
 30
0.0
 10
837.1516685806665
 20
1918.969660938482
 30
0.0
 10
835.1971939851409
 20
1917.509665442009
 30
0.0
 10
833.4890147598596
 20
1915.855501233893
 30
0.0
 10
832.6632068932639
 20
1914.490094745207
 30
0.0
 10
832.2772375801472
 20
1913.851925715968
 30
0.0
  0
SPLINE
  5
8A
330
1F
100
AcDbEntity
  8
0
  6
Continuous
 62
     7
370
    25
100
AcDbSpline
210
0.0
220
0.0
230
1.0
 70
     8
 71
     3
 72
    12
 73
     8
 74
     0
 42
0.00000001
 43
0.00000001
 40
0.0
 40
0.0
 40
0.0
 40
0.0
 40
0.0183417442388069
 40
0.2564988315090035
 40
0.5307804677734033
 40
0.8406927151533118
 40
1.0
 40
1.0
 40
1.0
 40
1.0
 10
929.308812382198
 20
1913.688777549567
 30
0.0
 10
929.2858762573281
 20
1913.748986893136
 30
0.0
 10
928.9651276332139
 20
1914.590980221063
 30
0.0
 10
927.842527471576
 20
1915.983365298017
 30
0.0
 10
925.9746358232765
 20
1917.83505640628
 30
0.0
 10
924.0272689399327
 20
1919.188603026849
 30
0.0
 10
922.5898691767975
 20
1919.897743323238
 30
0.0
 10
922.1018497364779
 20
1920.138507416448
 30
0.0
  0
SPLINE
  5
8B
330
1F
100
AcDbEntity
  8
0
  6
Continuous
 62
     7
370
    25
100
AcDbSpline
210
0.0
220
0.0
230
1.0
 70
     8
 71
     3
 72
     9
 73
     5
 74
     0
 42
0.00000001
 43
0.00000001
 40
0.0
 40
0.0
 40
0.0
 40
0.0
 40
0.1059379645123827
 40
1.0
 40
1.0
 40
1.0
 40
1.0
 10
901.7150926892366
 20
1967.697663220503
 30
0.0
 10
901.7176617870325
 20
1967.693779337351
 30
0.0
 10
901.7419127513365
 20
1967.657117474257
 30
0.0
 10
901.7222015881493
 20
1967.733474839908
 30
0.0
 10
901.7045785854684
 20
1967.801743061666
 30
0.0
  0
LINE
  5
8C
330
1F
100
AcDbEntity
  8
0
  6
Continuous
 62
     7
370
    25
100
AcDbLine
 10
859.8140899727
 20
1967.7989402206
 30
0.0
 11
859.7991070938
 21
1967.7062557722
 31
0.0
  0
SPLINE
  5
8D
330
1F
100
AcDbEntity
  8
0
  6
Continuous
 62
     7
370
    25
100
AcDbSpline
210
0.0
220
0.0
230
1.0
 70
     8
 71
     3
 72
    14
 73
    10
 74
     0
 42
0.00000001
 43
0.00000001
 40
0.0
 40
0.0
 40
0.0
 40
0.0
 40
0.0958069639152794
 40
0.2741789325249462
 40
0.4570813626698093
 40
0.6346832767979225
 40
0.7900213400977807
 40
0.9386230508612229
 40
0.9999999999999999
 40
0.9999999999999999
 40
0.9999999999999999
 40
0.9999999999999999
 10
866.7585478210133
 20
1977.446347129993
 30
0.0
 10
866.4294706509032
 20
1977.348560188005
 30
0.0
 10
865.4877225406209
 20
1977.068714983924
 30
0.0
 10
864.1333221488072
 20
1976.490028763389
 30
0.0
 10
862.6807031369882
 20
1975.671930577924
 30
0.0
 10
861.4287687574241
 20
1974.629220924798
 30
0.0
 10
860.48919715562
 20
1973.296238596393
 30
0.0
 10
859.9632556877475
 20
1972.027020072971
 30
0.0
 10
859.9931104107102
 20
1971.245840715228
 30
0.0
 10
860.0018369727984
 20
1971.017501293828
 30
0.0
  0
SPLINE
  5
8E
330
1F
100
AcDbEntity
  8
0
  6
Continuous
 62
     7
370
    25
100
AcDbSpline
210
0.0
220
0.0
230
1.0
 70
     8
 71
     3
 72
    13
 73
     9
 74
     0
 42
0.00000001
 43
0.00000001
 40
0.0
 40
0.0
 40
0.0
 40
0.0
 40
0.0587308335338327
 40
0.2146083977419535
 40
0.3823305336737251
 40
0.5814502389493298
 40
0.7810195073399548
 40
1.0
 40
1.0
 40
1.0
 40
1.0
 10
901.5165151349483
 20
1971.013572114229
 30
0.0
 10
901.5259021901167
 20
1971.23210964651
 30
0.0
 10
901.5602034378257
 20
1972.030667862482
 30
0.0
 10
901.0015327589878
 20
1973.361695326454
 30
0.0
 10
899.9596562596694
 20
1974.781847611188
 30
0.0
 10
898.5489393730678
 20
1975.863837633251
 30
0.0
 10
896.8653228563046
 20
1976.759557996879
 30
0.0
 10
895.4821882011627
 20
1977.213075378858
 30
0.0
 10
894.7585478210132
 20
1977.450350534592
 30
0.0
  0
LINE
  5
8F
330
1F
100
AcDbEntity
  8
0
  6
Continuous
 62
     7
370
    25
100
AcDbLine
 10
901.7009483199
 20
1967.8033148973
 30
0.0
 11
901.58514148
 21
1971.0064493697
 31
0.0
  0
LINE
  5
90
330
1F
100
AcDbEntity
  8
0
  6
Continuous
 62
     7
370
    25
100
AcDbLine
 10
859.9319541621
 20
1971.0064493697
 30
0.0
 11
859.8161473221
 21
1967.8033148973
 31
0.0
  0
SPLINE
  5
91
330
1F
100
AcDbEntity
  8
0
  6
Continuous
 62
     7
370
    25
100
AcDbSpline
210
0.0
220
0.0
230
1.0
 70
     8
 71
     3
 72
    20
 73
    16
 74
     0
 42
0.00000001
 43
0.00000001
 40
0.0
 40
0.0
 40
0.0
 40
0.0
 40
0.0200384973481592
 40
0.1417674031053172
 40
0.2568303056517135
 40
0.3665263370666972
 40
0.4788754392931148
 40
0.5835367312326526
 40
0.7037673779269927
 40
0.7512278898856302
 40
0.7590866486660223
 40
0.8165425620150041
 40
0.9289654155597791
 40
0.9496720303345184
 40
0.9999999999999999
 40
0.9999999999999999
 40
0.9999999999999999
 40
0.9999999999999999
 10
1155.391869643161
 20
1123.634852268847
 30
0.0
 10
1155.422233251358
 20
1123.564116240615
 30
0.0
 10
1155.637048255109
 20
1123.063676369592
 30
0.0
 10
1154.525390498272
 20
1122.146153179893
 30
0.0
 10
1152.024578297872
 20
1121.107584087665
 30
0.0
 10
1148.428539863046
 20
1120.385770319313
 30
0.0
 10
1144.382316914327
 20
1120.01302401896
 30
0.0
 10
1140.111579674375
 20
1120.024015650521
 30
0.0
 10
1136.966713628071
 20
1120.322960471114
 30
0.0
 10
1135.306324971631
 20
1120.648345190388
 30
0.0
 10
1134.326397170205
 20
1120.872853363069
 30
0.0
 10
1132.941380706015
 20
1121.265671083562
 30
0.0
 10
1132.012577830815
 20
1121.792946906635
 30
0.0
 10
1131.545354508957
 20
1122.317007157271
 30
0.0
 10
1131.585532131899
 20
1122.524126434352
 30
0.0
 10
1131.613997958856
 20
1122.670870344747
 30
0.0
  0
SPLINE
  5
92
330
1F
100
AcDbEntity
  8
0
  6
Continuous
 62
     7
370
    25
100
AcDbSpline
210
0.0
220
0.0
230
1.0
 70
     8
 71
     3
 72
     9
 73
     5
 74
     0
 42
0.00000001
 43
0.00000001
 40
0.0
 40
0.0
 40
0.0
 40
0.0
 40
0.6446584879418198
 40
1.0
 40
1.0
 40
1.0
 40
1.0
 10
1155.285927529374
 20
1150.680958424628
 30
0.0
 10
1155.38453845985
 20
1150.531402644465
 30
0.0
 10
1155.537504615295
 20
1150.299410383507
 30
0.0
 10
1155.223539540575
 20
1150.083328418397
 30
0.0
 10
1155.111974716191
 20
1150.006545526186
 30
0.0
  0
SPLINE
  5
93
330
1F
100
AcDbEntity
  8
0
  6
Continuous
 62
     7
370
    25
100
AcDbSpline
210
0.0
220
0.0
230
1.0
 70
     8
 71
     3
 72
    13
 73
     9
 74
     0
 42
0.00000001
 43
0.00000001
 40
0.0
 40
0.0
 40
0.0
 40
0.0
 40
0.1741076047440899
 40
0.3482152094881797
 40
0.5223228142322713
 40
0.6964304189763604
 40
0.8705380237204514
 40
1.0
 40
1.0
 40
1.0
 40
1.0
 10
1131.899262656171
 20
1123.301635476163
 30
0.0
 10
1132.480165618806
 20
1122.961282267281
 30
0.0
 10
1133.641971544075
 20
1122.280575849517
 30
0.0
 10
1137.353646096399
 20
1121.589152090128
 30
0.0
 10
1141.885679500167
 20
1121.306244351117
 30
0.0
 10
1146.647985492927
 20
1121.516555450225
 30
0.0
 10
1150.719083987674
 20
1122.10336414952
 30
0.0
 10
1152.381910605276
 20
1122.740643746576
 30
0.0
 10
1153.091048916826
 20
1123.012421557118
 30
0.0
  0
SPLINE
  5
94
330
1F
100
AcDbEntity
  8
0
  6
Continuous
 62
     7
370
    25
100
AcDbSpline
210
0.0
220
0.0
230
1.0
 70
     8
 71
     3
 72
    17
 73
    13
 74
     0
 42
0.00000001
 43
0.00000001
 40
0.0
 40
0.0
 40
0.0
 40
0.0
 40
0.0471984661783943
 40
0.1546120228677118
 40
0.2620295843335379
 40
0.3694446229633001
 40
0.4768585496044318
 40
0.5842755404145132
 40
0.6916889968708488
 40
0.7991087259222109
 40
0.9065228058773416
 40
1.0
 40
1.0
 40
1.0
 40
1.0
 10
1131.658271970831
 20
1122.094142218241
 30
0.0
 10
1131.619773275355
 20
1121.955499774015
 30
0.0
 10
1131.493659829996
 20
1121.501336948553
 30
0.0
 10
1132.725044827777
 20
1120.768068489525
 30
0.0
 10
1135.163435637545
 20
1120.02759336586
 30
0.0
 10
1138.618997621285
 20
1119.545951890338
 30
0.0
 10
1142.603607588144
 20
1119.403170687339
 30
0.0
 10
1146.691763426357
 20
1119.599748250235
 30
0.0
 10
1150.426227447137
 20
1120.158810631851
 30
0.0
 10
1153.344031293439
 20
1120.998407097376
 30
0.0
 10
1155.196491893879
 20
1122.008827919155
 30
0.0
 10
1155.344719991676
 20
1122.729386561567
 30
0.0
 10
1155.413692358623
 20
1123.064671408571
 30
0.0
  0
SPLINE
  5
95
330
1F
100
AcDbEntity
  8
0
  6
Continuous
 62
     7
370
    25
100
AcDbSpline
210
0.0
220
0.0
230
1.0
 70
     8
 71
     3
 72
    10
 73
     6
 74
     0
 42
0.00000001
 43
0.00000001
 40
0.0
 40
0.0
 40
0.0
 40
0.0
 40
0.2820419459894776
 40
0.9974230328482596
 40
1.0
 40
1.0
 40
1.0
 40
1.0
 10
1153.553952998193
 20
1149.898496168315
 30
0.0
 10
1153.632394786844
 20
1149.943784145682
 30
0.0
 10
1153.909799080249
 20
1150.103942137707
 30
0.0
 10
1154.174620326076
 20
1150.2677569937
 30
0.0
 10
1154.268481244142
 20
1150.393036938391
 30
0.0
 10
1154.268818139176
 20
1150.39348660575
 30
0.0
  0
SPLINE
  5
96
330
1F
100
AcDbEntity
  8
0
  6
Continuous
 62
     7
370
    25
100
AcDbSpline
210
0.0
220
0.0
230
1.0
 70
     8
 71
     3
 72
    19
 73
    15
 74
     0
 42
0.00000001
 43
0.00000001
 40
0.0
 40
0.0
 40
0.0
 40
0.0
 40
0.0403980558808242
 40
0.1848649808964208
 40
0.1929821581035858
 40
0.3383880397082872
 40
0.4397986502580156
 40
0.4560783764273524
 40
0.484363184737716
 40
0.6297722936903617
 40
0.7751751120848528
 40
0.9050859060591714
 40
0.9876362225354522
 40
1.0
 40
1.0
 40
1.0
 40
1.0
 10
1132.576965352158
 20
1122.719664371597
 30
0.0
 10
1132.665852220987
 20
1122.631455833123
 30
0.0
 10
1133.072606183512
 20
1122.227805968686
 30
0.0
 10
1134.139049401257
 20
1121.853281885825
 30
0.0
 10
1136.077160765031
 20
1121.373851390353
 30
0.0
 10
1138.131184980577
 20
1121.054960191413
 30
0.0
 10
1140.588486922291
 20
1120.911171568455
 30
0.0
 10
1141.988940045802
 20
1120.890933697659
 30
0.0
 10
1143.826250640957
 20
1120.892085901793
 30
0.0
 10
1146.987138470182
 20
1121.070068813523
 30
0.0
 10
1150.68624132132
 20
1121.702451719837
 30
0.0
 10
1152.962031632677
 20
1122.48851765813
 30
0.0
 10
1154.011667020155
 20
1123.059232597863
 30
0.0
 10
1154.214959112979
 20
1123.317017147552
 30
0.0
 10
1154.241440514124
 20
1123.350596889758
 30
0.0
  0
SPLINE
  5
97
330
1F
100
AcDbEntity
  8
0
  6
Continuous
 62
     7
370
    25
100
AcDbSpline
210
0.0
220
0.0
230
1.0
 70
     8
 71
     3
 72
    11
 73
     7
 74
     0
 42
0.00000001
 43
0.00000001
 40
0.0
 40
0.0
 40
0.0
 40
0.0
 40
0.225481290157052
 40
0.4837067780605638
 40
0.7417311800607592
 40
0.9999999999999999
 40
0.9999999999999999
 40
0.9999999999999999
 40
0.9999999999999999
 10
1154.378980951877
 20
1121.566774947361
 30
0.0
 10
1154.109051195241
 20
1121.321055970855
 30
0.0
 10
1153.5299927164
 20
1120.793934920805
 30
0.0
 10
1151.727806949546
 20
1120.098726445075
 30
0.0
 10
1149.32076297605
 20
1119.505242200364
 30
0.0
 10
1147.383771616754
 20
1119.27165281077
 30
0.0
 10
1146.414817442383
 20
1119.154802824294
 30
0.0
  0
SPLINE
  5
98
330
1F
100
AcDbEntity
  8
0
  6
Continuous
 62
     7
370
    25
100
AcDbSpline
210
0.0
220
0.0
230
1.0
 70
     8
 71
     3
 72
    13
 73
     9
 74
     0
 42
0.00000001
 43
0.00000001
 40
0.0
 40
0.0
 40
0.0
 40
0.0
 40
0.1147534203531261
 40
0.3235775459256794
 40
0.5318488330415565
 40
0.7391729488124317
 40
0.9491879839898144
 40
0.9999999999999999
 40
0.9999999999999999
 40
0.9999999999999999
 40
0.9999999999999999
 10
1146.415044017849
 20
1119.15545449133
 30
0.0
 10
1145.722675181291
 20
1119.113156460676
 30
0.0
 10
1143.770358567811
 20
1118.993886003078
 30
0.0
 10
1140.411758465448
 20
1119.06407965507
 30
0.0
 10
1136.788509008853
 20
1119.466392580726
 30
0.0
 10
1133.962295663321
 20
1120.160061941138
 30
0.0
 10
1132.339544281142
 20
1120.820986578116
 30
0.0
 10
1132.127160640704
 20
1121.236113561412
 30
0.0
 10
1132.08578594092
 20
1121.316984923587
 30
0.0
  0
SPLINE
  5
99
330
1F
100
AcDbEntity
  8
0
  6
Continuous
 62
     7
370
    25
100
AcDbSpline
210
0.0
220
0.0
230
1.0
 70
     8
 71
     3
 72
    12
 73
     8
 74
     0
 42
0.00000001
 43
0.00000001
 40
0.0
 40
0.0
 40
0.0
 40
0.0
 40
0.0607685320511625
 40
0.3083564035108797
 40
0.5495662195940397
 40
0.7938384770154371
 40
1.0
 40
1.0
 40
1.0
 40
1.0
 10
1155.058675566558
 20
1122.256915851957
 30
0.0
 10
1155.117170332063
 20
1122.173730010369
 30
0.0
 10
1155.413989012828
 20
1121.751621954285
 30
0.0
 10
1154.617193123484
 20
1120.979558614961
 30
0.0
 10
1152.671959688224
 20
1120.092981131936
 30
0.0
 10
1149.773791652494
 20
1119.444536190018
 30
0.0
 10
1147.469342976414
 20
1119.246527446764
 30
0.0
 10
1146.414607143165
 20
1119.155899732215
 30
0.0
  0
LINE
  5
9A
330
1F
100
AcDbEntity
  8
0
  6
Continuous
 62
     7
370
    25
100
AcDbLine
 10
1106.7480264299
 20
864.3988780723
 30
0.0
 11
1106.7480264299
 21
1124.6146822477
 31
0.0
  0
LINE
  5
9B
330
1F
100
AcDbEntity
  8
0
  6
Continuous
 62
     7
370
    25
100
AcDbLine
 10
1109.3362168809
 20
861.8988780723
 30
0.0
 11
1121.7145228795
 21
1123.4254366618
 31
0.0
  0
LINE
  5
9C
330
1F
100
AcDbEntity
  8
0
  6
Continuous
 62
     7
370
    25
100
AcDbLine
 10
1106.7480264299
 20
864.3988780723
 30
0.0
 11
1109.3362168809
 21
861.8988780723
 31
0.0
  0
LINE
  5
9D
330
1F
100
AcDbEntity
  8
0
  6
Continuous
 62
     7
370
    25
100
AcDbLine
 10
1169.2329092965
 20
1153.8208638455
 30
0.0
 11
1171.9713346165
 21
1151.1757481055
 31
0.0
  0
LINE
  5
9E
330
1F
100
AcDbEntity
  8
0
  6
Continuous
 62
     7
370
    25
100
AcDbLine
 10
1125.5560086029
 20
1123.2239768965
 30
0.0
 11
1113.1999201861
 21
862.1668272647
 31
0.0
  0
LINE
  5
9F
330
1F
100
AcDbEntity
  8
0
  6
Continuous
 62
     7
370
    25
100
AcDbLine
 10
1113.1999201861
 20
862.1668272647
 30
0.0
 11
1109.3362168809
 21
861.8988780723
 31
0.0
  0
LINE
  5
A0
330
1F
100
AcDbEntity
  8
0
  6
Continuous
 62
     7
370
    25
100
AcDbLine
 10
1117.4425608732
 20
864.0687510534
 30
0.0
 11
1160.7063567817
 21
1123.1907823987
 31
0.0
  0
LINE
  5
A1
330
1F
100
AcDbEntity
  8
0
  6
Continuous
 62
     7
370
    25
100
AcDbLine
 10
1117.4425608732
 20
864.0687510534
 30
0.0
 11
1113.2762645533
 21
863.7798169282
 31
0.0
  0
LWPOLYLINE
  5
A2
330
1F
100
AcDbEntity
  8
0
  6
Continuous
 62
     7
370
    25
100
AcDbPolyline
 90
       58
 70
   128
 43
0.0
 10
1242.560592684
 20
1156.0711381496
 10
1243.3516117178
 20
1153.9129423838
 10
1243.4420199766
 20
1151.7451840648
 10
1242.8311831704
 20
1149.5830718447
 10
1241.5233868342
 20
1147.4417747634
 10
1239.5278062618
 20
1145.3363158249
 10
1236.8584421332
 20
1143.2814665986
 10
1233.534022288
 20
1141.291643584
 10
1229.5778703339
 20
1139.3808070671
 10
1225.0177420118
 20
1137.5623631767
 10
1219.8856304661
 20
1135.8490698298
 10
1214.2175417856
 20
1134.2529472234
 10
1208.0532423906
 20
1132.7851935031
 10
1201.4359800378
 20
1131.4561061987
 10
1194.4121804008
 20
1130.2750099779
 10
1187.0311213552
 20
1129.2501912264
 10
1179.3445872523
 20
1128.3888399116
 10
1171.4065056086
 20
1127.6969991392
 10
1163.2725687586
 20
1127.1795227554
 10
1154.999843126
 20
1126.8400412932
 10
1146.6463688551
 20
1126.6809365013
 10
1138.2707526098
 20
1126.7033246338
 10
1129.9317563986
 20
1126.9070486193
 10
1121.6878853097
 20
1127.2906791622
 10
1113.5969770483
 20
1127.8515247708
 10
1105.7157961564
 20
1128.5856506404
 10
1098.0996357618
 20
1129.4879062592
 10
1090.8019296499
 20
1130.5519615433
 10
1083.8738773811
 20
1131.7703512481
 10
1077.3640850824
 20
1133.1345273426
 10
1071.3182244344
 20
1134.6349189815
 10
1065.7787122462
 20
1136.2609996527
 10
1060.7844128656
 20
1138.0013610295
 10
1056.3703655128
 20
1139.8437930097
 10
1052.5675384511
 20
1141.7753693798
 10
1049.4026117181
 20
1143.7825385032
 10
1046.8977899427
 20
1145.8512183966
 10
1045.0706465614
 20
1147.9668955266
 10
1043.9340005252
 20
1150.1147266347
 10
1043.4958263642
 20
1152.2796428749
 10
1043.7591982395
 20
1154.4464555349
 10
1044.7222683755
 20
1156.5999625973
 10
1046.3782800232
 20
1158.7250553946
 10
1048.7156148649
 20
1160.8068246094
 10
1051.7178745264
 20
1162.8306648758
 10
1055.3639956252
 20
1164.7823772481
 10
1059.6283975483
 20
1166.6482688189
 10
1064.4811619212
 20
1168.4152487858
 10
1069.888242511
 20
1170.0709202948
 10
1075.8117040892
 20
1171.6036674146
 10
1082.2099885795
 20
1173.002736632
 10
1089.0382066225
 20
1174.258312297
 10
1096.2484525123
 20
1175.3615854879
 10
1103.790140296
 20
1176.3048158133
 10
1111.6103586761
 20
1177.0813857172
 10
1119.6542422283
 20
1177.6858469072
 10
1127.8653563286
 20
1178.1139585784
 10
1129.4903725716
 20
1178.1769548732
  0
LWPOLYLINE
  5
A3
330
1F
100
AcDbEntity
  8
0
  6
Continuous
 62
     7
370
    25
100
AcDbPolyline
 90
       14
 70
   128
 43
0.0
 10
1157.4903725716
 20
1178.1769548732
 10
1161.2208839379
 20
1178.0217780387
 10
1169.3948062605
 20
1177.548385072
 10
1177.3869871436
 20
1176.8996069972
 10
1185.1413547008
 20
1176.0799955395
 10
1192.603505507
 20
1175.095300964
 10
1199.7210862835
 20
1173.9524317334
 10
1206.4441612013
 20
1172.6594060387
 10
1212.7255622222
 20
1171.2252955451
 10
1218.521220023
 20
1169.6601617468
 10
1223.7904731784
 20
1167.9749853768
 10
1228.4963534357
 20
1166.1815893678
 10
1232.6058450777
 20
1164.2925559047
 10
1236.0901165564
 20
1162.3211381496
  0
LINE
  5
A4
330
1F
100
AcDbEntity
  8
0
  6
Continuous
 62
     7
370
    25
100
AcDbLine
 10
1236.0901165564
 20
1162.3211381496
 30
0.0
 11
1157.4903725716
 21
1156.8702180705
 31
0.0
  0
LINE
  5
A5
330
1F
100
AcDbEntity
  8
0
  6
Continuous
 62
     7
370
    25
100
AcDbLine
 10
1152.8155412508
 20
1149.8472870521
 30
0.0
 11
1242.560592684
 21
1156.0711381496
 31
0.0
  0
LWPOLYLINE
  5
A6
330
1F
100
AcDbEntity
  8
0
  6
Continuous
 62
     7
370
    25
100
AcDbPolyline
 90
       40
 70
   128
 43
0.0
 10
1043.4903725716
 20
1148.6862449022
 10
1043.4958263642
 20
1148.4159395697
 10
1043.9340005252
 20
1146.2510233295
 10
1045.0706465614
 20
1144.1031922215
 10
1046.8977899427
 20
1141.9875150915
 10
1049.4026117181
 20
1139.9188351981
 10
1052.5675384511
 20
1137.9116660746
 10
1056.3703655128
 20
1135.9800897045
 10
1060.7844128656
 20
1134.1376577243
 10
1065.7787122462
 20
1132.3972963476
 10
1071.3182244344
 20
1130.7712156764
 10
1077.3640850824
 20
1129.2708240375
 10
1083.8738773811
 20
1127.906647943
 10
1090.8019296499
 20
1126.6882582382
 10
1098.0996357618
 20
1125.624202954
 10
1105.7157961564
 20
1124.7219473352
 10
1113.5969770483
 20
1123.9878214656
 10
1121.6878853097
 20
1123.426975857
 10
1129.9317563987
 20
1123.0433453142
 10
1138.2707526098
 20
1122.8396213287
 10
1146.6463688551
 20
1122.8172331961
 10
1154.999843126
 20
1122.976337988
 10
1163.2725687586
 20
1123.3158194502
 10
1171.4065056086
 20
1123.8332958341
 10
1179.3445872523
 20
1124.5251366065
 10
1187.0311213552
 20
1125.3864879212
 10
1194.4121804008
 20
1126.4113066727
 10
1201.4359800378
 20
1127.5924028935
 10
1208.0532423906
 20
1128.921490198
 10
1214.2175417856
 20
1130.3892439182
 10
1219.8856304661
 20
1131.9853665246
 10
1225.0177420118
 20
1133.6986598716
 10
1229.5778703339
 20
1135.5171037619
 10
1233.534022288
 20
1137.4279402788
 10
1236.8584421332
 20
1139.4177632934
 10
1239.5278062618
 20
1141.4726125197
 10
1241.5233868342
 20
1143.5780714582
 10
1242.8311831704
 20
1145.7193685396
 10
1243.4420199766
 20
1147.8814807597
 10
1243.4903725716
 20
1148.6862449022
  0
LINE
  5
A7
330
1F
100
AcDbEntity
  8
0
  6
Continuous
 62
     7
370
    25
100
AcDbLine
 10
1236.0901165564
 20
1162.3211381496
 30
0.0
 11
1236.0901165564
 21
1158.4574348445
 31
0.0
  0
LINE
  5
A8
330
1F
100
AcDbEntity
  8
0
  6
Continuous
 62
     7
370
    25
100
AcDbLine
 10
1157.4903725716
 20
1153.0065147653
 30
0.0
 11
1236.0901165564
 21
1158.4574348445
 31
0.0
  0
LWPOLYLINE
  5
A9
330
1F
100
AcDbEntity
  8
0
  6
Continuous
 62
     7
370
    25
100
AcDbPolyline
 90
       16
 70
   128
 43
0.0
 10
866.758547821
 20
1974.6848719936
 10
866.768337954
 20
1974.5493862488
 10
867.235586253
 20
1973.7470498201
 10
868.3809323119
 20
1972.9917397111
 10
870.146943697
 20
1972.3213303247
 10
872.445065223
 20
1971.7694387869
 10
875.1600594805
 20
1971.3637392438
 10
878.1557853207
 20
1971.1245751646
 10
881.2820245409
 20
1971.063939235
 10
884.3820144524
 20
1971.1848719936
 10
887.3003086168
 20
1971.4813093669
 10
889.8905715789
 20
1971.9383867472
 10
892.0229167377
 20
1972.5331843661
 10
893.5904194032
 20
1973.2358765873
 10
894.5144784463
 20
1974.0112274886
 10
894.758547821
 20
1974.6848719936
  0
LWPOLYLINE
  5
AA
330
1F
100
AcDbEntity
  8
0
  6
Continuous
 62
     7
370
    25
100
AcDbPolyline
 90
       14
 70
   128
 43
0.0
 10
1129.9674110036
 20
1151.6121260339
 10
1131.1127570626
 20
1150.8568159249
 10
1132.8787684476
 20
1150.1864065385
 10
1135.1768899736
 20
1149.6345150007
 10
1137.8918842312
 20
1149.2288154576
 10
1140.8876100714
 20
1148.9896513785
 10
1144.0138492915
 20
1148.9290154488
 10
1147.1138392031
 20
1149.0499482074
 10
1150.0321333675
 20
1149.3463855807
 10
1152.6223963295
 20
1149.803462961
 10
1154.7547414884
 20
1150.3982605799
 10
1156.3222441538
 20
1151.1009528011
 10
1157.2463031969
 20
1151.8763037024
 10
1157.4903725716
 20
1152.5499482074
  0
LWPOLYLINE
  5
AB
330
1F
100
AcDbEntity
  8
0
  6
Continuous
 62
     7
370
    25
100
AcDbPolyline
 90
        3
 70
   128
 43
0.0
 10
1129.4903725716
 20
1152.5499482074
 10
1129.5001627046
 20
1152.4144624626
 10
1129.9674110036
 20
1151.6121260339
  0
LWPOLYLINE
  5
AC
330
1F
100
AcDbEntity
  8
0
  6
Continuous
 62
     7
370
    25
100
AcDbPolyline
 90
       33
 70
   128
 43
0.0
 10
947.5556234768
 20
1889.4495039909
 10
947.5431681377
 20
1888.916751905
 10
947.0418229767
 20
1887.1414436618
 10
945.8378586097
 20
1885.3888865868
 10
943.9440373585
 20
1883.6776582209
 10
941.3804341995
 20
1882.0258980104
 10
938.1742239639
 20
1880.4511150246
 10
934.3593932779
 20
1878.9700023549
 10
929.9763802957
 20
1877.5982601639
 10
925.0716460453
 20
1876.3504292602
 10
919.69718193
 20
1875.2397369618
 10
913.9099586062
 20
1874.2779568833
 10
907.7713220811
 20
1873.4752841328
 10
901.3463434288
 20
1872.8402272413
 10
894.7031290214
 20
1872.3795179696
 10
887.9120985843
 20
1872.0980399508
 10
881.0452387295
 20
1871.9987769217
 10
874.1753398798
 20
1872.0827810953
 10
867.3752246719
 20
1872.3491620064
 10
860.7169760188
 20
1872.7950959511
 10
854.2711730126
 20
1873.4158559185
 10
848.1061427686
 20
1874.2048616987
 10
842.2872361411
 20
1875.1537496341
 10
836.876134988
 20
1876.2524612765
 10
831.9301983276
 20
1877.4893500091
 10
827.5018543189
 20
1878.8513045038
 10
823.63804451
 20
1880.323887704
 10
820.3797262461
 20
1881.8914898615
 10
817.7614385114
 20
1883.5374940034
 10
815.8109358073
 20
1885.2444520765
 10
814.5488939475
 20
1886.9942699003
 10
813.9886908898
 20
1888.7683989708
 10
813.9614721652
 20
1889.4495039909
  0
ARC
  5
AD
330
1F
100
AcDbEntity
  8
0
  6
Continuous
 62
     7
370
    25
100
AcDbCircle
 10
794.9291650231
 20
1761.8722491229
 30
0.0
 40
121.520947835342
100
AcDbArc
 50
107.0641561202
 51
115.9409038307
  0
ARC
  5
AE
330
1F
100
AcDbEntity
  8
0
  6
Continuous
 62
     7
370
    25
100
AcDbCircle
 10
968.0526757632
 20
1765.6957772684
 30
0.0
 40
117.4362551964539
100
AcDbArc
 50
63.4939912029
 51
73.0716122744
  0
LWPOLYLINE
  5
AF
330
1F
100
AcDbEntity
  8
0
  6
Continuous
 62
     7
370
    25
100
AcDbPolyline
 90
       50
 70
   128
 43
0.0
 10
720.845164192
 20
1843.25181384
 10
720.7610299846
 20
1842.120056007
 10
721.05879644
 20
1839.3536309004
 10
722.0698207527
 20
1836.5985311068
 10
723.7895874428
 20
1833.8670615707
 10
726.2104156148
 20
1831.1714216981
 10
729.3214932623
 20
1828.5236508711
 10
733.1089255573
 20
1825.9355746769
 10
737.5557969079
 20
1823.4187520921
 10
742.6422465071
 20
1820.9844238573
 10
748.3455570362
 20
1818.6434622733
 10
754.6402561259
 20
1816.4063226429
 10
761.4982301219
 20
1814.2829965748
 10
768.8888496477
 20
1812.2829673585
 10
776.7791064023
 20
1810.4151676101
 10
785.1337605837
 20
1808.6879393767
 10
793.9154982781
 20
1807.1089968789
 10
803.0850981133
 20
1805.685392057
 10
812.6016064304
 20
1804.423483076
 10
822.4225201931
 20
1803.3289059276
 10
832.5039768165
 20
1802.406549259
 10
842.8009500679
 20
1801.6605325391
 10
853.2674511653
 20
1801.0941876596
 10
863.8567341738
 20
1800.7100440543
 10
874.5215047852
 20
1800.5098174017
 10
885.2141315447
 20
1800.4944019626
 10
895.8868585858
 20
1800.6638665862
 10
906.4920189185
 20
1801.0174544023
 10
916.9822473224
 20
1801.553586202
 10
927.3106918909
 20
1802.2698674903
 10
937.4312232833
 20
1803.1630991813
 10
947.2986407496
 20
1804.2292918853
 10
956.868874008
 20
1805.4636837269
 10
966.0991800735
 20
1806.8607616125
 10
974.9483341587
 20
1808.4142858531
 10
983.3768137932
 20
1810.1173180323
 10
991.3469753409
 20
1811.9622519951
 10
998.8232221255
 20
1813.9408478183
 10
1005.7721634141
 20
1816.0442686129
 10
1012.1627635479
 20
1818.2631199909
 10
1017.9664805554
 20
1820.5874920234
 10
1023.1573936276
 20
1823.0070035007
 10
1027.7123188865
 20
1825.5108482972
 10
1031.6109129303
 20
1828.0878436341
 10
1034.8357636916
 20
1830.7264800248
 10
1037.372468204
 20
1833.4149726786
 10
1039.2096969293
 20
1836.1413141347
 10
1040.3392443581
 20
1838.8933278902
 10
1040.7560656574
 20
1841.6587227837
 10
1040.67193145
 20
1843.25181384
  0
LWPOLYLINE
  5
B0
330
1F
100
AcDbEntity
  8
0
  6
Continuous
 62
     7
370
    25
100
AcDbPolyline
 90
       30
 70
   128
 43
0.0
 10
930.3618930728
 20
1911.5853626592
 10
930.7432987476
 20
1910.2781264525
 10
930.5385015984
 20
1908.7457826608
 10
929.6349030171
 20
1907.2304633601
 10
928.0451875471
 20
1905.7534403117
 10
925.791671309
 20
1904.3354476817
 10
922.905988731
 20
1902.9963909781
 10
919.4286484709
 20
1901.7550676219
 10
915.4084647636
 20
1900.6289030721
 10
910.9018721759
 20
1899.6337062102
 10
905.9721333893
 20
1898.7834474188
 10
900.6884511302
 20
1898.0900624674
 10
895.1249967155
 20
1897.563284961
 10
889.35986885
 20
1897.2105097009
 10
883.4739972915
 20
1897.0366888785
 10
877.5500067749
 20
1897.0442625571
 10
871.6710571413
 20
1897.233124419
 10
865.9196759568
 20
1897.6006232575
 10
860.3766000061
 20
1898.1416001945
 10
855.1196419249
 20
1898.8484610997
 10
850.2225978814
 20
1899.7112831954
 10
845.7542116394
 20
1900.7179543507
 10
841.7772095469
 20
1901.8543431093
 10
838.3474199956
 20
1903.1044970639
 10
835.5129897126
 20
1904.4508667935
 10
833.3137078861
 20
1905.8745522182
 10
831.7804476118
 20
1907.3555679156
 10
830.9347325031
 20
1908.8731236715
 10
830.7884345464
 20
1910.4059163298
 10
831.1552025692
 20
1911.5853626592
  0
LWPOLYLINE
  5
B1
330
1F
100
AcDbEntity
  8
0
  6
Continuous
 62
     7
370
    25
100
AcDbPolyline
 90
       27
 70
   128
 43
0.0
 10
922.2567310503
 20
1915.8546009077
 10
922.258547821
 20
1915.7540975468
 10
921.903509568
 20
1914.3521169729
 10
920.844469612
 20
1912.9741246754
 10
919.0995484202
 20
1911.6436984844
 10
916.6986020781
 20
1910.383602361
 10
913.6827114431
 20
1909.2153968992
 10
910.1034792403
 20
1908.1590704183
 10
906.0221471249
 20
1907.2326969574
 10
901.508547821
 20
1906.4521270231
 10
896.6399102642
 20
1905.8307163835
 10
891.4995381928
 20
1905.3790975468
 10
886.1753847981
 20
1905.1049978367
 10
880.758547821
 20
1905.0131071751
 10
875.3417108439
 20
1905.1049978367
 10
870.0175574493
 20
1905.3790975468
 10
864.8771853779
 20
1905.8307163835
 10
860.008547821
 20
1906.4521270231
 10
855.4949485172
 20
1907.2326969574
 10
851.4136164018
 20
1908.1590704183
 10
847.8343841989
 20
1909.2153968992
 10
844.818493564
 20
1910.383602361
 10
842.4175472218
 20
1911.6436984844
 10
840.67262603
 20
1912.9741246754
 10
839.613586074
 20
1914.3521169729
 10
839.258547821
 20
1915.7540975468
 10
839.2603645917
 20
1915.8546009077
  0
ARC
  5
B2
330
1F
100
AcDbEntity
  8
0
  6
Continuous
 62
     7
370
    25
100
AcDbCircle
 10
869.603849763
 20
1913.0849136917
 30
0.0
 40
58.50588972352487
100
AcDbArc
 50
99.5234978286
 51
108.4863971573
  0
ARC
  5
B3
330
1F
100
AcDbEntity
  8
0
  6
Continuous
 62
     7
370
    25
100
AcDbCircle
 10
893.1023920279
 20
1918.358011307
 30
0.0
 40
53.10956920489046
100
AcDbArc
 50
69.2177410771
 51
80.8004873029
  0
LINE
  5
B4
330
1F
100
AcDbEntity
  8
0
  6
Continuous
 62
     7
370
    25
100
AcDbLine
 10
832.137512103
 20
1913.5917383851
 30
0.0
 11
832.1961137541
 21
1913.7071817946
 31
0.0
  0
SPLINE
  5
B5
330
1F
100
AcDbEntity
  8
0
  6
Continuous
 62
     7
370
    25
100
AcDbSpline
210
0.0
220
0.0
230
1.0
 70
     8
 71
     3
 72
    29
 73
    25
 74
     0
 42
0.00000001
 43
0.00000001
 40
0.0
 40
0.0
 40
0.0
 40
0.0
 40
0.0964341247834181
 40
0.1986446160194518
 40
0.2252207936474431
 40
0.2517971330418244
 40
0.2784571432113598
 40
0.3052749848658033
 40
0.3233366644247747
 40
0.3413983862476453
 40
0.3594601938588409
 40
0.3777010227230816
 40
0.3959418520556457
 40
0.4141825519729582
 40
0.4150005319340725
 40
0.421840278383695
 40
0.4956416683313022
 40
0.5627515524540606
 40
0.6295861834740787
 40
0.6958557974615871
 40
0.7621254071292257
 40
0.8283950211167335
 40
0.9373906837295796
 40
1.0
 40
1.0
 40
1.0
 40
1.0
 10
846.0522290324078
 20
1713.366853838901
 30
0.0
 10
847.7944858898061
 20
1712.841352479003
 30
0.0
 10
851.3833601106529
 20
1711.758872432763
 30
0.0
 10
856.5006855257834
 20
1710.8083054971
 30
0.0
 10
860.2448829608409
 20
1710.262099124045
 30
0.0
 10
862.2232169148974
 20
1710.007522486539
 30
0.0
 10
864.2544638478206
 20
1709.778011239722
 30
0.0
 10
866.10767505446
 20
1709.597001271019
 30
0.0
 10
867.762176591482
 20
1709.455956217441
 30
0.0
 10
869.2017672689485
 20
1709.347225414135
 30
0.0
 10
870.6596465435503
 20
1709.251031349012
 30
0.0
 10
872.1343511182237
 20
1709.16756636003
 30
0.0
 10
873.6242383888714
 20
1709.097051717744
 30
0.0
 10
874.6456747742219
 20
1709.058003769256
 30
0.0
 10
875.3564649976657
 20
1709.034267546584
 30
0.0
 10
877.5940051851217
 20
1708.963959321089
 30
0.0
 10
881.6944418695434
 20
1708.916697871315
 30
0.0
 10
887.4345335554406
 20
1709.049452933452
 30
0.0
 10
892.8612324062088
 20
1709.357661035678
 30
0.0
 10
898.0699577243853
 20
1709.838489554043
 30
0.0
 10
902.9997856927187
 20
1710.481366495593
 30
0.0
 10
908.523469956894
 20
1711.456322735896
 30
0.0
 10
913.4872166913801
 20
1712.611608799801
 30
0.0
 10
916.0774789489025
 20
1713.645037642068
 30
0.0
 10
917.0225246577153
 20
1714.022079576687
 30
0.0
  0
LINE
  5
B6
330
1F
100
AcDbEntity
  8
0
  6
Continuous
 62
     7
370
    25
100
AcDbLine
 10
844.2235892196
 20
1714.0430255455
 30
0.0
 11
846.0522290324
 21
1713.3668538389
 31
0.0
  0
LWPOLYLINE
  5
B7
330
1F
100
AcDbEntity
  8
0
  6
Continuous
 62
     7
370
    25
100
AcDbPolyline
 90
       62
 70
   128
 43
0.0
 10
741.7705704448
 20
1871.1494406372
 10
738.4218724457
 20
1869.3780093483
 10
734.331486448
 20
1866.8523716758
 10
730.9092135467
 20
1864.261025426
 10
728.1706687883
 20
1861.6157943174
 10
726.1283475243
 20
1858.9287479329
 10
724.7915683983
 20
1856.2121466487
 10
724.1664308268
 20
1853.4783856936
 10
724.2557871691
 20
1850.7399385917
 10
725.0592297128
 20
1848.009300249
 10
726.5730925338
 20
1845.298929942
 10
728.7904682233
 20
1842.6211944688
 10
731.7012394045
 20
1839.9883117222
 10
735.2921248963
 20
1837.4122949422
 10
739.5467403116
 20
1834.9048979026
 10
744.4456728163
 20
1832.477561281
 10
749.9665697049
 20
1830.1413604577
 10
756.0842403911
 20
1827.9069549811
 10
762.7707713469
 20
1825.7845399311
 10
769.995653465
 20
1823.7837994006
 10
777.7259212654
 20
1821.9138623098
 10
785.9263033093
 20
1820.1832607528
 10
794.5593831341
 20
1818.5998910675
 10
803.5857699767
 20
1817.1709778067
 10
812.9642785043
 20
1815.9030407738
 10
822.6521167335
 20
1814.8018652747
 10
832.6050812804
 20
1813.8724757207
 10
842.7777590506
 20
1813.119112703
 10
853.1237344488
 20
1812.5452136445
 10
863.595801162
 20
1812.1533971147
 10
874.1461775518
 20
1811.9454508828
 10
884.7267246705
 20
1811.9223237596
 10
895.2891659084
 20
1812.0841212689
 10
905.7853072687
 20
1812.4301051658
 10
916.1672572658
 20
1812.9586968051
 10
926.387645443
 20
1813.6674843445
 10
936.3998385133
 20
1814.5532337489
 10
946.158153136
 20
1815.6119035469
 10
955.6180643598
 20
1816.8386632711
 10
964.7364087793
 20
1818.2279154983
 10
973.4715814805
 20
1819.7733213891
 10
981.7837258738
 20
1821.467829611
 10
989.6349155508
 20
1823.3037085115
 10
996.9893273337
 20
1825.2725813964
 10
1003.8134047284
 20
1827.3654647502
 10
1010.076011035
 20
1829.5728092262
 10
1015.7485714171
 20
1831.8845432179
 10
1020.8052032829
 20
1834.2901188132
 10
1025.222834381
 20
1836.7785599225
 10
1028.9813080738
 20
1839.3385123598
 10
1032.063475308
 20
1841.9582956491
 10
1034.4552728614
 20
1844.6259563203
 10
1036.1457875104
 20
1847.3293224495
 10
1037.1273058242
 20
1850.0560591972
 10
1037.3953493601
 20
1852.793725089
 10
1036.9486950968
 20
1855.5298287833
 10
1035.7893810153
 20
1858.2518860664
 10
1033.9226967997
 20
1860.9474768155
 10
1031.3571597022
 20
1863.6043016681
 10
1028.1044756799
 20
1866.2102381418
 10
1024.1794859842
 20
1868.7533959462
 10
1020.4634976696
 20
1870.788021424
  0
LWPOLYLINE
  5
B8
330
1F
100
AcDbEntity
  8
0
  6
Continuous
 62
     7
370
    25
100
AcDbPolyline
 90
       22
 70
   128
 43
0.0
 10
921.9236257105
 20
1809.6032434162
 10
932.0930622498
 20
1810.4036668767
 10
942.0332263861
 20
1811.3781040356
 10
951.6997229333
 20
1812.52220282
 10
961.0493789711
 20
1813.8308534071
 10
970.0404366662
 20
1815.2982110456
 10
978.6327397721
 20
1816.9177221601
 10
986.7879129775
 20
1818.6821536208
 10
994.4695332991
 20
1820.5836250485
 10
1001.6432927557
 20
1822.6136440102
 10
1008.2771515963
 20
1824.7631439484
 10
1014.3414813968
 20
1827.0225246746
 10
1019.8091973882
 20
1829.3816952461
 10
1024.6558794236
 20
1831.8301190342
 10
1028.8598810444
 20
1834.3568607842
 10
1032.4024261589
 20
1836.9506354538
 10
1035.2676929006
 20
1839.5998586158
 10
1037.4428842928
 20
1842.2926981964
 10
1038.9182854025
 20
1845.0171273205
 10
1039.6873067304
 20
1847.760978026
 10
1039.7465136404
 20
1850.5119956098
 10
1039.7220934242
 20
1850.7199873388
  0
LWPOLYLINE
  5
B9
330
1F
100
AcDbEntity
  8
0
  6
Continuous
 62
     7
370
    25
100
AcDbPolyline
 90
       29
 70
   128
 43
0.0
 10
721.7950022179
 20
1850.7199873388
 10
721.7705820016
 20
1848.2193149719
 10
722.4214539419
 20
1845.4734172223
 10
723.7794977803
 20
1842.7449031527
 10
725.8386481634
 20
1840.0459589694
 10
728.5897084258
 20
1837.3886388123
 10
732.0203916645
 20
1834.7848109183
 10
736.1153756153
 20
1832.2461046147
 10
740.8563710859
 20
1829.7838583803
 10
746.2222036395
 20
1827.4090692045
 10
752.1889081654
 20
1825.1323434722
 10
758.7298359128
 20
1822.9638495931
 10
765.8157735105
 20
1820.9132725875
 10
773.415073441
 20
1818.9897708299
 10
781.4937953861
 20
1817.2019351462
 10
790.0158578126
 20
1815.5577504446
 10
798.9431991207
 20
1814.0645600529
 10
808.235947637
 20
1812.7290329221
 10
817.852599691
 20
1811.5571338404
 10
827.7502049799
 20
1810.5540967937
 10
837.8845583959
 20
1809.7244015889
 10
848.2103974565
 20
1809.0717538462
 10
858.6816044579
 20
1808.5990684488
 10
869.2514124475
 20
1808.3084565245
 10
879.8726140972
 20
1808.2012160167
 10
890.4977725419
 20
1808.2778258875
 10
901.0794332447
 20
1808.5379439786
 10
911.5703359403
 20
1808.9804085396
 10
921.9236257105
 20
1809.6032434162
  0
LWPOLYLINE
  5
BA
330
1F
100
AcDbEntity
  8
0
  6
Continuous
 62
     7
370
    25
100
AcDbPolyline
 90
       27
 70
   128
 43
0.0
 10
897.0321329104
 20
1892.4803378678
 10
890.4843275716
 20
1892.1216905805
 10
883.826325262
 20
1891.9452103238
 10
877.1335638082
 20
1891.9528966894
 10
870.4818748717
 20
1892.1446625879
 10
863.9466247461
 20
1892.518335235
 10
857.6018604267
 20
1893.0696807702
 10
851.5194706283
 20
1893.7924522283
 10
845.7683712579
 20
1894.67846032
 10
840.4137245693
 20
1895.7176662195
 10
835.5162008491
 20
1896.8982953086
 10
831.1312909981
 20
1898.2069705882
 10
827.3086777969
 20
1899.6288642443
 10
824.0916729805
 20
1901.1478656536
 10
821.516726499
 20
1902.7467639233
 10
819.613013525
 20
1904.4074428971
 10
818.402103887
 20
1906.1110864185
 10
817.8977176752
 20
1907.8383915258
 10
818.1055697868
 20
1909.5697871619
 10
819.0233051744
 20
1911.2856559224
 10
820.6405255294
 20
1912.9665563286
 10
822.9389070989
 20
1914.5934431073
 10
825.8924083013
 20
1916.1478829812
 10
829.4675647878
 20
1917.6122635254
 10
833.623868607
 20
1918.9699927233
 10
838.3142271757
 20
1920.2056869603
 10
839.4269772613
 20
1920.462988337
  0
LWPOLYLINE
  5
BB
330
1F
100
AcDbEntity
  8
0
  6
Continuous
 62
     7
370
    25
100
AcDbPolyline
 90
       22
 70
   128
 43
0.0
 10
922.0901183807
 20
1920.462988337
 10
923.6128705497
 20
1920.1077249205
 10
928.2606746882
 20
1918.8613061814
 10
932.3702607484
 20
1917.4940839436
 10
935.8950654782
 20
1916.0215493813
 10
938.7951514315
 20
1914.4603868994
 10
941.0376594756
 20
1912.8282850928
 10
942.5971810983
 20
1911.1437363269
 10
943.4560462966
 20
1909.4258272125
 10
943.6045237845
 20
1907.6940223463
 10
943.0409312527
 20
1905.9679437694
 10
941.7716544299
 20
1904.2671486417
 10
939.8110747296
 20
1902.6109076518
 10
937.1814063032
 20
1901.0179866717
 10
933.9124443448
 20
1899.5064341327
 10
930.0412274996
 20
1898.093376529
 10
925.6116182012
 20
1896.794824368
 10
920.6738056931
 20
1895.6254907644
 10
915.283737364
 20
1894.5986247353
 10
909.5024848417
 20
1893.7258610831
 10
903.3955520275
 20
1893.0170885686
 10
897.0321329104
 20
1892.4803378678
  0
LWPOLYLINE
  5
BC
330
1F
100
AcDbEntity
  8
0
  6
Continuous
 62
     7
370
    25
100
AcDbPolyline
 90
       33
 70
   128
 43
0.0
 10
947.0060642625
 20
1904.6468165283
 10
946.9926830149
 20
1904.150008158
 10
946.4954702882
 20
1902.3893332357
 10
945.3014298299
 20
1900.6512219506
 10
943.4232187658
 20
1898.9540987147
 10
940.8807466007
 20
1897.3159534566
 10
937.7009641718
 20
1895.7541509235
 10
933.917577964
 20
1894.2852466108
 10
929.5706928122
 20
1892.9248112696
 10
924.7063867805
 20
1891.6872658529
 10
919.3762227229
 20
1890.5857286501
 10
913.6367017044
 20
1889.6318762296
 10
907.5486640756
 20
1888.8358196642
 10
901.1766445499
 20
1888.2059973517
 10
894.5881881195
 20
1887.7490855651
 10
887.8531340615
 20
1887.4699276831
 10
881.0428756244
 20
1887.3714828488
 10
874.2296032418
 20
1887.4547946018
 10
867.485539296
 20
1887.7189798168
 10
860.8821725425
 20
1888.1612380648
 10
854.4895003116
 20
1888.7768812984
 10
848.3752865193
 20
1889.5593835462
 10
842.6043433528
 20
1890.5004500896
 10
837.2378442453
 20
1891.5901053892
 10
832.3326754224
 20
1892.8167988278
 10
827.9408328939
 20
1894.1675271497
 10
824.1088712831
 20
1895.6279722986
 10
820.8774103364
 20
1897.1826531928
 10
818.2807043437
 20
1898.8150898279
 10
816.3462790345
 20
1900.5079779695
 10
815.0946397984
 20
1902.2433725823
 10
814.5390543225
 20
1904.0028780515
 10
814.5102933971
 20
1904.6182387551
  0
LWPOLYLINE
  5
BD
330
1F
100
AcDbEntity
  8
0
  6
Continuous
 62
     7
370
    25
100
AcDbPolyline
 90
       26
 70
   128
 43
0.0
 10
920.6829875286
 20
1959.3832225973
 10
920.6543887736
 20
1958.8837089692
 10
920.0909720502
 20
1957.5110082455
 10
918.8256672846
 20
1956.1699917611
 10
916.8810538703
 20
1954.884589987
 10
914.2918334799
 20
1953.6777409481
 10
911.1042108124
 20
1952.5709808943
 10
907.37506907
 20
1951.5840599848
 10
903.1709548753
 20
1950.7345898468
 10
898.5668907458
 20
1950.0377292948
 10
893.6450363149
 20
1949.5059138221
 10
888.4932221915
 20
1949.1486336883
 10
883.2033826208
 20
1948.9722645658
 10
877.8699149151
 20
1948.9799537659
 10
872.5879949321
 20
1949.1715640745
 10
867.4518786589
 20
1949.5436762012
 10
862.5532202122
 20
1950.0896497963
 10
857.9794362679
 20
1950.7997419479
 10
853.812146109
 20
1951.661281045
 10
850.125715127
 20
1952.6588929017
 10
846.9859277701
 20
1953.774775111
 10
844.4488136181
 20
1954.9890147284
 10
842.5596475332
 20
1956.2799436191
 10
841.3521417288
 20
1957.6245251265
 10
840.8478441747
 20
1958.9987651618
 10
840.8341081134
 20
1959.3832225973
  0
LWPOLYLINE
  5
BE
330
1F
100
AcDbEntity
  8
0
  6
Continuous
 62
     7
370
    25
100
AcDbPolyline
 90
       19
 70
   128
 43
0.0
 10
890.3178545713
 20
1953.6576965982
 10
885.2597097684
 20
1953.4032247424
 10
880.1139549681
 20
1953.3334270482
 10
874.9807464345
 20
1953.4496620483
 10
869.9599962328
 20
1953.7496673607
 10
865.1494275545
 20
1954.2276037233
 10
860.6426726471
 20
1954.8741686483
 10
856.5274503686
 20
1955.676777485
 10
852.8838588394
 20
1956.6198083653
 10
849.7828164243
 20
1957.6849062658
 10
847.2846813865
 20
1958.8513402675
 10
845.4380770828
 20
1960.0964070592
 10
844.2789455656
 20
1961.3958728321
 10
843.8298480114
 20
1962.7244449631
 10
844.0995255933
 20
1964.0562643068
 10
845.0827293437
 20
1965.3654085147
 10
846.7603223202
 20
1966.6263965839
 10
849.0996520836
 20
1967.8146848159
 10
851.0528313983
 20
1968.5718387279
  0
LWPOLYLINE
  5
BF
330
1F
100
AcDbEntity
  8
0
  6
Continuous
 62
     7
370
    25
100
AcDbPolyline
 90
       15
 70
   128
 43
0.0
 10
911.9465958436
 20
1968.0120375655
 10
913.0620364113
 20
1967.5257217452
 10
915.2397107874
 20
1966.3170270289
 10
916.746248548
 20
1965.041654002
 10
917.5523266495
 20
1963.7244263497
 10
917.6422556983
 20
1962.39098241
 10
917.0142853279
 20
1961.0672761522
 10
915.6806382672
 20
1959.7790720132
 10
913.6672724393
 20
1958.551443421
 10
911.0133757198
 20
1957.4082847699
 10
907.7706031896
 20
1956.3718463427
 10
904.0020717274
 20
1955.4623012344
 10
899.7811315115
 20
1954.697352706
 10
895.1899383419
 20
1954.0918896104
 10
890.3178545713
 20
1953.6576965982
  0
LWPOLYLINE
  5
C0
330
1F
100
AcDbEntity
  8
0
  6
Continuous
 62
     7
370
    25
100
AcDbPolyline
 90
       30
 70
   128
 43
0.0
 10
929.379583539
 20
1913.5917383851
 10
929.7584454433
 20
1912.2525667606
 10
929.5201403176
 20
1910.7220453315
 10
928.5707813717
 20
1909.2101175768
 10
926.9242123968
 20
1907.7388308077
 10
924.6044440765
 20
1906.3296396984
 10
921.6453038563
 20
1905.0030934283
 10
918.0899426642
 20
1903.7785360293
 10
913.9902056723
 20
1902.6738243058
 10
909.4058762778
 20
1901.7050674421
 10
904.4038043262
 20
1900.8863920949
 10
899.0569312902
 20
1900.2297363943
 10
893.4432266189
 20
1899.7446758589
 10
887.6445507674
 20
1899.4382837636
 10
881.7454614869
 20
1899.3150279952
 10
875.8319807829
 20
1899.3767059003
 10
869.9903405199
 20
1899.6224180762
 10
864.3057249673
 20
1900.0485814859
 10
858.8610286204
 20
1900.6489817075
 10
853.7356474124
 20
1901.4148635536
 10
849.0043209426
 20
1902.3350587423
 10
844.736042605
 20
1903.3961487557
 10
840.9930535091
 20
1904.5826605121
 10
837.8299348643
 20
1905.8772919981
 10
835.2928120632
 20
1907.2611645716
 10
833.4186820694
 20
1908.7140982541
 10
832.2348739184
 20
1910.2149060008
 10
831.7586501987
 20
1911.7417026554
 10
831.9969553244
 20
1913.2722240844
 10
832.137512103
 20
1913.5917383851
  0
LWPOLYLINE
  5
C1
330
1F
100
AcDbEntity
  8
0
  6
Continuous
 62
     7
370
    25
100
AcDbPolyline
 90
       18
 70
   128
 43
0.0
 10
892.1271792591
 20
1904.5247307946
 10
886.6082310764
 20
1904.2386186391
 10
880.9932312564
 20
1904.1375163361
 10
875.3743779409
 20
1904.2230839827
 10
869.843932546
 20
1904.4939165604
 10
864.4927048321
 20
1904.9455670059
 10
859.4085618104
 20
1905.5706192312
 10
854.6749849688
 20
1906.3588098961
 10
850.3696995081
 20
1907.2971969317
 10
846.5633980965
 20
1908.3703720489
 10
843.318580098
 20
1909.5607137418
 10
840.6885253344
 20
1910.8486766328
 10
838.7164192323
 20
1912.2131124068
 10
837.4346437193
 20
1913.6316170661
 10
836.8642455139
 20
1915.0808988034
 10
837.0145905389
 20
1916.5371604527
 10
837.883210133
 20
1917.976490238
 10
839.3858276376
 20
1919.3248191383
  0
LWPOLYLINE
  5
C2
330
1F
100
AcDbEntity
  8
0
  6
Continuous
 62
     7
370
    25
100
AcDbPolyline
 90
       14
 70
   128
 43
0.0
 10
922.1312680044
 20
1919.3248191383
 10
923.5294415545
 20
1918.0949255389
 10
924.457435076
 20
1916.6580801877
 10
924.6678940768
 20
1915.2023174737
 10
924.157362826
 20
1913.7515409805
 10
922.9342242327
 20
1912.329572418
 10
921.0185621987
 20
1910.9597604707
 10
918.4418318417
 20
1909.6645974128
 10
915.2463430029
 20
1908.4653497859
 10
911.4845655206
 20
1907.381709203
 10
907.2182676772
 20
1906.4314690125
 10
902.5175019653
 20
1905.630232132
 10
897.4594548279
 20
1904.9911548489
 10
892.1271792591
 20
1904.5247307946
  0
LWPOLYLINE
  5
C3
330
1F
100
AcDbEntity
  8
0
  6
Continuous
 62
     7
370
    25
100
AcDbPolyline
 90
       14
 70
   128
 43
0.0
 10
886.6057432609
 20
1960.2700649419
 10
882.6153024269
 20
1960.0906080843
 10
878.5651839721
 20
1960.0984491057
 10
874.5855620361
 20
1960.2933359891
 10
870.8043449424
 20
1960.6690049099
 10
867.3430641196
 20
1961.2133815598
 10
864.3129679812
 20
1961.9089692254
 10
861.8114463103
 20
1962.7334111467
 10
859.9189000718
 20
1963.6602090821
 10
858.6961572588
 20
1964.6595749833
 10
858.1825178314
 20
1965.699388408
 10
858.3944905836
 20
1966.7462288971
 10
859.3252625366
 20
1967.7664501361
 10
859.8275424968
 20
1968.1184972909
  0
LWPOLYLINE
  5
C4
330
1F
100
AcDbEntity
  8
0
  6
Continuous
 62
     7
370
    25
100
AcDbPolyline
 90
       11
 70
   128
 43
0.0
 10
901.6895531452
 20
1968.1184972909
 10
902.2962715204
 20
1967.683258347
 10
903.1679718498
 20
1966.6595475253
 10
903.3194148524
 20
1965.612003464
 10
902.7457330255
 20
1964.5742950911
 10
901.465364975
 20
1963.5797752076
 10
899.5194627835
 20
1962.6604085009
 10
896.9705693486
 20
1961.8457441733
 10
893.9006082025
 20
1961.1619662066
 10
890.4082504224
 20
1960.6310517874
 10
886.6057432609
 20
1960.2700649419
  0
LWPOLYLINE
  5
C5
330
1F
100
AcDbEntity
  8
0
  6
Continuous
 62
     7
370
    25
100
AcDbPolyline
 90
        9
 70
   128
 43
0.0
 10
885.6452568389
 20
1962.4816855158
 10
889.3041526305
 20
1962.8038342623
 10
892.6720380996
 20
1963.294507122
 10
895.6342239459
 20
1963.936994819
 10
898.0898364832
 20
1964.7094182056
 10
899.9552527716
 20
1965.5854733296
 10
901.1669482969
 20
1966.5353271845
 10
901.6836602212
 20
1967.5266336365
 10
901.6989275105
 20
1967.8433811421
  0
LWPOLYLINE
  5
C6
330
1F
100
AcDbEntity
  8
0
  6
Continuous
 62
     7
370
    25
100
AcDbPolyline
 90
       11
 70
   128
 43
0.0
 10
859.8193499963
 20
1967.8601018749
 10
860.0293031024
 20
1966.979555161
 10
860.931080351
 20
1966.0068788103
 10
862.5080582238
 20
1965.0936507323
 10
864.7065346307
 20
1964.2709698139
 10
867.4516430946
 20
1963.5668514671
 10
870.6499022391
 20
1963.0052735976
 10
874.1923991849
 20
1962.6053600663
 10
877.9584984473
 20
1962.3807294489
 10
881.8199500328
 20
1962.3390312716
 10
885.6452568389
 20
1962.4816855158
  0
SPLINE
  5
C7
330
1F
100
AcDbEntity
  8
0
  6
Continuous
 62
     7
370
    25
100
AcDbSpline
210
0.0
220
0.0
230
1.0
 70
     8
 71
     3
 72
    17
 73
    13
 74
     0
 42
0.00000001
 43
0.00000001
 40
0.0
 40
0.0
 40
0.0
 40
0.0
 40
0.1557714839570306
 40
0.2396260036824717
 40
0.3252600366276049
 40
0.4108940695727382
 40
0.4947485892981794
 40
0.6505200732552099
 40
0.8062915572122406
 40
0.8901460769376818
 40
0.9757801098828148
 40
0.9999999999999999
 40
0.9999999999999999
 40
0.9999999999999999
 40
0.9999999999999999
 10
885.1144573720348
 20
1970.477386461259
 30
0.0
 10
883.0114109511617
 20
1970.391778661105
 30
0.0
 10
879.7762577858265
 20
1970.260086681842
 30
0.0
 10
875.4472257439598
 20
1970.522195996296
 30
0.0
 10
872.2842099773834
 20
1970.884863342916
 30
0.0
 10
869.4749275488101
 20
1971.412462208034
 30
0.0
 10
866.4963445592247
 20
1972.255983412342
 30
0.0
 10
864.1141489400317
 20
1973.529421638886
 30
0.0
 10
863.7012974458482
 20
1974.945300112664
 30
0.0
 10
864.6910822984613
 20
1976.054009104243
 30
0.0
 10
865.6666256865994
 20
1976.694145731807
 30
0.0
 10
866.5612965197721
 20
1977.000775879196
 30
0.0
 10
866.7585478210133
 20
1977.068379732289
 30
0.0
  0
SPLINE
  5
C8
330
1F
100
AcDbEntity
  8
0
  6
Continuous
 62
     7
370
    25
100
AcDbSpline
210
0.0
220
0.0
230
1.0
 70
     8
 71
     3
 72
    14
 73
    10
 74
     0
 42
0.00000001
 43
0.00000001
 40
0.0
 40
0.0
 40
0.0
 40
0.0
 40
0.1644780432038942
 40
0.3645494944006832
 40
0.4722514628527953
 40
0.5822390216019471
 40
0.692226580351099
 40
0.799928548803211
 40
1.0
 40
1.0
 40
1.0
 40
1.0
 10
894.7585478210132
 20
1977.020414946271
 30
0.0
 10
895.6302144986382
 20
1976.628844392266
 30
0.0
 10
897.5621784278309
 20
1975.760966560648
 30
0.0
 10
897.7833556743951
 20
1974.423886706782
 30
0.0
 10
896.856061480293
 20
1973.311728570009
 30
0.0
 10
895.437566076182
 20
1972.490455514623
 30
0.0
 10
893.4002222581263
 20
1971.767268516843
 30
0.0
 10
890.1571319738814
 20
1970.979990883334
 30
0.0
 10
887.1010782545586
 20
1970.675393376117
 30
0.0
 10
885.1144573720348
 20
1970.477386461259
 30
0.0
  0
LWPOLYLINE
  5
C9
330
1F
100
AcDbEntity
  8
0
  6
Continuous
 62
     7
370
    25
100
AcDbPolyline
 90
       19
 70
   128
 43
0.0
 10
901.584961689
 20
1971.0111986478
 10
901.5835835931
 20
1970.8729989164
 10
901.1700637734
 20
1969.884017895
 10
900.0614542589
 20
1968.9315422786
 10
898.2955074169
 20
1968.0480074821
 10
895.9323604491
 20
1967.2635012231
 10
893.0524874913
 20
1966.6047389215
 10
889.753959163
 20
1966.0941539373
 10
886.1491028902
 20
1965.7491336298
 10
882.3606777298
 20
1965.5814272518
 10
878.5176939568
 20
1965.5967458428
 10
874.7510197747
 20
1965.7945677466
 10
871.1889247549
 20
1966.1681563754
 10
867.9527117711
 20
1966.7047896167
 10
865.1525861751
 20
1967.386193069
 10
862.8839028857
 20
1968.189162355
 10
861.2239191912
 20
1969.0863533187
 10
860.2291638456
 20
1970.0472131979
 10
859.932103578
 20
1971.0104253837
  0
ENDSEC
  0
SECTION
  2
OBJECTS
  0
DICTIONARY
  5
C
330
0
100
AcDbDictionary
281
     1
  3
ACAD_GROUP
350
D
  3
ACAD_LAYOUT
350
1A
  3
ACAD_MLINESTYLE
350
17
  3
ACAD_PLOTSETTINGS
350
19
  3
ACAD_PLOTSTYLENAME
350
E
  3
ACAD_SCALELIST
350
47
  3
DWGPROPS
350
CA
  0
DICTIONARY
  5
D
102
{ACAD_REACTORS
330
C
102
}
330
C
100
AcDbDictionary
281
     1
  0
DICTIONARY
  5
1A
102
{ACAD_REACTORS
330
C
102
}
330
C
100
AcDbDictionary
281
     1
  3
Layout1
350
1E
  3
Layout2
350
26
  3
Model
350
22
  0
DICTIONARY
  5
17
102
{ACAD_REACTORS
330
C
102
}
330
C
100
AcDbDictionary
281
     1
  3
Standard
350
18
  0
DICTIONARY
  5
19
102
{ACAD_REACTORS
330
C
102
}
330
C
100
AcDbDictionary
281
     1
  0
ACDBDICTIONARYWDFLT
  5
E
102
{ACAD_REACTORS
330
C
102
}
330
C
100
AcDbDictionary
281
     1
  3
Normal
350
F
100
AcDbDictionaryWithDefault
340
F
  0
DICTIONARY
  5
47
102
{ACAD_REACTORS
330
C
102
}
330
C
100
AcDbDictionary
281
     1
  3
A0
350
48
  3
A1
350
49
  3
A2
350
4A
  3
A3
350
4B
  3
A4
350
4C
  3
A5
350
4D
  3
A6
350
4E
  3
A7
350
4F
  3
A8
350
50
  3
A9
350
51
  3
B0
350
52
  3
B1
350
53
  3
B2
350
54
  3
B3
350
55
  3
B4
350
56
  3
B5
350
57
  3
B6
350
58
  0
XRECORD
  5
CA
102
{ACAD_REACTORS
330
C
102
}
330
C
100
AcDbXrecord
280
     1
  1
DWGPROPS COOKIE
  2

  3

  4

  6

  7

  8
9128
  9

300
=
301
=
302
=
303
=
304
=
305
=
306
=
307
=
308
=
309
=
 40
0.0
 41
2460151.216750752
 42
2460151.21675103
  1

 90
        0
  0
LAYOUT
  5
1E
102
{ACAD_REACTORS
330
1A
102
}
330
1A
100
AcDbPlotSettings
  1

  2
none_device
  4

  6

 40
0.0
 41
0.0
 42
0.0
 43
0.0
 44
0.0
 45
0.0
 46
0.0
 47
0.0
 48
0.0
 49
0.0
140
0.0
141
0.0
142
1.0
143
1.0
 70
   688
 72
     1
 73
     0
 74
     5
  7

 75
    16
147
1.0
148
0.0
149
0.0
100
AcDbLayout
  1
Layout1
 70
     1
 71
     1
 10
0.0
 20
0.0
 11
420.0
 21
297.0
 12
0.0
 22
0.0
 32
0.0
 14
1.0000000000E+20
 24
1.0000000000E+20
 34
1.0000000000E+20
 15
-1.0000000000E+20
 25
-1.0000000000E+20
 35
-1.0000000000E+20
146
0.0
 13
0.0
 23
0.0
 33
0.0
 16
1.0
 26
0.0
 36
0.0
 17
0.0
 27
1.0
 37
0.0
 76
     0
330
1B
  0
LAYOUT
  5
26
102
{ACAD_REACTORS
330
1A
102
}
330
1A
100
AcDbPlotSettings
  1

  2
none_device
  4

  6

 40
0.0
 41
0.0
 42
0.0
 43
0.0
 44
0.0
 45
0.0
 46
0.0
 47
0.0
 48
0.0
 49
0.0
140
0.0
141
0.0
142
1.0
143
1.0
 70
   688
 72
     1
 73
     0
 74
     5
  7

 75
    16
147
1.0
148
0.0
149
0.0
100
AcDbLayout
  1
Layout2
 70
     1
 71
     2
 10
0.0
 20
0.0
 11
0.0
 21
0.0
 12
0.0
 22
0.0
 32
0.0
 14
0.0
 24
0.0
 34
0.0
 15
0.0
 25
0.0
 35
0.0
146
0.0
 13
0.0
 23
0.0
 33
0.0
 16
1.0
 26
0.0
 36
0.0
 17
0.0
 27
1.0
 37
0.0
 76
     0
330
23
  0
LAYOUT
  5
22
102
{ACAD_REACTORS
330
1A
102
}
330
1A
100
AcDbPlotSettings
  1

  2
none_device
  4
Letter_(8.50_x_11.00_Inches)
  6

 40
6.35
 41
6.35
 42
6.35000508
 43
6.35000508
 44
215.9
 45
279.4
 46
0.0
 47
0.0
 48
0.0
 49
0.0
140
0.0
141
0.0
142
1.0
143
1.0
 70
  1712
 72
     1
 73
     0
 74
     0
  7

 75
     0
147
1.0
148
0.0
149
0.0
100
AcDbLayout
  1
Model
 70
     1
 71
     0
 10
0.0
 20
0.0
 11
2100.0
 21
2970.0
 12
0.0
 22
0.0
 32
0.0
 14
0.0
 24
0.0
 34
0.0
 15
2100.0
 25
2970.0
 35
0.0
146
0.0
 13
0.0
 23
0.0
 33
0.0
 16
1.0
 26
0.0
 36
0.0
 17
0.0
 27
1.0
 37
0.0
 76
     0
330
1F
331
29
  0
MLINESTYLE
  5
18
102
{ACAD_REACTORS
330
17
102
}
330
17
100
AcDbMlineStyle
  2
Standard
 70
     0
  3

 62
   256
 51
90.0
 52
90.0
 71
     2
 49
0.5
 62
   256
  6
BYLAYER
 49
-0.5
 62
   256
  6
BYLAYER
  0
ACDBPLACEHOLDER
  5
F
102
{ACAD_REACTORS
330
E
102
}
330
E
  0
SCALE
  5
48
102
{ACAD_REACTORS
330
47
102
}
330
47
100
AcDbScale
 70
     0
300
1:1
140
1.0
141
1.0
290
     1
  0
SCALE
  5
49
102
{ACAD_REACTORS
330
47
102
}
330
47
100
AcDbScale
 70
     0
300
1:2
140
1.0
141
2.0
290
     0
  0
SCALE
  5
4A
102
{ACAD_REACTORS
330
47
102
}
330
47
100
AcDbScale
 70
     0
300
1:4
140
1.0
141
4.0
290
     0
  0
SCALE
  5
4B
102
{ACAD_REACTORS
330
47
102
}
330
47
100
AcDbScale
 70
     0
300
1:5
140
1.0
141
5.0
290
     0
  0
SCALE
  5
4C
102
{ACAD_REACTORS
330
47
102
}
330
47
100
AcDbScale
 70
     0
300
1:8
140
1.0
141
8.0
290
     0
  0
SCALE
  5
4D
102
{ACAD_REACTORS
330
47
102
}
330
47
100
AcDbScale
 70
     0
300
1:10
140
1.0
141
10.0
290
     0
  0
SCALE
  5
4E
102
{ACAD_REACTORS
330
47
102
}
330
47
100
AcDbScale
 70
     0
300
1:16
140
1.0
141
16.0
290
     0
  0
SCALE
  5
4F
102
{ACAD_REACTORS
330
47
102
}
330
47
100
AcDbScale
 70
     0
300
1:20
140
1.0
141
20.0
290
     0
  0
SCALE
  5
50
102
{ACAD_REACTORS
330
47
102
}
330
47
100
AcDbScale
 70
     0
300
1:30
140
1.0
141
30.0
290
     0
  0
SCALE
  5
51
102
{ACAD_REACTORS
330
47
102
}
330
47
100
AcDbScale
 70
     0
300
1:40
140
1.0
141
40.0
290
     0
  0
SCALE
  5
52
102
{ACAD_REACTORS
330
47
102
}
330
47
100
AcDbScale
 70
     0
300
1:50
140
1.0
141
50.0
290
     0
  0
SCALE
  5
53
102
{ACAD_REACTORS
330
47
102
}
330
47
100
AcDbScale
 70
     0
300
1:100
140
1.0
141
100.0
290
     0
  0
SCALE
  5
54
102
{ACAD_REACTORS
330
47
102
}
330
47
100
AcDbScale
 70
     0
300
2:1
140
2.0
141
1.0
290
     0
  0
SCALE
  5
55
102
{ACAD_REACTORS
330
47
102
}
330
47
100
AcDbScale
 70
     0
300
4:1
140
4.0
141
1.0
290
     0
  0
SCALE
  5
56
102
{ACAD_REACTORS
330
47
102
}
330
47
100
AcDbScale
 70
     0
300
8:1
140
8.0
141
1.0
290
     0
  0
SCALE
  5
57
102
{ACAD_REACTORS
330
47
102
}
330
47
100
AcDbScale
 70
     0
300
10:1
140
10.0
141
1.0
290
     0
  0
SCALE
  5
58
102
{ACAD_REACTORS
330
47
102
}
330
47
100
AcDbScale
 70
     0
300
100:1
140
100.0
141
1.0
290
     0
  0
ENDSEC
  0
EOF
