  0
SECTION
  2
HEADER
  9
$ACADVER
  1
AC1015
  9
$ACADMAINTVER
 70
     6
  9
$DWGCODEPAGE
  3
DOS932
  9
$INSBASE
 10
0.0
 20
0.0
 30
0.0
  9
$EXTMIN
 10
0.0
 20
0.0
 30
0.0
  9
$EXTMAX
 10
2100.0
 20
2970.0
 30
0.0
  9
$LIMMIN
 10
0.0
 20
0.0
  9
$LIMMAX
 10
2100.0
 20
2970.0
  9
$ORTHOMODE
 70
     0
  9
$REGENMODE
 70
     1
  9
$FILLMODE
 70
     1
  9
$QTEXTMODE
 70
     0
  9
$MIRRTEXT
 70
     1
  9
$LTSCALE
 40
10.0
  9
$ATTMODE
 70
     1
  9
$TEXTSIZE
 40
35.0
  9
$TRACEWID
 40
1.0
  9
$TEXTSTYLE
  7
Standard
  9
$CLAYER
  8
0
  9
$CELTYPE
  6
ByLayer
  9
$CECOLOR
 62
   256
  9
$CELTSCALE
 40
1.0
  9
$DISPSILH
 70
     0
  9
$DIMSCALE
 40
1.0
  9
$DIMASZ
 40
15.0
  9
$DIMEXO
 40
10.0
  9
$DIMDLI
 40
3.75
  9
$DIMRND
 40
0.0
  9
$DIMDLE
 40
0.0
  9
$DIMEXE
 40
10.0
  9
$DIMTP
 40
0.0
  9
$DIMTM
 40
0.0
  9
$DIMTXT
 40
35.0
  9
$DIMCEN
 40
2.5
  9
$DIMTSZ
 40
0.0
  9
$DIMTOL
 70
     0
  9
$DIMLIM
 70
     0
  9
$DIMTIH
 70
     1
  9
$DIMTOH
 70
     1
  9
$DIMSE1
 70
     0
  9
$DIMSE2
 70
     0
  9
$DIMTAD
 70
     1
  9
$DIMZIN
 70
     0
  9
$DIMBLK
  1

  9
$DIMASO
 70
     1
  9
$DIMSHO
 70
     1
  9
$DIMPOST
  1

  9
$DIMAPOST
  1

  9
$DIMALT
 70
     0
  9
$DIMALTD
 70
     3
  9
$DIMALTF
 40
0.0393700787
  9
$DIMLFAC
 40
1.0
  9
$DIMTOFL
 70
     1
  9
$DIMTVP
 40
0.0
  9
$DIMTIX
 70
     0
  9
$DIMSOXD
 70
     0
  9
$DIMSAH
 70
     0
  9
$DIMBLK1
  1

  9
$DIMBLK2
  1

  9
$DIMSTYLE
  2
ISO-25
  9
$DIMCLRD
 70
     0
  9
$DIMCLRE
 70
     0
  9
$DIMCLRT
 70
     0
  9
$DIMTFAC
 40
1.0
  9
$DIMGAP
 40
15.0
  9
$DIMJUST
 70
     0
  9
$DIMSD1
 70
     0
  9
$DIMSD2
 70
     0
  9
$DIMTOLJ
 70
     0
  9
$DIMTZIN
 70
     0
  9
$DIMALTZ
 70
     0
  9
$DIMALTTZ
 70
     0
  9
$DIMUPT
 70
     0
  9
$DIMDEC
 70
     1
  9
$DIMTDEC
 70
     1
  9
$DIMALTU
 70
     2
  9
$DIMALTTD
 70
     3
  9
$DIMTXSTY
  7
Standard
  9
$DIMAUNIT
 70
     0
  9
$DIMADEC
 70
     2
  9
$DIMALTRND
 40
0.0
  9
$DIMAZIN
 70
     0
  9
$DIMDSEP
 70
    44
  9
$DIMATFIT
 70
     3
  9
$DIMFRAC
 70
     0
  9
$DIMLDRBLK
  1

  9
$DIMLUNIT
 70
     2
  9
$DIMLWD
 70
    -2
  9
$DIMLWE
 70
    -2
  9
$DIMTMOVE
 70
     0
  9
$LUNITS
 70
     2
  9
$LUPREC
 70
     2
  9
$SKETCHINC
 40
1.0
  9
$FILLETRAD
 40
0.0
  9
$AUNITS
 70
     0
  9
$AUPREC
 70
     2
  9
$MENU
  1
.
  9
$ELEVATION
 40
0.0
  9
$PELEVATION
 40
0.0
  9
$THICKNESS
 40
0.0
  9
$LIMCHECK
 70
     0
  9
$CHAMFERA
 40
0.0
  9
$CHAMFERB
 40
0.0
  9
$CHAMFERC
 40
0.0
  9
$CHAMFERD
 40
0.0
  9
$SKPOLY
 70
     0
  9
$TDCREATE
 40
2460151.589996505
  9
$TDUCREATE
 40
2460151.214996505
  9
$TDUPDATE
 40
2460151.589996771
  9
$TDUUPDATE
 40
2460151.214996771
  9
$TDINDWG
 40
0.0000000116
  9
$TDUSRTIMER
 40
0.0000000116
  9
$USRTIMER
 70
     1
  9
$ANGBASE
 50
0.0
  9
$ANGDIR
 70
     0
  9
$PDMODE
 70
     0
  9
$PDSIZE
 40
-1.0
  9
$PLINEWID
 40
0.0
  9
$SPLFRAME
 70
     0
  9
$SPLINETYPE
 70
     6
  9
$SPLINESEGS
 70
     8
  9
$HANDSEED
  5
F3
  9
$SURFTAB1
 70
     6
  9
$SURFTAB2
 70
     6
  9
$SURFTYPE
 70
     6
  9
$SURFU
 70
     6
  9
$SURFV
 70
     6
  9
$UCSBASE
  2

  9
$UCSNAME
  2

  9
$UCSORG
 10
0.0
 20
0.0
 30
0.0
  9
$UCSXDIR
 10
1.0
 20
0.0
 30
0.0
  9
$UCSYDIR
 10
0.0
 20
1.0
 30
0.0
  9
$UCSORTHOREF
  2

  9
$UCSORTHOVIEW
 70
     0
  9
$UCSORGTOP
 10
0.0
 20
0.0
 30
0.0
  9
$UCSORGBOTTOM
 10
0.0
 20
0.0
 30
0.0
  9
$UCSORGLEFT
 10
0.0
 20
0.0
 30
0.0
  9
$UCSORGRIGHT
 10
0.0
 20
0.0
 30
0.0
  9
$UCSORGFRONT
 10
0.0
 20
0.0
 30
0.0
  9
$UCSORGBACK
 10
0.0
 20
0.0
 30
0.0
  9
$PUCSBASE
  2

  9
$PUCSNAME
  2

  9
$PUCSORG
 10
0.0
 20
0.0
 30
0.0
  9
$PUCSXDIR
 10
1.0
 20
0.0
 30
0.0
  9
$PUCSYDIR
 10
0.0
 20
1.0
 30
0.0
  9
$PUCSORTHOREF
  2

  9
$PUCSORTHOVIEW
 70
     0
  9
$PUCSORGTOP
 10
0.0
 20
0.0
 30
0.0
  9
$PUCSORGBOTTOM
 10
0.0
 20
0.0
 30
0.0
  9
$PUCSORGLEFT
 10
0.0
 20
0.0
 30
0.0
  9
$PUCSORGRIGHT
 10
0.0
 20
0.0
 30
0.0
  9
$PUCSORGFRONT
 10
0.0
 20
0.0
 30
0.0
  9
$PUCSORGBACK
 10
0.0
 20
0.0
 30
0.0
  9
$USERI1
 70
     0
  9
$USERI2
 70
     0
  9
$USERI3
 70
     0
  9
$USERI4
 70
     0
  9
$USERI5
 70
     0
  9
$USERR1
 40
0.0
  9
$USERR2
 40
0.0
  9
$USERR3
 40
0.0
  9
$USERR4
 40
0.0
  9
$USERR5
 40
0.0
  9
$WORLDVIEW
 70
     1
  9
$SHADEDGE
 70
     3
  9
$SHADEDIF
 70
    70
  9
$TILEMODE
 70
     1
  9
$MAXACTVP
 70
    64
  9
$PINSBASE
 10
0.0
 20
0.0
 30
0.0
  9
$PLIMCHECK
 70
     0
  9
$PEXTMIN
 10
1.0000000000E+20
 20
1.0000000000E+20
 30
1.0000000000E+20
  9
$PEXTMAX
 10
-1.0000000000E+20
 20
-1.0000000000E+20
 30
-1.0000000000E+20
  9
$PLIMMIN
 10
0.0
 20
0.0
  9
$PLIMMAX
 10
420.0
 20
297.0
  9
$UNITMODE
 70
     0
  9
$VISRETAIN
 70
     1
  9
$PLINEGEN
 70
     0
  9
$PSLTSCALE
 70
     1
  9
$TREEDEPTH
 70
  3020
  9
$CMLSTYLE
  2
Standard
  9
$CMLJUST
 70
     0
  9
$CMLSCALE
 40
20.0
  9
$PROXYGRAPHICS
 70
     1
  9
$MEASUREMENT
 70
     1
  9
$CELWEIGHT
370
    -1
  9
$ENDCAPS
280
     0
  9
$JOINSTYLE
280
     0
  9
$LWDISPLAY
290
     1
  9
$INSUNITS
 70
     4
  9
$HYPERLINKBASE
  1

  9
$STYLESHEET
  1

  9
$XEDIT
290
     1
  9
$CEPSNTYPE
380
     0
  9
$PSTYLEMODE
290
     1
  9
$FINGERPRINTGUID
  2
{8bd5f525-cbf8-47df-b1c3-7eaee9221f7e}
  9
$VERSIONGUID
  2
{FAEB1C32-E019-11D5-929B-00C0DF256EC4}
  9
$EXTNAMES
290
     1
  9
$PSVPSCALE
 40
0.0
  9
$OLESTARTUP
290
     0
  0
ENDSEC
  0
SECTION
  2
CLASSES
  0
CLASS
  1
ACDBDICTIONARYWDFLT
  2
AcDbDictionaryWithDefault
  3
ObjectDBX Classes
 90
        0
280
     0
281
     0
  0
CLASS
  1
VISUALSTYLE
  2
AcDbVisualStyle
  3
ObjectDBX Classes
 90
     4095
280
     0
281
     0
  0
CLASS
  1
MATERIAL
  2
AcDbMaterial
  3
ObjectDBX Classes
 90
     1153
280
     0
281
     0
  0
CLASS
  1
SCALE
  2
AcDbScale
  3
ObjectDBX Classes
 90
     1153
280
     0
281
     0
  0
CLASS
  1
TABLESTYLE
  2
AcDbTableStyle
  3
ObjectDBX Classes
 90
     4095
280
     0
281
     0
  0
CLASS
  1
MLEADERSTYLE
  2
AcDbMLeaderStyle
  3
ACDB_MLEADERSTYLE_CLASS
 90
     4095
280
     0
281
     0
  0
CLASS
  1
SUN
  2
AcDbSun
  3
SCENEOE
 90
     1153
280
     0
281
     0
  0
CLASS
  1
ACDBPLACEHOLDER
  2
AcDbPlaceHolder
  3
ObjectDBX Classes
 90
        0
280
     0
281
     0
  0
CLASS
  1
LAYOUT
  2
AcDbLayout
  3
ObjectDBX Classes
 90
        0
280
     0
281
     0
  0
ENDSEC
  0
SECTION
  2
TABLES
  0
TABLE
  2
VPORT
  5
8
330
0
100
AcDbSymbolTable
 70
     1
  0
VPORT
  5
29
330
8
100
AcDbSymbolTableRecord
100
AcDbViewportTableRecord
  2
*Active
 70
     0
 10
0.0
 20
0.0
 11
1.0
 21
1.0
 12
1050.0
 22
1485.0
 13
0.0
 23
0.0
 14
10.0
 24
10.0
 15
10.0
 25
10.0
 16
0.0
 26
0.0
 36
1.0
 17
0.0
 27
0.0
 37
0.0
 40
2970.0
 41
0.7070707071
 42
50.0
 43
0.0
 44
0.0
 50
0.0
 51
0.0
 71
     0
 72
  2000
 73
     1
 74
     3
 75
     0
 76
     0
 77
     0
 78
     0
281
     0
 65
     1
110
0.0
120
0.0
130
0.0
111
1.0
121
0.0
131
0.0
112
0.0
122
1.0
132
0.0
 79
     0
146
0.0
  0
ENDTAB
  0
TABLE
  2
LTYPE
  5
5
330
0
100
AcDbSymbolTable
 70
     6
  0
LTYPE
  5
14
330
5
100
AcDbSymbolTableRecord
100
AcDbLinetypeTableRecord
  2
ByBlock
 70
     0
  3

 72
    65
 73
     0
 40
0.0
  0
LTYPE
  5
15
330
5
100
AcDbSymbolTableRecord
100
AcDbLinetypeTableRecord
  2
ByLayer
 70
     0
  3

 72
    65
 73
     0
 40
0.0
  0
LTYPE
  5
16
330
5
100
AcDbSymbolTableRecord
100
AcDbLinetypeTableRecord
  2
Continuous
 70
     0
  3
Solid line
 72
    65
 73
     0
 40
0.0
  0
LTYPE
  5
5E
330
5
100
AcDbSymbolTableRecord
100
AcDbLinetypeTableRecord
  2
HIDDEN
 70
     0
  3
Hidden __ __ __ __ __ __ __ __ __ __ __ __ __ __
 72
    65
 73
     2
 40
1.905
 49
1.27
 74
     0
 49
-0.635
 74
     0
  0
LTYPE
  5
5F
330
5
100
AcDbSymbolTableRecord
100
AcDbLinetypeTableRecord
  2
PHANTOM
 70
     0
  3
Phantom ______  __  __  ______  __  __  ______
 72
    65
 73
     6
 40
12.7
 49
6.35
 74
     0
 49
-1.27
 74
     0
 49
1.27
 74
     0
 49
-1.27
 74
     0
 49
1.27
 74
     0
 49
-1.27
 74
     0
  0
LTYPE
  5
60
330
5
100
AcDbSymbolTableRecord
100
AcDbLinetypeTableRecord
  2
CENTER
 70
     0
  3
Center ____ _ ____ _ ____ _ ____ _ ____ _ ____
 72
    65
 73
     4
 40
10.16
 49
6.35
 74
     0
 49
-1.27
 74
     0
 49
1.27
 74
     0
 49
-1.27
 74
     0
  0
LTYPE
  5
61
330
5
100
AcDbSymbolTableRecord
100
AcDbLinetypeTableRecord
  2
CENTERX2
 70
     0
  3
Center (2x) ________  __  ________  __  _____
 72
    65
 73
     4
 40
20.32
 49
12.7
 74
     0
 49
-2.54
 74
     0
 49
2.54
 74
     0
 49
-2.54
 74
     0
  0
LTYPE
  5
62
330
5
100
AcDbSymbolTableRecord
100
AcDbLinetypeTableRecord
  2
DOT2
 70
     0
  3
Dot (.5x) ........................................
 72
    65
 73
     2
 40
0.635
 49
0.0
 74
     0
 49
-0.635
 74
     0
  0
ENDTAB
  0
TABLE
  2
LAYER
  5
2
330
0
100
AcDbSymbolTable
 70
     2
  0
LAYER
  5
10
330
2
100
AcDbSymbolTableRecord
100
AcDbLayerTableRecord
  2
0
 70
     0
 62
     7
  6
Continuous
370
    -3
390
F
  0
LAYER
  5
63
330
2
100
AcDbSymbolTableRecord
100
AcDbLayerTableRecord
  2
FORMAT
 70
     0
 62
     7
  6
Continuous
370
    -3
390
F
  0
ENDTAB
  0
TABLE
  2
STYLE
  5
3
330
0
100
AcDbSymbolTable
 70
     2
  0
STYLE
  5
11
330
3
100
AcDbSymbolTableRecord
100
AcDbTextStyleTableRecord
  2
Standard
 70
     0
 40
0.0
 41
1.0
 50
0.0
 71
     0
 42
35.0
  3
txt
  4
bigfont
  0
STYLE
  5
64
330
3
100
AcDbSymbolTableRecord
100
AcDbTextStyleTableRecord
  2
SLDTEXTSTYLE0
 70
     0
 40
0.0
 41
0.7
 50
0.0
 71
     0
 42
35.0
  3
TXT
  4
bigfont
  0
ENDTAB
  0
TABLE
  2
VIEW
  5
6
330
0
100
AcDbSymbolTable
 70
     0
  0
ENDTAB
  0
TABLE
  2
UCS
  5
7
330
0
100
AcDbSymbolTable
 70
     0
  0
ENDTAB
  0
TABLE
  2
APPID
  5
9
330
0
100
AcDbSymbolTable
 70
     1
  0
APPID
  5
12
330
9
100
AcDbSymbolTableRecord
100
AcDbRegAppTableRecord
  2
ACAD
 70
     0
  0
ENDTAB
  0
TABLE
  2
DIMSTYLE
  5
A
330
0
100
AcDbSymbolTable
 70
     1
100
AcDbDimStyleTable
  0
DIMSTYLE
105
27
330
A
100
AcDbSymbolTableRecord
100
AcDbDimStyleTableRecord
  2
ISO-25
 70
     0
 41
2.5
 42
0.625
 43
3.75
 44
1.25
 73
     0
 74
     0
 77
     1
 78
     8
140
2.5
141
2.5
143
0.0393700787
147
0.625
171
     3
172
     1
178
     0
271
     2
272
     2
274
     3
278
    44
283
     0
284
     8
340
11
  0
ENDTAB
  0
TABLE
  2
BLOCK_RECORD
  5
1
330
0
100
AcDbSymbolTable
 70
     1
  0
BLOCK_RECORD
  5
1F
330
1
100
AcDbSymbolTableRecord
100
AcDbBlockTableRecord
  2
*Model_Space
340
22
  0
BLOCK_RECORD
  5
1B
330
1
100
AcDbSymbolTableRecord
100
AcDbBlockTableRecord
  2
*Paper_Space
340
1E
  0
BLOCK_RECORD
  5
23
330
1
100
AcDbSymbolTableRecord
100
AcDbBlockTableRecord
  2
*Paper_Space0
340
26
  0
ENDTAB
  0
ENDSEC
  0
SECTION
  2
BLOCKS
  0
BLOCK
  5
20
330
1F
100
AcDbEntity
  8
0
100
AcDbBlockBegin
  2
*Model_Space
 70
     0
 10
0.0
 20
0.0
 30
0.0
  3
*Model_Space
  1

  0
ENDBLK
  5
21
330
1F
100
AcDbEntity
  8
0
100
AcDbBlockEnd
  0
BLOCK
  5
1C
330
1B
100
AcDbEntity
 67
     1
  8
0
100
AcDbBlockBegin
  2
*Paper_Space
 70
     0
 10
0.0
 20
0.0
 30
0.0
  3
*Paper_Space
  1

  0
ENDBLK
  5
1D
330
1B
100
AcDbEntity
 67
     1
  8
0
100
AcDbBlockEnd
  0
BLOCK
  5
24
330
23
100
AcDbEntity
  8
0
100
AcDbBlockBegin
  2
*Paper_Space0
 70
     0
 10
0.0
 20
0.0
 30
0.0
  3
*Paper_Space0
  1

  0
ENDBLK
  5
25
330
23
100
AcDbEntity
  8
0
100
AcDbBlockEnd
  0
ENDSEC
  0
SECTION
  2
ENTITIES
  0
MTEXT
  5
65
330
1F
100
AcDbEntity
  8
0
  6
Continuous
 62
     7
370
     0
100
AcDbMText
 10
1262.8215206619
 20
1137.2874201206
 30
0.0
 40
35.0
 41
0.0
 71
     1
 72
     1
  1
HCA-D40K
  7
SLDTEXTSTYLE0
 73
     1
 44
1.0
  0
LINE
  5
66
330
1F
100
AcDbEntity
  8
0
  6
Continuous
 62
     7
370
    25
100
AcDbLine
 10
1003.8644908616
 20
1938.3023433947
 30
0.0
 11
1003.8644908616
 21
1934.4386399831
 31
0.0
  0
LINE
  5
67
330
1F
100
AcDbEntity
  8
0
  6
Continuous
 62
     7
370
    25
100
AcDbLine
 10
1119.8644908616
 20
1934.4386399831
 30
0.0
 11
1119.8644908616
 21
1938.3023433947
 31
0.0
  0
LINE
  5
68
330
1F
100
AcDbEntity
  8
0
  6
Continuous
 62
     7
370
    25
100
AcDbLine
 10
1007.6476967621
 20
1929.0708847298
 30
0.0
 11
1007.9139681917
 21
1899.59894204
 31
0.0
  0
LINE
  5
69
330
1F
100
AcDbEntity
  8
0
  6
Continuous
 62
     7
370
    25
100
AcDbLine
 10
1115.8150135316
 20
1899.59894204
 30
0.0
 11
1116.0812849611
 21
1929.0708847298
 31
0.0
  0
SPLINE
  5
6A
330
1F
100
AcDbEntity
  8
0
  6
Continuous
 62
     7
370
    25
100
AcDbSpline
210
0.0
220
0.0
230
1.0
 70
     8
 71
     3
 72
    25
 73
    21
 74
     0
 42
0.00000001
 43
0.00000001
 40
0.0
 40
0.0
 40
0.0
 40
0.0
 40
0.0143498009676214
 40
0.0685365923361209
 40
0.1221297636059247
 40
0.1821983969001033
 40
0.2463364415258449
 40
0.3080709124316066
 40
0.3692246802106248
 40
0.4309987323515137
 40
0.4931468934206901
 40
0.555420549741276
 40
0.6175643855233234
 40
0.6792565649867638
 40
0.7399483639447896
 40
0.7983999534872523
 40
0.8560224358534355
 40
0.8976808119255025
 40
0.9391609715388118
 40
1.0
 40
1.0
 40
1.0
 40
1.0
 10
1007.972353533998
 20
1899.73171866509
 30
0.0
 10
1007.953747018095
 20
1899.53438139376
 30
0.0
 10
1007.864879778884
 20
1898.591871867086
 30
0.0
 10
1008.353634959769
 20
1896.930499838586
 30
0.0
 10
1009.398724223452
 20
1894.959915157426
 30
0.0
 10
1010.971309618607
 20
1893.213209982973
 30
0.0
 10
1012.966733631223
 20
1891.663160763348
 30
0.0
 10
1015.338206461738
 20
1890.284961182868
 30
0.0
 10
1018.032381594441
 20
1889.052170761941
 30
0.0
 10
1021.087991239549
 20
1887.924470470213
 30
0.0
 10
1024.512587881896
 20
1886.892700346449
 30
0.0
 10
1028.277652894794
 20
1885.962564696555
 30
0.0
 10
1032.339661506974
 20
1885.141728826111
 30
0.0
 10
1036.636991607176
 20
1884.438326783805
 30
0.0
 10
1041.074140957008
 20
1883.860762193958
 30
0.0
 10
1045.589392581836
 20
1883.40696500331
 30
0.0
 10
1049.740926226078
 20
1883.100623038146
 30
0.0
 10
1053.512169483875
 20
1882.906212366848
 30
0.0
 10
1057.410775703193
 20
1882.76876530409
 30
0.0
 10
1060.203773371668
 20
1882.748898799135
 30
0.0
 10
1061.864490856258
 20
1882.73708616767
 30
0.0
  0
SPLINE
  5
6B
330
1F
100
AcDbEntity
  8
0
  6
Continuous
 62
     7
370
    25
100
AcDbSpline
210
0.0
220
0.0
230
1.0
 70
     8
 71
     3
 72
    26
 73
    22
 74
     0
 42
0.00000001
 43
0.00000001
 40
0.0
 40
0.0
 40
0.0
 40
0.0
 40
0.072878289543043
 40
0.1019058574967726
 40
0.1498984155519295
 40
0.1992001892544028
 40
0.2515611777465626
 40
0.3055894694592029
 40
0.3607204818538073
 40
0.4165044495296953
 40
0.4726293088828263
 40
0.5288762061440896
 40
0.585103358379776
 40
0.6412424953516048
 40
0.6973037891645077
 40
0.7533665741859314
 40
0.8094587076357233
 40
0.864410444232664
 40
0.9162881235335829
 40
0.9654687073778174
 40
1.0
 40
1.0
 40
1.0
 40
1.0
 10
1061.864490856258
 20
1882.73708616767
 30
0.0
 10
1063.846551490374
 20
1882.753382787479
 30
0.0
 10
1066.618070824824
 20
1882.776170383432
 30
0.0
 10
1070.654576841534
 20
1882.926825316837
 30
0.0
 10
1074.024432658401
 20
1883.103769993698
 30
0.0
 10
1077.94415317593
 20
1883.39489216075
 30
0.0
 10
1081.919115662158
 20
1883.78243208498
 30
0.0
 10
1085.903523268099
 20
1884.274610838379
 30
0.0
 10
1089.798377045107
 20
1884.868412650766
 30
0.0
 10
1093.536447689182
 20
1885.560119924774
 30
0.0
 10
1097.064825354851
 20
1886.344559332282
 30
0.0
 10
1100.344347806862
 20
1887.216537766572
 30
0.0
 10
1103.348165215554
 20
1888.172197060592
 30
0.0
 10
1106.061165747683
 20
1889.211077871098
 30
0.0
 10
1108.478802725709
 20
1890.339304996191
 30
0.0
 10
1110.604842235777
 20
1891.574024366879
 30
0.0
 10
1112.430053394361
 20
1892.941681555344
 30
0.0
 10
1113.935480841264
 20
1894.472658930817
 30
0.0
 10
1115.047099442278
 20
1896.199466845564
 30
0.0
 10
1115.722236099638
 20
1897.939271863786
 30
0.0
 10
1115.745388007542
 20
1899.09649115567
 30
0.0
 10
1115.754938209261
 20
1899.573846098396
 30
0.0
  0
LINE
  5
6C
330
1F
100
AcDbEntity
  8
0
  6
Continuous
 62
     7
370
    25
100
AcDbLine
 10
1081.8644908616
 20
1173.098282657
 30
0.0
 11
1081.8644908616
 21
1852.0419467503
 31
0.0
  0
LINE
  5
6D
330
1F
100
AcDbEntity
  8
0
  6
Continuous
 62
     7
370
    25
100
AcDbLine
 10
1041.8644908616
 20
1852.0481114269
 30
0.0
 11
1041.8644908616
 21
1173.098282657
 31
0.0
  0
SPLINE
  5
6E
330
1F
100
AcDbEntity
  8
0
  6
Continuous
 62
     7
370
    25
100
AcDbSpline
210
0.0
220
0.0
230
1.0
 70
     8
 71
     3
 72
    12
 73
     8
 74
     0
 42
0.00000001
 43
0.00000001
 40
0.0
 40
0.0
 40
0.0
 40
0.0
 40
0.1509910498355971
 40
0.393932666926814
 40
0.6359725226436134
 40
0.8770564903985543
 40
1.0
 40
1.0
 40
1.0
 40
1.0
 10
1120.921312382705
 20
1942.853411939478
 30
0.0
 10
1121.807240338483
 20
1945.448425249772
 30
0.0
 10
1124.118608877909
 20
1952.218763724457
 30
0.0
 10
1127.149643807265
 20
1963.3928211346
 30
0.0
 10
1130.037731478665
 20
1976.290960407977
 30
0.0
 10
1131.9931425963
 20
1987.166936465002
 30
0.0
 10
1132.74941379511
 20
1993.760058665073
 30
0.0
 10
1133.004830325937
 20
1995.986763056716
 30
0.0
  0
SPLINE
  5
6F
330
1F
100
AcDbEntity
  8
0
  6
Continuous
 62
     7
370
    25
100
AcDbSpline
210
0.0
220
0.0
230
1.0
 70
     8
 71
     3
 72
    12
 73
     8
 74
     0
 42
0.00000001
 43
0.00000001
 40
0.0
 40
0.0
 40
0.0
 40
0.0
 40
0.1254835365882111
 40
0.3594741968807386
 40
0.5922670993259194
 40
0.823808663984503
 40
1.0
 40
1.0
 40
1.0
 40
1.0
 10
990.7324029660415
 20
1995.886850437093
 30
0.0
 10
990.9957237166237
 20
1993.618268974901
 30
0.0
 10
991.7500618386697
 20
1987.119436368229
 30
0.0
 10
993.6551760894502
 20
1976.50906174776
 30
0.0
 10
996.4036458153001
 20
1964.117741870094
 30
0.0
 10
999.4266016794726
 20
1952.876921501651
 30
0.0
 10
1001.772983642902
 20
1945.86534794875
 30
0.0
 10
1002.786912546496
 20
1942.835475917785
 30
0.0
  0
SPLINE
  5
70
330
1F
100
AcDbEntity
  8
0
  6
Continuous
 62
     7
370
    25
100
AcDbSpline
210
0.0
220
0.0
230
1.0
 70
     8
 71
     3
 72
    25
 73
    21
 74
     0
 42
0.00000001
 43
0.00000001
 40
0.0
 40
0.0
 40
0.0
 40
0.0
 40
0.0085214897157812
 40
0.0608904090986929
 40
0.1197555317274146
 40
0.1862605923950086
 40
0.2538553698796499
 40
0.3182794442823452
 40
0.3827274241059432
 40
0.447294589646707
 40
0.5118192156703538
 40
0.5761216297502284
 40
0.6399800426226603
 40
0.7030263578242543
 40
0.764482111704009
 40
0.8222253170452197
 40
0.8734338110538616
 40
0.9135299854942799
 40
0.9597857608280399
 40
1.0
 40
1.0
 40
1.0
 40
1.0
 10
1002.799041089692
 20
1942.773124305995
 30
0.0
 10
1002.831272357106
 20
1942.640916207648
 30
0.0
 10
1003.061581273044
 20
1941.696221622192
 30
0.0
 10
1004.072283991038
 20
1940.126856152755
 30
0.0
 10
1005.743968566883
 20
1938.098944554497
 30
0.0
 10
1007.974494925874
 20
1936.29979383556
 30
0.0
 10
1010.596662861126
 20
1934.70323230087
 30
0.0
 10
1013.550038264608
 20
1933.300802999071
 30
0.0
 10
1016.805581124569
 20
1932.051651003111
 30
0.0
 10
1020.411706435849
 20
1930.919053132756
 30
0.0
 10
1024.351180099048
 20
1929.899720152748
 30
0.0
 10
1028.58907480363
 20
1928.996818094978
 30
0.0
 10
1033.075013220331
 20
1928.215422752394
 30
0.0
 10
1037.734970155228
 20
1927.561601818483
 30
0.0
 10
1042.437397158883
 20
1927.042981748585
 30
0.0
 10
1046.974616197694
 20
1926.663375635639
 30
0.0
 10
1051.028928356682
 20
1926.417022669479
 30
0.0
 10
1054.817916807823
 20
1926.258384059477
 30
0.0
 10
1058.333079993069
 20
1926.167423417719
 30
0.0
 10
1060.743491233333
 20
1926.156352853127
 30
0.0
 10
1061.864490861619
 20
1926.151204313083
 30
0.0
  0
SPLINE
  5
71
330
1F
100
AcDbEntity
  8
0
  6
Continuous
 62
     7
370
    25
100
AcDbSpline
210
0.0
220
0.0
230
1.0
 70
     8
 71
     3
 72
    26
 73
    22
 74
     0
 42
0.00000001
 43
0.00000001
 40
0.0
 40
0.0
 40
0.0
 40
0.0
 40
0.0739369946700834
 40
0.1035000358196587
 40
0.1523913056976257
 40
0.2026787496842364
 40
0.2561537537050945
 40
0.3114130361544495
 40
0.3678966899681492
 40
0.425164576474948
 40
0.48292032679174
 40
0.5409672683815254
 40
0.5991930755954362
 40
0.657566681524127
 40
0.7161411803846169
 40
0.7750315445636937
 40
0.8342374610856329
 40
0.8922838852386265
 40
0.9463882159757147
 40
0.9963456813521554
 40
1.0
 40
1.0
 40
1.0
 40
1.0
 10
1061.864490861619
 20
1926.151204313083
 30
0.0
 10
1063.927337537554
 20
1926.167500009792
 30
0.0
 10
1066.814994870699
 20
1926.190311394008
 30
0.0
 10
1071.028500097129
 20
1926.341423786114
 30
0.0
 10
1074.557748132324
 20
1926.519575833895
 30
0.0
 10
1078.672967970351
 20
1926.813372870393
 30
0.0
 10
1082.861040136705
 20
1927.205638498369
 30
0.0
 10
1087.077965542058
 20
1927.705516505917
 30
0.0
 10
1091.223458481804
 20
1928.311032760464
 30
0.0
 10
1095.230022292918
 20
1929.019735786864
 30
0.0
 10
1099.044572103446
 20
1929.827975614783
 30
0.0
 10
1102.627867207635
 20
1930.732419382798
 30
0.0
 10
1105.953031680846
 20
1931.731560279646
 30
0.0
 10
1109.005172674279
 20
1932.827909287635
 30
0.0
 10
1111.779770362929
 20
1934.031754363877
 30
0.0
 10
1114.281661671006
 20
1935.364565204411
 30
0.0
 10
1116.493242622775
 20
1936.859711337154
 30
0.0
 10
1118.39826995575
 20
1938.535602339694
 30
0.0
 10
1119.864727888345
 20
1940.448106866305
 30
0.0
 10
1120.744412755276
 20
1941.887809901667
 30
0.0
 10
1120.944367436937
 20
1942.720452208601
 30
0.0
 10
1120.957996868138
 20
1942.777207274014
 30
0.0
  0
LINE
  5
72
330
1F
100
AcDbEntity
  8
0
  6
Continuous
 62
     7
370
    25
100
AcDbLine
 10
972.9685815786
 20
1931.1624737433
 30
0.0
 11
964.1956444989
 21
2000.1777182934
 31
0.0
  0
LINE
  5
73
330
1F
100
AcDbEntity
  8
0
  6
Continuous
 62
     7
370
    25
100
AcDbLine
 10
947.5815642559
 20
2003.9957336548
 30
0.0
 11
957.0753666772
 21
1929.3095607276
 31
0.0
  0
LINE
  5
74
330
1F
100
AcDbEntity
  8
0
  6
Continuous
 62
     7
370
    25
100
AcDbLine
 10
1159.5333372243
 20
2000.1777182934
 30
0.0
 11
1150.7603997748
 21
1931.162470834
 31
0.0
  0
LINE
  5
75
330
1F
100
AcDbEntity
  8
0
  6
Continuous
 62
     7
370
    25
100
AcDbLine
 10
1166.6536152299
 20
1929.309562174
 30
0.0
 11
1176.1474174673
 21
2003.9957336548
 31
0.0
  0
LINE
  5
76
330
1F
100
AcDbEntity
  8
0
  6
Continuous
 62
     7
370
    25
100
AcDbLine
 10
1019.558691703
 20
1872.4630861595
 30
0.0
 11
1019.9888623635
 21
1869.0808367248
 31
0.0
  0
LINE
  5
77
330
1F
100
AcDbEntity
  8
0
  6
Continuous
 62
     7
370
    25
100
AcDbLine
 10
1103.7401193598
 20
1869.0808367248
 30
0.0
 11
1104.1714363825
 21
1872.4720995199
 31
0.0
  0
SPLINE
  5
78
330
1F
100
AcDbEntity
  8
0
  6
Continuous
 62
     7
370
    25
100
AcDbSpline
210
0.0
220
0.0
230
1.0
 70
     8
 71
     3
 72
    15
 73
    11
 74
     0
 42
0.00000001
 43
0.00000001
 40
0.0
 40
0.0
 40
0.0
 40
0.0
 40
0.0911155207835412
 40
0.2138117528731577
 40
0.3537422377659626
 40
0.5068357766135541
 40
0.6486504356338908
 40
0.7894604630017957
 40
0.9329332847435503
 40
0.9999999999999999
 40
0.9999999999999999
 40
0.9999999999999999
 40
0.9999999999999999
 10
1020.052509544914
 20
1869.073873086687
 30
0.0
 10
1020.130098510762
 20
1868.563206852331
 30
0.0
 10
1020.312168839164
 20
1867.364877064366
 30
0.0
 10
1021.30120559517
 20
1865.695105544196
 30
0.0
 10
1022.755553741725
 20
1864.101341905711
 30
0.0
 10
1024.624147544867
 20
1862.74632414815
 30
0.0
 10
1026.801072248374
 20
1861.571046929458
 30
0.0
 10
1029.25789256326
 20
1860.552516282624
 30
0.0
 10
1031.490632112934
 20
1859.781613816397
 30
0.0
 10
1033.023962488726
 20
1859.384203260525
 30
0.0
 10
1033.512400115091
 20
1859.25760936291
 30
0.0
  0
SPLINE
  5
79
330
1F
100
AcDbEntity
  8
0
  6
Continuous
 62
     7
370
    25
100
AcDbSpline
210
0.0
220
0.0
230
1.0
 70
     8
 71
     3
 72
    15
 73
    11
 74
     0
 42
0.00000001
 43
0.00000001
 40
0.0
 40
0.0
 40
0.0
 40
0.0
 40
0.1287498480885231
 40
0.2706773179208186
 40
0.412855811179808
 40
0.5555977739901049
 40
0.6963996126200378
 40
0.8275567574483287
 40
0.9495587072644641
 40
1.0
 40
1.0
 40
1.0
 40
1.0
 10
1091.856341594003
 20
1859.709279059948
 30
0.0
 10
1092.647592753716
 20
1859.959198090647
 30
0.0
 10
1094.311080088985
 20
1860.484615510015
 30
0.0
 10
1096.520783483966
 20
1861.394247199588
 30
0.0
 10
1098.561953746955
 20
1862.430268022144
 30
0.0
 10
1100.329510583408
 20
1863.60335126596
 30
0.0
 10
1101.817892248859
 20
1864.94398388347
 30
0.0
 10
1102.931860213101
 20
1866.503304859654
 30
0.0
 10
1103.600938644942
 20
1867.934238160228
 30
0.0
 10
1103.65836046788
 20
1868.837940381197
 30
0.0
 10
1103.67515689862
 20
1869.102281897856
 30
0.0
  0
LINE
  5
7A
330
1F
100
AcDbEntity
  8
0
  6
Continuous
 62
     7
370
    25
100
AcDbLine
 10
1031.9432694265
 20
1859.8469580343
 30
0.0
 11
1037.7554260085
 21
1854.4381368772
 31
0.0
  0
LINE
  5
7B
330
1F
100
AcDbEntity
  8
0
  6
Continuous
 62
     7
370
    25
100
AcDbLine
 10
1085.9735557148
 20
1854.4381368772
 30
0.0
 11
1091.7857122968
 21
1859.8469580343
 31
0.0
  0
SPLINE
  5
7C
330
1F
100
AcDbEntity
  8
0
  6
Continuous
 62
     7
370
    25
100
AcDbSpline
210
0.0
220
0.0
230
1.0
 70
     8
 71
     3
 72
    21
 73
    17
 74
     0
 42
0.00000001
 43
0.00000001
 40
0.0
 40
0.0
 40
0.0
 40
0.0
 40
0.0201159974456449
 40
0.0879623358257266
 40
0.1589500181596671
 40
0.2324425519574483
 40
0.3079387512975318
 40
0.3850903249424477
 40
0.4636488740542982
 40
0.5434378983387873
 40
0.6243338795065109
 40
0.706253706939705
 40
0.7891461720253964
 40
0.8729861730308531
 40
0.9577708110425043
 40
1.0
 40
1.0
 40
1.0
 40
1.0
 10
1124.635084249988
 20
1881.021045848266
 30
0.0
 10
1125.083873215285
 20
1881.133285790146
 30
0.0
 10
1127.046317572668
 20
1881.624083598576
 30
0.0
 10
1130.489576536186
 20
1882.858879442314
 30
0.0
 10
1134.966516120878
 20
1884.780546039455
 30
0.0
 10
1139.403438447696
 20
1887.178264240691
 30
0.0
 10
1143.725598921627
 20
1890.020141152781
 30
0.0
 10
1147.855002108322
 20
1893.307149908236
 30
0.0
 10
1151.724751052058
 20
1897.020727851976
 30
0.0
 10
1155.272918203594
 20
1901.138837251195
 30
0.0
 10
1158.444062849329
 20
1905.632296808789
 30
0.0
 10
1161.184120196865
 20
1910.46691900146
 30
0.0
 10
1163.456891043582
 20
1915.601961034232
 30
0.0
 10
1165.18098374881
 20
1920.996958628912
 30
0.0
 10
1166.248715325192
 20
1925.631441344279
 30
0.0
 10
1166.505130612187
 20
1928.473389319459
 30
0.0
 10
1166.590382823418
 20
1929.41827194299
 30
0.0
  0
SPLINE
  5
7D
330
1F
100
AcDbEntity
  8
0
  6
Continuous
 62
     7
370
    25
100
AcDbSpline
210
0.0
220
0.0
230
1.0
 70
     8
 71
     3
 72
    19
 73
    15
 74
     0
 42
0.00000001
 43
0.00000001
 40
0.0
 40
0.0
 40
0.0
 40
0.0
 40
0.0016908199854384
 40
0.1059801108511787
 40
0.2122088944742656
 40
0.3089900665765691
 40
0.4054600896180148
 40
0.5015334667113958
 40
0.597099891092291
 40
0.6919748514633207
 40
0.7857999792225188
 40
0.877767112057265
 40
0.9656349948323657
 40
0.9999999999999999
 40
0.9999999999999999
 40
0.9999999999999999
 40
0.9999999999999999
 10
1150.765139681225
 20
1931.239117973246
 30
0.0
 10
1150.76406110609
 20
1931.212041132673
 30
0.0
 10
1150.69645632658
 20
1929.514872545742
 30
0.0
 10
1149.967792048867
 20
1926.158165939974
 30
0.0
 10
1148.564483262731
 20
1921.416870291299
 30
0.0
 10
1146.550006173066
 20
1916.998938725854
 30
0.0
 10
1144.119857664566
 20
1912.968166370805
 30
0.0
 10
1141.227318251137
 20
1909.245244699041
 30
0.0
 10
1137.92594100693
 20
1905.879507572638
 30
0.0
 10
1134.271061074751
 20
1902.91922349927
 30
0.0
 10
1130.340019862224
 20
1900.397624308067
 30
0.0
 10
1126.236415214936
 20
1898.386932451331
 30
0.0
 10
1122.883366668999
 20
1897.084717265808
 30
0.0
 10
1120.892553254207
 20
1896.582072659771
 30
0.0
 10
1120.332848624475
 20
1896.440757300422
 30
0.0
  0
SPLINE
  5
7E
330
1F
100
AcDbEntity
  8
0
  6
Continuous
 62
     7
370
    25
100
AcDbSpline
210
0.0
220
0.0
230
1.0
 70
     8
 71
     3
 72
    20
 73
    16
 74
     0
 42
0.00000001
 43
0.00000001
 40
0.0
 40
0.0
 40
0.0
 40
0.0
 40
0.0468952874380083
 40
0.1371790338779591
 40
0.2287040668595952
 40
0.3216093060730685
 40
0.4053407876796954
 40
0.4889938358578146
 40
0.57251230164797
 40
0.6558188547700063
 40
0.7387823583795792
 40
0.821163445410654
 40
0.902473394573853
 40
0.9815306327301503
 40
1.0
 40
1.0
 40
1.0
 40
1.0
 10
957.1420986676201
 20
1929.418364006873
 30
0.0
 10
957.2381429762511
 20
1928.385169313102
 30
0.0
 10
957.5190937111175
 20
1925.362847505467
 30
0.0
 10
958.6942446952714
 20
1920.418813651171
 30
0.0
 10
960.6298934787065
 20
1914.639404056888
 30
0.0
 10
963.1698920267983
 20
1909.237323412425
 30
0.0
 10
966.1718433656713
 20
1904.273299204182
 30
0.0
 10
969.5370752812313
 20
1899.789726477993
 30
0.0
 10
973.3309677460919
 20
1895.657514302742
 30
0.0
 10
977.5101817833938
 20
1891.917070086308
 30
0.0
 10
982.0236290084335
 20
1888.609523904448
 30
0.0
 10
986.8030460963822
 20
1885.756604324552
 30
0.0
 10
991.7707749801958
 20
1883.437439089077
 30
0.0
 10
995.5518716570857
 20
1881.971862482978
 30
0.0
 10
997.688683809331
 20
1881.413436385935
 30
0.0
 10
998.0933484467811
 20
1881.307682918619
 30
0.0
  0
SPLINE
  5
7F
330
1F
100
AcDbEntity
  8
0
  6
Continuous
 62
     7
370
    25
100
AcDbSpline
210
0.0
220
0.0
230
1.0
 70
     8
 71
     3
 72
    19
 73
    15
 74
     0
 42
0.00000001
 43
0.00000001
 40
0.0
 40
0.0
 40
0.0
 40
0.0
 40
0.0425117732803646
 40
0.1226770648735197
 40
0.206662013670916
 40
0.2937563797666691
 40
0.3834173326187949
 40
0.4752893557722467
 40
0.569140338912984
 40
0.6648266396896507
 40
0.7622683466189294
 40
0.8614317775682525
 40
0.9623171291153448
 40
1.0
 40
1.0
 40
1.0
 40
1.0
 10
1002.472323315893
 20
1896.696319046893
 30
0.0
 10
1001.799263336684
 20
1896.888935202539
 30
0.0
 10
999.8570008441575
 20
1897.444771452091
 30
0.0
 10
996.7156187445347
 20
1898.743412270321
 30
0.0
 10
993.0508742451146
 20
1900.610354317212
 30
0.0
 10
989.4789844211971
 20
1902.920430543054
 30
0.0
 10
986.0769529569494
 20
1905.647823481062
 30
0.0
 10
982.9230319030897
 20
1908.783397132807
 30
0.0
 10
980.0847042571776
 20
1912.301994903807
 30
0.0
 10
977.6282815779089
 20
1916.17340163875
 30
0.0
 10
975.5988680244392
 20
1920.358548292512
 30
0.0
 10
974.0968575230781
 20
1924.816993738693
 30
0.0
 10
973.2250691656595
 20
1928.481246142411
 30
0.0
 10
973.0706849763777
 20
1930.656095855331
 30
0.0
 10
973.0287010397345
 20
1931.247534350299
 30
0.0
  0
LINE
  5
80
330
1F
100
AcDbEntity
  8
0
  6
Continuous
 62
     7
370
    25
100
AcDbLine
 10
1059.8617809046
 20
1852.9042708101
 30
0.0
 11
1060.6758904691
 21
1852.8894612074
 31
0.0
  0
SPLINE
  5
81
330
1F
100
AcDbEntity
  8
0
  6
Continuous
 62
     7
370
    25
100
AcDbSpline
210
0.0
220
0.0
230
1.0
 70
     8
 71
     3
 72
    18
 73
    14
 74
     0
 42
0.00000001
 43
0.00000001
 40
0.0
 40
0.0
 40
0.0
 40
0.0
 40
0.0323145328110756
 40
0.1490129207040432
 40
0.2630824768983749
 40
0.3746064467472528
 40
0.4758906067331137
 40
0.5754367913309945
 40
0.6909925609369019
 40
0.7781544251879571
 40
0.8502413768660699
 40
0.9353782742876725
 40
0.9999999999999999
 40
0.9999999999999999
 40
0.9999999999999999
 40
0.9999999999999999
 10
1038.01028517169
 20
1854.274652525167
 30
0.0
 10
1038.152541292018
 20
1854.133257161949
 30
0.0
 10
1038.808530970165
 20
1853.481236717451
 30
0.0
 10
1040.233110905114
 20
1852.722178712102
 30
0.0
 10
1042.288956952015
 20
1851.814540062336
 30
0.0
 10
1044.559461346236
 20
1851.106158799115
 30
0.0
 10
1046.979621560187
 20
1850.52341801507
 30
0.0
 10
1049.656753196734
 20
1850.030857568604
 30
0.0
 10
1052.414565051206
 20
1849.660351866279
 30
0.0
 10
1055.051033132654
 20
1849.413488470486
 30
0.0
 10
1057.462261412438
 20
1849.259657893838
 30
0.0
 10
1059.693079341036
 20
1849.174927530996
 30
0.0
 10
1061.209951579238
 20
1849.165164074659
 30
0.0
 10
1061.864490861628
 20
1849.160951085889
 30
0.0
  0
SPLINE
  5
82
330
1F
100
AcDbEntity
  8
0
  6
Continuous
 62
     7
370
    25
100
AcDbSpline
210
0.0
220
0.0
230
1.0
 70
     8
 71
     3
 72
    18
 73
    14
 74
     0
 42
0.00000001
 43
0.00000001
 40
0.0
 40
0.0
 40
0.0
 40
0.0
 40
0.1345862065954302
 40
0.1881688499240422
 40
0.2762524703485729
 40
0.3658161416932191
 40
0.4601163146049562
 40
0.5565178911318752
 40
0.6541504464709659
 40
0.7525294491955984
 40
0.8517520468114874
 40
0.9524116716305117
 40
0.9999999999999999
 40
0.9999999999999999
 40
0.9999999999999999
 40
0.9999999999999999
 10
1061.864490861628
 20
1849.160951085889
 30
0.0
 10
1063.20514543631
 20
1849.177340592716
 30
0.0
 10
1065.07955319209
 20
1849.200255234033
 30
0.0
 10
1067.774543425798
 20
1849.350697174509
 30
0.0
 10
1069.986223041339
 20
1849.525560624662
 30
0.0
 10
1072.489663151305
 20
1849.809054014476
 30
0.0
 10
1074.93723617411
 20
1850.179687764666
 30
0.0
 10
1077.285490332522
 20
1850.64217016164
 30
0.0
 10
1079.467905487998
 20
1851.194645115036
 30
0.0
 10
1081.458151485812
 20
1851.834568318201
 30
0.0
 10
1083.237018027351
 20
1852.59751934444
 30
0.0
 10
1084.575200756316
 20
1853.293593596664
 30
0.0
 10
1085.252031433718
 20
1853.874821848707
 30
0.0
 10
1085.469297438637
 20
1854.061399000842
 30
0.0
  0
SPLINE
  5
83
330
1F
100
AcDbEntity
  8
0
  6
Continuous
 62
     7
370
    25
100
AcDbSpline
210
0.0
220
0.0
230
1.0
 70
     8
 71
     3
 72
     9
 73
     5
 74
     0
 42
0.00000001
 43
0.00000001
 40
0.0
 40
0.0
 40
0.0
 40
0.0
 40
0.457516265045051
 40
1.0
 40
1.0
 40
1.0
 40
1.0
 10
1010.279098182202
 20
1894.108443990715
 30
0.0
 10
1009.10492341701
 20
1894.550959596197
 30
0.0
 10
1006.538512439082
 20
1895.518172434934
 30
0.0
 10
1003.882221704254
 20
1896.22211629528
 30
0.0
 10
1002.441227185298
 20
1896.603994389839
 30
0.0
  0
SPLINE
  5
84
330
1F
100
AcDbEntity
  8
0
  6
Continuous
 62
     7
370
    25
100
AcDbSpline
210
0.0
220
0.0
230
1.0
 70
     8
 71
     3
 72
    12
 73
     8
 74
     0
 42
0.00000001
 43
0.00000001
 40
0.0
 40
0.0
 40
0.0
 40
0.0
 40
0.0825186933438582
 40
0.3450494554174617
 40
0.6166516828911984
 40
0.8954581644426856
 40
1.0
 40
1.0
 40
1.0
 40
1.0
 10
998.072549497465
 20
1881.231290244042
 30
0.0
 10
998.6946101637214
 20
1881.071028275021
 30
0.0
 10
1001.295738289127
 20
1880.400897630753
 30
0.0
 10
1005.830343654616
 20
1878.82809143576
 30
0.0
 10
1011.666346993448
 20
1876.441965284684
 30
0.0
 10
1016.256554111908
 20
1874.259872434247
 30
0.0
 10
1018.802966681675
 20
1872.751125111364
 30
0.0
 10
1019.497391653036
 20
1872.339678895255
 30
0.0
  0
SPLINE
  5
85
330
1F
100
AcDbEntity
  8
0
  6
Continuous
 62
     7
370
    25
100
AcDbSpline
210
0.0
220
0.0
230
1.0
 70
     8
 71
     3
 72
     9
 73
     5
 74
     0
 42
0.00000001
 43
0.00000001
 40
0.0
 40
0.0
 40
0.0
 40
0.0
 40
0.7804331564397509
 40
1.0
 40
1.0
 40
1.0
 40
1.0
 10
1120.349600480927
 20
1896.372972283482
 30
0.0
 10
1118.553366572347
 20
1895.864772650926
 30
0.0
 10
1116.251780723823
 20
1895.213596277443
 30
0.0
 10
1114.025254606064
 20
1894.356145275537
 30
0.0
 10
1113.536383294284
 20
1894.167877465541
 30
0.0
  0
SPLINE
  5
86
330
1F
100
AcDbEntity
  8
0
  6
Continuous
 62
     7
370
    25
100
AcDbSpline
210
0.0
220
0.0
230
1.0
 70
     8
 71
     3
 72
    11
 73
     7
 74
     0
 42
0.00000001
 43
0.00000001
 40
0.0
 40
0.0
 40
0.0
 40
0.0
 40
0.1850649372960139
 40
0.4998673825035467
 40
0.8108312662220881
 40
1.0
 40
1.0
 40
1.0
 40
1.0
 10
1104.220114510629
 20
1872.321452187109
 30
0.0
 10
1105.404603498908
 20
1873.004999352605
 30
0.0
 10
1108.603952974971
 20
1874.851286052975
 30
0.0
 10
1114.091363011862
 20
1877.323040246885
 30
0.0
 10
1119.731084966718
 20
1879.532231003948
 30
0.0
 10
1123.312260252932
 20
1880.549922064754
 30
0.0
 10
1124.666793771904
 20
1880.934850626928
 30
0.0
  0
LINE
  5
87
330
1F
100
AcDbEntity
  8
0
  6
Continuous
 62
     7
370
    25
100
AcDbLine
 10
1183.3532636907
 20
2069.1322296881
 30
0.0
 11
1128.4426402527
 21
2086.5936245457
 31
0.0
  0
LINE
  5
88
330
1F
100
AcDbEntity
  8
0
  6
Continuous
 62
     7
370
    25
100
AcDbLine
 10
995.2863414705
 20
2086.5936245457
 30
0.0
 11
940.3757180326
 21
2069.1322296881
 31
0.0
  0
LINE
  5
89
330
1F
100
AcDbEntity
  8
0
  6
Continuous
 62
     7
370
    25
100
AcDbLine
 10
1221.7778744906
 20
2034.3405902908
 30
0.0
 11
1220.8280364648
 21
2041.8087637895
 31
0.0
  0
LINE
  5
8A
330
1F
100
AcDbEntity
  8
0
  6
Continuous
 62
     7
370
    25
100
AcDbLine
 10
902.9009452585
 20
2041.8087637895
 30
0.0
 11
901.9511072326
 21
2034.3405902908
 31
0.0
  0
SPLINE
  5
8B
330
1F
100
AcDbEntity
  8
0
  6
Continuous
 62
     7
370
    25
100
AcDbSpline
210
0.0
220
0.0
230
1.0
 70
     8
 71
     3
 72
    16
 73
    12
 74
     0
 42
0.00000001
 43
0.00000001
 40
0.0
 40
0.0
 40
0.0
 40
0.0
 40
0.0654298930010493
 40
0.1937694445199176
 40
0.3217649646537507
 40
0.4494389617221209
 40
0.5764299141684837
 40
0.7023365815835781
 40
0.8268732424058748
 40
0.9507151395102514
 40
1.0
 40
1.0
 40
1.0
 40
1.0
 10
920.3540940909902
 20
2060.942730143222
 30
0.0
 10
919.693853242539
 20
2060.595254524833
 30
0.0
 10
917.738561913365
 20
2059.566211766681
 30
0.0
 10
914.9101289869157
 20
2057.772299046627
 30
0.0
 10
911.8502535604413
 20
2055.560938921023
 30
0.0
 10
909.2129798679731
 20
2053.257002488665
 30
0.0
 10
906.9862897008657
 20
2050.853988575182
 30
0.0
 10
905.1818298378472
 20
2048.34039678894
 30
0.0
 10
903.867754366206
 20
2045.700867569942
 30
0.0
 10
903.1067973414846
 20
2043.502917309993
 30
0.0
 10
902.9995760546475
 20
2042.181369544958
 30
0.0
 10
902.9690528343392
 20
2041.805157929056
 30
0.0
  0
SPLINE
  5
8C
330
1F
100
AcDbEntity
  8
0
  6
Continuous
 62
     7
370
    25
100
AcDbSpline
210
0.0
220
0.0
230
1.0
 70
     8
 71
     3
 72
    16
 73
    12
 74
     0
 42
0.00000001
 43
0.00000001
 40
0.0
 40
0.0
 40
0.0
 40
0.0
 40
0.041763789003334
 40
0.1582142042985736
 40
0.2791405455852426
 40
0.4046498354961268
 40
0.5329861946066708
 40
0.6623217287909372
 40
0.7916371486955446
 40
0.9207753151185768
 40
1.0
 40
1.0
 40
1.0
 40
1.0
 10
1220.748827132243
 20
2041.867458369861
 30
0.0
 10
1220.72246832038
 20
2042.215951652955
 30
0.0
 10
1220.622612954168
 20
2043.536152448999
 30
0.0
 10
1219.829317784846
 20
2045.787649685283
 30
0.0
 10
1218.415354134548
 20
2048.577150560648
 30
0.0
 10
1216.397456306547
 20
2051.285450894162
 30
0.0
 10
1213.84919182975
 20
2053.900039219793
 30
0.0
 10
1210.791643951136
 20
2056.409538188506
 30
0.0
 10
1207.230890832626
 20
2058.808566131092
 30
0.0
 10
1203.783974420427
 20
2060.824076071191
 30
0.0
 10
1201.337176726326
 20
2062.003605663419
 30
0.0
 10
1200.406844015528
 20
2062.4520918483
 30
0.0
  0
SPLINE
  5
8D
330
1F
100
AcDbEntity
  8
0
  6
Continuous
 62
     7
370
    25
100
AcDbSpline
210
0.0
220
0.0
230
1.0
 70
     8
 71
     3
 72
    19
 73
    15
 74
     0
 42
0.00000001
 43
0.00000001
 40
0.0
 40
0.0
 40
0.0
 40
0.0
 40
0.0316285142689631
 40
0.1278702406900226
 40
0.2240054223779171
 40
0.3199199533009079
 40
0.4155886749525549
 40
0.5110770715611754
 40
0.6064838739004645
 40
0.7014675954914675
 40
0.793795187535187
 40
0.8817122264575304
 40
0.9669684310541734
 40
1.0
 40
1.0
 40
1.0
 40
1.0
 10
1019.179105122713
 20
2111.295755696289
 30
0.0
 10
1018.743279884886
 20
2111.198127148693
 30
0.0
 10
1016.981291396087
 20
2110.803426791501
 30
0.0
 10
1014.16903821967
 20
2110.023003253849
 30
0.0
 10
1010.77104168208
 20
2108.957961463649
 30
0.0
 10
1007.701320213422
 20
2107.806186275893
 30
0.0
 10
1004.943571762376
 20
2106.573471432706
 30
0.0
 10
1002.504353861837
 20
2105.248329014532
 30
0.0
 10
1000.379860354871
 20
2103.812039842336
 30
0.0
 10
998.5885909684347
 20
2102.240216536196
 30
0.0
 10
997.1466517050069
 20
2100.506352218413
 30
0.0
 10
996.1509703320693
 20
2098.587694108064
 30
0.0
 10
995.629821108643
 20
2096.919707541612
 30
0.0
 10
995.672185770248
 20
2095.932008161147
 30
0.0
 10
995.6840159974876
 20
2095.656195545807
 30
0.0
  0
SPLINE
  5
8E
330
1F
100
AcDbEntity
  8
0
  6
Continuous
 62
     7
370
    25
100
AcDbSpline
210
0.0
220
0.0
230
1.0
 70
     8
 71
     3
 72
    18
 73
    14
 74
     0
 42
0.00000001
 43
0.00000001
 40
0.0
 40
0.0
 40
0.0
 40
0.0
 40
0.0353505942982807
 40
0.1350030948972895
 40
0.2320862327396536
 40
0.3387905078343244
 40
0.4491848273658282
 40
0.5569915106336987
 40
0.6644170705577693
 40
0.7723971715748268
 40
0.8807454027767764
 40
0.9892302973894566
 40
1.0
 40
1.0
 40
1.0
 40
1.0
 10
1128.039593193515
 20
2095.786968527113
 30
0.0
 10
1128.045699330644
 20
2096.077845971875
 30
0.0
 10
1128.069018525884
 20
2097.188700147263
 30
0.0
 10
1127.415384305359
 20
2099.012313099724
 30
0.0
 10
1126.174039594014
 20
2101.094087287573
 30
0.0
 10
1124.419153344343
 20
2102.948196159843
 30
0.0
 10
1122.219651906436
 20
2104.632462121302
 30
0.0
 10
1119.622049719948
 20
2106.158951736975
 30
0.0
 10
1116.657942848718
 20
2107.551417096143
 30
0.0
 10
1113.314962152091
 20
2108.84307832527
 30
0.0
 10
1109.552534978439
 20
2110.025741496427
 30
0.0
 10
1106.753330745059
 20
2110.811822864501
 30
0.0
 10
1105.124900588906
 20
2111.170430470877
 30
0.0
 10
1104.9778395203
 20
2111.202815782342
 30
0.0
  0
LINE
  5
8F
330
1F
100
AcDbEntity
  8
0
  6
Continuous
 62
     7
370
    25
100
AcDbLine
 10
1128.6615665174
 20
2080.5382804417
 30
0.0
 11
1128.1109787291
 21
2095.7671453828
 31
0.0
  0
LINE
  5
90
330
1F
100
AcDbEntity
  8
0
  6
Continuous
 62
     7
370
    25
100
AcDbLine
 10
995.6180029941
 20
2095.7671453828
 30
0.0
 11
995.0674152058
 21
2080.5382804417
 31
0.0
  0
LINE
  5
91
330
1F
100
AcDbEntity
  8
0
  6
Continuous
 62
     7
370
    25
100
AcDbLine
 10
1103.3626740909
 20
2106.9433773584
 30
0.0
 11
1101.7889305692
 21
2150.471999048
 31
0.0
  0
LINE
  5
92
330
1F
100
AcDbEntity
  8
0
  6
Continuous
 62
     7
370
    25
100
AcDbLine
 10
1021.940051154
 20
2150.471999048
 30
0.0
 11
1020.3663076323
 21
2106.9433773584
 31
0.0
  0
SPLINE
  5
93
330
1F
100
AcDbEntity
  8
0
  6
Continuous
 62
     7
370
    25
100
AcDbSpline
210
0.0
220
0.0
230
1.0
 70
     8
 71
     3
 72
    16
 73
    12
 74
     0
 42
0.00000001
 43
0.00000001
 40
0.0
 40
0.0
 40
0.0
 40
0.0
 40
0.0746911334148881
 40
0.2060860993140777
 40
0.3376067269695485
 40
0.4695512529566937
 40
0.6020765042212153
 40
0.7302260959993365
 40
0.8478400212940197
 40
0.9592229731264021
 40
1.0
 40
1.0
 40
1.0
 40
1.0
 10
1034.615481819365
 20
2160.444808777333
 30
0.0
 10
1034.097633454746
 20
2160.304345386525
 30
0.0
 10
1032.668797867157
 20
2159.916781950484
 30
0.0
 10
1030.609265452455
 20
2159.188008372412
 30
0.0
 10
1028.420819798029
 20
2158.258404485928
 30
0.0
 10
1026.497755166382
 20
2157.21018090622
 30
0.0
 10
1024.840169753364
 20
2156.016079167605
 30
0.0
 10
1023.469633362012
 20
2154.634847146841
 30
0.0
 10
1022.49523185091
 20
2153.025903538545
 30
0.0
 10
1021.967156360171
 20
2151.585386880855
 30
0.0
 10
1021.999224046273
 20
2150.729177723315
 30
0.0
 10
1022.007817796805
 20
2150.499724064584
 30
0.0
  0
SPLINE
  5
94
330
1F
100
AcDbEntity
  8
0
  6
Continuous
 62
     7
370
    25
100
AcDbSpline
210
0.0
220
0.0
230
1.0
 70
     8
 71
     3
 72
    14
 73
    10
 74
     0
 42
0.00000001
 43
0.00000001
 40
0.0
 40
0.0
 40
0.0
 40
0.0
 40
0.0509096731760185
 40
0.1853038923704685
 40
0.3322729973072506
 40
0.5016557743495513
 40
0.678682641120715
 40
0.8400337719711788
 40
1.0
 40
1.0
 40
1.0
 40
1.0
 10
1101.71962380954
 20
2150.486763914383
 30
0.0
 10
1101.727673142747
 20
2150.733671097842
 30
0.0
 10
1101.756971558572
 20
2151.632377754058
 30
0.0
 10
1101.182507766827
 20
2153.153791641239
 30
0.0
 10
1100.084450766845
 20
2154.868919789998
 30
0.0
 10
1098.4903388282
 20
2156.358283678862
 30
0.0
 10
1096.549828618356
 20
2157.61891006425
 30
0.0
 10
1094.359436448505
 20
2158.703569655084
 30
0.0
 10
1092.698369920605
 20
2159.31041390462
 30
0.0
 10
1091.871416319654
 20
2159.612528256417
 30
0.0
  0
LINE
  5
95
330
1F
100
AcDbEntity
  8
0
  6
Continuous
 62
     7
370
    25
100
AcDbLine
 10
1111.4678361134
 20
2102.67413911
 30
0.0
 11
1110.4855265796
 21
2104.6805148359
 31
0.0
  0
LINE
  5
96
330
1F
100
AcDbEntity
  8
0
  6
Continuous
 62
     7
370
    25
100
AcDbLine
 10
1013.2434551436
 20
2104.6805148359
 30
0.0
 11
1012.2611456098
 21
2102.67413911
 31
0.0
  0
SPLINE
  5
97
330
1F
100
AcDbEntity
  8
0
  6
Continuous
 62
     7
370
    25
100
AcDbSpline
210
0.0
220
0.0
230
1.0
 70
     8
 71
     3
 72
    12
 73
     8
 74
     0
 42
0.00000001
 43
0.00000001
 40
0.0
 40
0.0
 40
0.0
 40
0.0
 40
0.2502346445770313
 40
0.5178133518705061
 40
0.7690798054750256
 40
0.9963242181663977
 40
1.0
 40
1.0
 40
1.0
 40
1.0
 10
1020.522474745754
 20
2111.262848165678
 30
0.0
 10
1019.785911672723
 20
2110.869430844187
 30
0.0
 10
1018.261733458492
 20
2110.055327975779
 30
0.0
 10
1016.285763770315
 20
2108.61154785285
 30
0.0
 10
1014.63752796125
 20
2106.885289621453
 30
0.0
 10
1013.624678103026
 20
2105.615414133247
 30
0.0
 10
1013.336739977637
 20
2104.860142540722
 30
0.0
 10
1013.332156585818
 20
2104.848120146557
 30
0.0
  0
SPLINE
  5
98
330
1F
100
AcDbEntity
  8
0
  6
Continuous
 62
     7
370
    25
100
AcDbSpline
210
0.0
220
0.0
230
1.0
 70
     8
 71
     3
 72
    12
 73
     8
 74
     0
 42
0.00000001
 43
0.00000001
 40
0.0
 40
0.0
 40
0.0
 40
0.0
 40
0.0209291194150903
 40
0.2584584915593111
 40
0.5320171985427359
 40
0.841112604368054
 40
1.0
 40
1.0
 40
1.0
 40
1.0
 10
1110.424832724464
 20
2104.751653659027
 30
0.0
 10
1110.398648559664
 20
2104.820581155443
 30
0.0
 10
1110.075294308453
 20
2105.671782603404
 30
0.0
 10
1108.949159165811
 20
2107.072666983729
 30
0.0
 10
1107.080351646221
 20
2108.923659558498
 30
0.0
 10
1105.133239456936
 20
2110.277400433798
 30
0.0
 10
1103.695819181609
 20
2110.986525085573
 30
0.0
 10
1103.207792777083
 20
2111.227283867196
 30
0.0
  0
SPLINE
  5
99
330
1F
100
AcDbEntity
  8
0
  6
Continuous
 62
     7
370
    25
100
AcDbSpline
210
0.0
220
0.0
230
1.0
 70
     8
 71
     3
 72
    20
 73
    16
 74
     0
 42
0.00000001
 43
0.00000001
 40
0.0
 40
0.0
 40
0.0
 40
0.0
 40
0.1175586154953256
 40
0.164255973764533
 40
0.2408335063367273
 40
0.318309521613834
 40
0.3996304559557514
 40
0.4825882336216119
 40
0.5667328080451738
 40
0.6522177800634328
 40
0.7398739810061975
 40
0.8249899035245829
 40
0.899435849813469
 40
0.970653391367193
 40
1.0
 40
1.0
 40
1.0
 40
1.0
 10
1061.864490861619
 20
2170.265854690183
 30
0.0
 10
1060.684454635432
 20
2170.249333660047
 30
0.0
 10
1059.035677141814
 20
2170.226250044429
 30
0.0
 10
1056.68168242226
 20
2170.075274696045
 30
0.0
 10
1054.768045133666
 20
2169.900862159839
 30
0.0
 10
1052.630018768915
 20
2169.619776878215
 30
0.0
 10
1050.573338072373
 20
2169.254397625631
 30
0.0
 10
1048.632638726514
 20
2168.798145944859
 30
0.0
 10
1046.851963179598
 20
2168.247693765657
 30
0.0
 10
1045.233173071024
 20
2167.581801430244
 30
0.0
 10
1043.788253394949
 20
2166.759917581566
 30
0.0
 10
1042.534333904
 20
2165.71817953055
 30
0.0
 10
1041.595265440956
 20
2164.384965191732
 30
0.0
 10
1041.069302430172
 20
2163.116310582889
 30
0.0
 10
1041.099091953818
 20
2162.33566686298
 30
0.0
 10
1041.107785126187
 20
2162.107859580889
 30
0.0
  0
SPLINE
  5
9A
330
1F
100
AcDbEntity
  8
0
  6
Continuous
 62
     7
370
    25
100
AcDbSpline
210
0.0
220
0.0
230
1.0
 70
     8
 71
     3
 72
    19
 73
    15
 74
     0
 42
0.00000001
 43
0.00000001
 40
0.0
 40
0.0
 40
0.0
 40
0.0
 40
0.0283240549334424
 40
0.10306386287888
 40
0.1834828782222411
 40
0.2789563262842075
 40
0.374645329811448
 40
0.492289809168527
 40
0.6158558836806131
 40
0.7176673479434156
 40
0.7961753762327812
 40
0.8596779375275229
 40
0.9332595396377922
 40
0.9999999999999999
 40
0.9999999999999999
 40
0.9999999999999999
 40
0.9999999999999999
 10
1082.622445912013
 20
2162.098554366574
 30
0.0
 10
1082.631919305825
 20
2162.318367510423
 30
0.0
 10
1082.666390519892
 20
2163.118210321416
 30
0.0
 10
1082.107792219734
 20
2164.450594887897
 30
0.0
 10
1081.064617468605
 20
2165.870153959154
 30
0.0
 10
1079.659169975598
 20
2166.954710337918
 30
0.0
 10
1077.88190161337
 20
2167.878040196391
 30
0.0
 10
1075.635531035895
 20
2168.672691065288
 30
0.0
 10
1072.965414920531
 20
2169.309681605753
 30
0.0
 10
1070.315314841467
 20
2169.738331937325
 30
0.0
 10
1068.044161028351
 20
2169.992987239548
 30
0.0
 10
1065.960331995911
 20
2170.152689190484
 30
0.0
 10
1063.940523285841
 20
2170.248305511351
 30
0.0
 10
1062.533638314391
 20
2170.260198233099
 30
0.0
 10
1061.864490861619
 20
2170.265854690183
 30
0.0
  0
SPLINE
  5
9B
330
1F
100
AcDbEntity
  8
0
  6
Continuous
 62
     7
370
    25
100
AcDbSpline
210
0.0
220
0.0
230
1.0
 70
     8
 71
     3
 72
     9
 73
     5
 74
     0
 42
0.00000001
 43
0.00000001
 40
0.0
 40
0.0
 40
0.0
 40
0.0
 40
0.1061286468449829
 40
1.0
 40
1.0
 40
1.0
 40
1.0
 10
1082.821035729907
 20
2158.786439671145
 30
0.0
 10
1082.823605123702
 20
2158.782555027011
 30
0.0
 10
1082.847815305133
 20
2158.745951864241
 30
0.0
 10
1082.828142346591
 20
2158.822164866396
 30
0.0
 10
1082.810557252517
 20
2158.89028948576
 30
0.0
  0
SPLINE
  5
9C
330
1F
100
AcDbEntity
  8
0
  6
Continuous
 62
     7
370
    25
100
AcDbSpline
210
0.0
220
0.0
230
1.0
 70
     8
 71
     3
 72
     9
 73
     5
 74
     0
 42
0.00000001
 43
0.00000001
 40
0.0
 40
0.0
 40
0.0
 40
0.0
 40
0.0449155584546331
 40
1.0
 40
1.0
 40
1.0
 40
1.0
 10
1040.921289092031
 20
2158.908799035471
 30
0.0
 10
1040.921654049475
 20
2158.906519606377
 30
0.0
 10
1040.929779462074
 20
2158.85577039671
 30
0.0
 10
1040.917130735921
 20
2158.824703618974
 30
0.0
 10
1040.905050134367
 20
2158.79503222291
 30
0.0
  0
LINE
  5
9D
330
1F
100
AcDbEntity
  8
0
  6
Continuous
 62
     7
370
    25
100
AcDbLine
 10
1082.8068913605
 20
2158.892091348
 30
0.0
 11
1082.6910845206
 21
2162.0952258205
 31
0.0
  0
LINE
  5
9E
330
1F
100
AcDbEntity
  8
0
  6
Continuous
 62
     7
370
    25
100
AcDbLine
 10
1041.0378972027
 20
2162.0952258205
 30
0.0
 11
1040.9220903627
 21
2158.892091348
 31
0.0
  0
LINE
  5
9F
330
1F
100
AcDbEntity
  8
0
  6
Continuous
 62
     7
370
    25
100
AcDbLine
 10
1031.8644908616
 20
1180.86285401
 30
0.0
 11
1041.8644908616
 21
1180.86285401
 31
0.0
  0
LINE
  5
A0
330
1F
100
AcDbEntity
  8
0
  6
Continuous
 62
     7
370
    25
100
AcDbLine
 10
1081.8644908616
 20
1180.86285401
 30
0.0
 11
1091.8644908616
 21
1180.86285401
 31
0.0
  0
LINE
  5
A1
330
1F
100
AcDbEntity
  8
0
  6
Continuous
 62
     7
370
    25
100
AcDbLine
 10
1091.8644908616
 20
1165.3337113038
 30
0.0
 11
1031.8644908616
 21
1165.3337113038
 31
0.0
  0
LINE
  5
A2
330
1F
100
AcDbEntity
  8
0
  6
Continuous
 62
     7
370
    25
100
AcDbLine
 10
1031.8644908616
 20
1165.3337113038
 30
0.0
 11
1031.8644908616
 21
1180.86285401
 31
0.0
  0
LINE
  5
A3
330
1F
100
AcDbEntity
  8
0
  6
Continuous
 62
     7
370
    25
100
AcDbLine
 10
1091.8644908616
 20
1180.86285401
 30
0.0
 11
1091.8644908616
 21
1165.3337113038
 31
0.0
  0
LINE
  5
A4
330
1F
100
AcDbEntity
  8
0
  6
Continuous
 62
     7
370
    25
100
AcDbLine
 10
1091.8644908616
 20
1161.4700079986
 30
0.0
 11
1035.8644908616
 21
1161.4700079986
 31
0.0
  0
LINE
  5
A5
330
1F
100
AcDbEntity
  8
0
  6
Continuous
 62
     7
370
    25
100
AcDbLine
 10
1031.8644908616
 20
1161.4700079986
 30
0.0
 11
1035.8644908616
 21
1161.4700079986
 31
0.0
  0
LINE
  5
A6
330
1F
100
AcDbEntity
  8
0
  6
Continuous
 62
     7
370
    25
100
AcDbLine
 10
1031.8644908616
 20
1161.4700079986
 30
0.0
 11
1031.8644908616
 21
1165.3337113038
 31
0.0
  0
LINE
  5
A7
330
1F
100
AcDbEntity
  8
0
  6
Continuous
 62
     7
370
    25
100
AcDbLine
 10
1091.8644908616
 20
1165.3337113038
 30
0.0
 11
1091.8644908616
 21
1161.4700079986
 31
0.0
  0
LINE
  5
A8
330
1F
100
AcDbEntity
  8
0
  6
Continuous
 62
     7
370
    25
100
AcDbLine
 10
1035.8644908616
 20
1161.4700079986
 30
0.0
 11
1035.8644908616
 21
888.4969156722
 31
0.0
  0
LINE
  5
A9
330
1F
100
AcDbEntity
  8
0
  6
Continuous
 62
     7
370
    25
100
AcDbLine
 10
1035.8644908616
 20
888.4969156722
 30
0.0
 11
1031.8644908616
 21
888.4969156722
 31
0.0
  0
LINE
  5
AA
330
1F
100
AcDbEntity
  8
0
  6
Continuous
 62
     7
370
    25
100
AcDbLine
 10
1031.8644908616
 20
888.4969156722
 30
0.0
 11
1031.8644908616
 21
1161.4700079986
 31
0.0
  0
LINE
  5
AB
330
1F
100
AcDbEntity
  8
0
  6
Continuous
 62
     7
370
    25
100
AcDbLine
 10
1053.2042368238
 20
1155.6930354123
 30
0.0
 11
1070.5247448995
 21
1155.6930354123
 31
0.0
  0
LINE
  5
AC
330
1F
100
AcDbEntity
  8
0
  6
Continuous
 62
     7
370
    25
100
AcDbLine
 10
1053.2042368238
 20
1161.4700079986
 30
0.0
 11
1053.2042368238
 21
1155.6930354123
 31
0.0
  0
LINE
  5
AD
330
1F
100
AcDbEntity
  8
0
  6
Continuous
 62
     7
370
    25
100
AcDbLine
 10
1070.5247448995
 20
1161.4700079986
 30
0.0
 11
1070.5247448995
 21
1155.6930354123
 31
0.0
  0
LINE
  5
AE
330
1F
100
AcDbEntity
  8
0
  6
Continuous
 62
     7
370
    25
100
AcDbLine
 10
1044.5439827859
 20
1159.5753210888
 30
0.0
 11
1053.2042368238
 21
1155.6930354123
 31
0.0
  0
LINE
  5
AF
330
1F
100
AcDbEntity
  8
0
  6
Continuous
 62
     7
370
    25
100
AcDbLine
 10
1044.5439827859
 20
1161.4700079986
 30
0.0
 11
1044.5439827859
 21
1159.5753210888
 31
0.0
  0
LINE
  5
B0
330
1F
100
AcDbEntity
  8
0
  6
Continuous
 62
     7
370
    25
100
AcDbLine
 10
1070.5247448995
 20
1155.6930354123
 30
0.0
 11
1079.1849989373
 21
1159.5753210888
 31
0.0
  0
LINE
  5
B1
330
1F
100
AcDbEntity
  8
0
  6
Continuous
 62
     7
370
    25
100
AcDbLine
 10
1079.1849989373
 20
1161.4700079986
 30
0.0
 11
1079.1849989373
 21
1159.5753210888
 31
0.0
  0
LINE
  5
B2
330
1F
100
AcDbEntity
  8
0
  6
Continuous
 62
     7
370
    25
100
AcDbLine
 10
1041.8644908616
 20
890.0498299428
 30
0.0
 11
1035.8644908616
 21
890.0498299428
 31
0.0
  0
LINE
  5
B3
330
1F
100
AcDbEntity
  8
0
  6
Continuous
 62
     7
370
    25
100
AcDbLine
 10
1041.8644908616
 20
890.0498299428
 30
0.0
 11
1089.3298363386
 21
1161.4700079986
 31
0.0
  0
SPLINE
  5
B4
330
1F
100
AcDbEntity
  8
0
  6
Continuous
 62
     7
370
    25
100
AcDbSpline
210
0.0
220
0.0
230
1.0
 70
     8
 71
     3
 72
     9
 73
     5
 74
     0
 42
0.00000001
 43
0.00000001
 40
0.0
 40
0.0
 40
0.0
 40
0.0
 40
0.5885929031097374
 40
1.0
 40
1.0
 40
1.0
 40
1.0
 10
1063.400781886427
 20
1852.757683371686
 30
0.0
 10
1064.010418092252
 20
1852.780761198766
 30
0.0
 10
1065.04616997204
 20
1852.819969668588
 30
0.0
 10
1065.887505917908
 20
1853.003246636857
 30
0.0
 10
1066.233637496906
 20
1853.078648082299
 30
0.0
  0
LWPOLYLINE
  5
B5
330
1F
100
AcDbEntity
  8
0
  6
Continuous
 62
     7
370
    25
100
AcDbPolyline
 90
       32
 70
   128
 43
0.0
 10
1119.577703822
 20
1939.7933084589
 10
1119.8424686691
 20
1938.7159755324
 10
1119.666391456
 20
1937.062703169
 10
1118.7886774703
 20
1935.4244783587
 10
1117.2199809706
 20
1933.8211869315
 10
1114.9793438076
 20
1932.2722906734
 10
1112.0939642811
 20
1930.7965910868
 10
1108.59886699
 20
1929.4120011656
 10
1104.5364776807
 20
1928.135327956
 10
1099.9561082564
 20
1926.9820685412
 10
1094.9133581972
 20
1925.9662219282
 10
1089.4694396578
 20
1925.1001191189
 10
1083.6904344346
 20
1924.3942734281
 10
1077.6464918226
 20
1923.8572528663
 10
1071.4109770979
 20
1923.4955761357
 10
1065.0595809623
 20
1923.3136335019
 10
1058.669400761
 20
1923.3136335019
 10
1052.3180046253
 20
1923.4955761357
 10
1046.0824899006
 20
1923.8572528663
 10
1040.0385472886
 20
1924.3942734281
 10
1034.2595420655
 20
1925.1001191189
 10
1028.815623526
 20
1925.9662219282
 10
1023.7728734668
 20
1926.9820685412
 10
1019.1925040426
 20
1928.135327956
 10
1015.1301147333
 20
1929.4120011656
 10
1011.6350174421
 20
1930.7965910868
 10
1008.7496379156
 20
1932.2722906734
 10
1006.5090007526
 20
1933.8211869315
 10
1004.940304253
 20
1935.4244783587
 10
1004.0625902672
 20
1937.062703169
 10
1003.8865130542
 20
1938.7159755324
 10
1004.2149805641
 20
1939.9501481849
  0
SPLINE
  5
B6
330
1F
100
AcDbEntity
  8
0
  6
Continuous
 62
     7
370
    25
100
AcDbSpline
210
0.0
220
0.0
230
1.0
 70
     8
 71
     3
 72
    11
 73
     7
 74
     0
 42
0.00000001
 43
0.00000001
 40
0.0
 40
0.0
 40
0.0
 40
0.0
 40
0.357281046686325
 40
0.7102403132376127
 40
0.9454207091468724
 40
1.0
 40
1.0
 40
1.0
 40
1.0
 10
1031.887442994919
 20
1927.623504090955
 30
0.0
 10
1029.780696883768
 20
1928.057707594313
 30
0.0
 10
1025.592688502766
 20
1928.920862343479
 30
0.0
 10
1021.050137068603
 20
1930.34725785152
 30
0.0
 10
1018.304067519782
 20
1931.381440092045
 30
0.0
 10
1017.33251552301
 20
1931.886283806417
 30
0.0
 10
1017.149513464983
 20
1931.981376440696
 30
0.0
  0
SPLINE
  5
B7
330
1F
100
AcDbEntity
  8
0
  6
Continuous
 62
     7
370
    25
100
AcDbSpline
210
0.0
220
0.0
230
1.0
 70
     8
 71
     3
 72
    12
 73
     8
 74
     0
 42
0.00000001
 43
0.00000001
 40
0.0
 40
0.0
 40
0.0
 40
0.0
 40
0.2262107292850641
 40
0.4514766722969002
 40
0.6137867579904888
 40
0.7966480827241443
 40
0.9999999999999999
 40
0.9999999999999999
 40
0.9999999999999999
 40
0.9999999999999999
 10
1061.864490861891
 20
1926.137848274925
 30
0.0
 10
1059.530740699028
 20
1926.082691616106
 30
0.0
 10
1054.872987457915
 20
1925.972608664438
 30
0.0
 10
1048.517603702914
 20
1926.131657151141
 30
0.0
 10
1042.747840738938
 20
1926.453433373149
 30
0.0
 10
1037.334462285231
 20
1926.910087793344
 30
0.0
 10
1033.766220596815
 20
1927.37743362758
 30
0.0
 10
1031.887442994919
 20
1927.623504090955
 30
0.0
  0
LWPOLYLINE
  5
B8
330
1F
100
AcDbEntity
  8
0
  6
Continuous
 62
     7
370
    25
100
AcDbPolyline
 90
       16
 70
   128
 43
0.0
 10
1061.8611625998
 20
1919.4271353919
 10
1068.2416596073
 20
1919.5181502942
 10
1074.5447464249
 20
1919.7902797295
 10
1080.6939121171
 20
1920.240220415
 10
1086.6145141423
 20
1920.8625106805
 10
1092.2346844121
 20
1921.6495967649
 10
1097.4862016727
 20
1922.5919245096
 10
1102.3053196186
 20
1923.6780553321
 10
1106.633540686
 20
1924.8948050756
 10
1110.4183261342
 20
1926.2274040464
 10
1113.613733795
 20
1927.6596762983
 10
1116.180975748
 20
1929.1742359863
 10
1118.0888891536
 20
1930.7526984074
 10
1119.3143145274
 20
1932.3759031662
 10
1119.8423768655
 20
1934.0241467557
 10
1119.8644908616
 20
1934.4386399831
  0
LWPOLYLINE
  5
B9
330
1F
100
AcDbEntity
  8
0
  6
Continuous
 62
     7
370
    25
100
AcDbPolyline
 90
       16
 70
   128
 43
0.0
 10
1003.8644908616
 20
1934.4386399831
 10
1003.8864214416
 20
1934.0258689366
 10
1004.4137528986
 20
1932.3776096724
 10
1005.6384584897
 20
1930.7543685242
 10
1007.545671948
 20
1929.1758494407
 10
1010.1122422857
 20
1927.6612135052
 10
1013.3070148157
 20
1926.2288463462
 10
1017.0912093271
 20
1924.8961349607
 10
1021.4188908249
 20
1923.6792566595
 10
1026.237527118
 20
1922.5929826968
 10
1031.4886264895
 20
1921.650498967
 10
1037.1084477062
 20
1920.8632459459
 10
1043.0287737513
 20
1920.2407798187
 10
1049.1777398867
 20
1919.7906564809
 10
1055.4807059929
 20
1919.5183398202
 10
1061.8611625998
 20
1919.4271353919
  0
SPLINE
  5
BA
330
1F
100
AcDbEntity
  8
0
  6
Continuous
 62
     7
370
    25
100
AcDbSpline
210
0.0
220
0.0
230
1.0
 70
     8
 71
     3
 72
    12
 73
     8
 74
     0
 42
0.00000001
 43
0.00000001
 40
0.0
 40
0.0
 40
0.0
 40
0.0
 40
0.1017047701333163
 40
0.3289498819746264
 40
0.5561949938159366
 40
0.7834401056572463
 40
1.0
 40
1.0
 40
1.0
 40
1.0
 10
1020.841566949613
 20
1930.841002534963
 30
0.0
 10
1021.458543229508
 20
1930.567430281083
 30
0.0
 10
1023.45406688279
 20
1929.682599014
 30
0.0
 10
1028.4717478636
 20
1928.444169412753
 30
0.0
 10
1035.574329473501
 20
1927.221228632147
 30
0.0
 10
1043.618977730875
 20
1926.37861249263
 30
0.0
 10
1049.44015708238
 20
1926.183363633163
 30
0.0
 10
1052.280670298199
 20
1926.088089646192
 30
0.0
  0
LWPOLYLINE
  5
BB
330
1F
100
AcDbEntity
  8
0
  6
Continuous
 62
     7
370
    25
100
AcDbPolyline
 90
        9
 70
   128
 43
0.0
 10
1061.8644908616
 20
1167.9219017549
 10
1065.7662973019
 20
1168.0213644625
 10
1069.5181595089
 20
1168.3159302891
 10
1072.975895522
 20
1168.7942792352
 10
1076.0066264853
 20
1169.4380286191
 10
1078.4938831077
 20
1170.222439513
 10
1080.3420815118
 20
1171.1173674462
 10
1081.4801964697
 20
1172.0884208399
 10
1081.8644908616
 20
1173.098282657
  0
SPLINE
  5
BC
330
1F
100
AcDbEntity
  8
0
  6
Continuous
 62
     7
370
    25
100
AcDbSpline
210
0.0
220
0.0
230
1.0
 70
     8
 71
     3
 72
    15
 73
    11
 74
     0
 42
0.00000001
 43
0.00000001
 40
0.0
 40
0.0
 40
0.0
 40
0.0
 40
0.1250000000000002
 40
0.2500000000000003
 40
0.3749999999999998
 40
0.5
 40
0.6250000000000002
 40
0.7499999999999997
 40
0.8749999999999999
 40
1.0
 40
1.0
 40
1.0
 40
1.0
 10
1041.864490861619
 20
1173.098282656977
 30
0.0
 10
1041.938925096249
 20
1172.759491105821
 30
0.0
 10
1042.087793565511
 20
1172.081908003508
 30
0.0
 10
1043.277046397663
 20
1171.104610368496
 30
0.0
 10
1045.125422112197
 20
1170.203855199414
 30
0.0
 10
1047.631856846959
 20
1169.414605912009
 30
0.0
 10
1050.681281927296
 20
1168.765892867346
 30
0.0
 10
1054.161532651218
 20
1168.28749802992
 30
0.0
 10
1057.937520753735
 20
1167.979696747517
 30
0.0
 10
1060.555500825658
 20
1167.941166752457
 30
0.0
 10
1061.864490861619
 20
1167.921901754927
 30
0.0
  0
SPLINE
  5
BD
330
1F
100
AcDbEntity
  8
0
  6
Continuous
 62
     7
370
    25
100
AcDbSpline
210
0.0
220
0.0
230
1.0
 70
     8
 71
     3
 72
    15
 73
    11
 74
     0
 42
0.00000001
 43
0.00000001
 40
0.0
 40
0.0
 40
0.0
 40
0.0
 40
0.0447043326654074
 40
0.1778475903253086
 40
0.313052691597393
 40
0.474803268172904
 40
0.6558554046914173
 40
0.7912118269477937
 40
0.9272403078215904
 40
1.0
 40
1.0
 40
1.0
 40
1.0
 10
1017.458921815304
 20
1889.359783413869
 30
0.0
 10
1017.497636367921
 20
1889.137168217819
 30
0.0
 10
1017.651654770229
 20
1888.251536471929
 30
0.0
 10
1018.092016169954
 20
1886.06309148419
 30
0.0
 10
1018.668166565478
 20
1882.937630808597
 30
0.0
 10
1019.219721544191
 20
1879.360666984194
 30
0.0
 10
1019.542828096711
 20
1876.036806688741
 30
0.0
 10
1019.631024978263
 20
1873.646603796504
 30
0.0
 10
1019.597966137608
 20
1872.427185784849
 30
0.0
 10
1019.582251759414
 20
1872.464744469864
 30
0.0
 10
1019.576775523364
 20
1872.47783313442
 30
0.0
  0
SPLINE
  5
BE
330
1F
100
AcDbEntity
  8
0
  6
Continuous
 62
     7
370
    25
100
AcDbSpline
210
0.0
220
0.0
230
1.0
 70
     8
 71
     3
 72
    15
 73
    11
 74
     0
 42
0.00000001
 43
0.00000001
 40
0.0
 40
0.0
 40
0.0
 40
0.0
 40
0.0283031468731475
 40
0.1370482917513417
 40
0.2498986315141047
 40
0.3750162577132714
 40
0.5278491674801778
 40
0.7092207372394925
 40
0.8865656091212643
 40
1.0
 40
1.0
 40
1.0
 40
1.0
 10
1104.152401477667
 20
1872.439290045976
 30
0.0
 10
1104.151122923295
 20
1872.413894682146
 30
0.0
 10
1104.144931961797
 20
1872.29092633354
 30
0.0
 10
1104.111355026333
 20
1872.909065246617
 30
0.0
 10
1104.11417288457
 20
1874.26448334134
 30
0.0
 10
1104.227506065254
 20
1876.528164850305
 30
0.0
 10
1104.557881066212
 20
1879.706429413361
 30
0.0
 10
1105.150296049002
 20
1883.514875860655
 30
0.0
 10
1105.832034790661
 20
1887.014849215979
 30
0.0
 10
1106.149187922407
 20
1888.693217960847
 30
0.0
 10
1106.2729108866
 20
1889.347957691723
 30
0.0
  0
ARC
  5
BF
330
1F
100
AcDbEntity
  8
0
  6
Continuous
 62
     7
370
    25
100
AcDbCircle
 10
1061.7455936099
 20
1977.9135856201
 30
0.0
 40
121.9614894466352
100
AcDbArc
 50
256.8066223566
 51
283.9756807949
  0
SPLINE
  5
C0
330
1F
100
AcDbEntity
  8
0
  6
Continuous
 62
     7
370
    25
100
AcDbSpline
210
0.0
220
0.0
230
1.0
 70
     8
 71
     3
 72
    28
 73
    24
 74
     0
 42
0.00000001
 43
0.00000001
 40
0.0
 40
0.0
 40
0.0
 40
0.0
 40
0.1249999999999976
 40
0.1249999999999976
 40
0.2499999999999952
 40
0.2499999999999952
 40
0.312499999999995
 40
0.312499999999995
 40
0.3749999999999948
 40
0.3749999999999948
 40
0.4999999999999953
 40
0.4999999999999953
 40
0.6249999999999958
 40
0.6249999999999958
 40
0.6874999999999966
 40
0.6874999999999966
 40
0.7499999999999972
 40
0.7499999999999972
 40
0.8124999999999979
 40
0.8124999999999979
 40
0.8749999999999986
 40
0.8749999999999986
 40
1.0
 40
1.0
 40
1.0
 40
1.0
 10
1066.946147996483
 20
1854.070983942189
 30
0.0
 10
1066.738813880009
 20
1854.2989233645
 30
0.0
 10
1066.463205494631
 20
1854.481330109559
 30
0.0
 10
1065.776125523974
 20
1854.783314453722
 30
0.0
 10
1065.373755372731
 20
1854.897912178957
 30
0.0
 10
1064.7006399753
 20
1855.029878227418
 30
0.0
 10
1064.462405590545
 20
1855.067431665497
 30
0.0
 10
1063.97527873936
 20
1855.129568087059
 30
0.0
 10
1063.724785014844
 20
1855.154532664687
 30
0.0
 10
1062.952524595105
 20
1855.213992774196
 30
0.0
 10
1062.408479335279
 20
1855.233113311105
 30
0.0
 10
1061.318496075319
 20
1855.233065726648
 30
0.0
 10
1060.78713264405
 20
1855.21459048232
 30
0.0
 10
1060.010039174726
 20
1855.1550922273
 30
0.0
 10
1059.755158668582
 20
1855.129718160812
 30
0.0
 10
1059.268803132096
 20
1855.067751075088
 30
0.0
 10
1059.035146789902
 20
1855.031021105166
 30
0.0
 10
1058.586899383189
 20
1854.943517626001
 30
0.0
 10
1058.370814274387
 20
1854.892221275321
 30
0.0
 10
1057.970640298376
 20
1854.775185040244
 30
0.0
 10
1057.785413214145
 20
1854.709382864292
 30
0.0
 10
1057.273678199195
 20
1854.485461651082
 30
0.0
 10
1056.990136322324
 20
1854.29888871098
 30
0.0
 10
1056.782833726755
 20
1854.070983942189
 30
0.0
  0
SPLINE
  5
C1
330
1F
100
AcDbEntity
  8
0
  6
Continuous
 62
     7
370
    25
100
AcDbSpline
210
0.0
220
0.0
230
1.0
 70
     8
 71
     3
 72
    38
 73
    34
 74
     0
 42
0.00000001
 43
0.00000001
 40
0.0
 40
0.0
 40
0.0
 40
0.0
 40
0.0625
 40
0.0625
 40
0.1249999999999999
 40
0.1249999999999999
 40
0.1874999999999999
 40
0.1874999999999999
 40
0.2499999999999999
 40
0.2499999999999999
 40
0.3124999999999999
 40
0.3124999999999999
 40
0.3749999999999998
 40
0.3749999999999998
 40
0.4374999999999998
 40
0.4374999999999998
 40
0.4999999999999998
 40
0.4999999999999998
 40
0.5624999999999998
 40
0.5624999999999998
 40
0.6249999999999998
 40
0.6249999999999998
 40
0.6874999999999997
 40
0.6874999999999997
 40
0.7499999999999997
 40
0.7499999999999997
 40
0.8124999999999998
 40
0.8124999999999998
 40
0.8749999999999998
 40
0.8749999999999998
 40
0.9374999999999999
 40
0.9374999999999999
 40
1.0
 40
1.0
 40
1.0
 40
1.0
 10
1066.946147996483
 20
1854.070983942183
 30
0.0
 10
1067.121020946276
 20
1853.878731746396
 30
0.0
 10
1067.239990976277
 20
1853.67596116953
 30
0.0
 10
1067.371265000435
 20
1853.247272617872
 30
0.0
 10
1067.381667595659
 20
1853.020285921516
 30
0.0
 10
1067.293303894223
 20
1852.565653342789
 30
0.0
 10
1067.193874092324
 20
1852.332139426687
 30
0.0
 10
1066.892901431475
 20
1851.874247821928
 30
0.0
 10
1066.694006014025
 20
1851.651454297977
 30
0.0
 10
1066.198473555557
 20
1851.221387379832
 30
0.0
 10
1065.90583354669
 20
1851.018595555836
 30
0.0
 10
1065.248469658687
 20
1850.653813286032
 30
0.0
 10
1064.875761209865
 20
1850.488361467108
 30
0.0
 10
1064.08574740464
 20
1850.218563763577
 30
0.0
 10
1063.665185467526
 20
1850.111851114949
 30
0.0
 10
1062.77743095097
 20
1849.965372421537
 30
0.0
 10
1062.325477810184
 20
1849.927973197806
 30
0.0
 10
1061.405100056672
 20
1849.927885843044
 30
0.0
 10
1060.955241442531
 20
1849.965193805525
 30
0.0
 10
1060.075354124218
 20
1850.109521130601
 30
0.0
 10
1059.64666746833
 20
1850.217599102451
 30
0.0
 10
1058.856376744722
 20
1850.48707751359
 30
0.0
 10
1058.484045843917
 20
1850.652038712472
 30
0.0
 10
1057.824145580468
 20
1851.017856975316
 30
0.0
 10
1057.533611387902
 20
1851.218950311246
 30
0.0
 10
1057.035575204008
 20
1851.650679721193
 30
0.0
 10
1056.83669093488
 20
1851.87362306735
 30
0.0
 10
1056.536190892944
 20
1852.3301888315
 30
0.0
 10
1056.436030055449
 20
1852.564716822023
 30
0.0
 10
1056.347385556688
 20
1853.019046911407
 30
0.0
 10
1056.357160832865
 20
1853.244486509462
 30
0.0
 10
1056.488543601326
 20
1853.675464396599
 30
0.0
 10
1056.60795725376
 20
1853.878727873052
 30
0.0
 10
1056.782833726755
 20
1854.070983942183
 30
0.0
  0
LINE
  5
C2
330
1F
100
AcDbEntity
  8
0
  6
Continuous
 62
     7
370
    25
100
AcDbLine
 10
1056.753702706
 20
1854.3163227821
 30
0.0
 11
1057.5882021408
 21
1853.4967210968
 31
0.0
  0
SPLINE
  5
C3
330
1F
100
AcDbEntity
  8
0
  6
Continuous
 62
     7
370
    25
100
AcDbSpline
210
0.0
220
0.0
230
1.0
 70
     8
 71
     3
 72
    22
 73
    18
 74
     0
 42
0.00000001
 43
0.00000001
 40
0.0
 40
0.0
 40
0.0
 40
0.0
 40
0.125
 40
0.125
 40
0.2499999999999999
 40
0.2499999999999999
 40
0.3749999999999999
 40
0.3749999999999999
 40
0.4999999999999999
 40
0.4999999999999999
 40
0.6249999999999999
 40
0.6249999999999999
 40
0.7499999999999999
 40
0.7499999999999999
 40
0.875
 40
0.875
 40
1.0
 40
1.0
 40
1.0
 40
1.0
 10
1057.588202140806
 20
1853.496721096794
 30
0.0
 10
1057.843460283143
 20
1853.309746254527
 30
0.0
 10
1058.132033915663
 20
1853.179837045301
 30
0.0
 10
1058.775232094223
 20
1852.99625368123
 30
0.0
 10
1059.127382362548
 20
1852.944537191992
 30
0.0
 10
1059.864032185163
 20
1852.886590742148
 30
0.0
 10
1060.2557157233
 20
1852.879452002874
 30
0.0
 10
1061.048321769232
 20
1852.875874914564
 30
0.0
 10
1061.452882901995
 20
1852.878682727614
 30
0.0
 10
1062.27998595057
 20
1852.878672307847
 30
0.0
 10
1062.683681356711
 20
1852.875873114669
 30
0.0
 10
1063.473482994461
 20
1852.879468481274
 30
0.0
 10
1063.864441916469
 20
1852.886587451199
 30
0.0
 10
1064.600397576037
 20
1852.944406102407
 30
0.0
 10
1064.945814688016
 20
1852.994644389859
 30
0.0
 10
1065.591932034696
 20
1853.177762931207
 30
0.0
 10
1065.885645063562
 20
1853.309836807871
 30
0.0
 10
1066.140779582431
 20
1853.496721096794
 30
0.0
  0
LINE
  5
C4
330
1F
100
AcDbEntity
  8
0
  6
Continuous
 62
     7
370
    25
100
AcDbLine
 10
1066.1407795824
 20
1853.4967210968
 30
0.0
 11
1066.7138445672
 21
1854.0808045854
 31
0.0
  0
LWPOLYLINE
  5
C5
330
1F
100
AcDbEntity
  8
0
  6
Continuous
 62
     7
370
    25
100
AcDbPolyline
 90
       17
 70
   128
 43
0.0
 10
1037.7554260085
 20
1854.4381368772
 10
1038.269811789
 20
1854.0159156617
 10
1040.0180802543
 20
1853.0149053844
 10
1042.3948301771
 20
1852.1047640944
 10
1045.3316867896
 20
1851.3116748995
 10
1048.7441620739
 20
1850.6584535318
 10
1052.5340853294
 20
1850.1638919809
 10
1056.5924273641
 20
1849.8422178821
 10
1060.8024370669
 20
1849.7026852135
 10
1065.0430001237
 20
1849.7493080759
 10
1069.1921232561
 20
1849.9807452146
 10
1073.130443746
 20
1850.3903386044
 10
1076.7446632831
 20
1850.9663049891
 10
1079.930807352
 20
1851.6920748647
 10
1082.5972163888
 20
1852.5467691532
 10
1084.66718266
 20
1853.5057998559
 10
1085.9735557148
 20
1854.4381368772
  0
LWPOLYLINE
  5
C6
330
1F
100
AcDbEntity
  8
0
  6
Continuous
 62
     7
370
    25
100
AcDbPolyline
 90
       33
 70
   128
 43
0.0
 10
1128.6615665174
 20
2080.5382804417
 10
1128.6644908616
 20
2080.3765063573
 10
1128.3104425527
 20
2078.5988225999
 10
1127.252050626
 20
2076.8399827326
 10
1125.5005342993
 20
2075.1186308956
 10
1123.0744600814
 20
2073.4530138464
 10
1119.9995449624
 20
2071.8607875402
 10
1116.3083838077
 20
2070.3588299719
 10
1112.0401038438
 20
2068.9630622654
 10
1107.2399499
 20
2067.6882799057
 10
1101.9588048023
 20
2066.5479959027
 10
1096.2526500025
 20
2065.5542975507
 10
1090.181972161
 20
2064.7177182994
 10
1083.8111219733
 20
2064.047126097
 10
1077.207632036
 20
2063.5496293876
 10
1070.4415009854
 20
2063.2305017601
 10
1063.5844514938
 20
2063.0931260468
 10
1056.7091699916
 20
2063.1389584643
 10
1049.8885361731
 20
2063.3675131777
 10
1043.1948504535
 20
2063.7763674502
 10
1036.6990675668
 20
2064.3611873247
 10
1030.4700444274
 20
2065.1157735651
 10
1024.5738102302
 20
2066.0321273695
 10
1019.0728665246
 20
2067.1005351597
 10
1014.0255246822
 20
2068.3096715472
 10
1009.4852877823
 20
2069.6467193856
 10
1005.5002834654
 20
2071.0975056351
 10
1002.1127537687
 20
2072.6466516007
 10
999.3586073497
 20
2074.2777359496
 10
997.2670388456
 20
2075.9734687821
 10
995.8602194027
 20
2077.7158749081
 10
995.1530616573
 20
2079.4864843895
 10
995.0674152058
 20
2080.5382804417
  0
ARC
  5
C7
330
1F
100
AcDbEntity
  8
0
  6
Continuous
 62
     7
370
    25
100
AcDbCircle
 10
1144.7731263565
 20
1945.3406489358
 30
0.0
 40
129.6641140095084
100
AcDbArc
 50
64.7474869142
 51
72.6901474235
  0
ARC
  5
C8
330
1F
100
AcDbEntity
  8
0
  6
Continuous
 62
     7
370
    25
100
AcDbCircle
 10
974.953934882
 20
1956.1297252903
 30
0.0
 40
118.1745280534355
100
AcDbArc
 50
107.0138559505
 51
117.2745135373
  0
LWPOLYLINE
  5
C9
330
1F
100
AcDbEntity
  8
0
  6
Continuous
 62
     7
370
    25
100
AcDbPolyline
 90
       25
 70
   128
 43
0.0
 10
1061.8644908616
 20
1991.5671186297
 10
1072.5513122608
 20
1991.6595945245
 10
1083.1904037214
 20
1991.936609189
 10
1093.7342484782
 20
1992.3969254086
 10
1104.135755161
 20
1993.0384872992
 10
1114.3484681159
 20
1993.8584294896
 10
1124.3267748878
 20
1994.8530899192
 10
1134.0261099362
 20
1996.0180261928
 10
1143.4031536763
 20
1997.3480354223
 10
1152.4160259545
 20
1998.8371774636
 10
1161.0244730953
 20
2000.4788014469
 10
1169.1900476839
 20
2002.265575481
 10
1176.8762802821
 20
2004.1895193992
 10
1184.0488423092
 20
2006.242040401
 10
1190.675699362
 20
2008.4139714293
 10
1196.7272542883
 20
2010.6956121129
 10
1202.1764793747
 20
2013.0767720907
 10
1206.9990370591
 20
2015.5468165242
 10
1211.1733886283
 20
2018.0947135952
 10
1214.6808904147
 20
2020.709083777
 10
1217.505877064
 20
2023.3782506577
 10
1219.6357315
 20
2026.09029309
 10
1221.0609412758
 20
2028.8330984341
 10
1221.7751410585
 20
2031.5944166555
 10
1221.7778744906
 20
2034.3405902908
  0
LWPOLYLINE
  5
CA
330
1F
100
AcDbEntity
  8
0
  6
Continuous
 62
     7
370
    25
100
AcDbPolyline
 90
       25
 70
   128
 43
0.0
 10
901.9511072326
 20
2034.3405902908
 10
901.9538406648
 20
2031.5944166555
 10
902.6680404475
 20
2028.8330984341
 10
904.0932502232
 20
2026.09029309
 10
906.2231046592
 20
2023.3782506577
 10
909.0480913085
 20
2020.709083777
 10
912.555593095
 20
2018.0947135952
 10
916.7299446641
 20
2015.5468165242
 10
921.5525023486
 20
2013.0767720907
 10
927.0017274349
 20
2010.6956121129
 10
933.0532823612
 20
2008.4139714293
 10
939.6801394141
 20
2006.242040401
 10
946.8527014412
 20
2004.1895193992
 10
954.5389340393
 20
2002.265575481
 10
962.704508628
 20
2000.4788014469
 10
971.3129557687
 20
1998.8371774636
 10
980.3258280469
 20
1997.3480354223
 10
989.702871787
 20
1996.0180261928
 10
999.4022068355
 20
1994.8530899192
 10
1009.3805136073
 20
1993.8584294896
 10
1019.5932265622
 20
1993.0384872992
 10
1029.994733245
 20
1992.3969254086
 10
1040.5385780018
 20
1991.936609189
 10
1051.1776694624
 20
1991.6595945245
 10
1061.8644908616
 20
1991.5671186297
  0
LWPOLYLINE
  5
CB
330
1F
100
AcDbEntity
  8
0
  6
Continuous
 62
     7
370
    25
100
AcDbPolyline
 90
        3
 70
   128
 43
0.0
 10
1020.1077836525
 20
2111.4549075419
 10
1020.459728877
 20
2111.5352149018
 10
1020.5329203019
 20
2111.5517647878
  0
LINE
  5
CC
330
1F
100
AcDbEntity
  8
0
  6
Continuous
 62
     7
370
    25
100
AcDbLine
 10
1103.1960614213
 20
2111.5517647878
 30
0.0
 11
1104.795380879
 21
2111.1780127182
 31
0.0
  0
LINE
  5
CD
330
1F
100
AcDbEntity
  8
0
  6
Continuous
 62
     7
370
    25
100
AcDbLine
 10
1128.1109787291
 20
2095.7671453828
 30
0.0
 11
1128.1138789689
 21
2095.6067047525
 31
0.0
  0
LWPOLYLINE
  5
CE
330
1F
100
AcDbEntity
  8
0
  6
Continuous
 62
     7
370
    25
100
AcDbPolyline
 90
       16
 70
   128
 43
0.0
 10
1061.8644908616
 20
2088.1063667847
 10
1055.9508323156
 20
2088.1971980861
 10
1050.1201885726
 20
2088.4684169178
 10
1044.4544090899
 20
2088.9162159621
 10
1039.0330289919
 20
2089.5343091018
 10
1033.9321525714
 20
2090.3140196643
 10
1029.2233849521
 20
2091.2444022223
 10
1024.9728269095
 20
2092.3123962442
 10
1021.2401469613
 20
2093.5030094349
 10
1018.0777437518
 20
2094.7995281952
 10
1015.53001049
 20
2096.1837522435
 10
1013.6327117662
 20
2097.6362501087
 10
1012.4124814955
 20
2099.1366319045
 10
1011.8864490362
 20
2100.6638355593
 10
1012.0619987309
 20
2102.1964224817
 10
1012.2611456098
 20
2102.67413911
  0
LWPOLYLINE
  5
CF
330
1F
100
AcDbEntity
  8
0
  6
Continuous
 62
     7
370
    25
100
AcDbPolyline
 90
       16
 70
   128
 43
0.0
 10
1111.4678361134
 20
2102.67413911
 10
1111.6669829924
 20
2102.1964224817
 10
1111.8425326871
 20
2100.6638355593
 10
1111.3165002277
 20
2099.1366319045
 10
1110.096269957
 20
2097.6362501087
 10
1108.1989712332
 20
2096.1837522435
 10
1105.6512379714
 20
2094.7995281952
 10
1102.4888347619
 20
2093.5030094349
 10
1098.7561548137
 20
2092.3123962442
 10
1094.5055967711
 20
2091.2444022223
 10
1089.7968291518
 20
2090.3140196643
 10
1084.6959527313
 20
2089.5343091018
 10
1079.2745726333
 20
2088.9162159621
 10
1073.6087931507
 20
2088.4684169178
 10
1067.7781494077
 20
2088.1971980861
 10
1061.8644908616
 20
2088.1063667847
  0
LINE
  5
D0
330
1F
100
AcDbEntity
  8
0
  6
Continuous
 62
     7
370
    25
100
AcDbLine
 10
1101.7889305692
 20
2150.471999048
 30
0.0
 11
1101.7906784422
 21
2150.3753070954
 31
0.0
  0
LWPOLYLINE
  5
D1
330
1F
100
AcDbEntity
  8
0
  6
Continuous
 62
     7
370
    25
100
AcDbPolyline
 90
       14
 70
   128
 43
0.0
 10
1061.8644908616
 20
2096.1018836258
 10
1056.4476538845
 20
2096.1937742874
 10
1051.1235004899
 20
2096.4678739976
 10
1045.9831284185
 20
2096.9194928342
 10
1041.1144908616
 20
2097.5409034738
 10
1036.6008915578
 20
2098.3214734081
 10
1032.5195594424
 20
2099.2478468691
 10
1028.9403272395
 20
2100.3041733499
 10
1025.9244366046
 20
2101.4723788117
 10
1023.5234902624
 20
2102.7324749351
 10
1021.7785690706
 20
2104.0629011261
 10
1020.7195291146
 20
2105.4408934237
 10
1020.3644908616
 20
2106.8428739976
 10
1020.3663076323
 20
2106.9433773584
  0
LWPOLYLINE
  5
D2
330
1F
100
AcDbEntity
  8
0
  6
Continuous
 62
     7
370
    25
100
AcDbPolyline
 90
       14
 70
   128
 43
0.0
 10
1103.3626740909
 20
2106.9433773584
 10
1103.3644908616
 20
2106.8428739976
 10
1103.0094526086
 20
2105.4408934237
 10
1101.9504126526
 20
2104.0629011261
 10
1100.2054914608
 20
2102.7324749351
 10
1097.8045451187
 20
2101.4723788117
 10
1094.7886544837
 20
2100.3041733499
 10
1091.2094222809
 20
2099.2478468691
 10
1087.1280901655
 20
2098.3214734081
 10
1082.6144908616
 20
2097.5409034738
 10
1077.7458533048
 20
2096.9194928342
 10
1072.6054812334
 20
2096.4678739976
 10
1067.2813278387
 20
2096.1937742874
 10
1061.8644908616
 20
2096.1018836258
  0
LWPOLYLINE
  5
D3
330
1F
100
AcDbEntity
  8
0
  6
Continuous
 62
     7
370
    25
100
AcDbPolyline
 90
        3
 70
   128
 43
0.0
 10
1034.9370537614
 20
2160.5228927957
 10
1037.1506035212
 20
2161.0840036671
 10
1041.0298715412
 20
2161.8732417585
  0
ARC
  5
D4
330
1F
100
AcDbEntity
  8
0
  6
Continuous
 62
     7
370
    25
100
AcDbCircle
 10
1072.6470777635
 20
2102.5351964141
 30
0.0
 40
60.18344440996387
100
AcDbArc
 50
72.0119475993
 51
80.3852125994
  0
SPLINE
  5
D5
330
1F
100
AcDbEntity
  8
0
  6
Continuous
 62
     7
370
    25
100
AcDbSpline
210
0.0
220
0.0
230
1.0
 70
     8
 71
     3
 72
    14
 73
    10
 74
     0
 42
0.00000001
 43
0.00000001
 40
0.0
 40
0.0
 40
0.0
 40
0.0
 40
0.25
 40
0.25
 40
0.5
 40
0.5
 40
0.75
 40
0.75
 40
1.0
 40
1.0
 40
1.0
 40
1.0
 10
1045.034548732375
 20
2165.773648444318
 30
0.0
 10
1045.034548732375
 20
2166.92887479074
 30
0.0
 10
1046.807787582385
 20
2168.03687324272
 30
0.0
 10
1053.120061727721
 20
2169.670610009441
 30
0.0
 10
1057.401039008743
 20
2170.129557995339
 30
0.0
 10
1066.327942714494
 20
2170.129557995339
 30
0.0
 10
1070.608919995516
 20
2169.670610009441
 30
0.0
 10
1076.921194140852
 20
2168.03687324272
 30
0.0
 10
1078.694432990863
 20
2166.92887479074
 30
0.0
 10
1078.694432990863
 20
2165.773648444318
 30
0.0
  0
SPLINE
  5
D6
330
1F
100
AcDbEntity
  8
0
  6
Continuous
 62
     7
370
    25
100
AcDbSpline
210
0.0
220
0.0
230
1.0
 70
     8
 71
     3
 72
    14
 73
    10
 74
     0
 42
0.00000001
 43
0.00000001
 40
0.0
 40
0.0
 40
0.0
 40
0.0
 40
0.25
 40
0.25
 40
0.5
 40
0.5
 40
0.75
 40
0.75
 40
1.0
 40
1.0
 40
1.0
 40
1.0
 10
1078.694432990863
 20
2165.773648444318
 30
0.0
 10
1078.694432990863
 20
2164.618422097895
 30
0.0
 10
1076.921194140852
 20
2163.510423645915
 30
0.0
 10
1070.608919995516
 20
2161.876686879194
 30
0.0
 10
1066.327942714494
 20
2161.417738893296
 30
0.0
 10
1057.401039008743
 20
2161.417738893296
 30
0.0
 10
1053.120061727721
 20
2161.876686879194
 30
0.0
 10
1046.807787582385
 20
2163.510423645915
 30
0.0
 10
1045.034548732375
 20
2164.618422097895
 30
0.0
 10
1045.034548732375
 20
2165.773648444318
 30
0.0
  0
LINE
  5
D7
330
1F
100
AcDbEntity
  8
0
  6
Continuous
 62
     7
370
    25
100
AcDbLine
 10
1040.9284153266
 20
2158.9839060152
 30
0.0
 11
1040.9220903627
 21
2158.892091348
 31
0.0
  0
LWPOLYLINE
  5
D8
330
1F
100
AcDbEntity
  8
0
  6
Continuous
 62
     7
370
    25
100
AcDbPolyline
 90
       15
 70
   128
 43
0.0
 10
1061.8644908616
 20
1915.0713201986
 10
1055.6842251659
 20
1915.1627869471
 10
1049.584528685
 20
1915.4359947838
 10
1043.6449202908
 20
1915.8873820267
 10
1037.9428318623
 20
1916.5110641527
 10
1032.5525988423
 20
1917.2989105116
 10
1027.5444911615
 20
1918.2406503212
 10
1022.9837971625
 20
1919.3240065629
 10
1018.9299724662
 20
1920.5348560312
 10
1015.4358648771
 20
1921.8574134517
 10
1012.5470254312
 20
1923.2744372657
 10
1010.3011145684
 20
1924.7674544008
 10
1008.7274111717
 20
1926.3170010954
 10
1007.8464308714
 20
1927.9028766385
 10
1007.6475785029
 20
1929.0889435875
  0
LWPOLYLINE
  5
D9
330
1F
100
AcDbEntity
  8
0
  6
Continuous
 62
     7
370
    25
100
AcDbPolyline
 90
       15
 70
   128
 43
0.0
 10
1116.0809552846
 20
1929.0447794549
 10
1115.8825508518
 20
1927.9028766385
 10
1115.0015705515
 20
1926.3170010954
 10
1113.4278671548
 20
1924.7674544008
 10
1111.1819562921
 20
1923.2744372657
 10
1108.2931168461
 20
1921.8574134517
 10
1104.799009257
 20
1920.5348560312
 10
1100.7451845607
 20
1919.3240065629
 10
1096.1844905617
 20
1918.2406503212
 10
1091.1763828809
 20
1917.2989105116
 10
1085.7861498609
 20
1916.5110641527
 10
1080.0840614324
 20
1915.8873820267
 10
1074.1444530383
 20
1915.4359947838
 10
1068.0447565574
 20
1915.1627869471
 10
1061.8644908616
 20
1915.0713201986
  0
LWPOLYLINE
  5
DA
330
1F
100
AcDbEntity
  8
0
  6
Continuous
 62
     7
370
    25
100
AcDbPolyline
 90
       30
 70
   128
 43
0.0
 10
1115.8150135316
 20
1899.59894204
 10
1115.8025760551
 20
1899.3300080628
 10
1115.3181663287
 20
1897.7406305745
 10
1114.1369061957
 20
1896.1759046811
 10
1112.2741951885
 20
1894.6562289775
 10
1109.7543165937
 20
1893.2014147606
 10
1106.6101208824
 20
1891.8304277586
 10
1102.8825974541
 20
1890.5611408837
 10
1098.6203402774
 20
1889.4101012313
 10
1093.8789143926
 20
1888.3923143638
 10
1088.7201315374
 20
1887.5210486893
 10
1083.2112443356
 20
1886.8076624884
 10
1077.4240695566
 20
1886.2614558412
 10
1071.434051874
 20
1885.8895493867
 10
1065.3192803288
 20
1885.6967914943
 10
1059.1594703195
 20
1885.6856950578
 10
1053.0349243898
 20
1885.8564047363
 10
1047.0254853621
 20
1886.2066950681
 10
1041.2094954644
 20
1886.7319994829
 10
1035.6627750195
 20
1887.4254698345
 10
1030.457634011
 20
1888.2780656762
 10
1025.661929412
 20
1889.2786721173
 10
1021.3381805663
 20
1890.4142447227
 10
1017.5427541523
 20
1891.6699795668
 10
1014.3251293576
 20
1893.0295062256
 10
1011.7272528422
 20
1894.4751011899
 10
1009.7829918995
 20
1895.9879189185
 10
1008.5176929441
 20
1897.5482375189
 10
1007.9478510829
 20
1899.1357158519
 10
1007.9139681917
 20
1899.59894204
  0
LWPOLYLINE
  5
DB
330
1F
100
AcDbEntity
  8
0
  6
Continuous
 62
     7
370
    25
100
AcDbPolyline
 90
       28
 70
   128
 43
0.0
 10
1002.7061246114
 20
1942.9075971815
 10
1003.5809202028
 20
1941.3027497352
 10
1005.1870781248
 20
1939.6611707377
 10
1007.4812230603
 20
1938.075285899
 10
1010.4355071973
 20
1936.5643457125
 10
1014.0140695284
 20
1935.1466909456
 10
1018.1734711547
 20
1933.8395300065
 10
1022.8632225747
 20
1932.6587300584
 10
1028.0263965593
 20
1931.6186244131
 10
1033.6003191703
 20
1930.7318385442
 10
1039.5173305381
 20
1930.0091368309
 10
1045.7056061599
 20
1929.4592918928
 10
1052.0900287525
 20
1929.0889781029
 10
1058.5931000744
 20
1928.9026905687
 10
1065.1358816489
 20
1928.9026905687
 10
1071.6389529707
 20
1929.0889781029
 10
1078.0233755634
 20
1929.4592918928
 10
1084.2116511852
 20
1930.0091368309
 10
1090.1286625529
 20
1930.7318385442
 10
1095.702585164
 20
1931.6186244131
 10
1100.8657591485
 20
1932.6587300584
 10
1105.5555105686
 20
1933.8395300065
 10
1109.7149121948
 20
1935.1466909456
 10
1113.293474526
 20
1936.5643457125
 10
1116.247758663
 20
1938.075285899
 10
1118.5419035984
 20
1939.6611707377
 10
1120.1480615205
 20
1941.3027497352
 10
1121.023322992
 20
1942.9089738779
  0
LWPOLYLINE
  5
DC
330
1F
100
AcDbEntity
  8
0
  6
Continuous
 62
     7
370
    25
100
AcDbPolyline
 90
       25
 70
   128
 43
0.0
 10
1019.9888623635
 20
1869.0808367248
 10
1020.3246264684
 20
1868.0221706825
 10
1021.3938309176
 20
1866.6309526391
 10
1023.1554995789
 20
1865.2877572341
 10
1025.5794898133
 20
1864.0155669131
 10
1028.6243264757
 20
1862.8361492055
 10
1032.2379115667
 20
1861.769684275
 10
1036.3584156435
 20
1860.8344196323
 10
1040.9153357388
 20
1860.0463579149
 10
1045.8307016865
 20
1859.4189830771
 10
1051.0204102125
 20
1858.9630296763
 10
1056.3956639648
 20
1858.6862992018
 10
1061.8644908616
 20
1858.5935265886
 10
1067.3333177584
 20
1858.6862992018
 10
1072.7085715108
 20
1858.9630296763
 10
1077.8982800367
 20
1859.4189830771
 10
1082.8136459844
 20
1860.0463579149
 10
1087.3705660798
 20
1860.8344196323
 10
1091.4910701565
 20
1861.769684275
 10
1095.1046552475
 20
1862.8361492055
 10
1098.1494919099
 20
1864.0155669131
 10
1100.5734821443
 20
1865.2877572341
 10
1102.3351508057
 20
1866.6309526391
 10
1103.4043552548
 20
1868.0221706825
 10
1103.7401193598
 20
1869.0808367248
  0
LWPOLYLINE
  5
DD
330
1F
100
AcDbEntity
  8
0
  6
Continuous
 62
     7
370
    25
100
AcDbPolyline
 90
        9
 70
   128
 43
0.0
 10
1056.7828337268
 20
1854.0709839422
 10
1052.1822900598
 20
1854.3632568559
 10
1047.8070072069
 20
1854.833219841
 10
1043.7587781175
 20
1855.4699389945
 10
1040.1317866862
 20
1856.258600755
 10
1037.0104165217
 20
1857.1808565472
 10
1034.4672877232
 20
1858.21524967
 10
1032.5615673413
 20
1859.3377144959
 10
1032.4397689626
 20
1859.4292514156
  0
LWPOLYLINE
  5
DE
330
1F
100
AcDbEntity
  8
0
  6
Continuous
 62
     7
370
    25
100
AcDbPolyline
 90
        9
 70
   128
 43
0.0
 10
1091.7778385354
 20
1859.8396440564
 10
1091.167414382
 20
1859.3377144959
 10
1089.261694
 20
1858.21524967
 10
1086.7185652015
 20
1857.1808565472
 10
1083.597195037
 20
1856.258600755
 10
1079.9702036058
 20
1855.4699389945
 10
1075.9219745164
 20
1854.833219841
 10
1071.5466916635
 20
1854.3632568559
 10
1066.9461479965
 20
1854.0709839422
  0
LINE
  5
DF
330
1F
100
AcDbEntity
  8
0
  6
Continuous
 62
     7
370
    25
100
AcDbLine
 10
1120.2738162994
 20
1896.1175056966
 30
0.0
 11
1120.3643558782
 21
1896.3251280818
 31
0.0
  0
LINE
  5
E0
330
1F
100
AcDbEntity
  8
0
  6
Continuous
 62
     7
370
    25
100
AcDbLine
 10
1002.4336959407
 20
1896.5709893524
 30
0.0
 11
1002.5300920707
 21
1896.3782311195
 31
0.0
  0
LWPOLYLINE
  5
E1
330
1F
100
AcDbEntity
  8
0
  6
Continuous
 62
     7
370
    25
100
AcDbPolyline
 90
        9
 70
   128
 43
0.0
 10
1218.5068782676
 20
2043.5401224013
 10
1218.1495166245
 20
2046.2771047951
 10
1217.0790622544
 20
2049.001598966
 10
1215.3003993951
 20
2051.701173672
 10
1212.8216436772
 20
2054.3635113728
 10
1209.6541050945
 20
2056.9764644323
 10
1205.8122363992
 20
2059.5281105448
 10
1201.3135671569
 20
2062.0068071344
 10
1200.0889279149
 20
2062.6135979046
  0
LWPOLYLINE
  5
E2
330
1F
100
AcDbEntity
  8
0
  6
Continuous
 62
     7
370
    25
100
AcDbPolyline
 90
       56
 70
   128
 43
0.0
 10
920.7999572851
 20
2061.1657466882
 10
920.0851935701
 20
2060.7772928016
 10
915.9125440669
 20
2058.2606857034
 10
912.4058398213
 20
2055.6769120511
 10
909.5810811206
 20
2053.0377610114
 10
907.4511566908
 20
2050.3552744251
 10
906.0257848885
 20
2047.6416918632
 10
905.3114693584
 20
2044.9093947806
 10
905.3114693584
 20
2042.1708500221
 10
906.0257848885
 20
2039.4385529395
 10
907.4511566908
 20
2036.7249703776
 10
909.5810811206
 20
2034.0424837913
 10
912.4058398213
 20
2031.4033327516
 10
915.9125440669
 20
2028.8195590993
 10
920.0851935701
 20
2026.3029520011
 10
924.9047494884
 20
2023.8649941579
 10
930.3492212934
 20
2021.5168094121
 10
936.3937671091
 20
2019.2691119923
 10
943.0108070593
 20
2017.1321576262
 10
950.1701491084
 20
2015.1156967464
 10
957.8391268207
 20
2013.2289300014
 10
965.9827484099
 20
2011.4804662752
 10
974.5638563984
 20
2009.8782834067
 10
983.5432971586
 20
2008.4296917888
 10
992.880099562
 20
2007.1413010129
 10
1002.5316619206
 20
2006.0189897105
 10
1012.4539463691
 20
2005.0678787308
 10
1022.6016797993
 20
2004.2923077749
 10
1032.928560431
 20
2003.6958155953
 10
1043.3874690765
 20
2003.2811238489
 10
1053.9306841346
 20
2003.0501246791
 10
1064.510099333
 20
2003.0038720822
 10
1075.0774432268
 20
2003.142577098
 10
1085.5844994495
 20
2003.4656068475
 10
1095.9833267134
 20
2003.9714874199
 10
1106.2264775549
 20
2004.6579105983
 10
1116.2672148259
 20
2005.5217443912
 10
1126.0597249453
 20
2006.559047323
 10
1135.5593269353
 20
2007.7650864184
 10
1144.7226762911
 20
2009.1343587976
 10
1153.5079627511
 20
2010.6606167848
 10
1161.8751010682
 20
2012.3368964149
 10
1169.7859139094
 20
2014.1555492084
 10
1177.2043060501
 20
2016.1082770697
 10
1184.0964290684
 20
2018.1861701495
 10
1190.4308357879
 20
2020.3797474983
 10
1196.1786237634
 20
2022.6790003257
 10
1201.3135671569
 20
2025.0734376683
 10
1205.8122363992
 20
2027.5521342579
 10
1209.6541050945
 20
2030.1037803704
 10
1212.8216436772
 20
2032.7167334298
 10
1215.3003993951
 20
2035.3790711307
 10
1217.0790622544
 20
2038.0786458367
 10
1218.1495166245
 20
2040.8031400075
 10
1218.5068782676
 20
2043.5401224013
 10
1218.5068782676
 20
2043.5401224013
  0
LWPOLYLINE
  5
E3
330
1F
100
AcDbEntity
  8
0
  6
Continuous
 62
     7
370
    25
100
AcDbPolyline
 90
       50
 70
   128
 43
0.0
 10
902.9009452585
 20
2041.8087637895
 10
902.814843363
 20
2040.4544317416
 10
903.1700205308
 20
2037.704907771
 10
904.2339657268
 20
2034.967663842
 10
906.0019271134
 20
2032.2549251503
 10
908.4660085459
 20
2029.5788074455
 10
911.6152048386
 20
2026.9512629189
 10
915.4354509161
 20
2024.3840268222
 10
919.9096846322
 20
2021.8885650551
 10
925.0179229731
 20
2019.4760229555
 10
930.7373513061
 20
2017.1571755221
 10
937.0424252759
 20
2014.9423792905
 10
943.9049848917
 20
2012.8415260783
 10
951.2943802963
 20
2010.8639988059
 10
959.1776086559
 20
2009.0186295902
 10
967.5194615591
 20
2007.3136602981
 10
976.2826822658
 20
2005.7567057363
 10
985.4281321049
 20
2004.3547196418
 10
994.9149652775
 20
2003.1139636249
 10
1004.7008112836
 20
2002.0399792031
 10
1014.7419641593
 20
2001.1375630516
 10
1024.9935776785
 20
2000.41074558
 10
1035.4098656465
 20
1999.8627729316
 10
1045.9443063927
 20
1999.4960924851
 10
1056.5498505474
 20
1999.3123419246
 10
1067.1791311759
 20
1999.3123419246
 10
1077.7846753306
 20
1999.4960924851
 10
1088.3191160767
 20
1999.8627729316
 10
1098.7354040447
 20
2000.41074558
 10
1108.9870175639
 20
2001.1375630516
 10
1119.0281704397
 20
2002.0399792031
 10
1128.8140164458
 20
2003.1139636249
 10
1138.3008496183
 20
2004.3547196418
 10
1147.4462994575
 20
2005.7567057363
 10
1156.2095201641
 20
2007.3136602981
 10
1164.5513730673
 20
2009.0186295902
 10
1172.434601427
 20
2010.8639988059
 10
1179.8239968315
 20
2012.8415260783
 10
1186.6865564473
 20
2014.9423792905
 10
1192.9916304172
 20
2017.1571755221
 10
1198.7110587502
 20
2019.4760229555
 10
1203.819297091
 20
2021.8885650551
 10
1208.2935308071
 20
2024.3840268222
 10
1212.1137768847
 20
2026.9512629189
 10
1215.2629731773
 20
2029.5788074455
 10
1217.7270546098
 20
2032.2549251503
 10
1219.4950159964
 20
2034.967663842
 10
1220.5589611924
 20
2037.704907771
 10
1220.9141383602
 20
2040.4544317416
 10
1220.8280364648
 20
2041.8087637895
  0
LWPOLYLINE
  5
E4
330
1F
100
AcDbEntity
  8
0
  6
Continuous
 62
     7
370
    25
100
AcDbPolyline
 90
        9
 70
   128
 43
0.0
 10
998.988186365
 20
2099.2881904427
 10
999.344393192
 20
2101.0179665258
 10
1000.4089777074
 20
2102.7281435548
 10
1002.1698777432
 20
2104.3993445404
 10
1004.6071415984
 20
2106.0126341078
 10
1007.6931540996
 20
2107.5497330415
 10
1011.3929494921
 20
2108.9932253964
 10
1015.6646076157
 20
2110.3267558274
 10
1020.1077836525
 20
2111.4549075419
  0
LWPOLYLINE
  5
E5
330
1F
100
AcDbEntity
  8
0
  6
Continuous
 62
     7
370
    25
100
AcDbPolyline
 90
       40
 70
   128
 43
0.0
 10
1104.795380879
 20
2111.1780127182
 10
1105.7289828109
 20
2110.9475101688
 10
1110.2688068156
 20
2109.6747114731
 10
1114.2601905791
 20
2108.2842293438
 10
1117.6579101286
 20
2106.7918184991
 10
1120.4234679438
 20
2105.2143885503
 10
1122.5255291497
 20
2103.5698124089
 10
1123.9402765529
 20
2101.8767237798
 10
1124.6516805
 20
2100.1543060337
 10
1124.6516805
 20
2098.4220748518
 10
1123.9402765529
 20
2096.6996571056
 10
1122.5255291497
 20
2095.0065684765
 10
1120.4234679438
 20
2093.3619923351
 10
1117.6579101286
 20
2091.7845623863
 10
1114.2601905791
 20
2090.2921515416
 10
1110.2688068156
 20
2088.9016694124
 10
1105.7289828109
 20
2087.6288707166
 10
1100.6921565851
 20
2086.4881767722
 10
1095.2153973919
 20
2085.4925120973
 10
1089.3607591014
 20
2084.6531579705
 10
1083.1945771047
 20
2083.9796246094
 10
1076.7867167079
 20
2083.4795434163
 10
1070.2097815296
 20
2083.1585805108
 10
1063.5382908734
 20
2083.0203725309
 10
1056.8478353943
 20
2083.0664854282
 10
1050.2142206261
 20
2083.2963967252
 10
1043.712608075
 20
2083.707501435
 10
1037.4166636089
 20
2084.295141577
 10
1031.3977227945
 20
2085.0526589535
 10
1025.7239826362
 20
2085.9714705901
 10
1020.459728877
 20
2087.0411659837
 10
1015.6646076157
 20
2088.249625058
 10
1011.3929494921
 20
2089.583155489
 10
1007.6931540996
 20
2091.0266478439
 10
1004.6071415984
 20
2092.5637467776
 10
1002.1698777432
 20
2094.177036345
 10
1000.4089777074
 20
2095.8482373307
 10
999.344393192
 20
2097.5584143596
 10
998.988186365
 20
2099.2881904427
 10
998.988186365
 20
2099.2881904427
  0
LWPOLYLINE
  5
E6
330
1F
100
AcDbEntity
  8
0
  6
Continuous
 62
     7
370
    25
100
AcDbPolyline
 90
       32
 70
   128
 43
0.0
 10
1128.1138789689
 20
2095.6067047525
 10
1127.7627489714
 20
2093.8436738966
 10
1126.7130810445
 20
2092.0993316064
 10
1124.9760019292
 20
2090.3921683441
 10
1122.5699250962
 20
2088.7402804649
 10
1119.5203555586
 20
2087.1611783913
 10
1115.8596195122
 20
2085.6716009982
 10
1111.6265216696
 20
2084.2873381764
 10
1106.8659339211
 20
2083.0230634563
 10
1101.6283196812
 20
2081.8921784643
 10
1095.9691989637
 20
2080.9066708628
 10
1089.948559856
 20
2080.0769872774
 10
1083.6302226305
 20
2079.4119225607
 10
1077.0811632336
 20
2078.9185265639
 10
1070.3708033241
 20
2078.6020294075
 10
1063.5702743863
 20
2078.46578604
 10
1056.7516637188
 20
2078.511240675
 10
1049.987250291
 20
2078.7379114821
 10
1043.3487385679
 20
2079.1433956943
 10
1036.9064984254
 20
2079.7233950781
 10
1030.7288192114
 20
2080.4717614958
 10
1024.8811858626
 20
2081.3805620771
 10
1019.4255847472
 20
2082.4401633098
 10
1014.4198465941
 20
2083.6393331573
 10
1009.9170334731
 20
2084.9653601208
 10
1005.9648763235
 20
2086.4041879847
 10
1002.6052689941
 20
2087.9405648156
 10
999.8738241585
 20
2089.558204637
 10
997.7994958115
 20
2091.2399600643
 10
996.4042723494
 20
2092.9680040716
 10
995.7029434882
 20
2094.7240189625
 10
995.6162280017
 20
2095.7066412954
  0
LWPOLYLINE
  5
E7
330
1F
100
AcDbEntity
  8
0
  6
Continuous
 62
     7
370
    25
100
AcDbPolyline
 90
       25
 70
   128
 43
0.0
 10
1101.7906784422
 20
2150.3753070954
 10
1101.4344365606
 20
2148.9979653168
 10
1100.3720680606
 20
2147.6452022348
 10
1098.6225309331
 20
2146.3411579388
 10
1096.2170457098
 20
2145.1091031301
 10
1093.1985383314
 20
2143.9710238558
 10
1089.6208741336
 20
2142.9472291677
 10
1085.5478966187
 20
2142.0559887062
 10
1081.052288167
 20
2141.3132066785
 10
1076.2142730179
 20
2140.7321380473
 10
1071.1201856662
 20
2140.3231519963
 10
1065.8609302214
 20
2140.0935468912
 10
1060.5303582216
 20
2140.0474200404
 10
1055.2235938504
 20
2140.1855945789
 10
1050.0353364436
 20
2140.5056047786
 10
1045.0581705777
 20
2141.00174005
 10
1040.3809138954
 20
2141.6651468473
 10
1036.087032153
 20
2142.4839866606
 10
1032.253149772
 20
2143.4436472741
 10
1028.9476824742
 20
2144.5270035212
 10
1026.2296164019
 20
2145.7147228842
 10
1024.1474555085
 20
2146.9856104829
 10
1022.7383560045
 20
2148.3169872979
 10
1022.027463304
 20
2149.6850948784
 10
1021.940051154
 20
2150.471999048
  0
LWPOLYLINE
  5
E8
330
1F
100
AcDbEntity
  8
0
  6
Continuous
 62
     7
370
    25
100
AcDbPolyline
 90
        7
 70
   128
 43
0.0
 10
1024.9301657754
 20
2153.9800543205
 10
1025.2896080883
 20
2155.310452684
 10
1026.3609388909
 20
2156.6149563566
 10
1028.123305948
 20
2157.8681746582
 10
1030.5424067895
 20
2159.0457151202
 10
1033.571156369
 20
2160.1246582568
 10
1034.9370537614
 20
2160.5228927957
  0
LWPOLYLINE
  5
E9
330
1F
100
AcDbEntity
  8
0
  6
Continuous
 62
     7
370
    25
100
AcDbPolyline
 90
       30
 70
   128
 43
0.0
 10
1091.2328489409
 20
2159.7769302346
 10
1091.7449875321
 20
2159.5988738505
 10
1094.4755642903
 20
2158.4678769997
 10
1096.5714035988
 20
2157.2495297853
 10
1097.9917123294
 20
2155.96754595
 10
1098.7088457882
 20
2154.6468778508
 10
1098.7088457882
 20
2153.3132307902
 10
1097.9917123294
 20
2151.992562691
 10
1096.5714035988
 20
2150.7105788557
 10
1094.4755642903
 20
2149.4922316413
 10
1091.7449875321
 20
2148.3612347905
 10
1088.4328208948
 20
2147.3396018706
 10
1084.6035319343
 20
2146.4472178042
 10
1080.3316534047
 20
2145.7014518322
 10
1075.7003325623
 20
2145.1168194408
 10
1070.7997127992
 20
2144.7046998345
 10
1065.7251791047
 20
2144.4731144528
 10
1060.5755015051
 20
2144.4265708416
 10
1055.450912617
 20
2144.5659749194
 10
1050.4511567342
 20
2144.8886133443
 10
1045.6735484177
 20
2145.3882063266
 10
1041.2110783789
 20
2146.0550298569
 10
1037.1506035212
 20
2146.8761049739
 10
1033.571156369
 20
2147.8354503842
 10
1030.5424067895
 20
2148.9143935208
 10
1028.123305948
 20
2150.0919339827
 10
1026.3609388909
 20
2151.3451522844
 10
1025.2896080883
 20
2152.649655957
 10
1024.9301657754
 20
2153.9800543205
 10
1024.9301657754
 20
2153.9800543205
  0
ARC
  5
EA
330
1F
100
AcDbEntity
  8
0
  6
Continuous
 62
     7
370
    25
100
AcDbCircle
 10
1042.4915090075
 20
2156.3043492666
 30
0.0
 40
3.294602804725534
100
AcDbArc
 50
118.2228216258
 51
167.6893432156
  0
LWPOLYLINE
  5
EB
330
1F
100
AcDbEntity
  8
0
  6
Continuous
 62
     7
370
    25
100
AcDbPolyline
 90
       22
 70
   128
 43
0.0
 10
1082.7954961858
 20
2159.2072737417
 10
1083.6421743433
 20
2158.5623679096
 10
1084.3653711496
 20
2157.5309370376
 10
1084.3653711496
 20
2156.4826599211
 10
1083.6421743433
 20
2155.4512290491
 10
1082.2190248713
 20
2154.4697954586
 10
1080.1416639283
 20
2153.5699032325
 10
1077.4768596045
 20
2152.7804756476
 10
1074.3102609035
 20
2152.126885556
 10
1070.7436449128
 20
2151.6301398809
 10
1066.8916456052
 20
2151.3062044371
 10
1062.8780694077
 20
2151.1654907762
 10
1058.8319159618
 20
2151.2125215512
 10
1054.8832319684
 20
2151.4457851542
 10
1051.15893138
 20
2151.8577843011
 10
1047.7787162819
 20
2152.4352770003
 10
1044.8512295687
 20
2153.1597021613
 10
1042.4705630719
 20
2154.0077761634
 10
1040.7132333717
 20
2154.9522412103
 10
1039.6357224905
 20
2155.9627414184
 10
1039.2726625146
 20
2157.0067984794
 10
1039.2726625146
 20
2157.0067984794
  0
LWPOLYLINE
  5
EC
330
1F
100
AcDbEntity
  8
0
  6
Continuous
 62
     7
370
    25
100
AcDbPolyline
 90
       29
 70
   128
 43
0.0
 10
1110.874326258
 20
2103.0859111587
 10
1110.5169893777
 20
2101.5569420863
 10
1109.4501895132
 20
2100.0502688259
 10
1107.6894830086
 20
2098.5878620664
 10
1105.2605449296
 20
2097.1910469914
 10
1102.198794663
 20
2095.88019231
 10
1098.5488794219
 20
2094.6744132353
 10
1094.3640231896
 20
2093.5912927414
 10
1089.7052505934
 20
2092.646625164
 10
1084.6404970284
 20
2091.8541858836
 10
1079.2436180063
 20
2091.2255304494
 10
1073.5933121761
 20
2090.7698260732
 10
1067.7719737202
 20
2090.4937179509
 10
1061.8644908616
 20
2090.4012323608
 10
1055.9570080031
 20
2090.4937179509
 10
1050.1356695471
 20
2090.7698260732
 10
1044.4853637169
 20
2091.2255304494
 10
1039.0884846949
 20
2091.8541858836
 10
1034.0237311298
 20
2092.646625164
 10
1029.3649585336
 20
2093.5912927414
 10
1025.1801023013
 20
2094.6744132353
 10
1021.5301870603
 20
2095.88019231
 10
1018.4684367936
 20
2097.1910469914
 10
1016.0394987146
 20
2098.5878620664
 10
1014.2787922101
 20
2100.0502688259
 10
1013.2119923455
 20
2101.5569420863
 10
1012.8546554652
 20
2103.0859111587
 10
1013.2119923455
 20
2104.6148802311
 10
1013.2434551436
 20
2104.6805148359
  0
LWPOLYLINE
  5
ED
330
1F
100
AcDbEntity
  8
0
  6
Continuous
 62
     7
370
    25
100
AcDbPolyline
 90
        3
 70
   128
 43
0.0
 10
1110.4855265796
 20
2104.6805148359
 10
1110.5169893777
 20
2104.6148802311
 10
1110.874326258
 20
2103.0859111587
  0
ARC
  5
EE
330
1F
100
AcDbEntity
  8
0
  6
Continuous
 62
     7
370
    25
100
AcDbCircle
 10
1023.1361192426
 20
2105.883933277
 30
0.0
 40
5.245037653873532
100
AcDbArc
 50
120.2757384619
 51
172.2110764332
  0
LWPOLYLINE
  5
EF
330
1F
100
AcDbEntity
  8
0
  6
Continuous
 62
     7
370
    25
100
AcDbPolyline
 90
       30
 70
   128
 43
0.0
 10
1103.237211045
 20
2110.413595589
 10
1103.5517824506
 20
2110.1771111548
 10
1104.9794953471
 20
2108.7679739568
 10
1105.6992610619
 20
2107.323152678
 10
1105.6992610619
 20
2105.8663712438
 10
1104.9794953471
 20
2104.421549965
 10
1103.5517824506
 20
2103.0124127671
 10
1101.4395653787
 20
2101.6620976439
 10
1098.6775266774
 20
2100.3927767325
 10
1095.3110189457
 20
2099.225292247
 10
1091.3953201476
 20
2098.1788142505
 10
1086.994725949
 20
2097.2705258827
 10
1082.1814939851
 20
2096.5153412135
 10
1077.0346573915
 20
2095.9256603544
 10
1071.6387270829
 20
2095.5111658486
 10
1066.0823040858
 20
2095.2786636846
 10
1060.4566247122
 20
2095.2319715415
 10
1054.8540624618
 20
2095.3718561029
 10
1049.366611252
 20
2095.6960204682
 10
1044.0843748798
 20
2096.1991418675
 10
1039.0940875204
 20
2096.8729590614
 10
1034.4776895544
 20
2097.7064079901
 10
1030.3109821087
 20
2098.6858034452
 10
1026.6623824044
 20
2099.7950637805
 10
1023.5918003478
 20
2101.015974972
 10
1021.1496548113
 20
2102.3284896916
 10
1019.3760457571
 20
2103.7110564839
 10
1018.3000957968
 20
2105.1409736404
 10
1017.9394719992
 20
2106.5947619609
 10
1017.9394719992
 20
2106.5947619609
  0
LWPOLYLINE
  5
F0
330
1F
100
AcDbEntity
  8
0
  6
Continuous
 62
     7
370
    25
100
AcDbPolyline
 90
       19
 70
   128
 43
0.0
 10
1082.6919962989
 20
2162.0447864399
 10
1082.33736844
 20
2161.0542745452
 10
1081.2855612897
 20
2160.0974933451
 10
1079.5723928789
 20
2159.2070248757
 10
1077.2562031033
 20
2158.413192973
 10
1074.4158670275
 20
2157.7430306301
 10
1071.1481088902
 20
2157.219359422
 10
1067.5642082753
 20
2156.8600123435
 10
1063.78621062
 20
2156.6772265284
 10
1059.9427711032
 20
2156.6772265284
 10
1056.1647734479
 20
2156.8600123435
 10
1052.5808728331
 20
2157.219359422
 10
1049.3131146957
 20
2157.7430306301
 10
1046.47277862
 20
2158.413192973
 10
1044.1565888443
 20
2159.2070248757
 10
1042.4434204335
 20
2160.0974933451
 10
1041.3916132832
 20
2161.0542745452
 10
1041.0369854243
 20
2162.0447864399
 10
1041.0380649794
 20
2162.0996705515
  0
LWPOLYLINE
  5
F1
330
1F
100
AcDbEntity
  8
0
  6
Continuous
 62
     7
370
    25
100
AcDbPolyline
 90
       19
 70
   128
 43
0.0
 10
1040.9220903627
 20
2158.892091348
 10
1041.1836989014
 20
2157.9858038363
 10
1042.1432420424
 20
2157.0168369881
 10
1043.774368659
 20
2156.1100024742
 10
1046.0215326905
 20
2155.2961814566
 10
1048.8082096609
 20
2154.6030876338
 10
1052.0395026284
 20
2154.0543234848
 10
1055.6053737864
 20
2153.6685765144
 10
1059.3843916694
 20
2153.4589828731
 10
1063.2478663558
 20
2153.432680021
 10
1067.064231849
 20
2153.59056367
 10
1070.7035263992
 20
2153.9272572821
 10
1074.0418181954
 20
2154.4312951599
 10
1076.9654257144
 20
2155.0855128981
 10
1079.3747890086
 20
2155.8676318962
 10
1081.1878601006
 20
2156.7510180299
 10
1082.3428970291
 20
2157.7055886438
 10
1082.8005663966
 20
2158.6988369807
 10
1082.804802715
 20
2158.9331997474
  0
ENDSEC
  0
SECTION
  2
OBJECTS
  0
DICTIONARY
  5
C
330
0
100
AcDbDictionary
281
     1
  3
ACAD_GROUP
350
D
  3
ACAD_LAYOUT
350
1A
  3
ACAD_MLINESTYLE
350
17
  3
ACAD_PLOTSETTINGS
350
19
  3
ACAD_PLOTSTYLENAME
350
E
  3
ACAD_SCALELIST
350
47
  3
DWGPROPS
350
F2
  0
DICTIONARY
  5
D
102
{ACAD_REACTORS
330
C
102
}
330
C
100
AcDbDictionary
281
     1
  0
DICTIONARY
  5
1A
102
{ACAD_REACTORS
330
C
102
}
330
C
100
AcDbDictionary
281
     1
  3
Layout1
350
1E
  3
Layout2
350
26
  3
Model
350
22
  0
DICTIONARY
  5
17
102
{ACAD_REACTORS
330
C
102
}
330
C
100
AcDbDictionary
281
     1
  3
Standard
350
18
  0
DICTIONARY
  5
19
102
{ACAD_REACTORS
330
C
102
}
330
C
100
AcDbDictionary
281
     1
  0
ACDBDICTIONARYWDFLT
  5
E
102
{ACAD_REACTORS
330
C
102
}
330
C
100
AcDbDictionary
281
     1
  3
Normal
350
F
100
AcDbDictionaryWithDefault
340
F
  0
DICTIONARY
  5
47
102
{ACAD_REACTORS
330
C
102
}
330
C
100
AcDbDictionary
281
     1
  3
A0
350
48
  3
A1
350
49
  3
A2
350
4A
  3
A3
350
4B
  3
A4
350
4C
  3
A5
350
4D
  3
A6
350
4E
  3
A7
350
4F
  3
A8
350
50
  3
A9
350
51
  3
B0
350
52
  3
B1
350
53
  3
B2
350
54
  3
B3
350
55
  3
B4
350
56
  3
B5
350
57
  3
B6
350
58
  0
XRECORD
  5
F2
102
{ACAD_REACTORS
330
C
102
}
330
C
100
AcDbXrecord
280
     1
  1
DWGPROPS COOKIE
  2

  3

  4

  6

  7

  8
9128
  9

300
=
301
=
302
=
303
=
304
=
305
=
306
=
307
=
308
=
309
=
 40
0.0
 41
2460151.214996505
 42
2460151.214996771
  1

 90
        0
  0
LAYOUT
  5
1E
102
{ACAD_REACTORS
330
1A
102
}
330
1A
100
AcDbPlotSettings
  1

  2
none_device
  4

  6

 40
0.0
 41
0.0
 42
0.0
 43
0.0
 44
0.0
 45
0.0
 46
0.0
 47
0.0
 48
0.0
 49
0.0
140
0.0
141
0.0
142
1.0
143
1.0
 70
   688
 72
     1
 73
     0
 74
     5
  7

 75
    16
147
1.0
148
0.0
149
0.0
100
AcDbLayout
  1
Layout1
 70
     1
 71
     1
 10
0.0
 20
0.0
 11
420.0
 21
297.0
 12
0.0
 22
0.0
 32
0.0
 14
1.0000000000E+20
 24
1.0000000000E+20
 34
1.0000000000E+20
 15
-1.0000000000E+20
 25
-1.0000000000E+20
 35
-1.0000000000E+20
146
0.0
 13
0.0
 23
0.0
 33
0.0
 16
1.0
 26
0.0
 36
0.0
 17
0.0
 27
1.0
 37
0.0
 76
     0
330
1B
  0
LAYOUT
  5
26
102
{ACAD_REACTORS
330
1A
102
}
330
1A
100
AcDbPlotSettings
  1

  2
none_device
  4

  6

 40
0.0
 41
0.0
 42
0.0
 43
0.0
 44
0.0
 45
0.0
 46
0.0
 47
0.0
 48
0.0
 49
0.0
140
0.0
141
0.0
142
1.0
143
1.0
 70
   688
 72
     1
 73
     0
 74
     5
  7

 75
    16
147
1.0
148
0.0
149
0.0
100
AcDbLayout
  1
Layout2
 70
     1
 71
     2
 10
0.0
 20
0.0
 11
0.0
 21
0.0
 12
0.0
 22
0.0
 32
0.0
 14
0.0
 24
0.0
 34
0.0
 15
0.0
 25
0.0
 35
0.0
146
0.0
 13
0.0
 23
0.0
 33
0.0
 16
1.0
 26
0.0
 36
0.0
 17
0.0
 27
1.0
 37
0.0
 76
     0
330
23
  0
LAYOUT
  5
22
102
{ACAD_REACTORS
330
1A
102
}
330
1A
100
AcDbPlotSettings
  1

  2
none_device
  4
Letter_(8.50_x_11.00_Inches)
  6

 40
6.35
 41
6.35
 42
6.35000508
 43
6.35000508
 44
215.9
 45
279.4
 46
0.0
 47
0.0
 48
0.0
 49
0.0
140
0.0
141
0.0
142
1.0
143
1.0
 70
  1712
 72
     1
 73
     0
 74
     0
  7

 75
     0
147
1.0
148
0.0
149
0.0
100
AcDbLayout
  1
Model
 70
     1
 71
     0
 10
0.0
 20
0.0
 11
2100.0
 21
2970.0
 12
0.0
 22
0.0
 32
0.0
 14
0.0
 24
0.0
 34
0.0
 15
2100.0
 25
2970.0
 35
0.0
146
0.0
 13
0.0
 23
0.0
 33
0.0
 16
1.0
 26
0.0
 36
0.0
 17
0.0
 27
1.0
 37
0.0
 76
     0
330
1F
331
29
  0
MLINESTYLE
  5
18
102
{ACAD_REACTORS
330
17
102
}
330
17
100
AcDbMlineStyle
  2
Standard
 70
     0
  3

 62
   256
 51
90.0
 52
90.0
 71
     2
 49
0.5
 62
   256
  6
BYLAYER
 49
-0.5
 62
   256
  6
BYLAYER
  0
ACDBPLACEHOLDER
  5
F
102
{ACAD_REACTORS
330
E
102
}
330
E
  0
SCALE
  5
48
102
{ACAD_REACTORS
330
47
102
}
330
47
100
AcDbScale
 70
     0
300
1:1
140
1.0
141
1.0
290
     1
  0
SCALE
  5
49
102
{ACAD_REACTORS
330
47
102
}
330
47
100
AcDbScale
 70
     0
300
1:2
140
1.0
141
2.0
290
     0
  0
SCALE
  5
4A
102
{ACAD_REACTORS
330
47
102
}
330
47
100
AcDbScale
 70
     0
300
1:4
140
1.0
141
4.0
290
     0
  0
SCALE
  5
4B
102
{ACAD_REACTORS
330
47
102
}
330
47
100
AcDbScale
 70
     0
300
1:5
140
1.0
141
5.0
290
     0
  0
SCALE
  5
4C
102
{ACAD_REACTORS
330
47
102
}
330
47
100
AcDbScale
 70
     0
300
1:8
140
1.0
141
8.0
290
     0
  0
SCALE
  5
4D
102
{ACAD_REACTORS
330
47
102
}
330
47
100
AcDbScale
 70
     0
300
1:10
140
1.0
141
10.0
290
     0
  0
SCALE
  5
4E
102
{ACAD_REACTORS
330
47
102
}
330
47
100
AcDbScale
 70
     0
300
1:16
140
1.0
141
16.0
290
     0
  0
SCALE
  5
4F
102
{ACAD_REACTORS
330
47
102
}
330
47
100
AcDbScale
 70
     0
300
1:20
140
1.0
141
20.0
290
     0
  0
SCALE
  5
50
102
{ACAD_REACTORS
330
47
102
}
330
47
100
AcDbScale
 70
     0
300
1:30
140
1.0
141
30.0
290
     0
  0
SCALE
  5
51
102
{ACAD_REACTORS
330
47
102
}
330
47
100
AcDbScale
 70
     0
300
1:40
140
1.0
141
40.0
290
     0
  0
SCALE
  5
52
102
{ACAD_REACTORS
330
47
102
}
330
47
100
AcDbScale
 70
     0
300
1:50
140
1.0
141
50.0
290
     0
  0
SCALE
  5
53
102
{ACAD_REACTORS
330
47
102
}
330
47
100
AcDbScale
 70
     0
300
1:100
140
1.0
141
100.0
290
     0
  0
SCALE
  5
54
102
{ACAD_REACTORS
330
47
102
}
330
47
100
AcDbScale
 70
     0
300
2:1
140
2.0
141
1.0
290
     0
  0
SCALE
  5
55
102
{ACAD_REACTORS
330
47
102
}
330
47
100
AcDbScale
 70
     0
300
4:1
140
4.0
141
1.0
290
     0
  0
SCALE
  5
56
102
{ACAD_REACTORS
330
47
102
}
330
47
100
AcDbScale
 70
     0
300
8:1
140
8.0
141
1.0
290
     0
  0
SCALE
  5
57
102
{ACAD_REACTORS
330
47
102
}
330
47
100
AcDbScale
 70
     0
300
10:1
140
10.0
141
1.0
290
     0
  0
SCALE
  5
58
102
{ACAD_REACTORS
330
47
102
}
330
47
100
AcDbScale
 70
     0
300
100:1
140
100.0
141
1.0
290
     0
  0
ENDSEC
  0
EOF
