  0
SECTION
  2
HEADER
  9
$ACADVER
  1
AC1015
  9
$ACADMAINTVER
 70
     6
  9
$DWGCODEPAGE
  3
DOS932
  9
$INSBASE
 10
0.0
 20
0.0
 30
0.0
  9
$EXTMIN
 10
0.0
 20
0.0
 30
0.0
  9
$EXTMAX
 10
1050.0
 20
1485.0
 30
0.0
  9
$LIMMIN
 10
0.0
 20
0.0
  9
$LIMMAX
 10
1050.0
 20
1485.0
  9
$ORTHOMODE
 70
     0
  9
$REGENMODE
 70
     1
  9
$FILLMODE
 70
     1
  9
$QTEXTMODE
 70
     0
  9
$MIRRTEXT
 70
     1
  9
$LTSCALE
 40
5.0
  9
$ATTMODE
 70
     1
  9
$TEXTSIZE
 40
17.5
  9
$TRACEWID
 40
1.0
  9
$TEXTSTYLE
  7
Standard
  9
$CLAYER
  8
0
  9
$CELTYPE
  6
ByLayer
  9
$CECOLOR
 62
   256
  9
$CELTSCALE
 40
1.0
  9
$DISPSILH
 70
     0
  9
$DIMSCALE
 40
1.0
  9
$DIMASZ
 40
7.5
  9
$DIMEXO
 40
5.0
  9
$DIMDLI
 40
3.75
  9
$DIMRND
 40
0.0
  9
$DIMDLE
 40
0.0
  9
$DIMEXE
 40
5.0
  9
$DIMTP
 40
0.0
  9
$DIMTM
 40
0.0
  9
$DIMTXT
 40
17.5
  9
$DIMCEN
 40
2.5
  9
$DIMTSZ
 40
0.0
  9
$DIMTOL
 70
     0
  9
$DIMLIM
 70
     0
  9
$DIMTIH
 70
     1
  9
$DIMTOH
 70
     1
  9
$DIMSE1
 70
     0
  9
$DIMSE2
 70
     0
  9
$DIMTAD
 70
     1
  9
$DIMZIN
 70
     0
  9
$DIMBLK
  1

  9
$DIMASO
 70
     1
  9
$DIMSHO
 70
     1
  9
$DIMPOST
  1

  9
$DIMAPOST
  1

  9
$DIMALT
 70
     0
  9
$DIMALTD
 70
     3
  9
$DIMALTF
 40
0.0393700787
  9
$DIMLFAC
 40
1.0
  9
$DIMTOFL
 70
     1
  9
$DIMTVP
 40
0.0
  9
$DIMTIX
 70
     0
  9
$DIMSOXD
 70
     0
  9
$DIMSAH
 70
     0
  9
$DIMBLK1
  1

  9
$DIMBLK2
  1

  9
$DIMSTYLE
  2
ISO-25
  9
$DIMCLRD
 70
     0
  9
$DIMCLRE
 70
     0
  9
$DIMCLRT
 70
     0
  9
$DIMTFAC
 40
1.0
  9
$DIMGAP
 40
7.5
  9
$DIMJUST
 70
     0
  9
$DIMSD1
 70
     0
  9
$DIMSD2
 70
     0
  9
$DIMTOLJ
 70
     0
  9
$DIMTZIN
 70
     0
  9
$DIMALTZ
 70
     0
  9
$DIMALTTZ
 70
     0
  9
$DIMUPT
 70
     0
  9
$DIMDEC
 70
     1
  9
$DIMTDEC
 70
     1
  9
$DIMALTU
 70
     2
  9
$DIMALTTD
 70
     3
  9
$DIMTXSTY
  7
Standard
  9
$DIMAUNIT
 70
     0
  9
$DIMADEC
 70
     2
  9
$DIMALTRND
 40
0.0
  9
$DIMAZIN
 70
     0
  9
$DIMDSEP
 70
    44
  9
$DIMATFIT
 70
     3
  9
$DIMFRAC
 70
     0
  9
$DIMLDRBLK
  1

  9
$DIMLUNIT
 70
     2
  9
$DIMLWD
 70
    -2
  9
$DIMLWE
 70
    -2
  9
$DIMTMOVE
 70
     0
  9
$LUNITS
 70
     2
  9
$LUPREC
 70
     6
  9
$SKETCHINC
 40
1.0
  9
$FILLETRAD
 40
0.0
  9
$AUNITS
 70
     0
  9
$AUPREC
 70
     2
  9
$MENU
  1
.
  9
$ELEVATION
 40
0.0
  9
$PELEVATION
 40
0.0
  9
$THICKNESS
 40
0.0
  9
$LIMCHECK
 70
     0
  9
$CHAMFERA
 40
0.0
  9
$CHAMFERB
 40
0.0
  9
$CHAMFERC
 40
0.0
  9
$CHAMFERD
 40
0.0
  9
$SKPOLY
 70
     0
  9
$TDCREATE
 40
2460151.590710845
  9
$TDUCREATE
 40
2460151.215710845
  9
$TDUPDATE
 40
2460151.590712049
  9
$TDUUPDATE
 40
2460151.215712049
  9
$TDINDWG
 40
0.0000000116
  9
$TDUSRTIMER
 40
0.0000000116
  9
$USRTIMER
 70
     1
  9
$ANGBASE
 50
0.0
  9
$ANGDIR
 70
     0
  9
$PDMODE
 70
     0
  9
$PDSIZE
 40
-1.0
  9
$PLINEWID
 40
0.0
  9
$SPLFRAME
 70
     0
  9
$SPLINETYPE
 70
     6
  9
$SPLINESEGS
 70
     8
  9
$HANDSEED
  5
1A4
  9
$SURFTAB1
 70
     6
  9
$SURFTAB2
 70
     6
  9
$SURFTYPE
 70
     6
  9
$SURFU
 70
     6
  9
$SURFV
 70
     6
  9
$UCSBASE
  2

  9
$UCSNAME
  2

  9
$UCSORG
 10
0.0
 20
0.0
 30
0.0
  9
$UCSXDIR
 10
1.0
 20
0.0
 30
0.0
  9
$UCSYDIR
 10
0.0
 20
1.0
 30
0.0
  9
$UCSORTHOREF
  2

  9
$UCSORTHOVIEW
 70
     0
  9
$UCSORGTOP
 10
0.0
 20
0.0
 30
0.0
  9
$UCSORGBOTTOM
 10
0.0
 20
0.0
 30
0.0
  9
$UCSORGLEFT
 10
0.0
 20
0.0
 30
0.0
  9
$UCSORGRIGHT
 10
0.0
 20
0.0
 30
0.0
  9
$UCSORGFRONT
 10
0.0
 20
0.0
 30
0.0
  9
$UCSORGBACK
 10
0.0
 20
0.0
 30
0.0
  9
$PUCSBASE
  2

  9
$PUCSNAME
  2

  9
$PUCSORG
 10
0.0
 20
0.0
 30
0.0
  9
$PUCSXDIR
 10
1.0
 20
0.0
 30
0.0
  9
$PUCSYDIR
 10
0.0
 20
1.0
 30
0.0
  9
$PUCSORTHOREF
  2

  9
$PUCSORTHOVIEW
 70
     0
  9
$PUCSORGTOP
 10
0.0
 20
0.0
 30
0.0
  9
$PUCSORGBOTTOM
 10
0.0
 20
0.0
 30
0.0
  9
$PUCSORGLEFT
 10
0.0
 20
0.0
 30
0.0
  9
$PUCSORGRIGHT
 10
0.0
 20
0.0
 30
0.0
  9
$PUCSORGFRONT
 10
0.0
 20
0.0
 30
0.0
  9
$PUCSORGBACK
 10
0.0
 20
0.0
 30
0.0
  9
$USERI1
 70
     0
  9
$USERI2
 70
     0
  9
$USERI3
 70
     0
  9
$USERI4
 70
     0
  9
$USERI5
 70
     0
  9
$USERR1
 40
0.0
  9
$USERR2
 40
0.0
  9
$USERR3
 40
0.0
  9
$USERR4
 40
0.0
  9
$USERR5
 40
0.0
  9
$WORLDVIEW
 70
     1
  9
$SHADEDGE
 70
     3
  9
$SHADEDIF
 70
    70
  9
$TILEMODE
 70
     1
  9
$MAXACTVP
 70
    64
  9
$PINSBASE
 10
0.0
 20
0.0
 30
0.0
  9
$PLIMCHECK
 70
     0
  9
$PEXTMIN
 10
1.0000000000E+20
 20
1.0000000000E+20
 30
1.0000000000E+20
  9
$PEXTMAX
 10
-1.0000000000E+20
 20
-1.0000000000E+20
 30
-1.0000000000E+20
  9
$PLIMMIN
 10
0.0
 20
0.0
  9
$PLIMMAX
 10
420.0
 20
297.0
  9
$UNITMODE
 70
     0
  9
$VISRETAIN
 70
     1
  9
$PLINEGEN
 70
     0
  9
$PSLTSCALE
 70
     1
  9
$TREEDEPTH
 70
  3020
  9
$CMLSTYLE
  2
Standard
  9
$CMLJUST
 70
     0
  9
$CMLSCALE
 40
20.0
  9
$PROXYGRAPHICS
 70
     1
  9
$MEASUREMENT
 70
     1
  9
$CELWEIGHT
370
    -1
  9
$ENDCAPS
280
     0
  9
$JOINSTYLE
280
     0
  9
$LWDISPLAY
290
     1
  9
$INSUNITS
 70
     4
  9
$HYPERLINKBASE
  1

  9
$STYLESHEET
  1

  9
$XEDIT
290
     1
  9
$CEPSNTYPE
380
     0
  9
$PSTYLEMODE
290
     1
  9
$FINGERPRINTGUID
  2
{a17ae1e3-70cb-4735-b5e5-10323688de39}
  9
$VERSIONGUID
  2
{FAEB1C32-E019-11D5-929B-00C0DF256EC4}
  9
$EXTNAMES
290
     1
  9
$PSVPSCALE
 40
0.0
  9
$OLESTARTUP
290
     0
  0
ENDSEC
  0
SECTION
  2
CLASSES
  0
CLASS
  1
ACDBDICTIONARYWDFLT
  2
AcDbDictionaryWithDefault
  3
ObjectDBX Classes
 90
        0
280
     0
281
     0
  0
CLASS
  1
VISUALSTYLE
  2
AcDbVisualStyle
  3
ObjectDBX Classes
 90
     4095
280
     0
281
     0
  0
CLASS
  1
MATERIAL
  2
AcDbMaterial
  3
ObjectDBX Classes
 90
     1153
280
     0
281
     0
  0
CLASS
  1
SCALE
  2
AcDbScale
  3
ObjectDBX Classes
 90
     1153
280
     0
281
     0
  0
CLASS
  1
TABLESTYLE
  2
AcDbTableStyle
  3
ObjectDBX Classes
 90
     4095
280
     0
281
     0
  0
CLASS
  1
MLEADERSTYLE
  2
AcDbMLeaderStyle
  3
ACDB_MLEADERSTYLE_CLASS
 90
     4095
280
     0
281
     0
  0
CLASS
  1
SUN
  2
AcDbSun
  3
SCENEOE
 90
     1153
280
     0
281
     0
  0
CLASS
  1
ACDBPLACEHOLDER
  2
AcDbPlaceHolder
  3
ObjectDBX Classes
 90
        0
280
     0
281
     0
  0
CLASS
  1
LAYOUT
  2
AcDbLayout
  3
ObjectDBX Classes
 90
        0
280
     0
281
     0
  0
ENDSEC
  0
SECTION
  2
TABLES
  0
TABLE
  2
VPORT
  5
8
330
0
100
AcDbSymbolTable
 70
     1
  0
VPORT
  5
29
330
8
100
AcDbSymbolTableRecord
100
AcDbViewportTableRecord
  2
*Active
 70
     0
 10
0.0
 20
0.0
 11
1.0
 21
1.0
 12
525.0
 22
742.5
 13
0.0
 23
0.0
 14
10.0
 24
10.0
 15
10.0
 25
10.0
 16
0.0
 26
0.0
 36
1.0
 17
0.0
 27
0.0
 37
0.0
 40
1485.0
 41
0.7070707071
 42
50.0
 43
0.0
 44
0.0
 50
0.0
 51
0.0
 71
     0
 72
  2000
 73
     1
 74
     3
 75
     0
 76
     0
 77
     0
 78
     0
281
     0
 65
     1
110
0.0
120
0.0
130
0.0
111
1.0
121
0.0
131
0.0
112
0.0
122
1.0
132
0.0
 79
     0
146
0.0
  0
ENDTAB
  0
TABLE
  2
LTYPE
  5
5
330
0
100
AcDbSymbolTable
 70
     6
  0
LTYPE
  5
14
330
5
100
AcDbSymbolTableRecord
100
AcDbLinetypeTableRecord
  2
ByBlock
 70
     0
  3

 72
    65
 73
     0
 40
0.0
  0
LTYPE
  5
15
330
5
100
AcDbSymbolTableRecord
100
AcDbLinetypeTableRecord
  2
ByLayer
 70
     0
  3

 72
    65
 73
     0
 40
0.0
  0
LTYPE
  5
16
330
5
100
AcDbSymbolTableRecord
100
AcDbLinetypeTableRecord
  2
Continuous
 70
     0
  3
Solid line
 72
    65
 73
     0
 40
0.0
  0
LTYPE
  5
5E
330
5
100
AcDbSymbolTableRecord
100
AcDbLinetypeTableRecord
  2
HIDDEN
 70
     0
  3
Hidden __ __ __ __ __ __ __ __ __ __ __ __ __ __
 72
    65
 73
     2
 40
1.905
 49
1.27
 74
     0
 49
-0.635
 74
     0
  0
LTYPE
  5
5F
330
5
100
AcDbSymbolTableRecord
100
AcDbLinetypeTableRecord
  2
PHANTOM
 70
     0
  3
Phantom ______  __  __  ______  __  __  ______
 72
    65
 73
     6
 40
12.7
 49
6.35
 74
     0
 49
-1.27
 74
     0
 49
1.27
 74
     0
 49
-1.27
 74
     0
 49
1.27
 74
     0
 49
-1.27
 74
     0
  0
LTYPE
  5
60
330
5
100
AcDbSymbolTableRecord
100
AcDbLinetypeTableRecord
  2
CENTER
 70
     0
  3
Center ____ _ ____ _ ____ _ ____ _ ____ _ ____
 72
    65
 73
     4
 40
10.16
 49
6.35
 74
     0
 49
-1.27
 74
     0
 49
1.27
 74
     0
 49
-1.27
 74
     0
  0
LTYPE
  5
61
330
5
100
AcDbSymbolTableRecord
100
AcDbLinetypeTableRecord
  2
CENTERX2
 70
     0
  3
Center (2x) ________  __  ________  __  _____
 72
    65
 73
     4
 40
20.32
 49
12.7
 74
     0
 49
-2.54
 74
     0
 49
2.54
 74
     0
 49
-2.54
 74
     0
  0
LTYPE
  5
62
330
5
100
AcDbSymbolTableRecord
100
AcDbLinetypeTableRecord
  2
DOT2
 70
     0
  3
Dot (.5x) ........................................
 72
    65
 73
     2
 40
0.635
 49
0.0
 74
     0
 49
-0.635
 74
     0
  0
ENDTAB
  0
TABLE
  2
LAYER
  5
2
330
0
100
AcDbSymbolTable
 70
     2
  0
LAYER
  5
10
330
2
100
AcDbSymbolTableRecord
100
AcDbLayerTableRecord
  2
0
 70
     0
 62
     7
  6
Continuous
370
    -3
390
F
  0
LAYER
  5
63
330
2
100
AcDbSymbolTableRecord
100
AcDbLayerTableRecord
  2
FORMAT
 70
     0
 62
     7
  6
Continuous
370
    -3
390
F
  0
ENDTAB
  0
TABLE
  2
STYLE
  5
3
330
0
100
AcDbSymbolTable
 70
     2
  0
STYLE
  5
11
330
3
100
AcDbSymbolTableRecord
100
AcDbTextStyleTableRecord
  2
Standard
 70
     0
 40
0.0
 41
1.0
 50
0.0
 71
     0
 42
17.5
  3
txt
  4
bigfont
  0
STYLE
  5
67
330
3
100
AcDbSymbolTableRecord
100
AcDbTextStyleTableRecord
  2
SLDTEXTSTYLE0
 70
     0
 40
0.0
 41
0.7
 50
0.0
 71
     0
 42
17.5
  3
TXT
  4
bigfont
  0
ENDTAB
  0
TABLE
  2
VIEW
  5
6
330
0
100
AcDbSymbolTable
 70
     0
  0
ENDTAB
  0
TABLE
  2
UCS
  5
7
330
0
100
AcDbSymbolTable
 70
     0
  0
ENDTAB
  0
TABLE
  2
APPID
  5
9
330
0
100
AcDbSymbolTable
 70
     1
  0
APPID
  5
12
330
9
100
AcDbSymbolTableRecord
100
AcDbRegAppTableRecord
  2
ACAD
 70
     0
  0
ENDTAB
  0
TABLE
  2
DIMSTYLE
  5
A
330
0
100
AcDbSymbolTable
 70
     1
100
AcDbDimStyleTable
  0
DIMSTYLE
105
27
330
A
100
AcDbSymbolTableRecord
100
AcDbDimStyleTableRecord
  2
ISO-25
 70
     0
 41
2.5
 42
0.625
 43
3.75
 44
1.25
 73
     0
 74
     0
 77
     1
 78
     8
140
2.5
141
2.5
143
0.0393700787
147
0.625
171
     3
172
     1
178
     0
271
     2
272
     2
274
     3
278
    44
283
     0
284
     8
340
11
  0
ENDTAB
  0
TABLE
  2
BLOCK_RECORD
  5
1
330
0
100
AcDbSymbolTable
 70
     1
  0
BLOCK_RECORD
  5
1F
330
1
100
AcDbSymbolTableRecord
100
AcDbBlockTableRecord
  2
*Model_Space
340
22
  0
BLOCK_RECORD
  5
1B
330
1
100
AcDbSymbolTableRecord
100
AcDbBlockTableRecord
  2
*Paper_Space
340
1E
  0
BLOCK_RECORD
  5
23
330
1
100
AcDbSymbolTableRecord
100
AcDbBlockTableRecord
  2
*Paper_Space0
340
26
  0
ENDTAB
  0
ENDSEC
  0
SECTION
  2
BLOCKS
  0
BLOCK
  5
20
330
1F
100
AcDbEntity
  8
0
100
AcDbBlockBegin
  2
*Model_Space
 70
     0
 10
0.0
 20
0.0
 30
0.0
  3
*Model_Space
  1

  0
ENDBLK
  5
21
330
1F
100
AcDbEntity
  8
0
100
AcDbBlockEnd
  0
BLOCK
  5
1C
330
1B
100
AcDbEntity
 67
     1
  8
0
100
AcDbBlockBegin
  2
*Paper_Space
 70
     0
 10
0.0
 20
0.0
 30
0.0
  3
*Paper_Space
  1

  0
ENDBLK
  5
1D
330
1B
100
AcDbEntity
 67
     1
  8
0
100
AcDbBlockEnd
  0
BLOCK
  5
24
330
23
100
AcDbEntity
  8
0
100
AcDbBlockBegin
  2
*Paper_Space0
 70
     0
 10
0.0
 20
0.0
 30
0.0
  3
*Paper_Space0
  1

  0
ENDBLK
  5
25
330
23
100
AcDbEntity
  8
0
100
AcDbBlockEnd
  0
ENDSEC
  0
SECTION
  2
ENTITIES
  0
SPLINE
  5
64
330
1F
100
AcDbEntity
  8
0
  6
Continuous
 62
     5
370
    25
100
AcDbSpline
210
0.0
220
0.0
230
1.0
 70
     8
 71
     2
 72
     6
 73
     3
 74
     0
 42
0.00000001
 43
0.00000001
 40
0.0
 40
0.0
 40
0.0
 40
1.0
 40
1.0
 40
1.0
 10
488.2118199350597
 20
590.9248043986623
 30
0.0
 10
495.1283650194972
 20
587.4087077008037
 30
0.0
 10
502.2118199350597
 20
590.5541576360982
 30
0.0
  0
SPLINE
  5
65
330
1F
100
AcDbEntity
  8
0
  6
Continuous
 62
     7
370
    25
100
AcDbSpline
210
0.0
220
0.0
230
1.0
 70
     8
 71
     3
 72
    39
 73
    35
 74
     0
 42
0.00000001
 43
0.00000001
 40
0.0
 40
0.0
 40
0.0
 40
0.0
 40
0.0614358429800838
 40
0.0882183074696808
 40
0.1128705128905677
 40
0.1417842619059368
 40
0.1735445489656828
 40
0.2040775698291714
 40
0.2521785510028513
 40
0.3005788559791721
 40
0.3456349431746438
 40
0.3971265033585544
 40
0.4497011296677076
 40
0.4708807403389454
 40
0.4922732020251437
 40
0.513072278461858
 40
0.5352246869865815
 40
0.5692412176416273
 40
0.6149453161432891
 40
0.6551958335741619
 40
0.6833659046518441
 40
0.7249102036861832
 40
0.7686186969977883
 40
0.7970627644999423
 40
0.8273952242610846
 40
0.8705359846298447
 40
0.9069420308973625
 40
0.9157342245744932
 40
0.9270864665281114
 40
0.9410053991693972
 40
0.9570147361441522
 40
0.9723442889587395
 40
0.9866353576132493
 40
1.0
 40
1.0
 40
1.0
 40
1.0
 10
519.9480748948735
 20
1107.757411422557
 30
0.0
 10
520.1349765338817
 20
1107.789107933099
 30
0.0
 10
520.4033564478995
 20
1107.834622283957
 30
0.0
 10
520.745922633187
 20
1107.884171636386
 30
0.0
 10
520.9873734577976
 20
1107.916785136847
 30
0.0
 10
521.2448118667655
 20
1107.94863377873
 30
0.0
 10
521.5195115089958
 20
1107.979150629943
 30
0.0
 10
521.8498683082611
 20
1108.011547819365
 30
0.0
 10
522.2289973809452
 20
1108.042489077657
 30
0.0
 10
522.6487932102738
 20
1108.068237110152
 30
0.0
 10
523.0770492987294
 20
1108.086061497903
 30
0.0
 10
523.514754613106
 20
1108.095310346989
 30
0.0
 10
523.8803367394822
 20
1108.094941347846
 30
0.0
 10
524.1575743131281
 20
1108.090268310744
 30
0.0
 10
524.3401325002849
 20
1108.085524314329
 30
0.0
 10
524.5263506595641
 20
1108.079004951584
 30
0.0
 10
524.7500320358729
 20
1108.069078125891
 30
0.0
 10
525.0424905339673
 20
1108.052521754147
 30
0.0
 10
525.3860904200517
 20
1108.027112163231
 30
0.0
 10
525.7109647042
 20
1107.996967821421
 30
0.0
 10
526.0243050121092
 20
1107.963147308877
 30
0.0
 10
526.3438007477272
 20
1107.923711701532
 30
0.0
 10
526.6641170074965
 20
1107.87809888605
 30
0.0
 10
526.9521017722963
 20
1107.832385337357
 30
0.0
 10
527.2361577263019
 20
1107.783519302459
 30
0.0
 10
527.5405716260697
 20
1107.726030746128
 30
0.0
 10
527.7834618654614
 20
1107.675850633904
 30
0.0
 10
527.953912383498
 20
1107.638746198149
 30
0.0
 10
528.0569326632112
 20
1107.615807600885
 30
0.0
 10
528.1821820814898
 20
1107.587155080883
 30
0.0
 10
528.3211754293415
 20
1107.554332855801
 30
0.0
 10
528.4462820801755
 20
1107.523652536641
 30
0.0
 10
528.5505480527368
 20
1107.497196358324
 30
0.0
 10
528.6020743599214
 20
1107.48383965276
 30
0.0
 10
528.6269744851796
 20
1107.477385015125
 30
0.0
  0
SPLINE
  5
66
330
1F
100
AcDbEntity
  8
0
  6
PHANTOM
 62
     7
370
    25
100
AcDbSpline
210
0.0
220
0.0
230
1.0
 70
     8
 71
     3
 72
    37
 73
    33
 74
     0
 42
0.00000001
 43
0.00000001
 40
0.0
 40
0.0
 40
0.0
 40
0.0
 40
0.0285018223903933
 40
0.0519411683007891
 40
0.0703513469640311
 40
0.0848825610549433
 40
0.0985802796546837
 40
0.1116208169910823
 40
0.1349144686013721
 40
0.1601145006077165
 40
0.1834477375637721
 40
0.2090175140719056
 40
0.2372108444977823
 40
0.2641371054186448
 40
0.2990531436141479
 40
0.3371682998070731
 40
0.3999678935475496
 40
0.4375164636832694
 40
0.4750163848110382
 40
0.5174985630267129
 40
0.5648740890218426
 40
0.6105682060950014
 40
0.6659767907126565
 40
0.7152344116086309
 40
0.7585968597707422
 40
0.8180558775649863
 40
0.866783146783507
 40
0.8967791821645646
 40
0.9305707450567382
 40
0.950412169570658
 40
0.9697764594672671
 40
1.0
 40
1.0
 40
1.0
 40
1.0
 10
532.1348534712755
 20
1121.030789938567
 30
0.0
 10
531.995591997933
 20
1121.066272196684
 30
0.0
 10
531.7418045900394
 20
1121.13093437566
 30
0.0
 10
531.402319494999
 20
1121.211894854615
 30
0.0
 10
531.1357537306214
 20
1121.273132006111
 30
0.0
 10
530.9251405156597
 20
1121.319961986226
 30
0.0
 10
530.7352649358904
 20
1121.360982809044
 30
0.0
 10
530.503617739911
 20
1121.409622473329
 30
0.0
 10
530.2120469766176
 20
1121.468495506474
 30
0.0
 10
529.8606983903363
 20
1121.535494377509
 30
0.0
 10
529.5039174599991
 20
1121.599493422248
 30
0.0
 10
529.1345662485223
 20
1121.661689191614
 30
0.0
 10
528.745755867092
 20
1121.722457699775
 30
0.0
 10
528.3109038437348
 20
1121.785042565608
 30
0.0
 10
527.8265717859161
 20
1121.848054805765
 30
0.0
 10
527.1682510253797
 20
1121.923039526462
 30
0.0
 10
526.4932578808188
 20
1121.984911697028
 30
0.0
 10
525.8204483090402
 20
1122.031799120956
 30
0.0
 10
525.2453616801897
 20
1122.062495386354
 30
0.0
 10
524.621554875124
 20
1122.084996337458
 30
0.0
 10
523.9560084044103
 20
1122.096134753848
 30
0.0
 10
523.2261692810778
 20
1122.093802148244
 30
0.0
 10
522.4859817974259
 20
1122.075499503963
 30
0.0
 10
521.7563307694048
 20
1122.041262751159
 30
0.0
 10
521.0066292832939
 20
1121.991431219473
 30
0.0
 10
520.2588669268536
 20
1121.92554902057
 30
0.0
 10
519.5774981640135
 20
1121.850079954713
 30
0.0
 10
519.0218779628941
 20
1121.779377935984
 30
0.0
 10
518.6118790542524
 20
1121.721764267606
 30
0.0
 10
518.2555129139436
 20
1121.66769977906
 30
0.0
 10
517.9078510790172
 20
1121.612339310279
 30
0.0
 10
517.6636424905365
 20
1121.570085206215
 30
0.0
 10
517.5147985482128
 20
1121.544331536095
 30
0.0
  0
MTEXT
  5
68
330
1F
100
AcDbEntity
  8
0
  6
Continuous
 62
     7
370
     0
100
AcDbMText
 10
675.2835509138
 20
534.9300951721
 30
0.0
 40
17.5
 41
0.0
 71
     1
 72
     1
  1
HCA-D41M/K
  7
SLDTEXTSTYLE0
 73
     1
 44
1.0
  0
LINE
  5
69
330
1F
100
AcDbEntity
  8
0
  6
Continuous
 62
     7
370
    25
100
AcDbLine
 10
445.2118199351
 20
591.0049005003
 30
0.0
 11
445.2118199351
 21
589.0730488477
 31
0.0
  0
LINE
  5
6A
330
1F
100
AcDbEntity
  8
0
  6
Continuous
 62
     7
370
    25
100
AcDbLine
 10
545.2118199351
 20
589.0730488477
 30
0.0
 11
545.2118199351
 21
591.0049005003
 31
0.0
  0
SPLINE
  5
6B
330
1F
100
AcDbEntity
  8
0
  6
Continuous
 62
     7
370
    25
100
AcDbSpline
210
0.0
220
0.0
230
1.0
 70
     8
 71
     3
 72
    21
 73
    17
 74
     0
 42
0.00000001
 43
0.00000001
 40
0.0
 40
0.0
 40
0.0
 40
0.0
 40
0.0686607540666732
 40
0.1394248622458756
 40
0.2104428314994991
 40
0.2817120532241501
 40
0.3532362554235824
 40
0.4250259517891748
 40
0.4970992543168646
 40
0.5694831556544988
 40
0.6422154502709642
 40
0.7153475671007975
 40
0.7889487651484495
 40
0.86311246876933
 40
0.9379661463468376
 40
1.0
 40
1.0
 40
1.0
 40
1.0
 10
418.2975468258657
 20
1010.520674762011
 30
0.0
 10
419.0100022792255
 20
1009.401146688516
 30
0.0
 10
420.4567385522433
 20
1007.127794909189
 30
0.0
 10
422.9622432388401
 20
1003.918749902789
 30
0.0
 10
425.718856266928
 20
1000.858487267806
 30
0.0
 10
428.7168653868764
 20
998.0109919659745
 30
0.0
 10
431.9342742182521
 20
995.3909751793294
 30
0.0
 10
435.3566903874224
 20
993.0173418060637
 30
0.0
 10
438.9662869389349
 20
990.9062959234876
 30
0.0
 10
442.7450139410062
 20
989.0732710797079
 30
0.0
 10
446.6740147820951
 20
987.5321935933983
 30
0.0
 10
450.7340422927051
 20
986.2967930495164
 30
0.0
 10
454.9059005839473
 20
985.3766911955636
 30
0.0
 10
459.1700915697254
 20
984.7929796594385
 30
0.0
 10
463.2458613855293
 20
984.5375377034622
 30
0.0
 10
465.8898320450541
 20
984.6257546589743
 30
0.0
 10
467.0880104874708
 20
984.6657322789866
 30
0.0
  0
SPLINE
  5
6C
330
1F
100
AcDbEntity
  8
0
  6
Continuous
 62
     7
370
    25
100
AcDbSpline
210
0.0
220
0.0
230
1.0
 70
     8
 71
     3
 72
    11
 73
     7
 74
     0
 42
0.00000001
 43
0.00000001
 40
0.0
 40
0.0
 40
0.0
 40
0.0
 40
0.0739313687175313
 40
0.3830090991782349
 40
0.754560083683788
 40
1.0
 40
1.0
 40
1.0
 40
1.0
 10
464.4216696262565
 20
984.6154452404613
 30
0.0
 10
464.7082002200033
 20
984.5352815148284
 30
0.0
 10
466.1926015844265
 20
984.1199850463054
 30
0.0
 10
469.118040231065
 20
983.4383921341081
 30
0.0
 10
472.6608749371338
 20
982.4995232077133
 30
0.0
 10
474.9613320458847
 20
981.7011988719805
 30
0.0
 10
475.8764573735173
 20
981.3836242401757
 30
0.0
  0
LINE
  5
6D
330
1F
100
AcDbEntity
  8
0
  6
Continuous
 62
     7
370
    25
100
AcDbLine
 10
431.3555433056
 20
1024.8353249228
 30
0.0
 11
431.420182806
 21
1024.6473629119
 31
0.0
  0
LINE
  5
6E
330
1F
100
AcDbEntity
  8
0
  6
Continuous
 62
     7
370
    25
100
AcDbLine
 10
490.3648226992
 20
996.231195973
 30
0.0
 11
490.4688237156
 21
996.4284557951
 31
0.0
  0
SPLINE
  5
6F
330
1F
100
AcDbEntity
  8
0
  6
Continuous
 62
     7
370
    25
100
AcDbSpline
210
0.0
220
0.0
230
1.0
 70
     8
 71
     3
 72
    10
 73
     6
 74
     0
 42
0.00000001
 43
0.00000001
 40
0.0
 40
0.0
 40
0.0
 40
0.0
 40
0.3565743766406728
 40
0.9451389920375105
 40
1.0
 40
1.0
 40
1.0
 40
1.0
 10
490.3975430946734
 20
996.5357024798516
 30
0.0
 10
490.9143984463104
 20
997.6751683816626
 30
0.0
 10
492.2843795163961
 20
1000.695446125804
 30
0.0
 10
493.436059962884
 20
1004.080832411592
 30
0.0
 10
493.7090735752445
 20
1006.341006707262
 30
0.0
 10
493.7323517932977
 20
1006.533718087614
 30
0.0
  0
SPLINE
  5
70
330
1F
100
AcDbEntity
  8
0
  6
Continuous
 62
     7
370
    25
100
AcDbSpline
210
0.0
220
0.0
230
1.0
 70
     8
 71
     3
 72
    10
 73
     6
 74
     0
 42
0.00000001
 43
0.00000001
 40
0.0
 40
0.0
 40
0.0
 40
0.0
 40
0.3426774855922462
 40
0.7431055563126835
 40
1.0
 40
1.0
 40
1.0
 40
1.0
 10
414.4712703243138
 20
1036.101006681506
 30
0.0
 10
413.8108169076608
 20
1035.03877001712
 30
0.0
 10
412.3786055012061
 20
1032.735280582849
 30
0.0
 10
410.7375590966923
 20
1029.463693985747
 30
0.0
 10
409.8512999414631
 20
1027.231644849577
 30
0.0
 10
409.5049325987129
 20
1026.359316565439
 30
0.0
  0
SPLINE
  5
71
330
1F
100
AcDbEntity
  8
0
  6
Continuous
 62
     7
370
    25
100
AcDbSpline
210
0.0
220
0.0
230
1.0
 70
     8
 71
     3
 72
    10
 73
     6
 74
     0
 42
0.00000001
 43
0.00000001
 40
0.0
 40
0.0
 40
0.0
 40
0.0
 40
0.0484268629671461
 40
0.5175827045971558
 40
1.0
 40
1.0
 40
1.0
 40
1.0
 10
420.6437241258479
 20
1044.23121973285
 30
0.0
 10
420.5250309048062
 20
1044.115308665367
 30
0.0
 10
419.2564465984914
 20
1042.876459809081
 30
0.0
 10
417.1401601811654
 20
1040.166875431242
 30
0.0
 10
415.3629966169319
 20
1037.476480332542
 30
0.0
 10
414.4620312504449
 20
1036.112535642881
 30
0.0
  0
LWPOLYLINE
  5
72
330
1F
100
AcDbEntity
  8
0
  6
Continuous
 62
     7
370
    25
100
AcDbPolyline
 90
       16
 70
   128
 43
0.0
 10
488.7610073551
 20
1058.0211125494
 10
488.7609518077
 20
1058.0211625884
 10
488.7608411346
 20
1058.0212622841
 10
488.759882222
 20
1058.0221259657
 10
488.7554842225
 20
1058.0260844488
 10
488.7367250122
 20
1058.0429187377
 10
488.6586454884
 20
1058.1121423895
 10
488.5645332382
 20
1058.1938961527
 10
488.5395941827
 20
1058.2152740974
 10
488.5329924488
 20
1058.2209140181
 10
488.5311664165
 20
1058.2224726174
 10
488.5306226427
 20
1058.2229366359
 10
488.5303251425
 20
1058.2231904791
 10
488.5302892532
 20
1058.2232211007
 10
488.5302687591
 20
1058.2232385866
 10
488.5302709198
 20
1058.2232367431
  0
SPLINE
  5
73
330
1F
100
AcDbEntity
  8
0
  6
Continuous
 62
     7
370
    25
100
AcDbSpline
210
0.0
220
0.0
230
1.0
 70
     8
 71
     3
 72
     9
 73
     5
 74
     0
 42
0.00000001
 43
0.00000001
 40
0.0
 40
0.0
 40
0.0
 40
0.0
 40
0.7445324209561305
 40
1.0
 40
1.0
 40
1.0
 40
1.0
 10
480.3404448033573
 20
1063.753476210502
 30
0.0
 10
480.2138705974991
 20
1063.844396440712
 30
0.0
 10
480.0438656355988
 20
1063.966513661737
 30
0.0
 10
479.5157078374542
 20
1063.936650959066
 30
0.0
 10
479.380780643409
 20
1063.929022006711
 30
0.0
  0
LINE
  5
74
330
1F
100
AcDbEntity
  8
0
  6
Continuous
 62
     7
370
    25
100
AcDbLine
 10
475.3476326351
 20
1066.1328294539
 30
0.0
 11
475.4409335411
 21
1066.3088681785
 31
0.0
  0
SPLINE
  5
75
330
1F
100
AcDbEntity
  8
0
  6
Continuous
 62
     7
370
    25
100
AcDbSpline
210
0.0
220
0.0
230
1.0
 70
     8
 71
     3
 72
    13
 73
     9
 74
     0
 42
0.00000001
 43
0.00000001
 40
0.0
 40
0.0
 40
0.0
 40
0.0
 40
0.0762648847214912
 40
0.1319215078122016
 40
0.1760586057612868
 40
0.3466291279908955
 40
0.5722488787436104
 40
1.0
 40
1.0
 40
1.0
 40
1.0
 10
461.7264292264214
 20
1032.108036820329
 30
0.0
 10
461.729774995634
 20
1032.102991407199
 30
0.0
 10
461.7355624418606
 20
1032.094263950124
 30
0.0
 10
461.7401153876737
 20
1032.082387377766
 30
0.0
 10
461.7403945199204
 20
1032.06599710698
 30
0.0
 10
461.7244634745385
 20
1032.049405613765
 30
0.0
 10
461.7018905496531
 20
1032.020705400582
 30
0.0
 10
461.6839517934797
 20
1032.004396169209
 30
0.0
 10
461.6722075860229
 20
1031.993718784732
 30
0.0
  0
SPLINE
  5
76
330
1F
100
AcDbEntity
  8
0
  6
Continuous
 62
     7
370
    25
100
AcDbSpline
210
0.0
220
0.0
230
1.0
 70
     8
 71
     3
 72
    20
 73
    16
 74
     0
 42
0.00000001
 43
0.00000001
 40
0.0
 40
0.0
 40
0.0
 40
0.0
 40
0.0940286300328022
 40
0.1801919329508689
 40
0.3306102936304924
 40
0.3964120910500328
 40
0.4567038180466698
 40
0.5657747113506572
 40
0.6273760914244985
 40
0.6919037658111147
 40
0.7515804841683291
 40
0.8020090943632685
 40
0.8440827337588435
 40
0.9050899182608424
 40
0.9999999999999999
 40
0.9999999999999999
 40
0.9999999999999999
 40
0.9999999999999999
 10
501.9760191891182
 20
1038.070861251352
 30
0.0
 10
501.7040487499046
 20
1038.744082900081
 30
0.0
 10
501.1828577134054
 20
1040.034212407939
 30
0.0
 10
499.9817639318383
 20
1042.353356227506
 30
0.0
 10
498.8084584934126
 20
1044.463218320025
 30
0.0
 10
497.7443240315646
 20
1046.314388432302
 30
0.0
 10
496.8174206247727
 20
1047.836939153689
 30
0.0
 10
495.7681344178069
 20
1049.408327093256
 30
0.0
 10
494.7797044128285
 20
1050.877431198891
 30
0.0
 10
494.0629332944827
 20
1051.908584202191
 30
0.0
 10
493.3572770748739
 20
1052.873272765374
 30
0.0
 10
492.6927923835786
 20
1053.733719313608
 30
0.0
 10
491.9712376373857
 20
1054.629457214305
 30
0.0
 10
491.1064604841821
 20
1055.695579514524
 30
0.0
 10
490.3274244962505
 20
1056.502740598218
 30
0.0
 10
489.8532090929482
 20
1056.994076332078
 30
0.0
  0
SPLINE
  5
77
330
1F
100
AcDbEntity
  8
0
  6
Continuous
 62
     7
370
    25
100
AcDbSpline
210
0.0
220
0.0
230
1.0
 70
     8
 71
     3
 72
    12
 73
     8
 74
     0
 42
0.00000001
 43
0.00000001
 40
0.0
 40
0.0
 40
0.0
 40
0.0
 40
0.0907858846297417
 40
0.2508145344689657
 40
0.4187515314467632
 40
0.6919986676124509
 40
1.0
 40
1.0
 40
1.0
 40
1.0
 10
471.0466169109857
 20
1068.501536588761
 30
0.0
 10
470.5533242249928
 20
1068.681175254797
 30
0.0
 10
469.190502505528
 20
1069.177463731559
 30
0.0
 10
466.863649045432
 20
1069.738715006374
 30
0.0
 10
463.5135037690307
 20
1070.328734225779
 30
0.0
 10
459.3088681236902
 20
1070.576953258926
 30
0.0
 10
456.0516304335363
 20
1070.286342733431
 30
0.0
 10
454.3256326842993
 20
1070.132349331468
 30
0.0
  0
LINE
  5
78
330
1F
100
AcDbEntity
  8
0
  6
Continuous
 62
     7
370
    25
100
AcDbLine
 10
455.2551330091
 20
1070.2540525527
 30
0.0
 11
454.1598184596
 21
1070.0525394617
 31
0.0
  0
SPLINE
  5
79
330
1F
100
AcDbEntity
  8
0
  6
Continuous
 62
     7
370
    25
100
AcDbSpline
210
0.0
220
0.0
230
1.0
 70
     8
 71
     3
 72
    20
 73
    16
 74
     0
 42
0.00000001
 43
0.00000001
 40
0.0
 40
0.0
 40
0.0
 40
0.0
 40
0.0273922012837137
 40
0.1079172290013178
 40
0.1734005124754329
 40
0.2283091531394156
 40
0.3131050397822974
 40
0.3901193233027347
 40
0.4660611521337004
 40
0.5635757639239134
 40
0.6743518310448037
 40
0.7930184382740443
 40
0.8779962966999953
 40
0.9550896509608356
 40
1.0
 40
1.0
 40
1.0
 40
1.0
 10
447.6016678349609
 20
1068.530372184085
 30
0.0
 10
447.2128388368546
 20
1068.419792711171
 30
0.0
 10
445.6809667687289
 20
1067.984142060912
 30
0.0
 10
443.3069122976759
 20
1067.049472490142
 30
0.0
 10
440.5768410066855
 20
1065.895194190532
 30
0.0
 10
437.8191190631987
 20
1064.589372657932
 30
0.0
 10
434.9624620991277
 20
1063.095735852437
 30
0.0
 10
431.8932754648806
 20
1061.306811285494
 30
0.0
 10
428.733661099199
 20
1059.262901428953
 30
0.0
 10
425.2777308774682
 20
1056.756323554463
 30
0.0
 10
421.5013677992675
 20
1053.66662733752
 30
0.0
 10
418.0884815782007
 20
1050.512428798077
 30
0.0
 10
415.2012122213878
 20
1047.577225076127
 30
0.0
 10
413.1009246423549
 20
1045.391423182269
 30
0.0
 10
411.9685227368488
 20
1044.052419921996
 30
0.0
 10
411.5516783013661
 20
1043.559524197056
 30
0.0
  0
SPLINE
  5
7A
330
1F
100
AcDbEntity
  8
0
  6
Continuous
 62
     7
370
    25
100
AcDbSpline
210
0.0
220
0.0
230
1.0
 70
     8
 71
     3
 72
     9
 73
     5
 74
     0
 42
0.00000001
 43
0.00000001
 40
0.0
 40
0.0
 40
0.0
 40
0.0
 40
0.3451215994529298
 40
1.0
 40
1.0
 40
1.0
 40
1.0
 10
475.1253294897137
 20
1067.050693688579
 30
0.0
 10
474.7956239100694
 20
1067.160712244787
 30
0.0
 10
473.8402922815453
 20
1067.479494252006
 30
0.0
 10
472.8612355567774
 20
1067.850672044156
 30
0.0
 10
472.2200724548166
 20
1068.093748362999
 30
0.0
  0
LINE
  5
7B
330
1F
100
AcDbEntity
  8
0
  6
Continuous
 62
     7
370
    25
100
AcDbLine
 10
499.2330244595
 20
1003.7001181417
 30
0.0
 11
501.4361250981
 21
1003.6008450386
 31
0.0
  0
SPLINE
  5
7C
330
1F
100
AcDbEntity
  8
0
  6
Continuous
 62
     7
370
    25
100
AcDbSpline
210
0.0
220
0.0
230
1.0
 70
     8
 71
     3
 72
    15
 73
    11
 74
     0
 42
0.00000001
 43
0.00000001
 40
0.0
 40
0.0
 40
0.0
 40
0.0
 40
0.1634604374337936
 40
0.3064433375961371
 40
0.4269050662273839
 40
0.5230190739455914
 40
0.6138681395897168
 40
0.7274506360784709
 40
0.8645418869250507
 40
1.0
 40
1.0
 40
1.0
 40
1.0
 10
502.61081941928
 20
1004.218091598256
 30
0.0
 10
503.0166664986511
 20
1005.90838352469
 30
0.0
 10
503.7775180876265
 20
1009.077215736202
 30
0.0
 10
504.4888946101566
 20
1013.555206636891
 30
0.0
 10
504.8665856000267
 20
1017.347348452961
 30
0.0
 10
504.9989950794316
 20
1020.590781059869
 30
0.0
 10
504.9580193429781
 20
1023.770240856667
 30
0.0
 10
504.6685982131815
 20
1027.387703245646
 30
0.0
 10
504.0369506757805
 20
1031.444944606016
 30
0.0
 10
503.2102421079322
 20
1034.210996692328
 30
0.0
 10
502.7993646762172
 20
1035.585735531883
 30
0.0
  0
SPLINE
  5
7D
330
1F
100
AcDbEntity
  8
0
  6
Continuous
 62
     7
370
    25
100
AcDbSpline
210
0.0
220
0.0
230
1.0
 70
     8
 71
     3
 72
     9
 73
     5
 74
     0
 42
0.00000001
 43
0.00000001
 40
0.0
 40
0.0
 40
0.0
 40
0.0
 40
0.5000830541775251
 40
1.0
 40
1.0
 40
1.0
 40
1.0
 10
479.9255611864478
 20
1064.032099197351
 30
0.0
 10
479.1601719262024
 20
1064.388653288649
 30
0.0
 10
477.6296476385834
 20
1065.101643037692
 30
0.0
 10
476.0972455941575
 20
1065.816825889084
 30
0.0
 10
475.3311718443359
 20
1066.174357915856
 30
0.0
  0
LINE
  5
7E
330
1F
100
AcDbEntity
  8
0
  6
Continuous
 62
     7
370
    25
100
AcDbLine
 10
490.6426297611
 20
1056.1478875787
 30
0.0
 11
490.8241697476
 21
1056.5803501953
 31
0.0
  0
LINE
  5
7F
330
1F
100
AcDbEntity
  8
0
  6
Continuous
 62
     7
370
    25
100
AcDbLine
 10
464.4916085444
 20
1070.5366647751
 30
0.0
 11
464.2452667967
 21
1070.1584251569
 31
0.0
  0
SPLINE
  5
80
330
1F
100
AcDbEntity
  8
0
  6
Continuous
 62
     7
370
    25
100
AcDbSpline
210
0.0
220
0.0
230
1.0
 70
     8
 71
     3
 72
    15
 73
    11
 74
     0
 42
0.00000001
 43
0.00000001
 40
0.0
 40
0.0
 40
0.0
 40
0.0
 40
0.0481397321799677
 40
0.2503200509806353
 40
0.4214789190205935
 40
0.5761070066741223
 40
0.7189151140002064
 40
0.8582355585966717
 40
0.9986955210152796
 40
1.0
 40
1.0
 40
1.0
 40
1.0
 10
472.1194002352423
 20
1073.936416695388
 30
0.0
 10
472.0532070830999
 20
1073.837790658048
 30
0.0
 10
471.7090117070872
 20
1073.32494869618
 30
0.0
 10
470.919538712736
 20
1072.670391049595
 30
0.0
 10
469.9228590638876
 20
1072.043238108576
 30
0.0
 10
469.0745745335254
 20
1071.70564143886
 30
0.0
 10
468.4277946050729
 20
1071.550736196144
 30
0.0
 10
468.0585551593912
 20
1071.505846125329
 30
0.0
 10
467.9147335115208
 20
1071.511480190264
 30
0.0
 10
467.9559263235176
 20
1071.508716610786
 30
0.0
 10
467.9563053689047
 20
1071.508691181056
 30
0.0
  0
SPLINE
  5
81
330
1F
100
AcDbEntity
  8
0
  6
Continuous
 62
     7
370
    25
100
AcDbSpline
210
0.0
220
0.0
230
1.0
 70
     8
 71
     3
 72
    15
 73
    11
 74
     0
 42
0.00000001
 43
0.00000001
 40
0.0
 40
0.0
 40
0.0
 40
0.0
 40
0.099713305909933
 40
0.2262556131951456
 40
0.3546347694378404
 40
0.4901109798741233
 40
0.6386173864538439
 40
0.8046404147653591
 40
0.9875743281264227
 40
1.0
 40
1.0
 40
1.0
 40
1.0
 10
489.6734479395741
 20
1060.008573593379
 30
0.0
 10
489.671468978558
 20
1060.010898280154
 30
0.0
 10
489.6669785945103
 20
1060.016173137173
 30
0.0
 10
489.5312834712522
 20
1060.247778761775
 30
0.0
 10
489.3349772031317
 20
1060.6945175806
 30
0.0
 10
489.129101051481
 20
1061.379261312378
 30
0.0
 10
488.9836879783833
 20
1062.304583186877
 30
0.0
 10
489.0175802712054
 20
1063.445482847398
 30
0.0
 10
489.1315109849026
 20
1064.327596510759
 30
0.0
 10
489.3219342235302
 20
1064.771337622961
 30
0.0
 10
489.3340459234883
 20
1064.799561379939
 30
0.0
  0
SPLINE
  5
82
330
1F
100
AcDbEntity
  8
0
  6
Continuous
 62
     7
370
    25
100
AcDbSpline
210
0.0
220
0.0
230
1.0
 70
     8
 71
     3
 72
    11
 73
     7
 74
     0
 42
0.00000001
 43
0.00000001
 40
0.0
 40
0.0
 40
0.0
 40
0.0
 40
0.1064238032803044
 40
0.4663399641434094
 40
0.8034831565729024
 40
1.0
 40
1.0
 40
1.0
 40
1.0
 10
466.1391097795361
 20
1071.48439926708
 30
0.0
 10
466.0669977069732
 20
1071.47566498824
 30
0.0
 10
465.7510087994475
 20
1071.437392128641
 30
0.0
 10
465.2795536102873
 20
1071.245895617638
 30
0.0
 10
464.7621387804875
 20
1070.930206126813
 30
0.0
 10
464.5739838396086
 20
1070.615327449645
 30
0.0
 10
464.5046970042221
 20
1070.499375421122
 30
0.0
  0
SPLINE
  5
83
330
1F
100
AcDbEntity
  8
0
  6
Continuous
 62
     7
370
    25
100
AcDbSpline
210
0.0
220
0.0
230
1.0
 70
     8
 71
     3
 72
    11
 73
     7
 74
     0
 42
0.00000001
 43
0.00000001
 40
0.0
 40
0.0
 40
0.0
 40
0.0
 40
0.0099867915793154
 40
0.46273463612709
 40
0.9146979228413058
 40
1.0
 40
1.0
 40
1.0
 40
1.0
 10
490.8071947502947
 20
1056.549217154797
 30
0.0
 10
490.8105525004941
 20
1056.554125572265
 30
0.0
 10
490.966132729074
 20
1056.781555448314
 30
0.0
 10
490.9877331055145
 20
1057.364685423688
 30
0.0
 10
490.9360128014342
 20
1057.9076264185
 30
0.0
 10
490.8017518000516
 20
1058.194799645917
 30
0.0
 10
490.7804350670748
 20
1058.240394382615
 30
0.0
  0
SPLINE
  5
84
330
1F
100
AcDbEntity
  8
0
  6
Continuous
 62
     7
370
    25
100
AcDbSpline
210
0.0
220
0.0
230
1.0
 70
     8
 71
     3
 72
    13
 73
     9
 74
     0
 42
0.00000001
 43
0.00000001
 40
0.0
 40
0.0
 40
0.0
 40
0.0
 40
0.2383147685092087
 40
0.367630252965702
 40
0.5000733878009284
 40
0.6325067518852046
 40
0.7617933175340498
 40
0.9999999999999999
 40
0.9999999999999999
 40
0.9999999999999999
 40
0.9999999999999999
 10
475.4443884591705
 20
1066.319075170367
 30
0.0
 10
475.4701284819538
 20
1066.384076055293
 30
0.0
 10
475.5098356773843
 20
1066.484348027182
 30
0.0
 10
475.5024459091538
 20
1066.633169703703
 30
0.0
 10
475.4722450352231
 20
1066.745947072918
 30
0.0
 10
475.4159701142561
 20
1066.848357468605
 30
0.0
 10
475.3181520907197
 20
1066.961212568009
 30
0.0
 10
475.2196070052451
 20
1067.006543899631
 30
0.0
 10
475.1557307353962
 20
1067.035927367689
 30
0.0
  0
LINE
  5
85
330
1F
100
AcDbEntity
  8
0
  6
Continuous
 62
     7
370
    25
100
AcDbLine
 10
472.6420547018
 20
1067.9249862221
 30
0.0
 11
471.1836685854
 21
1068.4698472673
 31
0.0
  0
LINE
  5
86
330
1F
100
AcDbEntity
  8
0
  6
Continuous
 62
     7
370
    25
100
AcDbLine
 10
412.8735279973
 20
1038.7288259027
 30
0.0
 11
413.1539234472
 21
1038.4350876026
 31
0.0
  0
SPLINE
  5
87
330
1F
100
AcDbEntity
  8
0
  6
Continuous
 62
     7
370
    25
100
AcDbSpline
210
0.0
220
0.0
230
1.0
 70
     8
 71
     3
 72
     9
 73
     5
 74
     0
 42
0.00000001
 43
0.00000001
 40
0.0
 40
0.0
 40
0.0
 40
0.0
 40
0.4617367691651575
 40
1.0
 40
1.0
 40
1.0
 40
1.0
 10
502.8247736819196
 20
1035.620322052998
 30
0.0
 10
502.6223318043527
 20
1036.247640616383
 30
0.0
 10
502.183896117429
 20
1037.606247089329
 30
0.0
 10
501.6503632019287
 20
1038.926931427237
 30
0.0
 10
501.3631820510748
 20
1039.637807245872
 30
0.0
  0
LINE
  5
88
330
1F
100
AcDbEntity
  8
0
  6
Continuous
 62
     7
370
    25
100
AcDbLine
 10
489.3219317599
 20
1064.7909053064
 30
0.0
 11
490.3233636913
 21
1067.9445062898
 31
0.0
  0
LINE
  5
89
330
1F
100
AcDbEntity
  8
0
  6
Continuous
 62
     7
370
    25
100
AcDbLine
 10
474.1771067112
 20
1076.5020485595
 30
0.0
 11
472.1295680762
 21
1073.9028953665
 31
0.0
  0
SPLINE
  5
8A
330
1F
100
AcDbEntity
  8
0
  6
Continuous
 62
     7
370
    25
100
AcDbSpline
210
0.0
220
0.0
230
1.0
 70
     8
 71
     3
 72
    19
 73
    15
 74
     0
 42
0.00000001
 43
0.00000001
 40
0.0
 40
0.0
 40
0.0
 40
0.0
 40
0.1294833402499921
 40
0.1803256990598623
 40
0.2635492318064392
 40
0.3473182913394872
 40
0.4346327500253686
 40
0.5228194386784528
 40
0.6109539227326489
 40
0.69854437446414
 40
0.785857754715716
 40
0.8736515109404155
 40
0.9536824357731016
 40
1.0
 40
1.0
 40
1.0
 40
1.0
 10
483.5146313066359
 20
1074.608919147569
 30
0.0
 10
483.0069913487153
 20
1074.869323857113
 30
0.0
 10
482.3000237179297
 20
1075.231977934435
 30
0.0
 10
481.2717800397858
 20
1075.698766243728
 30
0.0
 10
480.4343525698375
 20
1076.053467527902
 30
0.0
 10
479.4899970094671
 20
1076.411861273738
 30
0.0
 10
478.5763469598516
 20
1076.714315856185
 30
0.0
 10
477.7119657583322
 20
1076.950674375683
 30
0.0
 10
476.9208252807964
 20
1077.111821934823
 30
0.0
 10
476.2093545345746
 20
1077.192669128574
 30
0.0
 10
475.5641167982773
 20
1077.189506940534
 30
0.0
 10
474.9878628534609
 20
1077.072672125328
 30
0.0
 10
474.4930065086824
 20
1076.859373256941
 30
0.0
 10
474.283863240026
 20
1076.59319914383
 30
0.0
 10
474.2071942837866
 20
1076.495623488821
 30
0.0
  0
SPLINE
  5
8B
330
1F
100
AcDbEntity
  8
0
  6
Continuous
 62
     7
370
    25
100
AcDbSpline
210
0.0
220
0.0
230
1.0
 70
     8
 71
     3
 72
     9
 73
     5
 74
     0
 42
0.00000001
 43
0.00000001
 40
0.0
 40
0.0
 40
0.0
 40
0.0
 40
0.3340591544011928
 40
1.0
 40
1.0
 40
1.0
 40
1.0
 10
485.7161444473238
 20
1073.333714449379
 30
0.0
 10
485.4808895288331
 20
1073.48062926327
 30
0.0
 10
484.7766582111422
 20
1073.920416085321
 30
0.0
 10
484.0191121627093
 20
1074.33369790386
 30
0.0
 10
483.5146313066359
 20
1074.608919147569
 30
0.0
  0
SPLINE
  5
8C
330
1F
100
AcDbEntity
  8
0
  6
Continuous
 62
     7
370
    25
100
AcDbSpline
210
0.0
220
0.0
230
1.0
 70
     8
 71
     3
 72
    16
 73
    12
 74
     0
 42
0.00000001
 43
0.00000001
 40
0.0
 40
0.0
 40
0.0
 40
0.0
 40
0.0535359773576522
 40
0.1626890386707033
 40
0.2863064586616523
 40
0.4623200277500698
 40
0.6116020314620336
 40
0.7679889496378577
 40
0.89532078199366
 40
0.9926778989468018
 40
1.0
 40
1.0
 40
1.0
 40
1.0
 10
490.2918561436018
 20
1067.971588957139
 30
0.0
 10
490.3318004056449
 20
1068.080164148617
 30
0.0
 10
490.4531859469755
 20
1068.410110371641
 30
0.0
 10
490.3291506074814
 20
1068.9815362745
 30
0.0
 10
490.0208205910357
 20
1069.66799571351
 30
0.0
 10
489.4487498462083
 20
1070.40135223888
 30
0.0
 10
488.6035833189284
 20
1071.229107014131
 30
0.0
 10
487.6532727016784
 20
1072.008571083519
 30
0.0
 10
486.6779274239206
 20
1072.706249379337
 30
0.0
 10
486.0437017992091
 20
1073.132646886081
 30
0.0
 10
485.7375585525447
 20
1073.320569630823
 30
0.0
 10
485.7161444473238
 20
1073.333714449379
 30
0.0
  0
LINE
  5
8D
330
1F
100
AcDbEntity
  8
0
  6
Continuous
 62
     7
370
    25
100
AcDbLine
 10
412.2864021876
 20
1039.2844428669
 30
0.0
 11
413.6172698284
 21
1037.9698814775
 31
0.0
  0
LINE
  5
8E
330
1F
100
AcDbEntity
  8
0
  6
Continuous
 62
     7
370
    25
100
AcDbLine
 10
489.2804290022
 20
1070.5398997493
 30
0.0
 11
499.219678033
 21
1089.2931230249
 31
0.0
  0
LINE
  5
8F
330
1F
100
AcDbEntity
  8
0
  6
Continuous
 62
     7
370
    25
100
AcDbLine
 10
486.8496685404
 20
1095.8492548991
 30
0.0
 11
476.9129988174
 21
1077.1008982222
 31
0.0
  0
SPLINE
  5
90
330
1F
100
AcDbEntity
  8
0
  6
Continuous
 62
     7
370
    25
100
AcDbSpline
210
0.0
220
0.0
230
1.0
 70
     8
 71
     3
 72
    15
 73
    11
 74
     0
 42
0.00000001
 43
0.00000001
 40
0.0
 40
0.0
 40
0.0
 40
0.0
 40
0.203396309774923
 40
0.378447196661067
 40
0.5230298453616398
 40
0.6363674614573187
 40
0.7185123740862502
 40
0.7900278274318018
 40
0.8841080827660744
 40
1.0
 40
1.0
 40
1.0
 40
1.0
 10
499.216729801887
 20
1089.287661693557
 30
0.0
 10
500.1813801357582
 20
1090.976696475142
 30
0.0
 10
501.9762465962937
 20
1094.119381211465
 30
0.0
 10
504.8916856528146
 20
1097.874050352413
 30
0.0
 10
507.4668124169105
 20
1100.618161044105
 30
0.0
 10
509.5797658697932
 20
1102.495131176212
 30
0.0
 10
511.275753348024
 20
1103.797301253001
 30
0.0
 10
512.8297751812852
 20
1104.846322335618
 30
0.0
 10
514.5693500028099
 20
1105.872998829667
 30
0.0
 10
515.8565535621176
 20
1106.445754992601
 30
0.0
 10
516.5670119363579
 20
1106.761881691763
 30
0.0
  0
SPLINE
  5
91
330
1F
100
AcDbEntity
  8
0
  6
Continuous
 62
     7
370
    25
100
AcDbSpline
210
0.0
220
0.0
230
1.0
 70
     8
 71
     3
 72
    17
 73
    13
 74
     0
 42
0.00000001
 43
0.00000001
 40
0.0
 40
0.0
 40
0.0
 40
0.0
 40
0.0973191336329452
 40
0.1797549695012519
 40
0.2468715231668789
 40
0.3017362313376632
 40
0.3705958804019647
 40
0.4843203678055706
 40
0.6282964298003713
 40
0.7404763520191148
 40
0.8647462624915487
 40
1.0
 40
1.0
 40
1.0
 40
1.0
 10
511.4117060625575
 20
1119.777308325697
 30
0.0
 10
510.4521690729203
 20
1119.361408673206
 30
0.0
 10
508.6798398723943
 20
1118.593214110039
 30
0.0
 10
506.3085579616651
 20
1117.270853021411
 30
0.0
 10
504.3898964052444
 20
1116.055576254378
 30
0.0
 10
502.6538964874347
 20
1114.833129347689
 30
0.0
 10
500.5513668585133
 20
1113.202576004878
 30
0.0
 10
497.7577052144935
 20
1110.724343439676
 30
0.0
 10
494.76482024919
 20
1107.560563327627
 30
0.0
 10
491.8982643963062
 20
1103.970300183577
 30
0.0
 10
489.2831653679631
 20
1100.203494566215
 30
0.0
 10
487.6853412231889
 20
1097.344640793376
 30
0.0
 10
486.8526167715124
 20
1095.854716230528
 30
0.0
  0
LINE
  5
92
330
1F
100
AcDbEntity
  8
0
  6
Continuous
 62
     7
370
    25
100
AcDbLine
 10
516.5670119364
 20
1106.7618816918
 30
0.0
 11
519.9155096786
 21
1107.7518269081
 31
0.0
  0
SPLINE
  5
93
330
1F
100
AcDbEntity
  8
0
  6
Continuous
 62
     7
370
    25
100
AcDbSpline
210
0.0
220
0.0
230
1.0
 70
     8
 71
     3
 72
     9
 73
     5
 74
     0
 42
0.00000001
 43
0.00000001
 40
0.0
 40
0.0
 40
0.0
 40
0.0
 40
0.5007382743974548
 40
1.0
 40
1.0
 40
1.0
 40
1.0
 10
517.5473637644479
 20
1121.549916050587
 30
0.0
 10
516.5204809859671
 20
1121.340795494489
 30
0.0
 10
514.4697434430528
 20
1120.923171025198
 30
0.0
 10
512.4300479527473
 20
1120.158886391009
 30
0.0
 10
511.4117060625537
 20
1119.777308325692
 30
0.0
  0
SPLINE
  5
94
330
1F
100
AcDbEntity
  8
0
  6
Continuous
 62
     7
370
    25
100
AcDbSpline
210
0.0
220
0.0
230
1.0
 70
     8
 71
     3
 72
    24
 73
    20
 74
     0
 42
0.00000001
 43
0.00000001
 40
0.0
 40
0.0
 40
0.0
 40
0.0
 40
0.0892062409285912
 40
0.1688311747494382
 40
0.2373445828153489
 40
0.2936038407704129
 40
0.3368112024804311
 40
0.3664483111319959
 40
0.3974098156306993
 40
0.4369498078310027
 40
0.486191738089272
 40
0.5419836750029996
 40
0.6121454391885748
 40
0.6765394678069927
 40
0.7412595460936725
 40
0.7919833810101364
 40
0.8502339718583005
 40
0.9198196140976632
 40
1.0
 40
1.0
 40
1.0
 40
1.0
 10
562.9473371460138
 20
1070.295352223013
 30
0.0
 10
562.8963530911564
 20
1072.465544993908
 30
0.0
 10
562.7998609871795
 20
1076.5728382856
 30
0.0
 10
562.0951797232572
 20
1082.152454905574
 30
0.0
 10
561.1868081297025
 20
1086.796239811032
 30
0.0
 10
560.2115158093096
 20
1090.472078020784
 30
0.0
 10
559.3280738626556
 20
1093.203557079916
 30
0.0
 10
558.5392842816503
 20
1095.340473951824
 30
0.0
 10
557.707010945501
 20
1097.373299838192
 30
0.0
 10
556.6194520652093
 20
1099.739322491703
 30
0.0
 10
555.172875798578
 20
1102.477966598209
 30
0.0
 10
553.237168136021
 20
1105.608074705675
 30
0.0
 10
550.9023186708998
 20
1108.749721621044
 30
0.0
 10
548.2002024091312
 20
1111.733907874568
 30
0.0
 10
545.5814276422624
 20
1114.11146066712
 30
0.0
 10
542.9541629488202
 20
1116.103022956092
 30
0.0
 10
540.0491045299636
 20
1117.924870723296
 30
0.0
 10
536.4165879227701
 20
1119.735759447958
 30
0.0
 10
533.6249302168998
 20
1120.57998128116
 30
0.0
 10
532.1303576830529
 20
1121.031953154977
 30
0.0
  0
LINE
  5
95
330
1F
100
AcDbEntity
  8
0
  6
Continuous
 62
     7
370
    25
100
AcDbLine
 10
531.6572790613
 20
1121.1173019677
 30
0.0
 11
530.8311847586
 21
1121.2663388607
 31
0.0
  0
SPLINE
  5
96
330
1F
100
AcDbEntity
  8
0
  6
Continuous
 62
     7
370
    25
100
AcDbSpline
210
0.0
220
0.0
230
1.0
 70
     8
 71
     3
 72
    10
 73
     6
 74
     0
 42
0.00000001
 43
0.00000001
 40
0.0
 40
0.0
 40
0.0
 40
0.0
 40
0.1679861088711948
 40
0.5911404667293408
 40
1.0
 40
1.0
 40
1.0
 40
1.0
 10
529.1457808705152
 20
1121.570405064844
 30
0.0
 10
528.5241619306759
 20
1121.69375292071
 30
0.0
 10
526.3366946889278
 20
1122.127812079392
 30
0.0
 10
522.452977586158
 20
1122.191258518904
 30
0.0
 10
519.1637308637131
 20
1121.7612341247
 30
0.0
 10
517.5473637644495
 20
1121.549916050586
 30
0.0
  0
LINE
  5
97
330
1F
100
AcDbEntity
  8
0
  6
Continuous
 62
     7
370
    25
100
AcDbLine
 10
532.130357683
 20
1121.031953155
 30
0.0
 11
531.6572790613
 21
1121.1173019677
 31
0.0
  0
SPLINE
  5
98
330
1F
100
AcDbEntity
  8
0
  6
Continuous
 62
     7
370
    25
100
AcDbSpline
210
0.0
220
0.0
230
1.0
 70
     8
 71
     3
 72
    21
 73
    17
 74
     0
 42
0.00000001
 43
0.00000001
 40
0.0
 40
0.0
 40
0.0
 40
0.0
 40
0.0902529890221948
 40
0.174776609090248
 40
0.2526794522434957
 40
0.3209104200221737
 40
0.3780171941109403
 40
0.4281314134367228
 40
0.4684331231580167
 40
0.511380152491992
 40
0.5590190437503422
 40
0.6205470270956623
 40
0.6965705732593921
 40
0.7861809423526495
 40
0.887974355461557
 40
1.0
 40
1.0
 40
1.0
 40
1.0
 10
528.6234777609948
 20
1107.478289738999
 30
0.0
 10
529.5800175812326
 20
1107.185125455922
 30
0.0
 10
531.4323749164545
 20
1106.617407313202
 30
0.0
 10
534.043258219679
 20
1105.232679060285
 30
0.0
 10
536.4457459848717
 20
1103.512644368389
 30
0.0
 10
538.4286246830657
 20
1101.676546795649
 30
0.0
 10
540.0069105229876
 20
1099.901135191427
 30
0.0
 10
541.2412440442528
 20
1098.275754241682
 30
0.0
 10
542.3109628607042
 20
1096.671380157156
 30
0.0
 10
543.3033072979297
 20
1094.989013356528
 30
0.0
 10
544.379936908992
 20
1092.899364329442
 30
0.0
 10
545.5704238776834
 20
1090.157062511982
 30
0.0
 10
546.8117584932472
 20
1086.545664778173
 30
0.0
 10
547.9298748596057
 20
1081.988597058429
 30
0.0
 10
548.7747698904656
 20
1076.508096889585
 30
0.0
 10
548.8880617269277
 20
1072.423196725604
 30
0.0
 10
548.9474184144947
 20
1070.283005955051
 30
0.0
  0
SPLINE
  5
99
330
1F
100
AcDbEntity
  8
0
  6
Continuous
 62
     7
370
    25
100
AcDbSpline
210
0.0
220
0.0
230
1.0
 70
     8
 71
     3
 72
    18
 73
    14
 74
     0
 42
0.00000001
 43
0.00000001
 40
0.0
 40
0.0
 40
0.0
 40
0.0
 40
0.0110978957558438
 40
0.1292036170822208
 40
0.2468104016837893
 40
0.3636248644086528
 40
0.47906729318235
 40
0.5918077804662052
 40
0.697969916954699
 40
0.786372097608861
 40
0.8585481085071773
 40
0.9448928486069785
 40
1.0
 40
1.0
 40
1.0
 40
1.0
 10
502.9799710004499
 20
847.8849595594753
 30
0.0
 10
502.9980743740304
 20
848.159523212398
 30
0.0
 10
503.2088369725848
 20
851.3560406295163
 30
0.0
 10
503.791752366908
 20
857.4849914359553
 30
0.0
 10
504.7387011932113
 20
866.2433108495854
 30
0.0
 10
505.884571361941
 20
874.9439562798638
 30
0.0
 10
507.1901173004314
 20
883.5207422494991
 30
0.0
 10
508.6277596337491
 20
891.8234705352758
 30
0.0
 10
510.0987067154243
 20
899.4399655912129
 30
0.0
 10
511.4898097481512
 20
906.0352246944174
 30
0.0
 10
512.8657799277998
 20
912.1250156977683
 30
0.0
 10
514.1255975662989
 20
917.380028008034
 30
0.0
 10
515.0122323324134
 20
920.8468938336205
 30
0.0
 10
515.3576495323599
 20
922.1975233507915
 30
0.0
  0
SPLINE
  5
9A
330
1F
100
AcDbEntity
  8
0
  6
Continuous
 62
     7
370
    25
100
AcDbSpline
210
0.0
220
0.0
230
1.0
 70
     8
 71
     3
 72
    14
 73
    10
 74
     0
 42
0.00000001
 43
0.00000001
 40
0.0
 40
0.0
 40
0.0
 40
0.0
 40
0.2108165376828458
 40
0.2948897647283227
 40
0.4346419828100875
 40
0.5795838290988171
 40
0.7349718251715069
 40
0.8970960798436768
 40
1.0
 40
1.0
 40
1.0
 40
1.0
 10
515.3576495323599
 20
922.1975233507915
 30
0.0
 10
516.2170759169351
 20
925.4335384139788
 30
0.0
 10
517.4192398796594
 20
929.9600700188013
 30
0.0
 10
519.3381554053695
 20
936.5873818552269
 30
0.0
 10
521.0299034328016
 20
942.1886046595159
 30
0.0
 10
523.1527340697254
 20
948.8345665701509
 30
0.0
 10
525.5009284494679
 20
955.7691629254525
 30
0.0
 10
527.725520491674
 20
962.0336296745821
 30
0.0
 10
529.2170805047816
 20
965.9367647008426
 30
0.0
 10
529.7962165630385
 20
967.4522560079896
 30
0.0
  0
SPLINE
  5
9B
330
1F
100
AcDbEntity
  8
0
  6
Continuous
 62
     7
370
    25
100
AcDbSpline
210
0.0
220
0.0
230
1.0
 70
     8
 71
     3
 72
    23
 73
    19
 74
     0
 42
0.00000001
 43
0.00000001
 40
0.0
 40
0.0
 40
0.0
 40
0.0
 40
0.086419239939124
 40
0.1694262394993375
 40
0.2428843221644634
 40
0.3067041908257263
 40
0.3500477804906486
 40
0.3873853768975675
 40
0.4187048212698092
 40
0.4489937658750681
 40
0.4907144590640168
 40
0.5402591537130293
 40
0.597615396062222
 40
0.6627583392173776
 40
0.7356462192298283
 40
0.8162153335162389
 40
0.9043746228855924
 40
1.0
 40
1.0
 40
1.0
 40
1.0
 10
516.7063195308707
 20
972.4406025746024
 30
0.0
 10
515.4264013180673
 20
969.0192751846743
 30
0.0
 10
512.9171021178576
 20
962.3117105939655
 30
0.0
 10
509.6235006317005
 20
952.5509191685543
 30
0.0
 10
506.8139257053118
 20
943.6288915257801
 30
0.0
 10
504.6564397266642
 20
936.2611515764463
 30
0.0
 10
503.0197384341671
 20
930.3394360311697
 30
0.0
 10
501.8041913667725
 20
925.734653429267
 30
0.0
 10
500.7703211710598
 20
921.6563351795298
 30
0.0
 10
499.7283360062632
 20
917.3883874208614
 30
0.0
 10
498.5545748884762
 20
912.3562003396968
 30
0.0
 10
497.2005454553775
 20
906.1877812769177
 30
0.0
 10
495.7437386933926
 20
899.0292456796116
 30
0.0
 10
494.2345886845823
 20
890.8810382829672
 30
0.0
 10
492.7291706034741
 20
881.7485977178904
 30
0.0
 10
491.2983443266812
 20
871.6453225832698
 30
0.0
 10
489.9872163288833
 20
860.5901273148727
 30
0.0
 10
489.3450927676287
 20
852.9228007866675
 30
0.0
 10
489.0109881392405
 20
848.9333983803263
 30
0.0
  0
LINE
  5
9C
330
1F
100
AcDbEntity
  8
0
  6
Continuous
 62
     7
370
    25
100
AcDbLine
 10
544.1008894172
 20
1044.3622852469
 30
0.0
 11
517.5843851282
 21
974.7605861598
 31
0.0
  0
LINE
  5
9D
330
1F
100
AcDbEntity
  8
0
  6
Continuous
 62
     7
370
    25
100
AcDbLine
 10
530.6671151466
 20
969.7763936208
 30
0.0
 11
557.1836194483
 21
1039.3780927411
 31
0.0
  0
LINE
  5
9E
330
1F
100
AcDbEntity
  8
0
  6
Continuous
 62
     7
370
    25
100
AcDbLine
 10
517.5846722308
 20
974.7610675624
 30
0.0
 11
516.6996153216
 21
972.4397212097
 31
0.0
  0
LINE
  5
9F
330
1F
100
AcDbEntity
  8
0
  6
Continuous
 62
     7
370
    25
100
AcDbLine
 10
529.7833424388
 20
967.4586871154
 30
0.0
 11
530.666828044
 21
969.7759122182
 31
0.0
  0
SPLINE
  5
A0
330
1F
100
AcDbEntity
  8
0
  6
Continuous
 62
     7
370
    25
100
AcDbSpline
210
0.0
220
0.0
230
1.0
 70
     8
 71
     3
 72
    11
 73
     7
 74
     0
 42
0.00000001
 43
0.00000001
 40
0.0
 40
0.0
 40
0.0
 40
0.0
 40
0.2487316807066337
 40
0.4997410489161768
 40
0.7508807291362174
 40
1.0
 40
1.0
 40
1.0
 40
1.0
 10
557.1820487219431
 20
1039.374223697741
 30
0.0
 10
558.0559044478364
 20
1041.859157932173
 30
0.0
 10
559.8116179774464
 20
1046.851781458354
 30
0.0
 10
561.5833419807514
 20
1054.656389165501
 30
0.0
 10
562.7370028479704
 20
1062.534893152335
 30
0.0
 10
562.8774147417685
 20
1067.715506894399
 30
0.0
 10
562.9473371460109
 20
1070.295352223011
 30
0.0
  0
SPLINE
  5
A1
330
1F
100
AcDbEntity
  8
0
  6
Continuous
 62
     7
370
    25
100
AcDbSpline
210
0.0
220
0.0
230
1.0
 70
     8
 71
     3
 72
     9
 73
     5
 74
     0
 42
0.00000001
 43
0.00000001
 40
0.0
 40
0.0
 40
0.0
 40
0.0
 40
0.4999493501142385
 40
1.0
 40
1.0
 40
1.0
 40
1.0
 10
502.2117793007959
 20
827.9599613447726
 30
0.0
 10
502.2439368161625
 20
831.2828757604841
 30
0.0
 10
502.3082583626535
 20
837.9293778810536
 30
0.0
 10
502.7567137966294
 20
844.6496266875869
 30
0.0
 10
502.9809642278337
 20
848.0100914706878
 30
0.0
  0
SPLINE
  5
A2
330
1F
100
AcDbEntity
  8
0
  6
Continuous
 62
     7
370
    25
100
AcDbSpline
210
0.0
220
0.0
230
1.0
 70
     8
 71
     3
 72
    11
 73
     7
 74
     0
 42
0.00000001
 43
0.00000001
 40
0.0
 40
0.0
 40
0.0
 40
0.0
 40
0.2486956742540933
 40
0.4996912459841001
 40
0.7508421914043905
 40
1.0
 40
1.0
 40
1.0
 40
1.0
 10
548.9474184144972
 20
1070.283005955052
 30
0.0
 10
548.8887755214961
 20
1068.128588479709
 30
0.0
 10
548.7709474154798
 20
1063.799829823763
 30
0.0
 10
547.8032083450004
 20
1057.203132703564
 30
0.0
 10
546.3147969602089
 20
1050.65461915394
 30
0.0
 10
544.837944580932
 20
1046.456734715086
 30
0.0
 10
544.1024601435996
 20
1044.366154290244
 30
0.0
  0
SPLINE
  5
A3
330
1F
100
AcDbEntity
  8
0
  6
Continuous
 62
     7
370
    25
100
AcDbSpline
210
0.0
220
0.0
230
1.0
 70
     8
 71
     3
 72
    11
 73
     7
 74
     0
 42
0.00000001
 43
0.00000001
 40
0.0
 40
0.0
 40
0.0
 40
0.0
 40
0.1766392945015759
 40
0.5064092610135386
 40
0.8400571116798973
 40
1.0
 40
1.0
 40
1.0
 40
1.0
 10
489.0321382638392
 20
848.9415709107728
 30
0.0
 10
488.9346166164446
 20
847.6983956165687
 30
0.0
 10
488.655030664014
 20
844.1343218139384
 30
0.0
 10
488.3879743602067
 20
838.2467812543766
 30
0.0
 10
488.2144785964278
 20
832.4915628057363
 30
0.0
 10
488.2295787279427
 20
829.0686395648629
 30
0.0
 10
488.2344717667657
 20
827.9594772844534
 30
0.0
  0
LINE
  5
A4
330
1F
100
AcDbEntity
  8
0
  6
Continuous
 62
     7
370
    25
100
AcDbLine
 10
488.2118199351
 20
827.9537882108
 30
0.0
 11
488.2118199351
 21
591.0049005003
 31
0.0
  0
LINE
  5
A5
330
1F
100
AcDbEntity
  8
0
  6
Continuous
 62
     7
370
    25
100
AcDbLine
 10
502.2118199351
 20
590.5289750423
 30
0.0
 11
502.2118199351
 21
827.9537882108
 31
0.0
  0
LWPOLYLINE
  5
A6
330
1F
100
AcDbEntity
  8
0
  6
Continuous
 62
     7
370
    25
100
AcDbPolyline
 90
       64
 70
   128
 43
0.0
 10
534.7092753185
 20
598.9399354129
 10
537.1364536359
 20
598.0565919309
 10
539.2694953058
 20
597.123774889
 10
541.0934352427
 20
596.148028785
 10
542.5954769703
 20
595.1361993005
 10
543.7650823997
 20
594.0953852723
 10
544.5940457628
 20
593.0328888881
 10
545.0765511829
 20
591.9561644559
 10
545.2092134777
 20
590.872766105
 10
544.9911019094
 20
589.7902947883
 10
544.4237467144
 20
588.7163449547
 10
543.5111283677
 20
587.6584512674
 10
542.2596496564
 20
586.6240357424
 10
540.6780907586
 20
585.6203556769
 10
538.7775476433
 20
584.6544527323
 10
536.5713542225
 20
583.7331035323
 10
534.0749888028
 20
582.8627721181
 10
531.3059654922
 20
582.0495645982
 10
528.2837113234
 20
581.2991863089
 10
525.0294299571
 20
580.6169017866
 10
521.5659529205
 20
580.0074978322
 10
517.9175794246
 20
579.4752499283
 10
514.1099058851
 20
579.0238922426
 10
510.1696463418
 20
578.6565914297
 10
506.1244450368
 20
578.3759244145
 10
502.0026824675
 20
578.1838603126
 10
497.8332762729
 20
578.0817466157
 10
493.6454783522
 20
578.0702997374
 10
489.4686696381
 20
578.1495999873
 10
485.3321539648
 20
578.3190910072
 10
481.2649524768
 20
578.5775836747
 10
477.2956000211
 20
578.9232644459
 10
473.4519449513
 20
579.3537080788
 10
469.760953748
 20
579.8658946484
 10
466.2485218258
 20
580.4562307341
 10
462.9392918558
 20
581.1205746307
 10
459.8564808757
 20
581.8542654057
 10
457.0217174035
 20
582.6521555998
 10
454.4548896945
 20
583.5086473406
 10
452.1740062089
 20
584.4177316167
 10
450.1950692672
 20
585.3730304354
 10
448.5319627803
 20
586.3678415703
 10
447.196354842
 20
587.3951855825
 10
446.1976158681
 20
588.4478547879
 10
445.5427528544
 20
589.5184638245
 10
445.2363602169
 20
590.5995014675
 10
445.2805875582
 20
591.6833833264
 10
445.6751245864
 20
592.7625050563
 10
446.4172032915
 20
593.8292957087
 10
447.5016173659
 20
594.8762708477
 10
448.9207587307
 20
595.8960850601
 10
450.6646709129
 20
596.8815834897
 10
452.7211188984
 20
597.8258520341
 10
455.075674971
 20
598.7222658534
 10
457.7118199351
 20
599.5645358491
 10
460.6110590113
 20
600.3467527872
 10
463.7530515937
 20
601.0634287563
 10
467.1157539555
 20
601.7095356704
 10
470.6755739049
 20
602.2805405449
 10
474.4075363041
 20
602.7724372992
 10
478.2854582908
 20
603.1817748629
 10
482.2821329733
 20
603.5056813879
 10
486.3695203094
 20
603.7418843969
 10
488.2118199351
 20
603.8184038332
  0
ARC
  5
A7
330
1F
100
AcDbEntity
  8
0
  6
Continuous
 62
     7
370
    25
100
AcDbCircle
 10
497.7808257038
 20
454.0379967347
 30
0.0
 40
149.845934414187
100
AcDbArc
 50
79.1956065234
 51
88.3054976925
  0
LWPOLYLINE
  5
A8
330
1F
100
AcDbEntity
  8
0
  6
Continuous
 62
     7
370
    25
100
AcDbPolyline
 90
       40
 70
   128
 43
0.0
 10
445.2118199351
 20
589.0730488477
 10
445.2363602169
 20
588.6676498149
 10
445.5427528544
 20
587.586612172
 10
446.1976158681
 20
586.5160031353
 10
447.196354842
 20
585.46333393
 10
448.5319627803
 20
584.4359899177
 10
450.1950692672
 20
583.4411787828
 10
452.1740062089
 20
582.4858799641
 10
454.4548896945
 20
581.576795688
 10
457.0217174035
 20
580.7203039472
 10
459.8564808757
 20
579.9224137531
 10
462.9392918558
 20
579.1887229781
 10
466.2485218258
 20
578.5243790815
 10
469.760953748
 20
577.9340429958
 10
473.4519449513
 20
577.4218564262
 10
477.2956000211
 20
576.9914127934
 10
481.2649524768
 20
576.6457320222
 10
485.3321539648
 20
576.3872393546
 10
489.4686696381
 20
576.2177483347
 10
493.6454783522
 20
576.1384480849
 10
497.8332762729
 20
576.1498949631
 10
502.0026824675
 20
576.25200866
 10
506.1244450368
 20
576.4440727619
 10
510.1696463418
 20
576.7247397771
 10
514.1099058851
 20
577.09204059
 10
517.9175794246
 20
577.5433982757
 10
521.5659529205
 20
578.0756461796
 10
525.0294299571
 20
578.685050134
 10
528.2837113234
 20
579.3673346563
 10
531.3059654922
 20
580.1177129456
 10
534.0749888028
 20
580.9309204655
 10
536.5713542225
 20
581.8012518797
 10
538.7775476433
 20
582.7226010798
 10
540.6780907586
 20
583.6885040243
 10
542.2596496564
 20
584.6921840899
 10
543.5111283677
 20
585.7265996148
 10
544.4237467144
 20
586.7844933021
 10
544.9911019094
 20
587.8584431358
 10
545.2092134777
 20
588.9409144524
 10
545.2118199351
 20
589.0730488477
  0
LINE
  5
A9
330
1F
100
AcDbEntity
  8
0
  6
Continuous
 62
     7
370
    25
100
AcDbLine
 10
525.8704405536
 20
601.2275941866
 30
0.0
 11
525.8704405536
 21
599.295742534
 31
0.0
  0
LINE
  5
AA
330
1F
100
AcDbEntity
  8
0
  6
Continuous
 62
     7
370
    25
100
AcDbLine
 10
525.8704405536
 20
601.2275941866
 30
0.0
 11
502.2118199351
 21
595.1042925896
 31
0.0
  0
LINE
  5
AB
330
1F
100
AcDbEntity
  8
0
  6
Continuous
 62
     7
370
    25
100
AcDbLine
 10
501.86030663
 20
590.4379967044
 30
0.0
 11
534.7092753185
 21
598.9399354129
 31
0.0
  0
LINE
  5
AC
330
1F
100
AcDbEntity
  8
0
  6
Continuous
 62
     7
370
    25
100
AcDbLine
 10
502.2118199351
 20
593.1724409371
 30
0.0
 11
525.8704405536
 21
599.295742534
 31
0.0
  0
LINE
  5
AD
330
1F
100
AcDbEntity
  8
0
  6
Continuous
 62
     7
370
    25
100
AcDbLine
 10
516.4250233707
 20
444.1841749043
 30
0.0
 11
516.4250233707
 21
577.3545181753
 31
0.0
  0
LINE
  5
AE
330
1F
100
AcDbEntity
  8
0
  6
Continuous
 62
     7
370
    25
100
AcDbLine
 10
512.8894894647
 20
443.2691113949
 30
0.0
 11
516.4250233707
 21
444.1841749043
 31
0.0
  0
LINE
  5
AF
330
1F
100
AcDbEntity
  8
0
  6
Continuous
 62
     7
370
    25
100
AcDbLine
 10
495.9166484382
 20
576.133382426
 30
0.0
 11
512.8894894647
 21
443.2691113949
 31
0.0
  0
LINE
  5
B0
330
1F
100
AcDbEntity
  8
0
  6
Continuous
 62
     7
370
    25
100
AcDbLine
 10
502.2118199351
 20
592.7516965887
 30
0.0
 11
506.5057882277
 21
591.6403358155
 31
0.0
  0
LINE
  5
B1
330
1F
100
AcDbEntity
  8
0
  6
Continuous
 62
     7
370
    25
100
AcDbLine
 10
512.8894894647
 20
443.2691113949
 30
0.0
 11
511.4752759023
 21
443.6351367987
 31
0.0
  0
LINE
  5
B2
330
1F
100
AcDbEntity
  8
0
  6
Continuous
 62
     7
370
    25
100
AcDbLine
 10
511.4752759023
 20
443.6351367987
 30
0.0
 11
494.5492121424
 21
576.1332329851
 31
0.0
  0
SPLINE
  5
B3
330
1F
100
AcDbEntity
  8
0
  6
Continuous
 62
     7
370
    25
100
AcDbSpline
210
0.0
220
0.0
230
1.0
 70
     8
 71
     3
 72
     9
 73
     5
 74
     0
 42
0.00000001
 43
0.00000001
 40
0.0
 40
0.0
 40
0.0
 40
0.0
 40
0.4999771743781876
 40
1.0
 40
1.0
 40
1.0
 40
1.0
 10
417.7496181204334
 20
1018.003590126361
 30
0.0
 10
417.7331063197553
 20
1018.029159617898
 30
0.0
 10
417.7000812107618
 20
1018.080300935637
 30
0.0
 10
417.6669835752533
 20
1018.131391989571
 30
0.0
 10
417.6504340020249
 20
1018.156938682724
 30
0.0
  0
SPLINE
  5
B4
330
1F
100
AcDbEntity
  8
0
  6
Continuous
 62
     7
370
    25
100
AcDbSpline
210
0.0
220
0.0
230
1.0
 70
     8
 71
     3
 72
    14
 73
    10
 74
     0
 42
0.00000001
 43
0.00000001
 40
0.0
 40
0.0
 40
0.0
 40
0.0
 40
0.0165281802521108
 40
0.1449911681380864
 40
0.4999195532175205
 40
0.8606879434557749
 40
0.9580267933813249
 40
0.9859370942043605
 40
1.0
 40
1.0
 40
1.0
 40
1.0
 10
411.0379060215455
 20
1027.241955962774
 30
0.0
 10
411.0483592725465
 20
1027.242071912167
 30
0.0
 10
411.1400589666659
 20
1027.243089062135
 30
0.0
 10
411.4732958019159
 20
1027.227354979041
 30
0.0
 10
412.1105883648519
 20
1027.116272569524
 30
0.0
 10
412.823277270806
 20
1026.899609885829
 30
0.0
 10
413.2860793265867
 20
1026.732318920331
 30
0.0
 10
413.4214003487517
 20
1026.681119008101
 30
0.0
 10
413.4624978206713
 20
1026.665285693205
 30
0.0
 10
413.4762673160852
 20
1026.659980822937
 30
0.0
  0
SPLINE
  5
B5
330
1F
100
AcDbEntity
  8
0
  6
Continuous
 62
     7
370
    25
100
AcDbSpline
210
0.0
220
0.0
230
1.0
 70
     8
 71
     3
 72
    13
 73
     9
 74
     0
 42
0.00000001
 43
0.00000001
 40
0.0
 40
0.0
 40
0.0
 40
0.0
 40
0.2495703081003194
 40
0.4981962341985279
 40
0.6226813615013921
 40
0.7486469425693947
 40
0.8740074501942893
 40
1.0
 40
1.0
 40
1.0
 40
1.0
 10
413.4762675253143
 20
1026.659980745934
 30
0.0
 10
414.4484264793134
 20
1026.197733445885
 30
0.0
 10
416.3890657068374
 20
1025.274988004307
 30
0.0
 10
419.5634443819715
 20
1023.231100413789
 30
0.0
 10
422.546988132589
 20
1021.667680049452
 30
0.0
 10
425.0684915368487
 20
1020.644077510163
 30
0.0
 10
427.8540392975182
 20
1019.875913962887
 30
0.0
 10
429.8721558054558
 20
1019.75311203096
 30
0.0
 10
430.8837513962922
 20
1019.691556668623
 30
0.0
  0
SPLINE
  5
B6
330
1F
100
AcDbEntity
  8
0
  6
Continuous
 62
     7
370
    25
100
AcDbSpline
210
0.0
220
0.0
230
1.0
 70
     8
 71
     3
 72
     9
 73
     5
 74
     0
 42
0.00000001
 43
0.00000001
 40
0.0
 40
0.0
 40
0.0
 40
0.0
 40
0.5107412992399313
 40
1.0
 40
1.0
 40
1.0
 40
1.0
 10
430.8837518641962
 20
1019.691556675763
 30
0.0
 10
431.4851516204501
 20
1019.744347057961
 30
0.0
 10
432.6626552943235
 20
1019.847707374186
 30
0.0
 10
433.8581191514972
 20
1019.649073013688
 30
0.0
 10
434.4430102450638
 20
1019.551889424545
 30
0.0
  0
SPLINE
  5
B7
330
1F
100
AcDbEntity
  8
0
  6
Continuous
 62
     7
370
    25
100
AcDbSpline
210
0.0
220
0.0
230
1.0
 70
     8
 71
     3
 72
    16
 73
    12
 74
     0
 42
0.00000001
 43
0.00000001
 40
0.0
 40
0.0
 40
0.0
 40
0.0
 40
0.1870636938911464
 40
0.2881567612216296
 40
0.4690656651491025
 40
0.5221832803523228
 40
0.550520868840756
 40
0.7141124302032591
 40
0.7621304700370573
 40
0.7875091482531965
 40
1.0
 40
1.0
 40
1.0
 40
1.0
 10
434.4430104592639
 20
1019.551889891979
 30
0.0
 10
434.55461138422
 20
1019.522746539573
 30
0.0
 10
434.7265237442069
 20
1019.477853520164
 30
0.0
 10
434.994457015012
 20
1019.403635173121
 30
0.0
 10
435.1801736378609
 20
1019.348059516025
 30
0.0
 10
435.3216068306589
 20
1019.301224366155
 30
0.0
 10
435.4525429697039
 20
1019.256168739377
 30
0.0
 10
435.5780205792066
 20
1019.209037681937
 30
0.0
 10
435.6988106223837
 20
1019.159116134246
 30
0.0
 10
435.8431840061144
 20
1019.097913187462
 30
0.0
 10
435.9568365360034
 20
1019.044535006126
 30
0.0
 10
436.0583632968418
 20
1018.996851827795
 30
0.0
  0
SPLINE
  5
B8
330
1F
100
AcDbEntity
  8
0
  6
Continuous
 62
     7
370
    25
100
AcDbSpline
210
0.0
220
0.0
230
1.0
 70
     8
 71
     3
 72
     9
 73
     5
 74
     0
 42
0.00000001
 43
0.00000001
 40
0.0
 40
0.0
 40
0.0
 40
0.0
 40
0.5100661328509277
 40
1.0
 40
1.0
 40
1.0
 40
1.0
 10
436.226122182669
 20
1018.899268672011
 30
0.0
 10
436.1983216463061
 20
1018.915012746904
 30
0.0
 10
436.1438178583218
 20
1018.945879479428
 30
0.0
 10
436.0863942864947
 20
1018.980005681803
 30
0.0
 10
436.058260533884
 20
1018.996725264103
 30
0.0
  0
SPLINE
  5
B9
330
1F
100
AcDbEntity
  8
0
  6
Continuous
 62
     7
370
    25
100
AcDbSpline
210
0.0
220
0.0
230
1.0
 70
     8
 71
     3
 72
    13
 73
     9
 74
     0
 42
0.00000001
 43
0.00000001
 40
0.0
 40
0.0
 40
0.0
 40
0.0
 40
0.1676987701274847
 40
0.335466031080133
 40
0.502504921146129
 40
0.6678958238557451
 40
0.8340038958632912
 40
0.9999999999999999
 40
0.9999999999999999
 40
0.9999999999999999
 40
0.9999999999999999
 10
436.2261224564402
 20
1018.899269014772
 30
0.0
 10
437.3423162428338
 20
1018.167194476103
 30
0.0
 10
439.5751596867846
 20
1016.702746407966
 30
0.0
 10
443.0865015208873
 20
1014.735079852159
 30
0.0
 10
446.8348156892473
 20
1013.007419369513
 30
0.0
 10
450.7355771680042
 20
1011.630033318322
 30
0.0
 10
454.5594051110614
 20
1010.286979593983
 30
0.0
 10
457.0854768029129
 20
1009.31408946369
 30
0.0
 10
458.3480868203047
 20
1008.827808401956
 30
0.0
  0
SPLINE
  5
BA
330
1F
100
AcDbEntity
  8
0
  6
Continuous
 62
     7
370
    25
100
AcDbSpline
210
0.0
220
0.0
230
1.0
 70
     8
 71
     3
 72
     9
 73
     5
 74
     0
 42
0.00000001
 43
0.00000001
 40
0.0
 40
0.0
 40
0.0
 40
0.0
 40
0.5008433437779363
 40
1.0
 40
1.0
 40
1.0
 40
1.0
 10
458.3480872815831
 20
1008.827808225135
 30
0.0
 10
459.5602547285793
 20
1008.378477626438
 30
0.0
 10
461.9805074124875
 20
1007.481329637393
 30
0.0
 10
464.2447923137165
 20
1006.352758306496
 30
0.0
 10
465.3750251937481
 20
1005.789424414657
 30
0.0
  0
SPLINE
  5
BB
330
1F
100
AcDbEntity
  8
0
  6
Continuous
 62
     7
370
    25
100
AcDbSpline
210
0.0
220
0.0
230
1.0
 70
     8
 71
     3
 72
    11
 73
     7
 74
     0
 42
0.00000001
 43
0.00000001
 40
0.0
 40
0.0
 40
0.0
 40
0.0
 40
0.2510405506792933
 40
0.5016916737836541
 40
0.7504745790265616
 40
1.0
 40
1.0
 40
1.0
 40
1.0
 10
465.3750251938898
 20
1005.789424387693
 30
0.0
 10
466.3684914555846
 20
1005.295018379771
 30
0.0
 10
468.3538828607923
 20
1004.30697331306
 30
0.0
 10
471.0911716810152
 20
1002.681219850283
 30
0.0
 10
473.5951117584503
 20
1000.907597533776
 30
0.0
 10
475.023630228064
 20
999.6341725909094
 30
0.0
 10
475.7389537611969
 20
998.9965113714802
 30
0.0
  0
LINE
  5
BC
330
1F
100
AcDbEntity
  8
0
  6
Continuous
 62
     7
370
    25
100
AcDbLine
 10
475.7389522649
 20
998.9965104293
 30
0.0
 11
477.4142014221
 21
997.2693058082
 31
0.0
  0
SPLINE
  5
BD
330
1F
100
AcDbEntity
  8
0
  6
Continuous
 62
     7
370
    25
100
AcDbSpline
210
0.0
220
0.0
230
1.0
 70
     8
 71
     3
 72
    30
 73
    26
 74
     0
 42
0.00000001
 43
0.00000001
 40
0.0
 40
0.0
 40
0.0
 40
0.0
 40
0.0002932708248238
 40
0.0025994348802989
 40
0.0090027013846193
 40
0.0332226726629993
 40
0.0726617491529837
 40
0.1273249048452258
 40
0.2239494068746141
 40
0.3478260824496427
 40
0.4983158104611806
 40
0.6506801450574315
 40
0.7767508476602962
 40
0.8744240013649299
 40
0.9293299717327429
 40
0.968560107377106
 40
0.9921152146201816
 40
0.9980167922893277
 40
0.9994975809396248
 40
0.9998710826285201
 40
0.9999661119518666
 40
0.9999906965658004
 40
0.9999972571463108
 40
0.9999991051609161
 40
1.0
 40
1.0
 40
1.0
 40
1.0
 10
458.4026210062078
 20
1008.947081124497
 30
0.0
 10
458.4005623677269
 20
1008.947889951006
 30
0.0
 10
458.3823154225141
 20
1008.955059064539
 30
0.0
 10
458.3191688660721
 20
1008.980012525615
 30
0.0
 10
458.0883485450428
 20
1009.071653951231
 30
0.0
 10
457.5980318467289
 20
1009.268469350314
 30
0.0
 10
456.7684495373513
 20
1009.596465531283
 30
0.0
 10
455.4255782572797
 20
1010.109525597477
 30
0.0
 10
453.4845416247173
 20
1010.841831134091
 30
0.0
 10
450.8436348235637
 20
1011.77931812958
 30
0.0
 10
447.770422992925
 20
1012.876673901304
 30
0.0
 10
444.7306865506155
 20
1014.155602122111
 30
0.0
 10
442.2208840309483
 20
1015.458186994746
 30
0.0
 10
440.4159701284358
 20
1016.475039589685
 30
0.0
 10
439.2081136738239
 20
1017.219812509551
 30
0.0
 10
438.4711366039133
 20
1017.679686943362
 30
0.0
 10
438.0409311619606
 20
1017.946866051814
 30
0.0
 10
437.8477972352674
 20
1018.068025587545
 30
0.0
 10
437.7994554331991
 20
1018.098510569017
 30
0.0
 10
437.7873160504622
 20
1018.106190447054
 30
0.0
 10
437.7842539500368
 20
1018.108146309498
 30
0.0
 10
437.78347202809
 20
1018.108649589028
 30
0.0
 10
437.78327003573
 20
1018.108784751716
 30
0.0
 10
437.7832131806357
 20
1018.108823135121
 30
0.0
 10
437.7831973806323
 20
1018.108835749836
 30
0.0
 10
437.7831922259788
 20
1018.108839865308
 30
0.0
  0
SPLINE
  5
BE
330
1F
100
AcDbEntity
  8
0
  6
Continuous
 62
     7
370
    25
100
AcDbSpline
210
0.0
220
0.0
230
1.0
 70
     8
 71
     3
 72
     9
 73
     5
 74
     0
 42
0.00000001
 43
0.00000001
 40
0.0
 40
0.0
 40
0.0
 40
0.0
 40
0.4570614644537998
 40
0.9999999999999999
 40
0.9999999999999999
 40
0.9999999999999999
 40
0.9999999999999999
 10
436.7528317548739
 20
1018.684650221622
 30
0.0
 10
436.6664350268933
 20
1018.712488089278
 30
0.0
 10
436.477408528928
 20
1018.773394268907
 30
0.0
 10
436.3145465180969
 20
1018.854975448562
 30
0.0
 10
436.2261224564402
 20
1018.899269014772
 30
0.0
  0
SPLINE
  5
BF
330
1F
100
AcDbEntity
  8
0
  6
Continuous
 62
     7
370
    25
100
AcDbSpline
210
0.0
220
0.0
230
1.0
 70
     8
 71
     3
 72
    12
 73
     8
 74
     0
 42
0.00000001
 43
0.00000001
 40
0.0
 40
0.0
 40
0.0
 40
0.0
 40
0.002702794471536
 40
0.0081388084389366
 40
0.027287899353664
 40
0.2813008024668105
 40
1.0
 40
1.0
 40
1.0
 40
1.0
 10
437.7831922259788
 20
1018.108839865308
 30
0.0
 10
437.7821564698248
 20
1018.109119314734
 30
0.0
 10
437.7790375419837
 20
1018.109960808739
 30
0.0
 10
437.7692541548539
 20
1018.114576522175
 30
0.0
 10
437.6705823247797
 20
1018.162963659491
 30
0.0
 10
437.3293879823422
 20
1018.355398442923
 30
0.0
 10
436.997816814664
 20
1018.544747532434
 30
0.0
 10
436.7528317548739
 20
1018.684650221622
 30
0.0
  0
SPLINE
  5
C0
330
1F
100
AcDbEntity
  8
0
  6
Continuous
 62
     7
370
    25
100
AcDbSpline
210
0.0
220
0.0
230
1.0
 70
     8
 71
     3
 72
     9
 73
     5
 74
     0
 42
0.00000001
 43
0.00000001
 40
0.0
 40
0.0
 40
0.0
 40
0.0
 40
0.5000184672354537
 40
1.0
 40
1.0
 40
1.0
 40
1.0
 10
458.402621706627
 20
1008.947081052181
 30
0.0
 10
458.3938256383706
 20
1008.925313817821
 30
0.0
 10
458.37623415159
 20
1008.881780956962
 30
0.0
 10
458.3574693405626
 20
1008.845798692749
 30
0.0
 10
458.3480872815831
 20
1008.827808225135
 30
0.0
  0
LINE
  5
C1
330
1F
100
AcDbEntity
  8
0
  6
Continuous
 62
     7
370
    25
100
AcDbLine
 10
465.5415778336
 20
994.7252654211
 30
0.0
 11
464.599989781
 21
995.4632772109
 31
0.0
  0
LINE
  5
C2
330
1F
100
AcDbEntity
  8
0
  6
Continuous
 62
     7
370
    25
100
AcDbLine
 10
467.087940003
 20
984.6694695341
 30
0.0
 11
467.2993192447
 21
984.6678820239
 31
0.0
  0
LINE
  5
C3
330
1F
100
AcDbEntity
  8
0
  6
Continuous
 62
     7
370
    25
100
AcDbLine
 10
419.1692572879
 20
1015.6594026803
 30
0.0
 11
418.6985577481
 21
1015.4434986963
 31
0.0
  0
SPLINE
  5
C4
330
1F
100
AcDbEntity
  8
0
  6
Continuous
 62
     7
370
    25
100
AcDbSpline
210
0.0
220
0.0
230
1.0
 70
     8
 71
     3
 72
    25
 73
    21
 74
     0
 42
0.00000001
 43
0.00000001
 40
0.0
 40
0.0
 40
0.0
 40
0.0
 40
0.062713168714563
 40
0.1251725212052814
 40
0.1873442497572852
 40
0.2499489003777911
 40
0.3121322277285232
 40
0.3743333400694414
 40
0.4158964551998818
 40
0.4587123116249319
 40
0.4990843205397792
 40
0.5616797285267446
 40
0.624748584304166
 40
0.6873479088636342
 40
0.7494326128057704
 40
0.8122284906030136
 40
0.874742819798278
 40
0.9163577699732808
 40
0.9579830988779676
 40
1.0
 40
1.0
 40
1.0
 40
1.0
 10
464.5999897809965
 20
995.463277210873
 30
0.0
 10
463.7851395792262
 20
996.0742632162064
 30
0.0
 10
462.1587370827354
 20
997.2937624103361
 30
0.0
 10
459.3701596127545
 20
999.1793411519557
 30
0.0
 10
456.3914518910782
 20
1001.080101429108
 30
0.0
 10
453.2650154865541
 20
1002.999923967188
 30
0.0
 10
450.0045240820202
 20
1004.888547674676
 30
0.0
 10
447.0116946451683
 20
1006.471082640793
 30
0.0
 10
444.3570913174101
 20
1007.821128656562
 30
0.0
 10
442.1068810113401
 20
1008.949590728847
 30
0.0
 10
439.4987704097007
 20
1010.228516117745
 30
0.0
 10
436.5463512036491
 20
1011.506667361357
 30
0.0
 10
433.328403999612
 20
1012.558510140781
 30
0.0
 10
430.3166363542145
 20
1013.430601790622
 30
0.0
 10
427.5111469826242
 20
1014.239827625989
 30
0.0
 10
424.9403378463897
 20
1014.942391556567
 30
0.0
 10
422.9112855014
 20
1015.366002305757
 30
0.0
 10
421.3560526670768
 20
1015.588706259329
 30
0.0
 10
420.1603211665154
 20
1015.68866007153
 30
0.0
 10
419.5006413473783
 20
1015.66918553416
 30
0.0
 10
419.1692572878664
 20
1015.659402680321
 30
0.0
  0
SPLINE
  5
C5
330
1F
100
AcDbEntity
  8
0
  6
Continuous
 62
     7
370
    25
100
AcDbSpline
210
0.0
220
0.0
230
1.0
 70
     8
 71
     3
 72
    37
 73
    33
 74
     0
 42
0.00000001
 43
0.00000001
 40
0.0
 40
0.0
 40
0.0
 40
0.0
 40
0.249420357909903
 40
0.2494228700821204
 40
0.2494417975793006
 40
0.249493613204304
 40
0.2496883724204977
 40
0.2504424041220688
 40
0.2534085423582188
 40
0.2651734582481732
 40
0.312040999863888
 40
0.4991980545736338
 40
0.686043746349631
 40
0.7331502721230786
 40
0.7451065755880729
 40
0.7481842107828348
 40
0.7489978135737254
 40
0.749223305563702
 40
0.7492907238171631
 40
0.7493279234938532
 40
0.841908310938393
 40
0.8657467758040972
 40
0.8720463745180681
 40
0.8737909890149581
 40
0.8743119853032266
 40
0.8745987714188573
 40
0.9145486092625738
 40
0.937284969706775
 40
0.9686413020663471
 40
0.9705500325838178
 40
0.9843179509415646
 40
1.0
 40
1.0
 40
1.0
 40
1.0
 10
465.429305347419
 20
1005.888999511189
 30
0.0
 10
464.8564776921826
 20
1006.159285934388
 30
0.0
 10
464.2836442674023
 20
1006.429575079922
 30
0.0
 10
463.7100013737593
 20
1006.698069160191
 30
0.0
 10
463.7098329084396
 20
1006.69814801151
 30
0.0
 10
463.7092223341768
 20
1006.698433800359
 30
0.0
 10
463.7069212727275
 20
1006.699510928121
 30
0.0
 10
463.6979186110639
 20
1006.703726153712
 30
0.0
 10
463.6623170584051
 20
1006.7204167143
 30
0.0
 10
463.52075861393
 20
1006.786974493033
 30
0.0
 10
462.9597353856781
 20
1007.061069756933
 30
0.0
 10
461.9938222402849
 20
1007.524765115875
 30
0.0
 10
460.9840686457553
 20
1007.896016216596
 30
0.0
 10
460.4022415705703
 20
1008.139611353765
 30
0.0
 10
460.2546309129744
 20
1008.20019408467
 30
0.0
 10
460.2169720051847
 20
1008.215640899771
 30
0.0
 10
460.207187630743
 20
1008.219651461823
 30
0.0
 10
460.2045576439136
 20
1008.220729344897
 30
0.0
 10
460.2037730216831
 20
1008.221050903945
 30
0.0
 10
459.9834738311504
 20
1008.311334617753
 30
0.0
 10
459.7056224181253
 20
1008.423610521473
 30
0.0
 10
459.4120914716775
 20
1008.542107129952
 30
0.0
 10
459.335784579321
 20
1008.572917884863
 30
0.0
 10
459.3152815236515
 20
1008.581196761229
 30
0.0
 10
459.3091713881694
 20
1008.583663906242
 30
0.0
 10
459.2115957014991
 20
1008.623047789759
 30
0.0
 10
459.0607131444364
 20
1008.683969067536
 30
0.0
 10
458.8350745154256
 20
1008.775041001338
 30
0.0
 10
458.7006443433755
 20
1008.829583773686
 30
0.0
 10
458.5872779276833
 20
1008.874437472
 30
0.0
 10
458.5115939089304
 20
1008.904155345264
 30
0.0
 10
458.4404863436633
 20
1008.932165630839
 30
0.0
 10
458.402621706627
 20
1008.947081052181
 30
0.0
  0
LINE
  5
C6
330
1F
100
AcDbEntity
  8
0
  6
Continuous
 62
     7
370
    25
100
AcDbLine
 10
465.4800954575
 20
1005.9397509786
 30
0.0
 11
465.5505399026
 21
1006.0107849298
 31
0.0
  0
LINE
  5
C7
330
1F
100
AcDbEntity
  8
0
  6
Continuous
 62
     7
370
    25
100
AcDbLine
 10
465.4293056505
 20
1005.8889995659
 30
0.0
 11
465.4800943834
 21
1005.9397498956
 31
0.0
  0
LINE
  5
C8
330
1F
100
AcDbEntity
  8
0
  6
Continuous
 62
     7
370
    25
100
AcDbLine
 10
432.6233885476
 20
1022.6540027564
 30
0.0
 11
433.1606504432
 21
1021.9418924997
 31
0.0
  0
LINE
  5
C9
330
1F
100
AcDbEntity
  8
0
  6
Continuous
 62
     7
370
    25
100
AcDbLine
 10
432.6233885476
 20
1022.6540027564
 30
0.0
 11
431.5458141449
 21
1024.7481466898
 31
0.0
  0
LINE
  5
CA
330
1F
100
AcDbEntity
  8
0
  6
Continuous
 62
     7
370
    25
100
AcDbLine
 10
431.5458141694
 20
1024.7481466707
 30
0.0
 11
431.483033238
 21
1024.9306080141
 31
0.0
  0
LINE
  5
CB
330
1F
100
AcDbEntity
  8
0
  6
Continuous
 62
     7
370
    25
100
AcDbLine
 10
436.7533867851
 20
1018.6856331949
 30
0.0
 11
436.1644943345
 21
1019.167702106
 31
0.0
  0
LINE
  5
CC
330
1F
100
AcDbEntity
  8
0
  6
Continuous
 62
     7
370
    25
100
AcDbLine
 10
436.1644943384
 20
1019.1677021034
 30
0.0
 11
435.8235358196
 21
1019.4203178422
 31
0.0
  0
LINE
  5
CD
330
1F
100
AcDbEntity
  8
0
  6
Continuous
 62
     7
370
    25
100
AcDbLine
 10
435.823534353
 20
1019.4203158788
 30
0.0
 11
434.6303936877
 21
1020.4076383508
 31
0.0
  0
LINE
  5
CE
330
1F
100
AcDbEntity
  8
0
  6
Continuous
 62
     7
370
    25
100
AcDbLine
 10
434.6303921153
 20
1020.4076365468
 30
0.0
 11
433.1606541043
 21
1021.9418957458
 31
0.0
  0
SPLINE
  5
CF
330
1F
100
AcDbEntity
  8
0
  6
Continuous
 62
     7
370
    25
100
AcDbSpline
210
0.0
220
0.0
230
1.0
 70
     8
 71
     3
 72
    11
 73
     7
 74
     0
 42
0.00000001
 43
0.00000001
 40
0.0
 40
0.0
 40
0.0
 40
0.0
 40
0.2497565392603538
 40
0.4987128773909033
 40
0.7493319571526359
 40
1.0
 40
1.0
 40
1.0
 40
1.0
 10
475.8956191144498
 20
999.1182989344494
 30
0.0
 10
475.1721889523095
 20
999.7574925865662
 30
0.0
 10
473.7276464437498
 20
1001.033831962509
 30
0.0
 10
471.1983158009945
 20
1002.806674729571
 30
0.0
 10
468.4380988857693
 20
1004.428862349207
 30
0.0
 10
466.4322945651859
 20
1005.402257009619
 30
0.0
 10
465.429294446694
 20
1005.889001877856
 30
0.0
  0
SPLINE
  5
D0
330
1F
100
AcDbEntity
  8
0
  6
Continuous
 62
     7
370
    25
100
AcDbSpline
210
0.0
220
0.0
230
1.0
 70
     8
 71
     3
 72
     9
 73
     5
 74
     0
 42
0.00000001
 43
0.00000001
 40
0.0
 40
0.0
 40
0.0
 40
0.0
 40
0.5000104875612498
 40
1.0
 40
1.0
 40
1.0
 40
1.0
 10
465.4292940055151
 20
1005.889002082588
 30
0.0
 10
465.420840678327
 20
1005.871096468188
 30
0.0
 10
465.4039343785624
 20
1005.835285990518
 30
0.0
 10
465.3846614540103
 20
1005.804711374836
 30
0.0
 10
465.3750251938602
 20
1005.789424387648
 30
0.0
  0
SPLINE
  5
D1
330
1F
100
AcDbEntity
  8
0
  6
Continuous
 62
     7
370
    25
100
AcDbSpline
210
0.0
220
0.0
230
1.0
 70
     8
 71
     3
 72
     9
 73
     5
 74
     0
 42
0.00000001
 43
0.00000001
 40
0.0
 40
0.0
 40
0.0
 40
0.0
 40
0.4999157204566952
 40
0.9999999999999999
 40
0.9999999999999999
 40
0.9999999999999999
 40
0.9999999999999999
 10
477.4139091187791
 20
997.2683597243348
 30
0.0
 10
477.9909887311763
 20
996.5753189329458
 30
0.0
 10
479.1453425327932
 20
995.1890036741343
 30
0.0
 10
479.9573619972547
 20
993.8119543525763
 30
0.0
 10
480.3634401661151
 20
993.1233136347093
 30
0.0
  0
LINE
  5
D2
330
1F
100
AcDbEntity
  8
0
  6
Continuous
 62
     7
370
    25
100
AcDbLine
 10
481.9424266648
 20
982.8092852608
 30
0.0
 11
481.9763542697
 21
982.764545525
 31
0.0
  0
SPLINE
  5
D3
330
1F
100
AcDbEntity
  8
0
  6
Continuous
 62
     7
370
    25
100
AcDbSpline
210
0.0
220
0.0
230
1.0
 70
     8
 71
     3
 72
    12
 73
     8
 74
     0
 42
0.00000001
 43
0.00000001
 40
0.0
 40
0.0
 40
0.0
 40
0.0
 40
0.059306392978335
 40
0.4016794332544824
 40
0.5021741166530554
 40
0.5552879505542786
 40
0.9999999999999999
 40
0.9999999999999999
 40
0.9999999999999999
 40
0.9999999999999999
 10
481.8824316571703
 20
982.9052620124588
 30
0.0
 10
481.8811104245904
 20
982.900929978684
 30
0.0
 10
481.8721617779569
 20
982.8715893159963
 30
0.0
 10
481.8606033512522
 20
982.8297824598001
 30
0.0
 10
481.8485151841208
 20
982.783767910533
 30
0.0
 10
481.8341586169503
 20
982.7262250473522
 30
0.0
 10
481.8255186881004
 20
982.6695461062311
 30
0.0
 10
481.8178005669771
 20
982.6189143313284
 30
0.0
  0
SPLINE
  5
D4
330
1F
100
AcDbEntity
  8
0
  6
Continuous
 62
     7
370
    25
100
AcDbSpline
210
0.0
220
0.0
230
1.0
 70
     8
 71
     3
 72
     9
 73
     5
 74
     0
 42
0.00000001
 43
0.00000001
 40
0.0
 40
0.0
 40
0.0
 40
0.0
 40
0.5100661328400231
 40
1.0
 40
1.0
 40
1.0
 40
1.0
 10
481.7723531213351
 20
982.5455398867217
 30
0.0
 10
481.7782004253586
 20
982.5590771946728
 30
0.0
 10
481.7896642408272
 20
982.5856174942134
 30
0.0
 10
481.8085125702841
 20
982.6078659075753
 30
0.0
 10
481.8177470052244
 20
982.6187661587718
 30
0.0
  0
SPLINE
  5
D5
330
1F
100
AcDbEntity
  8
0
  6
Continuous
 62
     7
370
    25
100
AcDbSpline
210
0.0
220
0.0
230
1.0
 70
     8
 71
     3
 72
    11
 73
     7
 74
     0
 42
0.00000001
 43
0.00000001
 40
0.0
 40
0.0
 40
0.0
 40
0.0
 40
0.2974566759031599
 40
0.5950348378096322
 40
0.8913210475881014
 40
1.0
 40
1.0
 40
1.0
 40
1.0
 10
481.7723532804332
 20
982.5455402703033
 30
0.0
 10
481.1996639449629
 20
982.2550333862858
 30
0.0
 10
480.0540513786551
 20
981.6739009706524
 30
0.0
 10
478.4238168899026
 20
981.0978251172356
 30
0.0
 10
477.0799411235325
 20
980.9670762424115
 30
0.0
 10
476.1498502478184
 20
981.3526735753827
 30
0.0
 10
475.9002453152022
 20
981.4561548575095
 30
0.0
  0
SPLINE
  5
D6
330
1F
100
AcDbEntity
  8
0
  6
Continuous
 62
     7
370
    25
100
AcDbSpline
210
0.0
220
0.0
230
1.0
 70
     8
 71
     3
 72
    16
 73
    12
 74
     0
 42
0.00000001
 43
0.00000001
 40
0.0
 40
0.0
 40
0.0
 40
0.0
 40
0.0800403714732723
 40
0.1247362369596071
 40
0.2264912449707368
 40
0.2494238450452819
 40
0.4989568656099819
 40
0.9994554747061977
 40
0.9998390034303294
 40
0.9999806005894369
 40
1.0
 40
1.0
 40
1.0
 40
1.0
 10
431.3098814497761
 20
1024.418693175571
 30
0.0
 10
431.3261828629458
 20
1024.370563878076
 30
0.0
 10
431.351587254486
 20
1024.295558385891
 30
0.0
 10
431.3979036745048
 20
1024.159354718944
 30
0.0
 10
431.4344323468837
 20
1024.058322715456
 30
0.0
 10
431.5177448449505
 20
1023.83626035823
 30
0.0
 10
431.7069974702337
 20
1023.387276699646
 30
0.0
 10
431.8884337941874
 20
1022.940763781341
 30
0.0
 10
432.0719996006475
 20
1022.688547071241
 30
0.0
 10
432.0722008059949
 20
1022.688274023909
 30
0.0
 10
432.0722550459535
 20
1022.688189276151
 30
0.0
 10
432.0722615816408
 20
1022.688179064402
 30
0.0
  0
SPLINE
  5
D7
330
1F
100
AcDbEntity
  8
0
  6
Continuous
 62
     7
370
    25
100
AcDbSpline
210
0.0
220
0.0
230
1.0
 70
     8
 71
     3
 72
     9
 73
     5
 74
     0
 42
0.00000001
 43
0.00000001
 40
0.0
 40
0.0
 40
0.0
 40
0.0
 40
0.50000930178144
 40
1.0
 40
1.0
 40
1.0
 40
1.0
 10
432.0722615932906
 20
1022.688179054573
 30
0.0
 10
432.0687672162621
 20
1022.680245142226
 30
0.0
 10
432.0617785922183
 20
1022.664377612725
 30
0.0
 10
432.054794711242
 20
1022.648506344781
 30
0.0
 10
432.0513028357163
 20
1022.64057085844
 30
0.0
  0
SPLINE
  5
D8
330
1F
100
AcDbEntity
  8
0
  6
Continuous
 62
     7
370
    25
100
AcDbSpline
210
0.0
220
0.0
230
1.0
 70
     8
 71
     3
 72
    13
 73
     9
 74
     0
 42
0.00000001
 43
0.00000001
 40
0.0
 40
0.0
 40
0.0
 40
0.0
 40
0.1249940457267678
 40
0.2496651313384153
 40
0.3752967381492327
 40
0.4997613011201259
 40
0.7491137132857888
 40
1.0
 40
1.0
 40
1.0
 40
1.0
 10
430.8454718588368
 20
1019.924468547004
 30
0.0
 10
429.8410041505664
 20
1019.985867465417
 30
0.0
 10
427.8346640817064
 20
1020.108506659472
 30
0.0
 10
425.0627671959695
 20
1020.869896779454
 30
0.0
 10
422.5497102285557
 20
1021.889503475224
 30
0.0
 10
419.569056400616
 20
1023.456647562555
 30
0.0
 10
416.3875128837188
 20
1025.50188701707
 30
0.0
 10
414.4381806778043
 20
1026.419748178146
 30
0.0
 10
413.4605259705427
 20
1026.880085970758
 30
0.0
  0
SPLINE
  5
D9
330
1F
100
AcDbEntity
  8
0
  6
Continuous
 62
     7
370
    25
100
AcDbSpline
210
0.0
220
0.0
230
1.0
 70
     8
 71
     3
 72
     9
 73
     5
 74
     0
 42
0.00000001
 43
0.00000001
 40
0.0
 40
0.0
 40
0.0
 40
0.0
 40
0.4997677367287524
 40
1.0
 40
1.0
 40
1.0
 40
1.0
 10
430.8488214416025
 20
1026.871619628946
 30
0.0
 10
430.8856063767411
 20
1026.452247624774
 30
0.0
 10
430.9592104380582
 20
1025.613113816503
 30
0.0
 10
431.1929549189314
 20
1024.816956668015
 30
0.0
 10
431.3098814496257
 20
1024.418693175707
 30
0.0
  0
SPLINE
  5
DA
330
1F
100
AcDbEntity
  8
0
  6
Continuous
 62
     7
370
    25
100
AcDbSpline
210
0.0
220
0.0
230
1.0
 70
     8
 71
     3
 72
    11
 73
     7
 74
     0
 42
0.00000001
 43
0.00000001
 40
0.0
 40
0.0
 40
0.0
 40
0.0
 40
0.2500000717079793
 40
0.5000001130241433
 40
0.7500002221762736
 40
1.0
 40
1.0
 40
1.0
 40
1.0
 10
475.8961211914216
 20
999.118123225162
 30
0.0
 10
475.8853936517443
 20
999.104061925561
 30
0.0
 10
475.8639385736937
 20
999.0759393280684
 30
0.0
 10
475.8239031872684
 20
999.0403771041548
 30
0.0
 10
475.7811977294488
 20
999.0119186482963
 30
0.0
 10
475.753032747535
 20
999.0016477415106
 30
0.0
 10
475.7389502659099
 20
998.996512291521
 30
0.0
  0
SPLINE
  5
DB
330
1F
100
AcDbEntity
  8
0
  6
Continuous
 62
     7
370
    25
100
AcDbSpline
210
0.0
220
0.0
230
1.0
 70
     8
 71
     3
 72
     9
 73
     5
 74
     0
 42
0.00000001
 43
0.00000001
 40
0.0
 40
0.0
 40
0.0
 40
0.0
 40
0.5001376460603123
 40
1.0
 40
1.0
 40
1.0
 40
1.0
 10
436.2243211742868
 20
1018.897172900253
 30
0.0
 10
436.2012247908469
 20
1018.912779403959
 30
0.0
 10
436.1550447369718
 20
1018.943983821039
 30
0.0
 10
436.1090389547565
 20
1018.975270003911
 30
0.0
 10
436.0860423961635
 20
1018.990908788926
 30
0.0
  0
LINE
  5
DC
330
1F
100
AcDbEntity
  8
0
  6
Continuous
 62
     7
370
    25
100
AcDbLine
 10
436.0860428735
 20
1018.9909093198
 30
0.0
 11
435.7603062326
 21
1019.2316458273
 31
0.0
  0
SPLINE
  5
DD
330
1F
100
AcDbEntity
  8
0
  6
Continuous
 62
     7
370
    25
100
AcDbSpline
210
0.0
220
0.0
230
1.0
 70
     8
 71
     3
 72
     9
 73
     5
 74
     0
 42
0.00000001
 43
0.00000001
 40
0.0
 40
0.0
 40
0.0
 40
0.0
 40
0.4848231448394354
 40
1.0
 40
1.0
 40
1.0
 40
1.0
 10
435.7603156623075
 20
1019.231655957873
 30
0.0
 10
435.6084346078231
 20
1019.347867544194
 30
0.0
 10
435.2951635602235
 20
1019.587566468551
 30
0.0
 10
434.9956845072264
 20
1019.840187338947
 30
0.0
 10
434.8413998305169
 20
1019.970331764506
 30
0.0
  0
LINE
  5
DE
330
1F
100
AcDbEntity
  8
0
  6
Continuous
 62
     7
370
    25
100
AcDbLine
 10
433.4877883711
 20
1021.2834380643
 30
0.0
 11
434.8413798824
 21
1019.970312444
 31
0.0
  0
LINE
  5
DF
330
1F
100
AcDbEntity
  8
0
  6
Continuous
 62
     7
370
    25
100
AcDbLine
 10
433.4877883711
 20
1021.2834380643
 30
0.0
 11
433.0714572614
 21
1021.7657435726
 31
0.0
  0
LINE
  5
E0
330
1F
100
AcDbEntity
  8
0
  6
Continuous
 62
     7
370
    25
100
AcDbLine
 10
433.0714572655
 20
1021.7657435676
 30
0.0
 11
433.0602182447
 21
1021.7827519272
 31
0.0
  0
SPLINE
  5
E1
330
1F
100
AcDbEntity
  8
0
  6
Continuous
 62
     7
370
    25
100
AcDbSpline
210
0.0
220
0.0
230
1.0
 70
     8
 71
     3
 72
    11
 73
     7
 74
     0
 42
0.00000001
 43
0.00000001
 40
0.0
 40
0.0
 40
0.0
 40
0.0
 40
0.2523651330972198
 40
0.5121513960904653
 40
0.7653764006860437
 40
1.0
 40
1.0
 40
1.0
 40
1.0
 10
433.0602182447458
 20
1021.782751927198
 30
0.0
 10
433.0600025441936
 20
1021.792390194463
 30
0.0
 10
433.0595648001296
 20
1021.811950154968
 30
0.0
 10
433.0811827913398
 20
1021.853937576387
 30
0.0
 10
433.1154838570675
 20
1021.899147018789
 30
0.0
 10
433.1459850195585
 20
1021.928013052281
 30
0.0
 10
433.160654104331
 20
1021.941895745849
 30
0.0
  0
LINE
  5
E2
330
1F
100
AcDbEntity
  8
0
  6
Continuous
 62
     7
370
    25
100
AcDbLine
 10
432.5900598038
 20
1021.7969919491
 30
0.0
 11
432.0513862967
 21
1022.6405007073
 31
0.0
  0
LINE
  5
E3
330
1F
100
AcDbEntity
  8
0
  6
Continuous
 62
     7
370
    25
100
AcDbLine
 10
432.0513027675
 20
1022.6405709159
 30
0.0
 11
432.2968449259
 21
1022.3153851102
 31
0.0
  0
SPLINE
  5
E4
330
1F
100
AcDbEntity
  8
0
  6
Continuous
 62
     7
370
    25
100
AcDbSpline
210
0.0
220
0.0
230
1.0
 70
     8
 71
     3
 72
     9
 73
     5
 74
     0
 42
0.00000001
 43
0.00000001
 40
0.0
 40
0.0
 40
0.0
 40
0.0
 40
0.650306459041452
 40
1.0
 40
1.0
 40
1.0
 40
1.0
 10
432.2968449258821
 20
1022.315385110247
 30
0.0
 10
432.8149706317699
 20
1021.765336434743
 30
0.0
 10
433.611711458628
 20
1020.919506491251
 30
0.0
 10
434.5227901166951
 20
1020.216246209463
 30
0.0
 10
434.8413884387263
 20
1019.970320631309
 30
0.0
  0
SPLINE
  5
E5
330
1F
100
AcDbEntity
  8
0
  6
Continuous
 62
     7
370
    25
100
AcDbSpline
210
0.0
220
0.0
230
1.0
 70
     8
 71
     3
 72
    10
 73
     6
 74
     0
 42
0.00000001
 43
0.00000001
 40
0.0
 40
0.0
 40
0.0
 40
0.0
 40
0.0381360397271622
 40
0.4703181474663129
 40
1.0
 40
1.0
 40
1.0
 40
1.0
 10
436.0583632968418
 20
1018.996851827795
 30
0.0
 10
436.039615411977
 20
1019.006950823419
 30
0.0
 10
435.8084044487628
 20
1019.131498126896
 30
0.0
 10
435.2949273023949
 20
1019.426672700429
 30
0.0
 10
434.7587253115764
 20
1019.648593294572
 30
0.0
 10
434.4634481460316
 20
1019.770801128815
 30
0.0
  0
LINE
  5
E6
330
1F
100
AcDbEntity
  8
0
  6
Continuous
 62
     7
370
    25
100
AcDbLine
 10
434.463448146
 20
1019.7708011288
 30
0.0
 11
434.3754257987
 21
1019.8489940425
 31
0.0
  0
SPLINE
  5
E7
330
1F
100
AcDbEntity
  8
0
  6
Continuous
 62
     7
370
    25
100
AcDbSpline
210
0.0
220
0.0
230
1.0
 70
     8
 71
     3
 72
     9
 73
     5
 74
     0
 42
0.00000001
 43
0.00000001
 40
0.0
 40
0.0
 40
0.0
 40
0.0
 40
0.4997156404181259
 40
1.0
 40
1.0
 40
1.0
 40
1.0
 10
434.3754258156825
 20
1019.848994027082
 30
0.0
 10
434.0481348892685
 20
1020.153400090273
 30
0.0
 10
433.3931805513573
 20
1020.762558656808
 30
0.0
 10
432.8578678757274
 20
1021.452050417184
 30
0.0
 10
432.590059316624
 20
1021.796992360961
 30
0.0
  0
SPLINE
  5
E8
330
1F
100
AcDbEntity
  8
0
  6
Continuous
 62
     7
370
    25
100
AcDbSpline
210
0.0
220
0.0
230
1.0
 70
     8
 71
     3
 72
     9
 73
     5
 74
     0
 42
0.00000001
 43
0.00000001
 40
0.0
 40
0.0
 40
0.0
 40
0.0
 40
0.4970264022251569
 40
1.0
 40
1.0
 40
1.0
 40
1.0
 10
434.4634481460327
 20
1019.770801128809
 30
0.0
 10
433.8621385557619
 20
1019.867876796647
 30
0.0
 10
432.6523243737007
 20
1020.063189696331
 30
0.0
 10
431.4501435302143
 20
1019.970891193132
 30
0.0
 10
430.84547830619
 20
1019.924467482909
 30
0.0
  0
SPLINE
  5
E9
330
1F
100
AcDbEntity
  8
0
  6
Continuous
 62
     7
370
    25
100
AcDbSpline
210
0.0
220
0.0
230
1.0
 70
     8
 71
     3
 72
    11
 73
     7
 74
     0
 42
0.00000001
 43
0.00000001
 40
0.0
 40
0.0
 40
0.0
 40
0.0
 40
0.2509671597497872
 40
0.4992730780803883
 40
0.7497683101714037
 40
1.0
 40
1.0
 40
1.0
 40
1.0
 10
431.4837894464337
 20
1024.930005887502
 30
0.0
 10
431.2789780798368
 20
1025.778394895315
 30
0.0
 10
430.8715271546696
 20
1027.466176642386
 30
0.0
 10
431.1034388662715
 20
1030.109690780836
 30
0.0
 10
431.7700304164612
 20
1032.671486673933
 30
0.0
 10
432.525795373595
 20
1034.279419644621
 30
0.0
 10
432.9034789653056
 20
1035.082962986855
 30
0.0
  0
SPLINE
  5
EA
330
1F
100
AcDbEntity
  8
0
  6
Continuous
 62
     7
370
    25
100
AcDbSpline
210
0.0
220
0.0
230
1.0
 70
     8
 71
     3
 72
    11
 73
     7
 74
     0
 42
0.00000001
 43
0.00000001
 40
0.0
 40
0.0
 40
0.0
 40
0.0
 40
0.2435827496866723
 40
0.5000074105384171
 40
0.7564272211482896
 40
1.0
 40
1.0
 40
1.0
 40
1.0
 10
434.4634481460316
 20
1019.770801128815
 30
0.0
 10
434.4574723167192
 20
1019.750578421123
 30
0.0
 10
434.4452056067645
 20
1019.70906684561
 30
0.0
 10
434.4357696690786
 20
1019.646107442488
 30
0.0
 10
434.4340825146655
 20
1019.589912118651
 30
0.0
 10
434.4400858505335
 20
1019.564345001749
 30
0.0
 10
434.4430103922779
 20
1019.551889909729
 30
0.0
  0
SPLINE
  5
EB
330
1F
100
AcDbEntity
  8
0
  6
Continuous
 62
     7
370
    25
100
AcDbSpline
210
0.0
220
0.0
230
1.0
 70
     8
 71
     3
 72
    13
 73
     9
 74
     0
 42
0.00000001
 43
0.00000001
 40
0.0
 40
0.0
 40
0.0
 40
0.0
 40
0.2394882377583095
 40
0.3684558466551589
 40
0.5000094150421974
 40
0.631533087168298
 40
0.7605202363527213
 40
1.0
 40
1.0
 40
1.0
 40
1.0
 10
432.2968450235272
 20
1022.315384955351
 30
0.0
 10
432.3313325027485
 20
1022.343342784329
 30
0.0
 10
432.3843919493184
 20
1022.386356276946
 30
0.0
 10
432.4347118293641
 20
1022.449084502437
 30
0.0
 10
432.4639984211817
 20
1022.497044966935
 30
0.0
 10
432.4797379811928
 20
1022.54177475534
 30
0.0
 10
432.4851183777208
 20
1022.593766781832
 30
0.0
 10
432.4654115129349
 20
1022.619410393296
 30
0.0
 10
432.4526033199689
 20
1022.636077089269
 30
0.0
  0
SPLINE
  5
EC
330
1F
100
AcDbEntity
  8
0
  6
Continuous
 62
     7
370
    25
100
AcDbSpline
210
0.0
220
0.0
230
1.0
 70
     8
 71
     3
 72
     9
 73
     5
 74
     0
 42
0.00000001
 43
0.00000001
 40
0.0
 40
0.0
 40
0.0
 40
0.0
 40
0.4991531586747417
 40
1.0
 40
1.0
 40
1.0
 40
1.0
 10
432.4526039921668
 20
1022.636077597921
 30
0.0
 10
432.6088473858836
 20
1022.401452072296
 30
0.0
 10
432.9218643246758
 20
1021.931404910324
 30
0.0
 10
433.2989330850101
 20
1021.499673096927
 30
0.0
 10
433.4877867825861
 20
1021.283441581888
 30
0.0
  0
SPLINE
  5
ED
330
1F
100
AcDbEntity
  8
0
  6
Continuous
 62
     7
370
    25
100
AcDbSpline
210
0.0
220
0.0
230
1.0
 70
     8
 71
     3
 72
    11
 73
     7
 74
     0
 42
0.00000001
 43
0.00000001
 40
0.0
 40
0.0
 40
0.0
 40
0.0
 40
0.242879269129719
 40
0.5000048769384172
 40
0.757127525224499
 40
1.0
 40
1.0
 40
1.0
 40
1.0
 10
430.8454779327506
 20
1019.924464479942
 30
0.0
 10
430.8436621039425
 20
1019.902593539332
 30
0.0
 10
430.83992393698
 20
1019.857568795115
 30
0.0
 10
430.846333372737
 20
1019.789425218714
 30
0.0
 10
430.8609456753744
 20
1019.729621382392
 30
0.0
 10
430.8762956290436
 20
1019.704001517209
 30
0.0
 10
430.8837518642414
 20
1019.691556675702
 30
0.0
  0
LINE
  5
EE
330
1F
100
AcDbEntity
  8
0
  6
Continuous
 62
     7
370
    25
100
AcDbLine
 10
477.5865592009
 20
997.3915998003
 30
0.0
 11
475.8961211914
 21
999.1181232252
 31
0.0
  0
SPLINE
  5
EF
330
1F
100
AcDbEntity
  8
0
  6
Continuous
 62
     7
370
    25
100
AcDbSpline
210
0.0
220
0.0
230
1.0
 70
     8
 71
     3
 72
    13
 73
     9
 74
     0
 42
0.00000001
 43
0.00000001
 40
0.0
 40
0.0
 40
0.0
 40
0.0
 40
0.2400506844656782
 40
0.369099684619948
 40
0.500575671050084
 40
0.6319871636074077
 40
0.760779280241109
 40
1.0
 40
1.0
 40
1.0
 40
1.0
 10
431.3653494578354
 20
1024.801705053932
 30
0.0
 10
431.3598859316662
 20
1024.80926293988
 30
0.0
 10
431.3514852649884
 20
1024.820883874541
 30
0.0
 10
431.3596840267074
 20
1024.842512220748
 30
0.0
 10
431.3728909860599
 20
1024.860628523035
 30
0.0
 10
431.393920877804
 20
1024.879532407095
 30
0.0
 10
431.4280903563763
 20
1024.903766859022
 30
0.0
 10
431.4618467739716
 20
1024.919668730721
 30
0.0
 10
431.4837895806213
 20
1024.930005482097
 30
0.0
  0
SPLINE
  5
F0
330
1F
100
AcDbEntity
  8
0
  6
Continuous
 62
     7
370
    25
100
AcDbSpline
210
0.0
220
0.0
230
1.0
 70
     8
 71
     3
 72
    17
 73
    13
 74
     0
 42
0.00000001
 43
0.00000001
 40
0.0
 40
0.0
 40
0.0
 40
0.0
 40
0.0024372417497935
 40
0.0070397577542121
 40
0.0227355495032036
 40
0.080032019244909
 40
0.297895948739528
 40
0.3247933052276714
 40
0.3780322329822894
 40
0.563460859784319
 40
0.8314130265681925
 40
1.0
 40
1.0
 40
1.0
 40
1.0
 10
432.7981338878665
 20
1035.05859090875
 30
0.0
 10
432.7941620108215
 20
1035.050818514555
 30
0.0
 10
432.7826895944193
 20
1035.028368639689
 30
0.0
 10
432.7457740493726
 20
1034.95580281666
 30
0.0
 10
432.6209404657249
 20
1034.707569561812
 30
0.0
 10
432.1694474887804
 20
1033.769425754113
 30
0.0
 10
431.7691747093218
 20
1032.762877736274
 30
0.0
 10
431.4540067239238
 20
1031.748872529367
 30
0.0
 10
431.1969578554041
 20
1030.838766234579
 30
0.0
 10
430.8543095956015
 20
1029.071935121838
 30
0.0
 10
430.8163053897914
 20
1026.847512866778
 30
0.0
 10
431.2123868346323
 20
1025.37166318268
 30
0.0
 10
431.3653494578355
 20
1024.801705053932
 30
0.0
  0
SPLINE
  5
F1
330
1F
100
AcDbEntity
  8
0
  6
Continuous
 62
     7
370
    25
100
AcDbSpline
210
0.0
220
0.0
230
1.0
 70
     8
 71
     3
 72
    13
 73
     9
 74
     0
 42
0.00000001
 43
0.00000001
 40
0.0
 40
0.0
 40
0.0
 40
0.0
 40
0.0865893261160905
 40
0.2520531771296496
 40
0.4998184700099412
 40
0.6285056027422794
 40
0.7569820888836999
 40
1.0
 40
1.0
 40
1.0
 40
1.0
 10
432.7981338647928
 20
1035.058590916516
 30
0.0
 10
432.7956299087439
 20
1035.062397498672
 30
0.0
 10
432.7883411341823
 20
1035.073478092198
 30
0.0
 10
432.7859190744275
 20
1035.09284908101
 30
0.0
 10
432.796485360893
 20
1035.104692288393
 30
0.0
 10
432.8206245149145
 20
1035.104659245712
 30
0.0
 10
432.8518438662335
 20
1035.10019965332
 30
0.0
 10
432.8830591077193
 20
1035.089779479309
 30
0.0
 10
432.9034789655606
 20
1035.082962986409
 30
0.0
  0
SPLINE
  5
F2
330
1F
100
AcDbEntity
  8
0
  6
Continuous
 62
     7
370
    25
100
AcDbSpline
210
0.0
220
0.0
230
1.0
 70
     8
 71
     3
 72
    11
 73
     7
 74
     0
 42
0.00000001
 43
0.00000001
 40
0.0
 40
0.0
 40
0.0
 40
0.0
 40
0.245343767902712
 40
0.5000165796239292
 40
0.7546816869359763
 40
1.0
 40
1.0
 40
1.0
 40
1.0
 10
413.4605257631682
 20
1026.88008605007
 30
0.0
 10
413.4532478189091
 20
1026.861912773587
 30
0.0
 10
413.4384151910978
 20
1026.824875193113
 30
0.0
 10
413.4349288913028
 20
1026.764661023977
 30
0.0
 10
413.4468501566433
 20
1026.706920992955
 30
0.0
 10
413.4665845713282
 20
1026.675431323268
 30
0.0
 10
413.4762673190404
 20
1026.659980825649
 30
0.0
  0
SPLINE
  5
F3
330
1F
100
AcDbEntity
  8
0
  6
Continuous
 62
     7
370
    25
100
AcDbSpline
210
0.0
220
0.0
230
1.0
 70
     8
 71
     3
 72
    13
 73
     9
 74
     0
 42
0.00000001
 43
0.00000001
 40
0.0
 40
0.0
 40
0.0
 40
0.0
 40
0.2394473083577919
 40
0.3683567731444902
 40
0.500004796659396
 40
0.631652118726099
 40
0.7605595654081269
 40
1.0
 40
1.0
 40
1.0
 40
1.0
 10
431.545814144949
 20
1024.748146689788
 30
0.0
 10
431.5238934059319
 20
1024.737260340547
 30
0.0
 10
431.4901713618437
 20
1024.72051318851
 30
0.0
 10
431.4560601937332
 20
1024.695284975029
 30
0.0
 10
431.435383456835
 20
1024.675729264263
 30
0.0
 10
431.4223635367688
 20
1024.657123655812
 30
0.0
 10
431.414831372199
 20
1024.63519361884
 30
0.0
 10
431.4236228502599
 20
1024.623721503176
 30
0.0
 10
431.4293376525829
 20
1024.616264182257
 30
0.0
  0
LINE
  5
F4
330
1F
100
AcDbEntity
  8
0
  6
Continuous
 62
     7
370
    25
100
AcDbLine
 10
432.6069746475
 20
1022.3713553737
 30
0.0
 11
431.4291879592
 21
1024.6161969904
 31
0.0
  0
LINE
  5
F5
330
1F
100
AcDbEntity
  8
0
  6
Continuous
 62
     7
370
    25
100
AcDbLine
 10
433.071310718
 20
1021.7656134467
 30
0.0
 11
432.6069746475
 21
1022.3713553737
 31
0.0
  0
SPLINE
  5
F6
330
1F
100
AcDbEntity
  8
0
  6
Continuous
 62
     7
370
    25
100
AcDbSpline
210
0.0
220
0.0
230
1.0
 70
     8
 71
     3
 72
     9
 73
     5
 74
     0
 42
0.00000001
 43
0.00000001
 40
0.0
 40
0.0
 40
0.0
 40
0.0
 40
0.5339100541360593
 40
1.0
 40
1.0
 40
1.0
 40
1.0
 10
430.8488369904479
 20
1026.871622752107
 30
0.0
 10
430.9642137154944
 20
1026.511197425094
 30
0.0
 10
431.1803113974032
 20
1025.836129922204
 30
0.0
 10
431.3570111952927
 20
1025.202567625122
 30
0.0
 10
431.4393691945252
 20
1024.907270608373
 30
0.0
  0
SPLINE
  5
F7
330
1F
100
AcDbEntity
  8
0
  6
Continuous
 62
     7
370
    25
100
AcDbSpline
210
0.0
220
0.0
230
1.0
 70
     8
 71
     3
 72
    10
 73
     6
 74
     0
 42
0.00000001
 43
0.00000001
 40
0.0
 40
0.0
 40
0.0
 40
0.0
 40
0.0997232884066551
 40
0.2993570333828849
 40
1.0
 40
1.0
 40
1.0
 40
1.0
 10
431.5394528688025
 20
1024.540478195259
 30
0.0
 10
431.5390155522302
 20
1024.542579135516
 30
0.0
 10
431.5377027817248
 20
1024.54888589949
 30
0.0
 10
431.5315065840474
 20
1024.57245774956
 30
0.0
 10
431.5257886153757
 20
1024.593809517586
 30
0.0
 10
431.5213385896431
 20
1024.610426593092
 30
0.0
  0
LWPOLYLINE
  5
F8
330
1F
100
AcDbEntity
  8
0
  6
Continuous
 62
     7
370
    25
100
AcDbPolyline
 90
        7
 70
   128
 43
0.0
 10
431.0922414518
 20
1027.0173061286
 10
431.5131756462
 20
1024.6200060933
 10
431.5322040357
 20
1024.5617689351
 10
431.5373240543
 20
1024.5465117773
 10
431.5391889219
 20
1024.5411165567
 10
431.5394317122
 20
1024.5404692338
 10
431.5394317122
 20
1024.5404692338
  0
SPLINE
  5
F9
330
1F
100
AcDbEntity
  8
0
  6
Continuous
 62
     7
370
    25
100
AcDbSpline
210
0.0
220
0.0
230
1.0
 70
     8
 71
     3
 72
    11
 73
     7
 74
     0
 42
0.00000001
 43
0.00000001
 40
0.0
 40
0.0
 40
0.0
 40
0.0
 40
0.3143705034417121
 40
0.629776579629453
 40
0.9431018225157576
 40
1.0
 40
1.0
 40
1.0
 40
1.0
 10
432.9034789655606
 20
1035.082962986409
 30
0.0
 10
433.6110162792436
 20
1036.312110796358
 30
0.0
 10
435.0284216162367
 20
1038.7744553711
 30
0.0
 10
437.8282681401557
 20
1041.932199939739
 30
0.0
 10
440.0159018711324
 20
1044.118185331571
 30
0.0
 10
441.3445791875361
 20
1044.960422495329
 30
0.0
 10
441.548778364596
 20
1045.089862603628
 30
0.0
  0
LINE
  5
FA
330
1F
100
AcDbEntity
  8
0
  6
Continuous
 62
     7
370
    25
100
AcDbLine
 10
432.2968449259
 20
1022.3153851102
 30
0.0
 11
432.0722615933
 21
1022.6881790546
 31
0.0
  0
SPLINE
  5
FB
330
1F
100
AcDbEntity
  8
0
  6
Continuous
 62
     7
370
    25
100
AcDbSpline
210
0.0
220
0.0
230
1.0
 70
     8
 71
     3
 72
    13
 73
     9
 74
     0
 42
0.00000001
 43
0.00000001
 40
0.0
 40
0.0
 40
0.0
 40
0.0
 40
0.2396661245647189
 40
0.3685679904132575
 40
0.5000113236824362
 40
0.6314259530390732
 40
0.7603454933607448
 40
1.0
 40
1.0
 40
1.0
 40
1.0
 10
431.3098815424572
 20
1024.418692900008
 30
0.0
 10
431.3481348379653
 20
1024.438496335315
 30
0.0
 10
431.4069622599787
 20
1024.468950836833
 30
0.0
 10
431.4649009322725
 20
1024.517111126997
 30
0.0
 10
431.4997726299413
 20
1024.555215602723
 30
0.0
 10
431.5204984673697
 20
1024.592428131002
 30
0.0
 10
431.5314329005707
 20
1024.637608664551
 30
0.0
 10
431.514009952034
 20
1024.663241656561
 30
0.0
 10
431.5026811887359
 20
1024.679908760782
 30
0.0
  0
SPLINE
  5
FC
330
1F
100
AcDbEntity
  8
0
  6
Continuous
 62
     7
370
    25
100
AcDbSpline
210
0.0
220
0.0
230
1.0
 70
     8
 71
     3
 72
     9
 73
     5
 74
     0
 42
0.00000001
 43
0.00000001
 40
0.0
 40
0.0
 40
0.0
 40
0.0
 40
0.4995330184267211
 40
1.0
 40
1.0
 40
1.0
 40
1.0
 10
431.5026811872727
 20
1024.679908765957
 30
0.0
 10
431.629258162892
 20
1024.322202139036
 30
0.0
 10
431.8826487716208
 20
1023.606120090952
 30
0.0
 10
432.2625002147699
 20
1022.959626023708
 30
0.0
 10
432.4526033199689
 20
1022.636077089269
 30
0.0
  0
SPLINE
  5
FD
330
1F
100
AcDbEntity
  8
0
  6
Continuous
 62
     7
370
    25
100
AcDbSpline
210
0.0
220
0.0
230
1.0
 70
     8
 71
     3
 72
     9
 73
     5
 74
     0
 42
0.00000001
 43
0.00000001
 40
0.0
 40
0.0
 40
0.0
 40
0.0
 40
0.4999623506165406
 40
1.0
 40
1.0
 40
1.0
 40
1.0
 10
480.5674350585716
 20
993.2180148285596
 30
0.0
 10
480.1569398692244
 20
993.9111664636525
 30
0.0
 10
479.3358876663117
 20
995.2975741286261
 30
0.0
 10
478.1704549039782
 20
996.6932570081203
 30
0.0
 10
477.5876946449865
 20
997.3911509944675
 30
0.0
  0
SPLINE
  5
FE
330
1F
100
AcDbEntity
  8
0
  6
Continuous
 62
     7
370
    25
100
AcDbSpline
210
0.0
220
0.0
230
1.0
 70
     8
 71
     3
 72
    11
 73
     7
 74
     0
 42
0.00000001
 43
0.00000001
 40
0.0
 40
0.0
 40
0.0
 40
0.0
 40
0.3136523159240233
 40
0.6276074937573737
 40
0.9387194760629216
 40
0.9999999999999999
 40
0.9999999999999999
 40
0.9999999999999999
 40
0.9999999999999999
 10
432.798132348038
 20
1035.058593021892
 30
0.0
 10
433.5098638196856
 20
1036.293186098161
 30
0.0
 10
434.9340140091497
 20
1038.763564370754
 30
0.0
 10
437.7437848075024
 20
1041.926032384633
 30
0.0
 10
439.9535131846765
 20
1044.12499173184
 30
0.0
 10
441.3034863997419
 20
1044.96960106037
 30
0.0
 10
441.5256365894836
 20
1045.108589093981
 30
0.0
  0
LINE
  5
FF
330
1F
100
AcDbEntity
  8
0
  6
Continuous
 62
     7
370
    25
100
AcDbLine
 10
431.4291567513
 20
1024.6161831145
 30
0.0
 11
431.3651958785
 21
1024.8016401395
 31
0.0
  0
SPLINE
  5
100
330
1F
100
AcDbEntity
  8
0
  6
Continuous
 62
     7
370
    25
100
AcDbSpline
210
0.0
220
0.0
230
1.0
 70
     8
 71
     3
 72
    11
 73
     7
 74
     0
 42
0.00000001
 43
0.00000001
 40
0.0
 40
0.0
 40
0.0
 40
0.0
 40
0.2344608072183767
 40
0.4792062158706701
 40
0.7343534289380952
 40
1.0
 40
1.0
 40
1.0
 40
1.0
 10
477.4142014220822
 20
997.269305808158
 30
0.0
 10
477.4291086894062
 20
997.2726248827305
 30
0.0
 10
477.4595771299445
 20
997.2794086227717
 30
0.0
 10
477.5064276365399
 20
997.3055902184291
 30
0.0
 10
477.5516528396516
 20
997.3428207281024
 30
0.0
 10
477.5747684082382
 20
997.3751230348305
 30
0.0
 10
477.5865592009094
 20
997.3915998002627
 30
0.0
  0
SPLINE
  5
101
330
1F
100
AcDbEntity
  8
0
  6
Continuous
 62
     7
370
    25
100
AcDbSpline
210
0.0
220
0.0
230
1.0
 70
     8
 71
     3
 72
    11
 73
     7
 74
     0
 42
0.00000001
 43
0.00000001
 40
0.0
 40
0.0
 40
0.0
 40
0.0
 40
0.2453437678981669
 40
0.5000165796198283
 40
0.7546816869356742
 40
1.0
 40
1.0
 40
1.0
 40
1.0
 10
480.5674644681059
 20
993.2180006414067
 30
0.0
 10
480.5545141017054
 20
993.2042031318933
 30
0.0
 10
480.5281209392951
 20
993.1760834711685
 30
0.0
 10
480.4758421435982
 20
993.1447507395483
 30
0.0
 10
480.4187809456248
 20
993.1253449151244
 30
0.0
 10
480.3816558574479
 20
993.1239820466235
 30
0.0
 10
480.3634403254268
 20
993.1233133512471
 30
0.0
  0
LINE
  5
102
330
1F
100
AcDbEntity
  8
0
  6
Continuous
 62
     7
370
    25
100
AcDbLine
 10
484.9419208377
 20
986.630660374
 30
0.0
 11
484.5795244919
 21
986.1010161974
 31
0.0
  0
SPLINE
  5
103
330
1F
100
AcDbEntity
  8
0
  6
Continuous
 62
     7
370
    25
100
AcDbSpline
210
0.0
220
0.0
230
1.0
 70
     8
 71
     3
 72
     9
 73
     5
 74
     0
 42
0.00000001
 43
0.00000001
 40
0.0
 40
0.0
 40
0.0
 40
0.0
 40
0.5000093017811692
 40
1.0
 40
1.0
 40
1.0
 40
1.0
 10
483.9657252600817
 20
985.2155029267388
 30
0.0
 10
483.9608661553462
 20
985.2084673012005
 30
0.0
 10
483.9511481266651
 20
985.1943963118944
 30
0.0
 10
483.9414205253477
 20
985.1803317882951
 30
0.0
 10
483.9365568151729
 20
985.1732996573206
 30
0.0
  0
SPLINE
  5
104
330
1F
100
AcDbEntity
  8
0
  6
Continuous
 62
     7
370
    25
100
AcDbSpline
210
0.0
220
0.0
230
1.0
 70
     8
 71
     3
 72
    13
 73
     9
 74
     0
 42
0.00000001
 43
0.00000001
 40
0.0
 40
0.0
 40
0.0
 40
0.0
 40
0.1249940457266855
 40
0.2496651313381259
 40
0.3752967381489886
 40
0.4997613011199207
 40
0.7491137132857636
 40
1.0
 40
1.0
 40
1.0
 40
1.0
 10
482.2211120381911
 20
982.8265171915604
 30
0.0
 10
482.1813454673429
 20
982.8254127653918
 30
0.0
 10
482.1019150746712
 20
982.8232067666753
 30
0.0
 10
482.2220224727154
 20
983.4685983789178
 30
0.0
 10
482.3753578081261
 20
984.5158811297076
 30
0.0
 10
482.4983432632073
 20
986.390483073839
 30
0.0
 10
482.3210453748877
 20
989.3504032129202
 30
0.0
 10
481.15318520804
 20
991.9261686286541
 30
0.0
 10
480.5674646284091
 20
993.2180003522836
 30
0.0
  0
SPLINE
  5
105
330
1F
100
AcDbEntity
  8
0
  6
Continuous
 62
     7
370
    25
100
AcDbSpline
210
0.0
220
0.0
230
1.0
 70
     8
 71
     3
 72
     9
 73
     5
 74
     0
 42
0.00000001
 43
0.00000001
 40
0.0
 40
0.0
 40
0.0
 40
0.0
 40
0.4997677367255173
 40
0.9999999999999999
 40
0.9999999999999999
 40
0.9999999999999999
 40
0.9999999999999999
 10
486.3199960997927
 20
988.7333024205061
 30
0.0
 10
486.085479106628
 20
988.3663951521454
 30
0.0
 10
485.6162271403019
 20
987.63223958067
 30
0.0
 10
485.16675920208
 20
986.9646234845594
 30
0.0
 10
484.9419208380738
 20
986.6306603738036
 30
0.0
  0
SPLINE
  5
106
330
1F
100
AcDbEntity
  8
0
  6
Continuous
 62
     7
370
    25
100
AcDbSpline
210
0.0
220
0.0
230
1.0
 70
     8
 71
     3
 72
    11
 73
     7
 74
     0
 42
0.00000001
 43
0.00000001
 40
0.0
 40
0.0
 40
0.0
 40
0.0
 40
0.2428792691177289
 40
0.5000048769260053
 40
0.7571275252151017
 40
1.0
 40
1.0
 40
1.0
 40
1.0
 10
482.2210998308458
 20
982.8265265382588
 30
0.0
 10
482.2060542810473
 20
982.8102724723827
 30
0.0
 10
482.1750806689208
 20
982.776810941321
 30
0.0
 10
482.1104947544072
 20
982.7494464559469
 30
0.0
 10
482.0406291548206
 20
982.7427625521503
 30
0.0
 10
481.9973682689292
 20
982.7574238416377
 30
0.0
 10
481.9763543071265
 20
982.7645455584245
 30
0.0
  0
SPLINE
  5
107
330
1F
100
AcDbEntity
  8
0
  6
Continuous
 62
     7
370
    25
100
AcDbSpline
210
0.0
220
0.0
230
1.0
 70
     8
 71
     3
 72
     9
 73
     5
 74
     0
 42
0.00000001
 43
0.00000001
 40
0.0
 40
0.0
 40
0.0
 40
0.0
 40
0.4999623506173428
 40
1.0
 40
1.0
 40
1.0
 40
1.0
 10
413.4605576153696
 20
1026.880069343781
 30
0.0
 10
412.9863440992408
 20
1027.047783910655
 30
0.0
 10
412.0378456462207
 20
1027.383238303707
 30
0.0
 10
411.3489937224646
 20
1027.433483625538
 30
0.0
 10
411.004541825737
 20
1027.458608178158
 30
0.0
  0
SPLINE
  5
108
330
1F
100
AcDbEntity
  8
0
  6
Continuous
 62
     7
370
    25
100
AcDbSpline
210
0.0
220
0.0
230
1.0
 70
     8
 71
     3
 72
    12
 73
     8
 74
     0
 42
0.00000001
 43
0.00000001
 40
0.0
 40
0.0
 40
0.0
 40
0.0
 40
0.0593063948165932
 40
0.4016794334468847
 40
0.5021741167589587
 40
0.5552879510686825
 40
1.0
 40
1.0
 40
1.0
 40
1.0
 10
420.0142836203625
 20
1007.828816135514
 30
0.0
 10
420.0005484884368
 20
1007.838532255801
 30
0.0
 10
419.9075210834277
 20
1007.904339083283
 30
0.0
 10
419.7879357183992
 20
1007.982514105027
 30
0.0
 10
419.6670912214653
 20
1008.055547648122
 30
0.0
 10
419.5200045800879
 20
1008.142085046458
 30
0.0
 10
419.3916279238039
 20
1008.208059694046
 30
0.0
 10
419.276947976913
 20
1008.266995401677
 30
0.0
  0
SPLINE
  5
109
330
1F
100
AcDbEntity
  8
0
  6
Continuous
 62
     7
370
    25
100
AcDbSpline
210
0.0
220
0.0
230
1.0
 70
     8
 71
     3
 72
     9
 73
     5
 74
     0
 42
0.00000001
 43
0.00000001
 40
0.0
 40
0.0
 40
0.0
 40
0.0
 40
0.5100661328263512
 40
1.0
 40
1.0
 40
1.0
 40
1.0
 10
419.1082659997449
 20
1008.350461781079
 30
0.0
 10
419.138167571508
 20
1008.336177203684
 30
0.0
 10
419.1967905026119
 20
1008.308171859915
 30
0.0
 10
419.2505423014588
 20
1008.280432139132
 30
0.0
 10
419.2768771281355
 20
1008.266841510455
 30
0.0
  0
SPLINE
  5
10A
330
1F
100
AcDbEntity
  8
0
  6
Continuous
 62
     7
370
    25
100
AcDbSpline
210
0.0
220
0.0
230
1.0
 70
     8
 71
     3
 72
    13
 73
     9
 74
     0
 42
0.00000001
 43
0.00000001
 40
0.0
 40
0.0
 40
0.0
 40
0.0
 40
0.1676987701274192
 40
0.3354660310804635
 40
0.5025049211463642
 40
0.6678958238558573
 40
0.8340038958642144
 40
1.0
 40
1.0
 40
1.0
 40
1.0
 10
419.1082661718396
 20
1008.350462196181
 30
0.0
 10
418.2768074971364
 20
1008.82607128527
 30
0.0
 10
416.6135505668789
 20
1009.777483709711
 30
0.0
 10
414.2491797488782
 20
1011.464331344779
 30
0.0
 10
412.3542099897534
 20
1013.444656732675
 30
0.0
 10
411.3777856526393
 20
1015.681690262868
 30
0.0
 10
410.7861258432043
 20
1017.845354121549
 30
0.0
 10
410.3684573929967
 20
1019.222536995593
 30
0.0
 10
410.1596935756914
 20
1019.910896276191
 30
0.0
  0
SPLINE
  5
10B
330
1F
100
AcDbEntity
  8
0
  6
Continuous
 62
     7
370
    25
100
AcDbSpline
210
0.0
220
0.0
230
1.0
 70
     8
 71
     3
 72
     9
 73
     5
 74
     0
 42
0.00000001
 43
0.00000001
 40
0.0
 40
0.0
 40
0.0
 40
0.0
 40
0.5008433437740054
 40
1.0
 40
1.0
 40
1.0
 40
1.0
 10
410.1596934983291
 20
1019.910896528311
 30
0.0
 10
410.0053527975836
 20
1020.578670219945
 30
0.0
 10
409.6971911684752
 20
1021.911968745193
 30
0.0
 10
409.5165857584847
 20
1022.96485376427
 30
0.0
 10
409.4264353659375
 20
1023.490408329783
 30
0.0
  0
SPLINE
  5
10C
330
1F
100
AcDbEntity
  8
0
  6
Continuous
 62
     7
370
    25
100
AcDbSpline
210
0.0
220
0.0
230
1.0
 70
     8
 71
     3
 72
    10
 73
     6
 74
     0
 42
0.00000001
 43
0.00000001
 40
0.0
 40
0.0
 40
0.0
 40
0.0
 40
0.414754073810395
 40
0.8288647588418908
 40
1.0
 40
1.0
 40
1.0
 40
1.0
 10
409.4264353177847
 20
1023.490408317139
 30
0.0
 10
409.3653372361867
 20
1023.947466048918
 30
0.0
 10
409.2432358516142
 20
1024.860872499994
 30
0.0
 10
409.3197304832066
 20
1025.774200627702
 30
0.0
 10
409.4965036197543
 20
1026.116241405939
 30
0.0
 10
409.5481949037079
 20
1026.216259583683
 30
0.0
  0
LINE
  5
10D
330
1F
100
AcDbEntity
  8
0
  6
Continuous
 62
     7
370
    25
100
AcDbLine
 10
410.3249828591
 20
1027.1117889324
 30
0.0
 11
411.0387582342
 21
1027.2427098776
 31
0.0
  0
SPLINE
  5
10E
330
1F
100
AcDbEntity
  8
0
  6
Continuous
 62
     7
370
    25
100
AcDbSpline
210
0.0
220
0.0
230
1.0
 70
     8
 71
     3
 72
    11
 73
     7
 74
     0
 42
0.00000001
 43
0.00000001
 40
0.0
 40
0.0
 40
0.0
 40
0.0
 40
0.2753241332544445
 40
0.5399639522131998
 40
0.7839032135435606
 40
1.0
 40
1.0
 40
1.0
 40
1.0
 10
411.004541825737
 20
1027.458608178158
 30
0.0
 10
410.9984374969829
 20
1027.438551628183
 30
0.0
 10
410.9864657259625
 20
1027.399216848975
 30
0.0
 10
410.9903863820623
 20
1027.337937986921
 30
0.0
 10
411.0079720442873
 20
1027.284185364793
 30
0.0
 10
411.0283389128891
 20
1027.255452775247
 30
0.0
 10
411.0379060215455
 20
1027.241955962774
 30
0.0
  0
LINE
  5
10F
330
1F
100
AcDbEntity
  8
0
  6
Continuous
 62
     7
370
    25
100
AcDbLine
 10
411.0061154498
 20
1027.4578682456
 30
0.0
 11
410.2993048039
 21
1027.3136506267
 31
0.0
  0
SPLINE
  5
110
330
1F
100
AcDbEntity
  8
0
  6
Continuous
 62
     7
370
    25
100
AcDbSpline
210
0.0
220
0.0
230
1.0
 70
     8
 71
     3
 72
     9
 73
     5
 74
     0
 42
0.00000001
 43
0.00000001
 40
0.0
 40
0.0
 40
0.0
 40
0.0
 40
0.5002895481187636
 40
1.0
 40
1.0
 40
1.0
 40
1.0
 10
415.2393226430855
 20
1036.892360923494
 30
0.0
 10
416.0938202143943
 20
1038.194009626503
 30
0.0
 10
417.8018262571388
 20
1040.795800345306
 30
0.0
 10
419.8026524009973
 20
1043.135130567947
 30
0.0
 10
420.8024861374807
 20
1044.304118330602
 30
0.0
  0
SPLINE
  5
111
330
1F
100
AcDbEntity
  8
0
  6
Continuous
 62
     7
370
    25
100
AcDbSpline
210
0.0
220
0.0
230
1.0
 70
     8
 71
     3
 72
    11
 73
     7
 74
     0
 42
0.00000001
 43
0.00000001
 40
0.0
 40
0.0
 40
0.0
 40
0.0
 40
0.2500000717088309
 40
0.5000001130296451
 40
0.7500002221828553
 40
1.0
 40
1.0
 40
1.0
 40
1.0
 10
410.2993048039016
 20
1027.313650626684
 30
0.0
 10
410.2938090825113
 20
1027.296868162498
 30
0.0
 10
410.2828176403986
 20
1027.263303236168
 30
0.0
 10
410.2835896641698
 20
1027.209492676342
 30
0.0
 10
410.296335229896
 20
1027.157035292775
 30
0.0
 10
410.3154332164286
 20
1027.126870844761
 30
0.0
 10
410.3249822033669
 20
1027.111788630749
 30
0.0
  0
SPLINE
  5
112
330
1F
100
AcDbEntity
  8
0
  6
Continuous
 62
     7
370
    25
100
AcDbSpline
210
0.0
220
0.0
230
1.0
 70
     8
 71
     3
 72
    10
 73
     6
 74
     0
 42
0.00000001
 43
0.00000001
 40
0.0
 40
0.0
 40
0.0
 40
0.0
 40
0.256802762649296
 40
0.9514754464465462
 40
1.0
 40
1.0
 40
1.0
 40
1.0
 10
409.5173078645657
 20
1026.354229328349
 30
0.0
 10
409.472949364038
 20
1026.26125852731
 30
0.0
 10
409.3085974557571
 20
1025.916794030463
 30
0.0
 10
409.2359690439652
 20
1025.388373809356
 30
0.0
 10
409.2907595532241
 20
1024.898927434544
 30
0.0
 10
409.2943369144778
 20
1024.866970686547
 30
0.0
  0
SPLINE
  5
113
330
1F
100
AcDbEntity
  8
0
  6
Continuous
 62
     7
370
    25
100
AcDbSpline
210
0.0
220
0.0
230
1.0
 70
     8
 71
     3
 72
     9
 73
     5
 74
     0
 42
0.00000001
 43
0.00000001
 40
0.0
 40
0.0
 40
0.0
 40
0.0
 40
0.5000104874374433
 40
0.9999999999999999
 40
0.9999999999999999
 40
0.9999999999999999
 40
0.9999999999999999
 10
409.431098764307
 20
1023.595595559085
 30
0.0
 10
409.4261226193857
 20
1023.578076314729
 30
0.0
 10
409.4161705382869
 20
1023.54303856093
 30
0.0
 10
409.423013772474
 20
1023.507951486385
 30
0.0
 10
409.4264353177995
 20
1023.490408317086
 30
0.0
  0
SPLINE
  5
114
330
1F
100
AcDbEntity
  8
0
  6
Continuous
 62
     7
370
    25
100
AcDbSpline
210
0.0
220
0.0
230
1.0
 70
     8
 71
     3
 72
    10
 73
     6
 74
     0
 42
0.00000001
 43
0.00000001
 40
0.0
 40
0.0
 40
0.0
 40
0.0
 40
0.3834297619091808
 40
0.7672297626634166
 40
1.0
 40
1.0
 40
1.0
 40
1.0
 10
491.5225429305325
 20
995.5239633809896
 30
0.0
 10
492.1220355628813
 20
996.8224150658464
 30
0.0
 10
493.3215996962056
 20
999.4205722173472
 30
0.0
 10
494.5007278701154
 20
1002.807247335832
 30
0.0
 10
494.8649903496475
 20
1004.89890087362
 30
0.0
 10
495.0025082812234
 20
1005.688550876714
 30
0.0
  0
SPLINE
  5
115
330
1F
100
AcDbEntity
  8
0
  6
Continuous
 62
     7
370
    25
100
AcDbSpline
210
0.0
220
0.0
230
1.0
 70
     8
 71
     3
 72
    11
 73
     7
 74
     0
 42
0.00000001
 43
0.00000001
 40
0.0
 40
0.0
 40
0.0
 40
0.0
 40
0.500063718968117
 40
0.7500374208428324
 40
0.9087656321515162
 40
1.0
 40
1.0
 40
1.0
 40
1.0
 10
490.6898449240455
 20
995.9766742950466
 30
0.0
 10
490.8277603622208
 20
995.8995756050442
 30
0.0
 10
491.0346174798634
 20
995.7839365366491
 30
0.0
 10
491.286943453559
 20
995.646878484461
 30
0.0
 10
491.4275913322493
 20
995.57501422263
 30
0.0
 10
491.4971501762575
 20
995.5376157250626
 30
0.0
 10
491.5225386051286
 20
995.5239655687247
 30
0.0
  0
SPLINE
  5
116
330
1F
100
AcDbEntity
  8
0
  6
Continuous
 62
     7
370
    25
100
AcDbSpline
210
0.0
220
0.0
230
1.0
 70
     8
 71
     3
 72
    26
 73
    22
 74
     0
 42
0.00000001
 43
0.00000001
 40
0.0
 40
0.0
 40
0.0
 40
0.0
 40
0.0000010158183
 40
0.0000039690381159
 40
0.0000156887651803
 40
0.0000623820790318
 40
0.000248785353033
 40
0.0009936674199919
 40
0.0039718639580418
 40
0.0158839483026632
 40
0.0317562874579902
 40
0.0635077543011144
 40
0.126973630335796
 40
0.2531381605858328
 40
0.5037457232180647
 40
0.7520200199808795
 40
0.9918046108924182
 40
0.9978165981233058
 40
0.9993865186995102
 40
0.9999359565926127
 40
1.0
 40
1.0
 40
1.0
 40
1.0
 10
490.6702894912346
 20
995.9339214372685
 30
0.0
 10
490.6702880948652
 20
995.9339179889965
 30
0.0
 10
490.6702826389256
 20
995.9339045157967
 30
0.0
 10
490.6702591300633
 20
995.9338520998166
 30
0.0
 10
490.6701682061625
 20
995.933646663651
 30
0.0
 10
490.6697998839297
 20
995.93282954031
 30
0.0
 10
490.6683299710783
 20
995.9295648274458
 30
0.0
 10
490.662434326313
 20
995.916522191511
 30
0.0
 10
490.6388308114771
 20
995.864362836756
 30
0.0
 10
490.5921653615969
 20
995.7617611620115
 30
0.0
 10
490.5011857543068
 20
995.5632156228062
 30
0.0
 10
490.3293139609136
 20
995.1928215056349
 30
0.0
 10
489.978490164899
 20
994.4550327712202
 30
0.0
 10
489.2488772983804
 20
992.9906708634965
 30
0.0
 10
488.1280269951635
 20
990.9238536409305
 30
0.0
 10
486.7041965753917
 20
988.5748084089181
 30
0.0
 10
485.7579814769133
 20
987.1283706039175
 30
0.0
 10
485.306219984778
 20
986.4661870967157
 30
0.0
 10
485.2906087768091
 20
986.4450954360582
 30
0.0
 10
485.2866087943525
 20
986.4392491690102
 30
0.0
 10
485.2851775104451
 20
986.4378575422553
 30
0.0
 10
485.2850280938316
 20
986.4377122655873
 30
0.0
  0
LINE
  5
117
330
1F
100
AcDbEntity
  8
0
  6
Continuous
 62
     7
370
    25
100
AcDbLine
 10
491.5225398013
 20
995.5239673131
 30
0.0
 11
490.6702894912
 21
995.9339214373
 31
0.0
  0
SPLINE
  5
118
330
1F
100
AcDbEntity
  8
0
  6
Continuous
 62
     7
370
    25
100
AcDbSpline
210
0.0
220
0.0
230
1.0
 70
     8
 71
     3
 72
    17
 73
    13
 74
     0
 42
0.00000001
 43
0.00000001
 40
0.0
 40
0.0
 40
0.0
 40
0.0
 40
0.0024372428891356
 40
0.0070397598806186
 40
0.0227355531463852
 40
0.0800320240937801
 40
0.2978959487481808
 40
0.3247932988995595
 40
0.3780322245135271
 40
0.5634608597809562
 40
0.8314130273735503
 40
1.0
 40
1.0
 40
1.0
 40
1.0
 10
491.5225385983134
 20
995.5239655588266
 30
0.0
 10
491.5185860109889
 20
995.5160117736947
 30
0.0
 10
491.507169313131
 20
995.4930379709115
 30
0.0
 10
491.4702359200873
 20
995.418840168876
 30
0.0
 10
491.3435522561079
 20
995.1656497980184
 30
0.0
 10
490.8600494448195
 20
994.2174639640806
 30
0.0
 10
490.3230660690242
 20
993.2345036125678
 30
0.0
 10
489.7672428865988
 20
992.2751020707557
 30
0.0
 10
489.2640291593572
 20
991.4230293585418
 30
0.0
 10
488.2622665305724
 20
989.821753481088
 30
0.0
 10
486.9483898488132
 20
987.9268502285968
 30
0.0
 10
486.0322545992536
 20
986.7847242606509
 30
0.0
 10
485.6784524907825
 20
986.3436468369921
 30
0.0
  0
LINE
  5
119
330
1F
100
AcDbEntity
  8
0
  6
Continuous
 62
     7
370
    25
100
AcDbLine
 10
485.561704254
 20
986.2040361363
 30
0.0
 11
485.6784099245
 21
986.3435745595
 31
0.0
  0
LINE
  5
11A
330
1F
100
AcDbEntity
  8
0
  6
Continuous
 62
     7
370
    25
100
AcDbLine
 10
485.2850280938
 20
986.4377122656
 30
0.0
 11
485.561704254
 21
986.2040361363
 31
0.0
  0
LINE
  5
11B
330
1F
100
AcDbEntity
  8
0
  6
Continuous
 62
     7
370
    25
100
AcDbLine
 10
490.6898507196
 20
995.9766827775
 30
0.0
 11
490.6702894332
 21
995.9339213513
 31
0.0
  0
SPLINE
  5
11C
330
1F
100
AcDbEntity
  8
0
  6
Continuous
 62
     7
370
    25
100
AcDbSpline
210
0.0
220
0.0
230
1.0
 70
     8
 71
     3
 72
    10
 73
     6
 74
     0
 42
0.00000001
 43
0.00000001
 40
0.0
 40
0.0
 40
0.0
 40
0.0
 40
0.0997233052489578
 40
0.2993570555811192
 40
1.0
 40
1.0
 40
1.0
 40
1.0
 10
485.2850340216424
 20
986.4377221744398
 30
0.0
 10
485.285475861808
 20
986.440414734046
 30
0.0
 10
485.2868022114579
 20
986.4484974656972
 30
0.0
 10
485.2953153021452
 20
986.4741971902124
 30
0.0
 10
485.3033058504134
 20
986.497121650418
 30
0.0
 10
485.3095245177398
 20
986.5149626779502
 30
0.0
  0
LINE
  5
11D
330
1F
100
AcDbEntity
  8
0
  6
Continuous
 62
     7
370
    25
100
AcDbLine
 10
485.3095245177
 20
986.514962678
 30
0.0
 11
485.3366247097
 21
986.5879312635
 31
0.0
  0
SPLINE
  5
11E
330
1F
100
AcDbEntity
  8
0
  6
Continuous
 62
     7
370
    25
100
AcDbSpline
210
0.0
220
0.0
230
1.0
 70
     8
 71
     3
 72
    13
 73
     9
 74
     0
 42
0.00000001
 43
0.00000001
 40
0.0
 40
0.0
 40
0.0
 40
0.0
 40
0.240050684452196
 40
0.3690996845964857
 40
0.5005756710226191
 40
0.6319871635817499
 40
0.7607792802201427
 40
1.0
 40
1.0
 40
1.0
 40
1.0
 10
485.6784524907825
 20
986.3436468369921
 30
0.0
 10
485.6992360975771
 20
986.329434081957
 30
0.0
 10
485.7311927767683
 20
986.3075806829022
 30
0.0
 10
485.7745090985213
 20
986.2900109966824
 30
0.0
 10
485.8064910415438
 20
986.2814421256323
 30
0.0
 10
485.8349449068187
 20
986.2795315575801
 30
0.0
 10
485.8665293736086
 20
986.2840763054409
 30
0.0
 10
485.879556570606
 20
986.2980605569676
 30
0.0
 10
485.8880246867532
 20
986.3071507907441
 30
0.0
  0
SPLINE
  5
11F
330
1F
100
AcDbEntity
  8
0
  6
Continuous
 62
     7
370
    25
100
AcDbSpline
210
0.0
220
0.0
230
1.0
 70
     8
 71
     3
 72
    13
 73
     9
 74
     0
 42
0.00000001
 43
0.00000001
 40
0.0
 40
0.0
 40
0.0
 40
0.0
 40
0.0865893230228344
 40
0.2520531770875731
 40
0.4998184700230245
 40
0.6285055994894879
 40
0.7569820846111199
 40
1.0
 40
1.0
 40
1.0
 40
1.0
 10
491.5225386016187
 20
995.5239655636361
 30
0.0
 10
491.5306471329033
 20
995.5197113658492
 30
0.0
 10
491.5542502862767
 20
995.5073278059515
 30
0.0
 10
491.5988874908261
 20
995.483073517016
 30
0.0
 10
491.6391824577007
 20
995.4541825153898
 30
0.0
 10
491.6623655186312
 20
995.4294478427743
 30
0.0
 10
491.6779230552203
 20
995.4080721389663
 30
0.0
 10
491.6766552452953
 20
995.3978077379383
 30
0.0
 10
491.6758258908698
 20
995.391093145909
 30
0.0
  0
SPLINE
  5
120
330
1F
100
AcDbEntity
  8
0
  6
Continuous
 62
     7
370
    25
100
AcDbSpline
210
0.0
220
0.0
230
1.0
 70
     8
 71
     3
 72
    11
 73
     7
 74
     0
 42
0.00000001
 43
0.00000001
 40
0.0
 40
0.0
 40
0.0
 40
0.0
 40
0.2509671597498472
 40
0.4992730780802617
 40
0.7497683101707856
 40
1.0
 40
1.0
 40
1.0
 40
1.0
 10
485.8880249415493
 20
986.3071510969773
 30
0.0
 10
486.4131744031385
 20
986.9688277008088
 30
0.0
 10
487.4579046714381
 20
988.2851645275789
 30
0.0
 10
488.9967231422508
 20
990.5916367066563
 30
0.0
 10
490.425678164254
 20
992.9666284434458
 30
0.0
 10
491.2592562253942
 20
994.5832218595369
 30
0.0
 10
491.6758258918383
 20
995.3910931453955
 30
0.0
  0
SPLINE
  5
121
330
1F
100
AcDbEntity
  8
0
  6
Continuous
 62
     7
370
    25
100
AcDbSpline
210
0.0
220
0.0
230
1.0
 70
     8
 71
     3
 72
    10
 73
     6
 74
     0
 42
0.00000001
 43
0.00000001
 40
0.0
 40
0.0
 40
0.0
 40
0.0
 40
0.3805764112483807
 40
0.7624064851480178
 40
1.0
 40
1.0
 40
1.0
 40
1.0
 10
491.6758258908698
 20
995.391093145909
 30
0.0
 10
492.2732132324132
 20
996.6832341174252
 30
0.0
 10
493.4699557783952
 20
999.2717725220463
 30
0.0
 10
494.6531351135412
 20
1002.66737005811
 30
0.0
 10
495.0241948535739
 20
1004.774653782029
 30
0.0
 10
495.1665229622468
 20
1005.582948712748
 30
0.0
  0
LINE
  5
122
330
1F
100
AcDbEntity
  8
0
  6
Continuous
 62
     7
370
    25
100
AcDbLine
 10
482.2550936059
 20
982.8838681421
 30
0.0
 11
482.2211017164
 21
982.8265290071
 31
0.0
  0
LINE
  5
123
330
1F
100
AcDbEntity
  8
0
  6
Continuous
 62
     7
370
    25
100
AcDbLine
 10
483.7569040521
 20
984.9176047185
 30
0.0
 11
483.9657252601
 21
985.2155029267
 31
0.0
  0
SPLINE
  5
124
330
1F
100
AcDbEntity
  8
0
  6
Continuous
 62
     7
370
    25
100
AcDbSpline
210
0.0
220
0.0
230
1.0
 70
     8
 71
     3
 72
     9
 73
     5
 74
     0
 42
0.00000001
 43
0.00000001
 40
0.0
 40
0.0
 40
0.0
 40
0.0
 40
0.4995330184114606
 40
1.0
 40
1.0
 40
1.0
 40
1.0
 10
485.3367257632014
 20
986.5880981096409
 30
0.0
 10
485.1354798537204
 20
986.2904242385706
 30
0.0
 10
484.7326117708036
 20
985.6945199437616
 30
0.0
 10
484.3721690484739
 20
985.1744569029623
 30
0.0
 10
484.1917793671941
 20
984.9141825226976
 30
0.0
  0
LINE
  5
125
330
1F
100
AcDbEntity
  8
0
  6
Continuous
 62
     7
370
    25
100
AcDbLine
 10
484.1190089761
 20
984.6101001893
 30
0.0
 11
485.5617134095
 21
986.2040512822
 31
0.0
  0
LINE
  5
126
330
1F
100
AcDbEntity
  8
0
  6
Continuous
 62
     7
370
    25
100
AcDbLine
 10
483.718981232
 20
984.2142925508
 30
0.0
 11
484.1190089761
 21
984.6101001893
 31
0.0
  0
LINE
  5
127
330
1F
100
AcDbEntity
  8
0
  6
Continuous
 62
     7
370
    25
100
AcDbLine
 10
483.4169921638
 20
983.8860417668
 30
0.0
 11
483.7190675559
 21
984.2144128273
 31
0.0
  0
SPLINE
  5
128
330
1F
100
AcDbEntity
  8
0
  6
Continuous
 62
     7
370
    25
100
AcDbSpline
210
0.0
220
0.0
230
1.0
 70
     8
 71
     3
 72
     9
 73
     5
 74
     0
 42
0.00000001
 43
0.00000001
 40
0.0
 40
0.0
 40
0.0
 40
0.0
 40
0.4991531586768569
 40
1.0
 40
1.0
 40
1.0
 40
1.0
 10
484.1917797227474
 20
984.9141829852349
 30
0.0
 10
484.0607636378129
 20
984.7283571149482
 30
0.0
 10
483.7982869156748
 20
984.3560748463567
 30
0.0
 10
483.5442392513808
 20
984.0428932134413
 30
0.0
 10
483.4170002811736
 20
983.886037181835
 30
0.0
  0
SPLINE
  5
129
330
1F
100
AcDbEntity
  8
0
  6
Continuous
 62
     7
370
    25
100
AcDbSpline
210
0.0
220
0.0
230
1.0
 70
     8
 71
     3
 72
    11
 73
     7
 74
     0
 42
0.00000001
 43
0.00000001
 40
0.0
 40
0.0
 40
0.0
 40
0.0
 40
0.2346176210870785
 40
0.4878431819504216
 40
0.7476314066314592
 40
1.0
 40
1.0
 40
1.0
 40
1.0
 10
483.9620775009158
 20
984.2080284558504
 30
0.0
 10
483.9517672694022
 20
984.1966753553894
 30
0.0
 10
483.9303290836216
 20
984.1730687199275
 30
0.0
 10
483.8811604893335
 20
984.1570055253236
 30
0.0
 10
483.8236509884891
 20
984.1579713857609
 30
0.0
 10
483.7847103587125
 20
984.1747159814879
 30
0.0
 10
483.7655221108649
 20
984.182966989619
 30
0.0
  0
LINE
  5
12A
330
1F
100
AcDbEntity
  8
0
  6
Continuous
 62
     7
370
    25
100
AcDbLine
 10
483.7655221142
 20
984.1829669928
 30
0.0
 11
483.7190675559
 21
984.2144128273
 31
0.0
  0
SPLINE
  5
12B
330
1F
100
AcDbEntity
  8
0
  6
Continuous
 62
     7
370
    25
100
AcDbSpline
210
0.0
220
0.0
230
1.0
 70
     8
 71
     3
 72
    13
 73
     9
 74
     0
 42
0.00000001
 43
0.00000001
 40
0.0
 40
0.0
 40
0.0
 40
0.0
 40
0.2394473083329613
 40
0.3683567731114447
 40
0.5000047966223802
 40
0.6316521186904952
 40
0.760559565379512
 40
0.9999999999999999
 40
0.9999999999999999
 40
0.9999999999999999
 40
0.9999999999999999
 10
485.7750404630004
 20
986.168447380863
 30
0.0
 10
485.7661690165606
 20
986.1589892106407
 30
0.0
 10
485.7525215155462
 20
986.1444391157289
 30
0.0
 10
485.7201261024169
 20
986.1393310251685
 30
0.0
 10
485.6909230414855
 20
986.1411819132932
 30
0.0
 10
485.6584157006405
 20
986.1496496802329
 30
0.0
 10
485.6145504087971
 20
986.1675105552531
 30
0.0
 10
485.5825556580064
 20
986.1897001905256
 30
0.0
 10
485.5617578268701
 20
986.2041243156078
 30
0.0
  0
LINE
  5
12C
330
1F
100
AcDbEntity
  8
0
  6
Continuous
 62
     7
370
    25
100
AcDbLine
 10
483.9620759973
 20
984.2080263514
 30
0.0
 11
484.4315648698
 21
984.6755397365
 31
0.0
  0
LINE
  5
12D
330
1F
100
AcDbEntity
  8
0
  6
Continuous
 62
     7
370
    25
100
AcDbLine
 10
484.4315648698
 20
984.6755397365
 30
0.0
 11
485.775040463
 21
986.1684473809
 31
0.0
  0
LINE
  5
12E
330
1F
100
AcDbEntity
  8
0
  6
Continuous
 62
     7
370
    25
100
AcDbLine
 10
485.7750404027
 20
986.1684474277
 30
0.0
 11
485.8899008451
 21
986.3057046552
 31
0.0
  0
SPLINE
  5
12F
330
1F
100
AcDbEntity
  8
0
  6
Continuous
 62
     7
370
    25
100
AcDbSpline
210
0.0
220
0.0
230
1.0
 70
     8
 71
     3
 72
     9
 73
     5
 74
     0
 42
0.00000001
 43
0.00000001
 40
0.0
 40
0.0
 40
0.0
 40
0.0
 40
0.5001376460349836
 40
1.0
 40
1.0
 40
1.0
 40
1.0
 10
481.7714854877292
 20
982.5430484231578
 30
0.0
 10
481.7816369123096
 20
982.5518197953835
 30
0.0
 10
481.8019341737953
 20
982.5693577117855
 30
0.0
 10
481.8221253272171
 20
982.5871780669798
 30
0.0
 10
481.8322181246958
 20
982.5960857916756
 30
0.0
  0
LINE
  5
130
330
1F
100
AcDbEntity
  8
0
  6
Continuous
 62
     7
370
    25
100
AcDbLine
 10
483.4169921638
 20
983.8860417668
 30
0.0
 11
482.5297511917
 21
983.102731025
 31
0.0
  0
SPLINE
  5
131
330
1F
100
AcDbEntity
  8
0
  6
Continuous
 62
     7
370
    25
100
AcDbSpline
210
0.0
220
0.0
230
1.0
 70
     8
 71
     3
 72
     9
 73
     5
 74
     0
 42
0.00000001
 43
0.00000001
 40
0.0
 40
0.0
 40
0.0
 40
0.0
 40
0.4570614633416394
 40
1.0
 40
1.0
 40
1.0
 40
1.0
 10
481.6777017067467
 20
982.4005982004281
 30
0.0
 10
481.69370094979
 20
982.4122512642265
 30
0.0
 10
481.7287055264751
 20
982.4377468807528
 30
0.0
 10
481.7569942449956
 20
982.5076092809649
 30
0.0
 10
481.7723532804332
 20
982.5455402703033
 30
0.0
  0
LINE
  5
132
330
1F
100
AcDbEntity
  8
0
  6
Continuous
 62
     7
370
    25
100
AcDbLine
 10
481.6784191146
 20
982.4013473094
 30
0.0
 11
482.0338816286
 21
982.6394152281
 31
0.0
  0
LINE
  5
133
330
1F
100
AcDbEntity
  8
0
  6
Continuous
 62
     7
370
    25
100
AcDbLine
 10
482.0338816175
 20
982.6394152381
 30
0.0
 11
482.2186199461
 21
982.7613375566
 31
0.0
  0
LINE
  5
134
330
1F
100
AcDbEntity
  8
0
  6
Continuous
 62
     7
370
    25
100
AcDbLine
 10
482.2186186383
 20
982.7613358562
 30
0.0
 11
482.9201297977
 21
983.2830301046
 31
0.0
  0
LINE
  5
135
330
1F
100
AcDbEntity
  8
0
  6
Continuous
 62
     7
370
    25
100
AcDbLine
 10
482.9201285889
 20
983.2830285183
 30
0.0
 11
483.962078146
 21
984.2080293584
 31
0.0
  0
ARC
  5
136
330
1F
100
AcDbEntity
  8
0
  6
Continuous
 62
     7
370
    25
100
AcDbCircle
 10
476.1741278355
 20
992.0270850952
 30
0.0
 40
11.05562017901516
100
AcDbArc
 50
283.2327430536
 51
297.2020532345
  0
SPLINE
  5
137
330
1F
100
AcDbEntity
  8
0
  6
Continuous
 62
     7
370
    25
100
AcDbSpline
210
0.0
220
0.0
230
1.0
 70
     8
 71
     3
 72
    12
 73
     8
 74
     0
 42
0.00000001
 43
0.00000001
 40
0.0
 40
0.0
 40
0.0
 40
0.0
 40
0.002702794537836
 40
0.0081388085668621
 40
0.0272878995950877
 40
0.2813008032048467
 40
1.0
 40
1.0
 40
1.0
 40
1.0
 10
481.2279812726399
 20
982.1942165931912
 30
0.0
 10
481.2282329939388
 20
982.19419836919
 30
0.0
 10
481.2289909914247
 20
982.1941434920417
 30
0.0
 10
481.2327448456282
 20
982.1953958138785
 30
0.0
 10
481.2718499549615
 20
982.2093884311785
 30
0.0
 10
481.423993731928
 20
982.2765710442836
 30
0.0
 10
481.5698984077948
 20
982.3478977025366
 30
0.0
 10
481.6777017067467
 20
982.4005982004281
 30
0.0
  0
SPLINE
  5
138
330
1F
100
AcDbEntity
  8
0
  6
Continuous
 62
     7
370
    25
100
AcDbSpline
210
0.0
220
0.0
230
1.0
 70
     8
 71
     3
 72
    22
 73
    18
 74
     0
 42
0.00000001
 43
0.00000001
 40
0.0
 40
0.0
 40
0.0
 40
0.0
 40
0.4722902965074787
 40
0.5913665805203122
 40
0.6215923149074842
 40
0.6293738530549802
 40
0.6314315732819081
 40
0.6320021567604158
 40
0.6321728783539379
 40
0.6322672196416211
 40
0.8662876841022278
 40
0.9265455369779668
 40
0.9424694288316032
 40
0.946879417363138
 40
0.9481963850077965
 40
0.9489213276608269
 40
1.0
 40
1.0
 40
1.0
 40
1.0
 10
409.7379057476358
 20
1021.925281800224
 30
0.0
 10
409.7742259862814
 20
1021.689233769886
 30
0.0
 10
409.8197034722477
 20
1021.393672083413
 30
0.0
 10
409.8852985726661
 20
1021.090406806897
 30
0.0
 10
409.9023291600263
 20
1021.013026904403
 30
0.0
 10
409.9067187084493
 20
1020.993263258971
 30
0.0
 10
409.9078618229607
 20
1020.988125600889
 30
0.0
 10
409.9081693887231
 20
1020.986744010312
 30
0.0
 10
409.9082612287726
 20
1020.986331523342
 30
0.0
 10
409.9340117452419
 20
1020.870683820633
 30
0.0
 10
409.9681706145333
 20
1020.72365130608
 30
0.0
 10
410.0076014841952
 20
1020.567938761709
 30
0.0
 10
410.0180900715569
 20
1020.527441230263
 30
0.0
 10
410.0209253227945
 20
1020.516558439356
 30
0.0
 10
410.0217717450872
 20
1020.513315054288
 30
0.0
 10
410.0287409678216
 20
1020.486604541341
 30
0.0
 10
410.0358607507108
 20
1020.460497374615
 30
0.0
 10
410.0428808989645
 20
1020.434755553023
 30
0.0
  0
SPLINE
  5
139
330
1F
100
AcDbEntity
  8
0
  6
Continuous
 62
     7
370
    25
100
AcDbSpline
210
0.0
220
0.0
230
1.0
 70
     8
 71
     3
 72
     9
 73
     5
 74
     0
 42
0.00000001
 43
0.00000001
 40
0.0
 40
0.0
 40
0.0
 40
0.0
 40
0.0247463589609412
 40
1.0
 40
1.0
 40
1.0
 40
1.0
 10
418.8391991203988
 20
1008.510442410062
 30
0.0
 10
418.8411352444356
 20
1008.508845266991
 30
0.0
 10
418.9193739881552
 20
1008.444304739108
 30
0.0
 10
419.0150033188699
 20
1008.396795628897
 30
0.0
 10
419.1082661718396
 20
1008.350462196181
 30
0.0
  0
LINE
  5
13A
330
1F
100
AcDbEntity
  8
0
  6
Continuous
 62
     7
370
    25
100
AcDbLine
 10
419.2312140528
 20
1008.288904327
 30
0.0
 11
419.505019005
 21
1008.1645117098
 31
0.0
  0
SPLINE
  5
13B
330
1F
100
AcDbEntity
  8
0
  6
Continuous
 62
     7
370
    25
100
AcDbSpline
210
0.0
220
0.0
230
1.0
 70
     8
 71
     3
 72
     9
 73
     5
 74
     0
 42
0.00000001
 43
0.00000001
 40
0.0
 40
0.0
 40
0.0
 40
0.0
 40
0.3438436333217564
 40
1.0
 40
1.0
 40
1.0
 40
1.0
 10
419.276947976913
 20
1008.266995401677
 30
0.0
 10
419.2968500415348
 20
1008.257121746998
 30
0.0
 10
419.3547311906764
 20
1008.228406209694
 30
0.0
 10
419.4078895288294
 20
1008.198519794211
 30
0.0
 10
419.4427697108505
 20
1008.178909632415
 30
0.0
  0
LINE
  5
13C
330
1F
100
AcDbEntity
  8
0
  6
Continuous
 62
     7
370
    25
100
AcDbLine
 10
474.322617258
 20
1067.3228357364
 30
0.0
 11
474.8453670472
 21
1067.2681610412
 31
0.0
  0
LINE
  5
13D
330
1F
100
AcDbEntity
  8
0
  6
Continuous
 62
     7
370
    25
100
AcDbLine
 10
480.4019943376
 20
1063.7763163131
 30
0.0
 11
479.7602118339
 21
1064.1352524807
 31
0.0
  0
LINE
  5
13E
330
1F
100
AcDbEntity
  8
0
  6
Continuous
 62
     7
370
    25
100
AcDbLine
 10
475.6760308903
 20
1066.0134591542
 30
0.0
 11
475.2997437487
 21
1066.1295539289
 31
0.0
  0
SPLINE
  5
13F
330
1F
100
AcDbEntity
  8
0
  6
Continuous
 62
     7
370
    25
100
AcDbSpline
210
0.0
220
0.0
230
1.0
 70
     8
 71
     3
 72
    10
 73
     6
 74
     0
 42
0.00000001
 43
0.00000001
 40
0.0
 40
0.0
 40
0.0
 40
0.0
 40
0.3303004372129043
 40
0.6645315178444101
 40
1.0
 40
1.0
 40
1.0
 40
1.0
 10
484.8655000389328
 20
1017.307277721934
 30
0.0
 10
485.1296796101814
 20
1017.160249160583
 30
0.0
 10
485.6611825441366
 20
1016.864442367636
 30
0.0
 10
486.4229127980869
 20
1016.329815301725
 30
0.0
 10
486.9048619162278
 20
1015.916475753005
 30
0.0
 10
487.1462817231426
 20
1015.70942411563
 30
0.0
  0
SPLINE
  5
140
330
1F
100
AcDbEntity
  8
0
  6
Continuous
 62
     7
370
    25
100
AcDbSpline
210
0.0
220
0.0
230
1.0
 70
     8
 71
     3
 72
    12
 73
     8
 74
     0
 42
0.00000001
 43
0.00000001
 40
0.0
 40
0.0
 40
0.0
 40
0.0
 40
0.1830123219130531
 40
0.3701403317497603
 40
0.6222294192268207
 40
0.8100420070802827
 40
1.0
 40
1.0
 40
1.0
 40
1.0
 10
468.6596417556304
 20
1028.053544027262
 30
0.0
 10
469.7710808208233
 20
1027.268536076917
 30
0.0
 10
472.0189536416797
 20
1025.680866459211
 30
0.0
 10
475.593680801016
 20
1023.124753191856
 30
0.0
 10
478.9869289796354
 20
1020.793961418917
 30
0.0
 10
482.1720982403315
 20
1018.773532660437
 30
0.0
 10
483.9643067161084
 20
1017.797876325092
 30
0.0
 10
484.8655000389327
 20
1017.307277721934
 30
0.0
  0
SPLINE
  5
141
330
1F
100
AcDbEntity
  8
0
  6
Continuous
 62
     7
370
    25
100
AcDbSpline
210
0.0
220
0.0
230
1.0
 70
     8
 71
     3
 72
    10
 73
     6
 74
     0
 42
0.00000001
 43
0.00000001
 40
0.0
 40
0.0
 40
0.0
 40
0.0
 40
0.3503308819517897
 40
0.674524428705093
 40
1.0
 40
1.0
 40
1.0
 40
1.0
 10
464.3124701531346
 20
1030.973830340786
 30
0.0
 10
464.8266671262741
 20
1030.640030594876
 30
0.0
 10
465.8166980867663
 20
1029.997335090393
 30
0.0
 10
467.2688838694822
 20
1029.020506795839
 30
0.0
 10
468.1954463162564
 20
1028.376288706047
 30
0.0
 10
468.6596417556367
 20
1028.053544027273
 30
0.0
  0
SPLINE
  5
142
330
1F
100
AcDbEntity
  8
0
  6
Continuous
 62
     7
370
    25
100
AcDbSpline
210
0.0
220
0.0
230
1.0
 70
     8
 71
     3
 72
    11
 73
     7
 74
     0
 42
0.00000001
 43
0.00000001
 40
0.0
 40
0.0
 40
0.0
 40
0.0
 40
0.2643536301097993
 40
0.5263643125314021
 40
0.7860165834927889
 40
1.0
 40
1.0
 40
1.0
 40
1.0
 10
488.6195260892194
 20
1058.020035097535
 30
0.0
 10
488.1072319442895
 20
1058.479799621198
 30
0.0
 10
487.0871840815159
 20
1059.395253807787
 30
0.0
 10
484.9307947238411
 20
1060.84583628534
 30
0.0
 10
482.6891332025614
 20
1062.381054176473
 30
0.0
 10
481.0683046239824
 20
1063.342299050812
 30
0.0
 10
480.3360320229237
 20
1063.776578957823
 30
0.0
  0
LINE
  5
143
330
1F
100
AcDbEntity
  8
0
  6
Continuous
 62
     7
370
    25
100
AcDbLine
 10
439.0035153415
 20
1047.364668116
 30
0.0
 11
438.5746806276
 21
1049.2231549856
 31
0.0
  0
LINE
  5
144
330
1F
100
AcDbEntity
  8
0
  6
Continuous
 62
     7
370
    25
100
AcDbLine
 10
438.5746805357
 20
1049.2231549262
 30
0.0
 11
439.042090599
 21
1048.7734138091
 31
0.0
  0
SPLINE
  5
145
330
1F
100
AcDbEntity
  8
0
  6
Continuous
 62
     7
370
    25
100
AcDbSpline
210
0.0
220
0.0
230
1.0
 70
     8
 71
     3
 72
     9
 73
     5
 74
     0
 42
0.00000001
 43
0.00000001
 40
0.0
 40
0.0
 40
0.0
 40
0.0
 40
0.4928629783234845
 40
1.0
 40
1.0
 40
1.0
 40
1.0
 10
439.0420905989801
 20
1048.773413809076
 30
0.0
 10
440.6235728350919
 20
1047.425589879276
 30
0.0
 10
443.8323393800885
 20
1044.690907038248
 30
0.0
 10
447.3387445169315
 20
1042.25918097471
 30
0.0
 10
449.1169723748213
 20
1041.025962661314
 30
0.0
  0
SPLINE
  5
146
330
1F
100
AcDbEntity
  8
0
  6
Continuous
 62
     7
370
    25
100
AcDbSpline
210
0.0
220
0.0
230
1.0
 70
     8
 71
     3
 72
     9
 73
     5
 74
     0
 42
0.00000001
 43
0.00000001
 40
0.0
 40
0.0
 40
0.0
 40
0.0
 40
0.4964434010378819
 40
1.0
 40
1.0
 40
1.0
 40
1.0
 10
449.1169711626408
 20
1041.025968800995
 30
0.0
 10
450.2465136806643
 20
1040.309278914431
 30
0.0
 10
452.5217831588409
 20
1038.865630182137
 30
0.0
 10
454.8709995809506
 20
1037.245670393679
 30
0.0
 10
456.0539630126943
 20
1036.429928952148
 30
0.0
  0
LINE
  5
147
330
1F
100
AcDbEntity
  8
0
  6
Continuous
 62
     7
370
    25
100
AcDbLine
 10
456.0539709457
 20
1036.4299740709
 30
0.0
 11
459.9279315842
 21
1033.7083075269
 31
0.0
  0
SPLINE
  5
148
330
1F
100
AcDbEntity
  8
0
  6
Continuous
 62
     7
370
    25
100
AcDbSpline
210
0.0
220
0.0
230
1.0
 70
     8
 71
     3
 72
    15
 73
    11
 74
     0
 42
0.00000001
 43
0.00000001
 40
0.0
 40
0.0
 40
0.0
 40
0.0
 40
0.103246924947145
 40
0.2196076178795109
 40
0.3384740697663866
 40
0.4733338442485937
 40
0.6252204645145835
 40
0.766668897344024
 40
0.8908726757131215
 40
1.0
 40
1.0
 40
1.0
 40
1.0
 10
461.5117787081196
 20
1031.478008063147
 30
0.0
 10
460.660964554616
 20
1032.003975751242
 30
0.0
 10
458.8512712431229
 20
1033.122716199184
 30
0.0
 10
456.1302282730405
 20
1034.895582353363
 30
0.0
 10
453.2042732247024
 20
1036.798743357432
 30
0.0
 10
450.0733022993678
 20
1038.84206291437
 30
0.0
 10
446.8708843286175
 20
1040.999285651508
 30
0.0
 10
443.8670149351311
 20
1043.185494729908
 30
0.0
 10
441.2664205449642
 20
1045.262164979977
 30
0.0
 10
439.7245737024166
 20
1046.694784694359
 30
0.0
 10
439.0034627211882
 20
1047.364810911916
 30
0.0
  0
LINE
  5
149
330
1F
100
AcDbEntity
  8
0
  6
Continuous
 62
     7
370
    25
100
AcDbLine
 10
459.9279315842
 20
1033.7083075269
 30
0.0
 11
461.6753733181
 21
1032.6254577073
 31
0.0
  0
SPLINE
  5
14A
330
1F
100
AcDbEntity
  8
0
  6
Continuous
 62
     7
370
    25
100
AcDbSpline
210
0.0
220
0.0
230
1.0
 70
     8
 71
     3
 72
    13
 73
     9
 74
     0
 42
0.00000001
 43
0.00000001
 40
0.0
 40
0.0
 40
0.0
 40
0.0
 40
0.1256416017777733
 40
0.2521751357827931
 40
0.3790351074228078
 40
0.5058053506008958
 40
0.7563797043124616
 40
1.0
 40
1.0
 40
1.0
 40
1.0
 10
465.6957831292334
 20
1028.703327060632
 30
0.0
 10
466.5445293905071
 20
1028.127974118794
 30
0.0
 10
468.2480471796262
 20
1026.973183793154
 30
0.0
 10
470.7299240773915
 20
1025.238760409196
 30
0.0
 10
473.125315287971
 20
1023.548973379794
 30
0.0
 10
476.160373187593
 20
1021.425981343347
 30
0.0
 10
479.6678808413442
 20
1019.052809036626
 30
0.0
 10
482.1359712526112
 20
1017.647292470058
 30
0.0
 10
483.3526515960904
 20
1016.954423047134
 30
0.0
  0
LINE
  5
14B
330
1F
100
AcDbEntity
  8
0
  6
Continuous
 62
     7
370
    25
100
AcDbLine
 10
461.6753686486
 20
1032.625441929
 30
0.0
 11
464.3125429625
 21
1030.9739377181
 31
0.0
  0
LINE
  5
14C
330
1F
100
AcDbEntity
  8
0
  6
Continuous
 62
     7
370
    25
100
AcDbLine
 10
461.6075350076
 20
1031.3369678438
 30
0.0
 11
461.9588973554
 21
1031.118739474
 31
0.0
  0
SPLINE
  5
14D
330
1F
100
AcDbEntity
  8
0
  6
Continuous
 62
     7
370
    25
100
AcDbSpline
210
0.0
220
0.0
230
1.0
 70
     8
 71
     3
 72
     9
 73
     5
 74
     0
 42
0.00000001
 43
0.00000001
 40
0.0
 40
0.0
 40
0.0
 40
0.0
 40
0.4999906644334891
 40
1.0
 40
1.0
 40
1.0
 40
1.0
 10
465.6957487457968
 20
1028.703274369114
 30
0.0
 10
465.0757493010256
 20
1029.115485712241
 30
0.0
 10
463.8357272588665
 20
1029.939923791689
 30
0.0
 10
462.5846731595479
 20
1030.726003698061
 30
0.0
 10
461.9591344305898
 20
1031.119050989748
 30
0.0
  0
SPLINE
  5
14E
330
1F
100
AcDbEntity
  8
0
  6
Continuous
 62
     7
370
    25
100
AcDbSpline
210
0.0
220
0.0
230
1.0
 70
     8
 71
     3
 72
    23
 73
    19
 74
     0
 42
0.00000001
 43
0.00000001
 40
0.0
 40
0.0
 40
0.0
 40
0.0
 40
0.0948667744411935
 40
0.1923727507297988
 40
0.2889835658301972
 40
0.3817159648699868
 40
0.4689333994589878
 40
0.5542276808327078
 40
0.6011046286177144
 40
0.6478777852165449
 40
0.7033416676017294
 40
0.7449567167691384
 40
0.7891897822322499
 40
0.826250194237881
 40
0.8620682029784597
 40
0.8975311206907637
 40
0.9487777254265102
 40
1.0
 40
1.0
 40
1.0
 40
1.0
 10
463.2247378519687
 20
1059.432228836553
 30
0.0
 10
462.6582989759314
 20
1059.004546532528
 30
0.0
 10
461.5096628454686
 20
1058.137283765891
 30
0.0
 10
459.6385539537359
 20
1056.797899132243
 30
0.0
 10
457.6600910224346
 20
1055.479338676682
 30
0.0
 10
455.6230444760515
 20
1054.247207319987
 30
0.0
 10
453.5372002730658
 20
1053.146135611191
 30
0.0
 10
451.6740107459739
 20
1052.355128405714
 30
0.0
 10
450.0873561069406
 20
1051.792062739151
 30
0.0
 10
448.7424574732015
 20
1051.347636151084
 30
0.0
 10
447.43513208489
 20
1050.923474861279
 30
0.0
 10
446.1531869782631
 20
1050.489685202461
 30
0.0
 10
445.0608937643801
 20
1050.052495216399
 30
0.0
 10
444.0198131490952
 20
1049.646477196172
 30
0.0
 10
443.0095212460984
 20
1049.365443938982
 30
0.0
 10
441.8441587961008
 20
1049.120322180581
 30
0.0
 10
440.5176162152924
 20
1048.922694731381
 30
0.0
 10
439.5338546097874
 20
1048.82316623918
 30
0.0
 10
439.0420905989801
 20
1048.773413809078
 30
0.0
  0
LINE
  5
14F
330
1F
100
AcDbEntity
  8
0
  6
Continuous
 62
     7
370
    25
100
AcDbLine
 10
463.224737852
 20
1059.4322288366
 30
0.0
 11
467.1642671652
 21
1062.3512439214
 31
0.0
  0
LINE
  5
150
330
1F
100
AcDbEntity
  8
0
  6
Continuous
 62
     7
370
    25
100
AcDbLine
 10
438.5746805357
 20
1049.2231549262
 30
0.0
 11
438.5393789754
 21
1049.2537887544
 31
0.0
  0
LINE
  5
151
330
1F
100
AcDbEntity
  8
0
  6
Continuous
 62
     7
370
    25
100
AcDbLine
 10
438.5393789754
 20
1049.2537887544
 30
0.0
 11
438.6295236734
 21
1049.261762593
 31
0.0
  0
SPLINE
  5
152
330
1F
100
AcDbEntity
  8
0
  6
Continuous
 62
     7
370
    25
100
AcDbSpline
210
0.0
220
0.0
230
1.0
 70
     8
 71
     3
 72
    12
 73
     8
 74
     0
 42
0.00000001
 43
0.00000001
 40
0.0
 40
0.0
 40
0.0
 40
0.0
 40
0.1601315934831885
 40
0.3050013151500138
 40
0.4347209888900858
 40
0.675749830528938
 40
1.0
 40
1.0
 40
1.0
 40
1.0
 10
438.6295236733653
 20
1049.261762592999
 30
0.0
 10
438.9423605234838
 20
1049.290588708219
 30
0.0
 10
439.5382182717149
 20
1049.345493570287
 30
0.0
 10
440.39006409908
 20
1049.43987545114
 30
0.0
 10
441.3996615746961
 20
1049.574722304919
 30
0.0
 10
442.7628365888247
 20
1049.805574561597
 30
0.0
 10
443.827114169814
 20
1050.138341803656
 30
0.0
 10
444.4375953290604
 20
1050.329220701531
 30
0.0
  0
LINE
  5
153
330
1F
100
AcDbEntity
  8
0
  6
Continuous
 62
     7
370
    25
100
AcDbLine
 10
444.4375953291
 20
1050.3292207015
 30
0.0
 11
444.880199301
 21
1050.5061966815
 31
0.0
  0
SPLINE
  5
154
330
1F
100
AcDbEntity
  8
0
  6
Continuous
 62
     7
370
    25
100
AcDbSpline
210
0.0
220
0.0
230
1.0
 70
     8
 71
     3
 72
    13
 73
     9
 74
     0
 42
0.00000001
 43
0.00000001
 40
0.0
 40
0.0
 40
0.0
 40
0.0
 40
0.1763643252403072
 40
0.3718054056950671
 40
0.5586661234554654
 40
0.7046931637818078
 40
0.8503101434033635
 40
1.0
 40
1.0
 40
1.0
 40
1.0
 10
444.8801993009875
 20
1050.506196681483
 30
0.0
 10
445.612184273927
 20
1050.783502737159
 30
0.0
 10
447.1553306526268
 20
1051.368110142267
 30
0.0
 10
449.5284945338468
 20
1052.088675364105
 30
0.0
 10
451.7170255576225
 20
1052.846751485843
 30
0.0
 10
453.5996049761454
 20
1053.644053933443
 30
0.0
 10
455.2410969076842
 20
1054.467812210462
 30
0.0
 10
456.2704099849773
 20
1055.061353935086
 30
0.0
 10
456.7921646754756
 20
1055.362217866245
 30
0.0
  0
SPLINE
  5
155
330
1F
100
AcDbEntity
  8
0
  6
Continuous
 62
     7
370
    25
100
AcDbSpline
210
0.0
220
0.0
230
1.0
 70
     8
 71
     3
 72
    15
 73
    11
 74
     0
 42
0.00000001
 43
0.00000001
 40
0.0
 40
0.0
 40
0.0
 40
0.0
 40
0.1559427785166063
 40
0.2572094260240505
 40
0.4415467944682914
 40
0.5556015152174216
 40
0.686222222425193
 40
0.7967315094109587
 40
0.9024587852551067
 40
1.0
 40
1.0
 40
1.0
 40
1.0
 10
456.7921646754756
 20
1055.362217866245
 30
0.0
 10
457.4156490101152
 20
1055.741335163203
 30
0.0
 10
458.4440137049932
 20
1056.36664492922
 30
0.0
 10
460.0982374388745
 20
1057.47001945016
 30
0.0
 10
461.5210590912723
 20
1058.472324478651
 30
0.0
 10
462.9604798197597
 20
1059.534559980281
 30
0.0
 10
464.1027140185173
 20
1060.394418533939
 30
0.0
 10
465.1764421635871
 20
1061.20048765594
 30
0.0
 10
466.1241061127004
 20
1061.896590162265
 30
0.0
 10
466.720640091113
 20
1062.31075488006
 30
0.0
 10
467.0068952245197
 20
1062.509497585146
 30
0.0
  0
SPLINE
  5
156
330
1F
100
AcDbEntity
  8
0
  6
Continuous
 62
     7
370
    25
100
AcDbSpline
210
0.0
220
0.0
230
1.0
 70
     8
 71
     3
 72
    18
 73
    14
 74
     0
 42
0.00000001
 43
0.00000001
 40
0.0
 40
0.0
 40
0.0
 40
0.0
 40
0.0397265450349681
 40
0.1047558572505024
 40
0.1594899590528749
 40
0.2180055590387548
 40
0.2691356444739961
 40
0.3505642558436037
 40
0.4082513055227134
 40
0.489123264235671
 40
0.5707562867902318
 40
0.7809618116802771
 40
1.0
 40
1.0
 40
1.0
 40
1.0
 10
467.0068952245197
 20
1062.509497585146
 30
0.0
 10
467.1424742680899
 20
1062.601303928623
 30
0.0
 10
467.4999858242015
 20
1062.843390226426
 30
0.0
 10
468.0353043928486
 20
1063.196855396116
 30
0.0
 10
468.6221112958064
 20
1063.558776271392
 30
0.0
 10
469.1536368505227
 20
1063.879090395348
 30
0.0
 10
469.7577057111175
 20
1064.220902599224
 30
0.0
 10
470.3431813142809
 20
1064.534658449986
 30
0.0
 10
470.9966886028084
 20
1064.858850207382
 30
0.0
 10
471.6268554079761
 20
1065.14788785969
 30
0.0
 10
472.6351056356455
 20
1065.567527041852
 30
0.0
 10
473.8999876855955
 20
1065.993512513414
 30
0.0
 10
474.5784285275907
 20
1066.159302141399
 30
0.0
 10
474.9246291785019
 20
1066.243902704292
 30
0.0
  0
LINE
  5
157
330
1F
100
AcDbEntity
  8
0
  6
Continuous
 62
     7
370
    25
100
AcDbLine
 10
475.4270226194
 20
1066.3189838275
 30
0.0
 11
475.4307336867
 21
1066.3142176331
 31
0.0
  0
SPLINE
  5
158
330
1F
100
AcDbEntity
  8
0
  6
Continuous
 62
     7
370
    25
100
AcDbSpline
210
0.0
220
0.0
230
1.0
 70
     8
 71
     3
 72
     9
 73
     5
 74
     0
 42
0.00000001
 43
0.00000001
 40
0.0
 40
0.0
 40
0.0
 40
0.0
 40
0.5500050671593224
 40
0.9999999999999999
 40
0.9999999999999999
 40
0.9999999999999999
 40
0.9999999999999999
 10
474.0659386645044
 20
1065.837743749189
 30
0.0
 10
474.4520865396223
 20
1065.94683937131
 30
0.0
 10
475.1541671170108
 20
1066.145193220457
 30
0.0
 10
475.2503502957769
 20
1066.143101273845
 30
0.0
 10
475.2936322388462
 20
1066.14215990847
 30
0.0
  0
LINE
  5
159
330
1F
100
AcDbEntity
  8
0
  6
Continuous
 62
     7
370
    25
100
AcDbLine
 10
474.0654474356
 20
1065.8368609057
 30
0.0
 11
473.5787434444
 21
1065.6867379782
 31
0.0
  0
SPLINE
  5
15A
330
1F
100
AcDbEntity
  8
0
  6
Continuous
 62
     7
370
    25
100
AcDbSpline
210
0.0
220
0.0
230
1.0
 70
     8
 71
     3
 72
    10
 73
     6
 74
     0
 42
0.00000001
 43
0.00000001
 40
0.0
 40
0.0
 40
0.0
 40
0.0
 40
0.3503433965510073
 40
0.6806059647926813
 40
1.0
 40
1.0
 40
1.0
 40
1.0
 10
467.1642671652218
 20
1062.351243921419
 30
0.0
 10
468.023188981468
 20
1062.914087079337
 30
0.0
 10
469.6918013120635
 20
1064.007512599249
 30
0.0
 10
471.8896941923964
 20
1065.087537192228
 30
0.0
 10
473.0216846994575
 20
1065.488625009173
 30
0.0
 10
473.5782110457567
 20
1065.685813886568
 30
0.0
  0
SPLINE
  5
15B
330
1F
100
AcDbEntity
  8
0
  6
Continuous
 62
     7
370
    25
100
AcDbSpline
210
0.0
220
0.0
230
1.0
 70
     8
 71
     3
 72
    11
 73
     7
 74
     0
 42
0.00000001
 43
0.00000001
 40
0.0
 40
0.0
 40
0.0
 40
0.0
 40
0.254726954054097
 40
0.5062989797760931
 40
0.752581216579528
 40
1.0
 40
1.0
 40
1.0
 40
1.0
 10
461.6074046317537
 20
1031.336822971533
 30
0.0
 10
461.5942013694237
 20
1031.346054703502
 30
0.0
 10
461.5679583741651
 20
1031.364403827548
 30
0.0
 10
461.5388726057313
 20
1031.399754922235
 30
0.0
 10
461.5183037042248
 20
1031.438119665749
 30
0.0
 10
461.5139570422972
 20
1031.464691540356
 30
0.0
 10
461.5117787081193
 20
1031.478008063148
 30
0.0
  0
LINE
  5
15C
330
1F
100
AcDbEntity
  8
0
  6
Continuous
 62
     7
370
    25
100
AcDbLine
 10
444.7829856652
 20
1050.7017345516
 30
0.0
 11
444.3422375345
 21
1050.5212033966
 31
0.0
  0
LINE
  5
15D
330
1F
100
AcDbEntity
  8
0
  6
Continuous
 62
     7
370
    25
100
AcDbLine
 10
438.6279561417
 20
1049.3801657818
 30
0.0
 11
438.4186483605
 21
1049.3605137458
 31
0.0
  0
SPLINE
  5
15E
330
1F
100
AcDbEntity
  8
0
  6
Continuous
 62
     7
370
    25
100
AcDbSpline
210
0.0
220
0.0
230
1.0
 70
     8
 71
     3
 72
     9
 73
     5
 74
     0
 42
0.00000001
 43
0.00000001
 40
0.0
 40
0.0
 40
0.0
 40
0.0
 40
0.4998440164107842
 40
1.0
 40
1.0
 40
1.0
 40
1.0
 10
438.4186718168608
 20
1049.360434919187
 30
0.0
 10
438.4087088340954
 20
1049.368504115167
 30
0.0
 10
438.3887766503775
 20
1049.384647543346
 30
0.0
 10
438.368922313857
 20
1049.400751344871
 30
0.0
 10
438.358992048646
 20
1049.408805757562
 30
0.0
  0
LINE
  5
15F
330
1F
100
AcDbEntity
  8
0
  6
Continuous
 62
     7
370
    25
100
AcDbLine
 10
438.4186483605
 20
1049.3605137458
 30
0.0
 11
438.2031162123
 21
1049.3318962885
 31
0.0
  0
SPLINE
  5
160
330
1F
100
AcDbEntity
  8
0
  6
Continuous
 62
     7
370
    25
100
AcDbSpline
210
0.0
220
0.0
230
1.0
 70
     8
 71
     3
 72
     9
 73
     5
 74
     0
 42
0.00000001
 43
0.00000001
 40
0.0
 40
0.0
 40
0.0
 40
0.0
 40
0.5329938229750816
 40
1.0
 40
1.0
 40
1.0
 40
1.0
 10
438.2031301371708
 20
1049.331850897752
 30
0.0
 10
436.8548266615178
 20
1049.142328605317
 30
0.0
 10
434.3251472965169
 20
1048.786747950786
 30
0.0
 10
432.1648118843761
 20
1048.335235588261
 30
0.0
 10
431.1559219024607
 20
1048.124376525958
 30
0.0
  0
SPLINE
  5
161
330
1F
100
AcDbEntity
  8
0
  6
Continuous
 62
     7
370
    25
100
AcDbSpline
210
0.0
220
0.0
230
1.0
 70
     8
 71
     3
 72
    10
 73
     6
 74
     0
 42
0.00000001
 43
0.00000001
 40
0.0
 40
0.0
 40
0.0
 40
0.0
 40
0.3359980319142511
 40
0.6727553783712303
 40
0.9999999999999999
 40
0.9999999999999999
 40
0.9999999999999999
 40
0.9999999999999999
 10
501.5307067020048
 20
1003.59877192635
 30
0.0
 10
501.0827609905219
 20
1003.678521511915
 30
0.0
 10
500.185857264921
 20
1003.838200907376
 30
0.0
 10
498.7036836883677
 20
1004.692776417685
 30
0.0
 10
497.5632679988539
 20
1005.316861937726
 30
0.0
 10
497.0012291514536
 20
1005.624434263843
 30
0.0
  0
SPLINE
  5
162
330
1F
100
AcDbEntity
  8
0
  6
Continuous
 62
     7
370
    25
100
AcDbSpline
210
0.0
220
0.0
230
1.0
 70
     8
 71
     3
 72
    14
 73
    10
 74
     0
 42
0.00000001
 43
0.00000001
 40
0.0
 40
0.0
 40
0.0
 40
0.0
 40
0.1741302200409007
 40
0.3641483062163216
 40
0.5235744138140117
 40
0.6464269191233151
 40
0.7667539573373553
 40
0.8845313526147044
 40
1.0
 40
1.0
 40
1.0
 40
1.0
 10
497.0012291513405
 20
1005.62443426289
 30
0.0
 10
496.5569286397762
 20
1005.900360663077
 30
0.0
 10
495.6277890642378
 20
1006.477389344514
 30
0.0
 10
494.2388462476725
 20
1007.584359413598
 30
0.0
 10
492.8617467978161
 20
1008.746568316451
 30
0.0
 10
491.6767168354216
 20
1009.871438155275
 30
0.0
 10
490.7030843540876
 20
1010.963680945637
 30
0.0
 10
489.9075896491388
 20
1012.090147861029
 30
0.0
 10
489.4133976197329
 20
1012.89806975765
 30
0.0
 10
489.1687474446101
 20
1013.298032164432
 30
0.0
  0
LINE
  5
163
330
1F
100
AcDbEntity
  8
0
  6
Continuous
 62
     7
370
    25
100
AcDbLine
 10
489.1687473511
 20
1013.2980319622
 30
0.0
 11
489.0535604633
 21
1013.4779807537
 31
0.0
  0
LINE
  5
164
330
1F
100
AcDbEntity
  8
0
  6
Continuous
 62
     7
370
    25
100
AcDbLine
 10
501.3829589997
 20
1039.5111704299
 30
0.0
 11
502.6466949405
 21
1036.0549393625
 31
0.0
  0
SPLINE
  5
165
330
1F
100
AcDbEntity
  8
0
  6
Continuous
 62
     7
370
    25
100
AcDbSpline
210
0.0
220
0.0
230
1.0
 70
     8
 71
     3
 72
    23
 73
    19
 74
     0
 42
0.00000001
 43
0.00000001
 40
0.0
 40
0.0
 40
0.0
 40
0.0
 40
0.0895727130646069
 40
0.1661260123969946
 40
0.2491606943421964
 40
0.3326530353072172
 40
0.4158945706411706
 40
0.4988761257781789
 40
0.6008169347752605
 40
0.7024012946440058
 40
0.8040788807423521
 40
0.9192910668699491
 40
0.935271521721316
 40
0.9372517905058136
 40
0.9534992861341846
 40
0.9770915214655722
 40
0.9983998047416709
 40
1.0
 40
1.0
 40
1.0
 40
1.0
 10
502.6466952565012
 20
1036.054939471266
 30
0.0
 10
502.9064398559682
 20
1035.127665992382
 30
0.0
 10
503.3881751196974
 20
1033.407898440654
 30
0.0
 10
503.8928439261574
 20
1030.764020069194
 30
0.0
 10
504.2459142482118
 20
1028.154164253143
 30
0.0
 10
504.4496741264948
 20
1025.444590560261
 30
0.0
 10
504.5075471509446
 20
1022.717947394466
 30
0.0
 10
504.4219737162296
 20
1019.778959053744
 30
0.0
 10
504.1666382416549
 20
1016.634265791441
 30
0.0
 10
503.7192432782044
 20
1013.289196815535
 30
0.0
 10
503.0861178439473
 20
1009.811407029199
 30
0.0
 10
502.5062046712552
 20
1007.282390924827
 30
0.0
 10
502.1384392739205
 20
1005.842479281644
 30
0.0
 10
502.042678910737
 20
1005.472883322416
 30
0.0
 10
501.92412107244
 20
1005.021237811892
 30
0.0
 10
501.7464993995883
 20
1004.360796889844
 30
0.0
 10
501.605638243341
 20
1003.862027383797
 30
0.0
 10
501.5355950114235
 20
1003.615925926019
 30
0.0
 10
501.5307023753882
 20
1003.598735330616
 30
0.0
  0
SPLINE
  5
166
330
1F
100
AcDbEntity
  8
0
  6
Continuous
 62
     7
370
    25
100
AcDbSpline
210
0.0
220
0.0
230
1.0
 70
     8
 71
     3
 72
    32
 73
    28
 74
     0
 42
0.00000001
 43
0.00000001
 40
0.0
 40
0.0
 40
0.0
 40
0.0
 40
0.0002581877280745
 40
0.0021748167264555
 40
0.0175676569826055
 40
0.036698760719747
 40
0.0695431658242587
 40
0.1006335068788086
 40
0.1319971279422769
 40
0.1636240549575441
 40
0.1954953066647128
 40
0.2276353660019368
 40
0.2600208452889699
 40
0.3545382245512358
 40
0.4328558978917492
 40
0.5055163804882504
 40
0.5494100321860826
 40
0.5954023481707039
 40
0.6435119660402066
 40
0.6937481304123212
 40
0.7461017321618976
 40
0.747783294745164
 40
0.7603135931326437
 40
0.8470229778163335
 40
0.9056696695282309
 40
0.9564190178854537
 40
0.9999999999999999
 40
0.9999999999999999
 40
0.9999999999999999
 40
0.9999999999999999
 10
456.5261610917373
 20
1055.72043533655
 30
0.0
 10
456.5253613445777
 20
1055.719798493907
 30
0.0
 10
456.5186247598742
 20
1055.714434117991
 30
0.0
 10
456.4632257429046
 20
1055.673406439797
 30
0.0
 10
456.335306625314
 20
1055.601783109035
 30
0.0
 10
456.1085469274631
 20
1055.458342209534
 30
0.0
 10
455.8224670882154
 20
1055.285915400761
 30
0.0
 10
455.4925523343455
 20
1055.088578013642
 30
0.0
 10
455.1631891700188
 20
1054.895755848717
 30
0.0
 10
454.8274861688806
 20
1054.703588109579
 30
0.0
 10
454.4851019777195
 20
1054.512411801553
 30
0.0
 10
454.1356788759348
 20
1054.322898811956
 30
0.0
 10
453.5517884889487
 20
1054.015856922604
 30
0.0
 10
452.7789455391945
 20
1053.63573851722
 30
0.0
 10
451.822400351121
 20
1053.213354705707
 30
0.0
 10
451.0430559539485
 20
1052.901465539656
 30
0.0
 10
450.3825190663827
 20
1052.65487342546
 30
0.0
 10
449.816167149398
 20
1052.452886044922
 30
0.0
 10
449.2187943250014
 20
1052.248653542481
 30
0.0
 10
448.5920053940968
 20
1052.038463907544
 30
0.0
 10
448.1564185598827
 20
1051.895449078317
 30
0.0
 10
447.8781094029566
 20
1051.803831013128
 30
0.0
 10
447.4562455953675
 20
1051.664137418745
 30
0.0
 10
446.7918990917782
 20
1051.453586248259
 30
0.0
 10
445.9807346066229
 20
1051.157316837743
 30
0.0
 10
445.3474886026196
 20
1050.924161998914
 30
0.0
 10
444.9613728313227
 20
1050.772022453375
 30
0.0
 10
444.7829858327945
 20
1050.701733387495
 30
0.0
  0
LINE
  5
167
330
1F
100
AcDbEntity
  8
0
  6
Continuous
 62
     7
370
    25
100
AcDbLine
 10
487.3359093019
 20
1013.3562843471
 30
0.0
 11
487.5287167733
 21
1013.0585913509
 31
0.0
  0
SPLINE
  5
168
330
1F
100
AcDbEntity
  8
0
  6
Continuous
 62
     7
370
    25
100
AcDbSpline
210
0.0
220
0.0
230
1.0
 70
     8
 71
     3
 72
    24
 73
    20
 74
     0
 42
0.00000001
 43
0.00000001
 40
0.0
 40
0.0
 40
0.0
 40
0.0
 40
0.0629850556453413
 40
0.1253491975728301
 40
0.1872312951670515
 40
0.2514942966488937
 40
0.2938578384350642
 40
0.3518589238963045
 40
0.391699107148986
 40
0.4229251766095208
 40
0.4448031902640313
 40
0.4681930456273693
 40
0.5014152194738168
 40
0.5025502647044048
 40
0.5116771109148059
 40
0.53717975314847
 40
0.6336129338399596
 40
0.7891835947131527
 40
1.0
 40
1.0
 40
1.0
 40
1.0
 10
487.5287185845442
 20
1013.058595330322
 30
0.0
 10
487.6697947688401
 20
1012.832616892341
 30
0.0
 10
487.9505563926401
 20
1012.382887737077
 30
0.0
 10
488.3599855837723
 20
1011.743122458455
 30
0.0
 10
488.787423951386
 20
1011.118792248793
 30
0.0
 10
489.224642385777
 20
1010.578196508677
 30
0.0
 10
489.6938675346825
 20
1010.063701999536
 30
0.0
 10
490.1158491298001
 20
1009.63846829287
 30
0.0
 10
490.5154243028691
 20
1009.261154329388
 30
0.0
 10
490.8030995702555
 20
1008.997192247215
 30
0.0
 10
491.0366307438121
 20
1008.784474140525
 30
0.0
 10
491.271066248363
 20
1008.570107448112
 30
0.0
 10
491.4401399533462
 20
1008.416182218996
 30
0.0
 10
491.5669465637078
 20
1008.30212661903
 30
0.0
 10
491.6715020997127
 20
1008.208797438002
 30
0.0
 10
492.0507669606126
 20
1007.872173229058
 30
0.0
 10
492.8322046868025
 20
1007.202067134439
 30
0.0
 10
494.1208053840015
 20
1006.207415341223
 30
0.0
 10
495.0544304996358
 20
1005.637286886558
 30
0.0
 10
495.5916314789891
 20
1005.309239194744
 30
0.0
  0
SPLINE
  5
169
330
1F
100
AcDbEntity
  8
0
  6
Continuous
 62
     7
370
    25
100
AcDbSpline
210
0.0
220
0.0
230
1.0
 70
     8
 71
     3
 72
    11
 73
     7
 74
     0
 42
0.00000001
 43
0.00000001
 40
0.0
 40
0.0
 40
0.0
 40
0.0
 40
0.5215386878858238
 40
0.6142188835440817
 40
0.7827753382281861
 40
1.0
 40
1.0
 40
1.0
 40
1.0
 10
495.5916314789889
 20
1005.309239194742
 30
0.0
 10
496.2963752479344
 20
1004.925682463255
 30
0.0
 10
497.1263557287711
 20
1004.473965662829
 30
0.0
 10
498.0462598893151
 20
1004.040451284438
 30
0.0
 10
498.5912883860855
 20
1003.793527390048
 30
0.0
 10
499.0087109164447
 20
1003.751029874626
 30
0.0
 10
499.2437521460575
 20
1003.727100480419
 30
0.0
  0
SPLINE
  5
16A
330
1F
100
AcDbEntity
  8
0
  6
Continuous
 62
     7
370
    25
100
AcDbSpline
210
0.0
220
0.0
230
1.0
 70
     8
 71
     3
 72
     9
 73
     5
 74
     0
 42
0.00000001
 43
0.00000001
 40
0.0
 40
0.0
 40
0.0
 40
0.0
 40
0.5068926362961637
 40
1.0
 40
1.0
 40
1.0
 40
1.0
 10
444.7829858327945
 20
1050.701733387495
 30
0.0
 10
444.7994893830034
 20
1050.671708118162
 30
0.0
 10
444.8320476587153
 20
1050.612474136086
 30
0.0
 10
444.8642969979743
 20
1050.541295539792
 30
0.0
 10
444.8801993846375
 20
1050.506196849821
 30
0.0
  0
SPLINE
  5
16B
330
1F
100
AcDbEntity
  8
0
  6
Continuous
 62
     7
370
    25
100
AcDbSpline
210
0.0
220
0.0
230
1.0
 70
     8
 71
     3
 72
    10
 73
     6
 74
     0
 42
0.00000001
 43
0.00000001
 40
0.0
 40
0.0
 40
0.0
 40
0.0
 40
0.3359980319136351
 40
0.6727553783710306
 40
1.0
 40
1.0
 40
1.0
 40
1.0
 10
431.1559218682521
 20
1048.124376463228
 30
0.0
 10
430.1760450484014
 20
1047.918500153535
 30
0.0
 10
428.2140770066807
 20
1047.506282278818
 30
0.0
 10
425.691900223376
 20
1047.135294574282
 30
0.0
 10
424.1591328255937
 20
1046.790773597945
 30
0.0
 10
423.4037286080761
 20
1046.620980973881
 30
0.0
  0
SPLINE
  5
16C
330
1F
100
AcDbEntity
  8
0
  6
Continuous
 62
     7
370
    25
100
AcDbSpline
210
0.0
220
0.0
230
1.0
 70
     8
 71
     3
 72
    14
 73
    10
 74
     0
 42
0.00000001
 43
0.00000001
 40
0.0
 40
0.0
 40
0.0
 40
0.0
 40
0.1741302194305026
 40
0.3641483065283588
 40
0.5235744137592843
 40
0.6464269190727006
 40
0.7667539572977813
 40
0.8845313525921374
 40
1.0
 40
1.0
 40
1.0
 40
1.0
 10
423.403728607537
 20
1046.620980973259
 30
0.0
 10
422.8732398820716
 20
1046.501504475994
 30
0.0
 10
421.7638599499587
 20
1046.251650290481
 30
0.0
 10
420.40979320171
 20
1046.00590473149
 30
0.0
 10
419.4369477347782
 20
1045.769310294816
 30
0.0
 10
418.7554542456047
 20
1045.630903370307
 30
0.0
 10
418.1556641350183
 20
1045.628080240534
 30
0.0
 10
417.5069245412388
 20
1045.7897838134
 30
0.0
 10
417.1353799409803
 20
1045.956303598261
 30
0.0
 10
416.9514464776447
 20
1046.038739356235
 30
0.0
  0
LINE
  5
16D
330
1F
100
AcDbEntity
  8
0
  6
Continuous
 62
     7
370
    25
100
AcDbLine
 10
416.9514462875
 20
1046.0387391723
 30
0.0
 11
416.8776695087
 21
1046.0710300804
 31
0.0
  0
SPLINE
  5
16E
330
1F
100
AcDbEntity
  8
0
  6
Continuous
 62
     7
370
    25
100
AcDbSpline
210
0.0
220
0.0
230
1.0
 70
     8
 71
     3
 72
     9
 73
     5
 74
     0
 42
0.00000001
 43
0.00000001
 40
0.0
 40
0.0
 40
0.0
 40
0.0
 40
0.6458149062779871
 40
1.0
 40
1.0
 40
1.0
 40
1.0
 10
448.6026943335445
 20
1068.853409238651
 30
0.0
 10
450.0222336102308
 20
1069.254636368625
 30
0.0
 10
452.2202926251077
 20
1069.875909005835
 30
0.0
 10
454.4961311407711
 20
1070.110710781535
 30
0.0
 10
455.3021992187375
 20
1070.193874070467
 30
0.0
  0
LINE
  5
16F
330
1F
100
AcDbEntity
  8
0
  6
Continuous
 62
     7
370
    25
100
AcDbLine
 10
468.6886502539
 20
1069.2580508925
 30
0.0
 11
468.9006227366
 21
1069.1891128317
 31
0.0
  0
LINE
  5
170
330
1F
100
AcDbEntity
  8
0
  6
Continuous
 62
     7
370
    25
100
AcDbLine
 10
471.1075474025
 20
1068.4713729388
 30
0.0
 11
471.9342712881
 21
1068.2025043533
 31
0.0
  0
LINE
  5
171
330
1F
100
AcDbEntity
  8
0
  6
Continuous
 62
     7
370
    25
100
AcDbLine
 10
489.0535640837
 20
1013.4779888639
 30
0.0
 11
487.146383557
 21
1015.7094345762
 31
0.0
  0
SPLINE
  5
172
330
1F
100
AcDbEntity
  8
0
  6
Continuous
 62
     7
370
    25
100
AcDbSpline
210
0.0
220
0.0
230
1.0
 70
     8
 71
     3
 72
     9
 73
     5
 74
     0
 42
0.00000001
 43
0.00000001
 40
0.0
 40
0.0
 40
0.0
 40
0.0
 40
0.496662032982552
 40
1.0
 40
1.0
 40
1.0
 40
1.0
 10
444.342238536057
 20
1050.521202283059
 30
0.0
 10
443.4147874191121
 20
1050.229986601686
 30
0.0
 10
441.5474187552034
 20
1049.643640833269
 30
0.0
 10
439.6054318715009
 20
1049.468380807516
 30
0.0
 10
438.6279561414835
 20
1049.380165782454
 30
0.0
  0
SPLINE
  5
173
330
1F
100
AcDbEntity
  8
0
  6
Continuous
 62
     7
370
    25
100
AcDbSpline
210
0.0
220
0.0
230
1.0
 70
     8
 71
     3
 72
     9
 73
     5
 74
     0
 42
0.00000001
 43
0.00000001
 40
0.0
 40
0.0
 40
0.0
 40
0.0
 40
0.4983166345792915
 40
1.0
 40
1.0
 40
1.0
 40
1.0
 10
438.6279561414835
 20
1049.380165782453
 30
0.0
 10
438.6278217886177
 20
1049.3615754539
 30
0.0
 10
438.6275521751701
 20
1049.324269196667
 30
0.0
 10
438.6288647912746
 20
1049.282644817245
 30
0.0
 10
438.6295233089396
 20
1049.261762558493
 30
0.0
  0
SPLINE
  5
174
330
1F
100
AcDbEntity
  8
0
  6
Continuous
 62
     7
370
    25
100
AcDbSpline
210
0.0
220
0.0
230
1.0
 70
     8
 71
     3
 72
     9
 73
     5
 74
     0
 42
0.00000001
 43
0.00000001
 40
0.0
 40
0.0
 40
0.0
 40
0.0
 40
0.4998553038287066
 40
1.0
 40
1.0
 40
1.0
 40
1.0
 10
444.3422375345266
 20
1050.521203396622
 30
0.0
 10
444.3581368958621
 20
1050.492122515441
 30
0.0
 10
444.3899448235039
 20
1050.433943916637
 30
0.0
 10
444.4217084227355
 20
1050.364134398153
 30
0.0
 10
444.4375948184224
 20
1050.329219537741
 30
0.0
  0
LINE
  5
175
330
1F
100
AcDbEntity
  8
0
  6
Continuous
 62
     7
370
    25
100
AcDbLine
 10
417.1226098144
 20
1044.5263987762
 30
0.0
 11
418.3050011629
 21
1044.529041195
 31
0.0
  0
LINE
  5
176
330
1F
100
AcDbEntity
  8
0
  6
Continuous
 62
     7
370
    25
100
AcDbLine
 10
418.305066259
 20
1044.5291044107
 30
0.0
 11
418.4327909765
 21
1044.4769060174
 31
0.0
  0
SPLINE
  5
177
330
1F
100
AcDbEntity
  8
0
  6
Continuous
 62
     7
370
    25
100
AcDbSpline
210
0.0
220
0.0
230
1.0
 70
     8
 71
     3
 72
    24
 73
    20
 74
     0
 42
0.00000001
 43
0.00000001
 40
0.0
 40
0.0
 40
0.0
 40
0.0
 40
0.0629850555732815
 40
0.1253491972533385
 40
0.1872312944464244
 40
0.2514942957092858
 40
0.2938578375456773
 40
0.351858923250438
 40
0.3916991049962008
 40
0.4229251770870275
 40
0.444803189760073
 40
0.4681930451603137
 40
0.5014152191471436
 40
0.5025502644563287
 40
0.5116771108760038
 40
0.5371797533266494
 40
0.6336129342383567
 40
0.789183595047406
 40
1.0
 40
1.0
 40
1.0
 40
1.0
 10
418.4327946905427
 20
1044.476909617268
 30
0.0
 10
418.5332791365427
 20
1044.432861292462
 30
0.0
 10
418.7332574413628
 20
1044.34519887628
 30
0.0
 10
419.0778832750498
 20
1044.222707788635
 30
0.0
 10
419.4370350446894
 20
1044.122687618746
 30
0.0
 10
419.7370116036938
 20
1044.089148953626
 30
0.0
 10
420.0091975504306
 20
1044.099658070255
 30
0.0
 10
420.2353596992525
 20
1044.134730057579
 30
0.0
 10
420.44861770105
 20
1044.184189323471
 30
0.0
 10
420.6106302851264
 20
1044.22391684654
 30
0.0
 10
420.7517007932905
 20
1044.256280550419
 30
0.0
 10
420.9051056883453
 20
1044.28715255642
 30
0.0
 10
421.0247059709989
 20
1044.309018293861
 30
0.0
 10
421.116965247224
 20
1044.32606754605
 30
0.0
 10
421.193087166267
 20
1044.340575093588
 30
0.0
 10
421.4805266130652
 20
1044.393376539212
 30
0.0
 10
422.1461006304305
 20
1044.510359247483
 30
0.0
 10
423.3781270604425
 20
1044.761228695953
 30
0.0
 10
424.5746444930267
 20
1045.010900932298
 30
0.0
 10
425.2631117648616
 20
1045.154560488547
 30
0.0
  0
SPLINE
  5
178
330
1F
100
AcDbEntity
  8
0
  6
Continuous
 62
     7
370
    25
100
AcDbSpline
210
0.0
220
0.0
230
1.0
 70
     8
 71
     3
 72
    11
 73
     7
 74
     0
 42
0.00000001
 43
0.00000001
 40
0.0
 40
0.0
 40
0.0
 40
0.0
 40
0.4973040732577015
 40
0.5856776634797167
 40
0.7464017011852304
 40
1.0
 40
1.0
 40
1.0
 40
1.0
 10
425.2631117648601
 20
1045.154560488546
 30
0.0
 10
426.2799589832754
 20
1045.362515480172
 30
0.0
 10
427.4775053840039
 20
1045.607425184625
 30
0.0
 10
429.1658343582114
 20
1045.8875363506
 30
0.0
 10
430.3300395159383
 20
1046.074629710338
 30
0.0
 10
431.3852017440129
 20
1046.312464201145
 30
0.0
 10
432.031045142804
 20
1046.458037869162
 30
0.0
  0
LINE
  5
179
330
1F
100
AcDbEntity
  8
0
  6
Continuous
 62
     7
370
    25
100
AcDbLine
 10
438.6174917537
 20
1047.5035224551
 30
0.0
 11
438.2031301372
 21
1049.3318508978
 31
0.0
  0
SPLINE
  5
17A
330
1F
100
AcDbEntity
  8
0
  6
Continuous
 62
     7
370
    25
100
AcDbSpline
210
0.0
220
0.0
230
1.0
 70
     8
 71
     3
 72
     9
 73
     5
 74
     0
 42
0.00000001
 43
0.00000001
 40
0.0
 40
0.0
 40
0.0
 40
0.0
 40
0.4893104316974939
 40
1.0
 40
1.0
 40
1.0
 40
1.0
 10
433.8978991489424
 20
1046.870147947701
 30
0.0
 10
434.6364363246666
 20
1046.998813455187
 30
0.0
 10
436.1457791219623
 20
1047.261766172218
 30
0.0
 10
437.7819284942311
 20
1047.421791625052
 30
0.0
 10
438.6174929108334
 20
1047.503514954478
 30
0.0
  0
LINE
  5
17B
330
1F
100
AcDbEntity
  8
0
  6
Continuous
 62
     7
370
    25
100
AcDbLine
 10
432.0310451155
 20
1046.458037818
 30
0.0
 11
433.8978991489
 21
1046.8701479477
 31
0.0
  0
SPLINE
  5
17C
330
1F
100
AcDbEntity
  8
0
  6
Continuous
 62
     7
370
    25
100
AcDbSpline
210
0.0
220
0.0
230
1.0
 70
     8
 71
     3
 72
    10
 73
     6
 74
     0
 42
0.00000001
 43
0.00000001
 40
0.0
 40
0.0
 40
0.0
 40
0.0
 40
0.5087581242112751
 40
0.756331313402331
 40
0.9999999999999999
 40
0.9999999999999999
 40
0.9999999999999999
 40
0.9999999999999999
 10
438.2031162123423
 20
1049.331896288536
 30
0.0
 10
438.2655131963946
 20
1049.334330308634
 30
0.0
 10
438.3582739615888
 20
1049.337948777863
 30
0.0
 10
438.4692986027561
 20
1049.301272279102
 30
0.0
 10
438.5161426754307
 20
1049.269532752156
 30
0.0
 10
438.5393785480754
 20
1049.253789125186
 30
0.0
  0
SPLINE
  5
17D
330
1F
100
AcDbEntity
  8
0
  6
Continuous
 62
     7
370
    25
100
AcDbSpline
210
0.0
220
0.0
230
1.0
 70
     8
 71
     3
 72
    11
 73
     7
 74
     0
 42
0.00000001
 43
0.00000001
 40
0.0
 40
0.0
 40
0.0
 40
0.0
 40
0.2384766695517791
 40
0.4867382939872241
 40
0.719248511570514
 40
1.0
 40
1.0
 40
1.0
 40
1.0
 10
438.6174917510281
 20
1047.503522227941
 30
0.0
 10
438.6522235814757
 20
1047.504392538592
 30
0.0
 10
438.7231123268231
 20
1047.506168869679
 30
0.0
 10
438.8234243992595
 20
1047.480380164258
 30
0.0
 10
438.9209196212384
 20
1047.434854553885
 30
0.0
 10
438.9743106991237
 20
1047.389485017076
 30
0.0
 10
439.0035153415305
 20
1047.364668115992
 30
0.0
  0
LINE
  5
17E
330
1F
100
AcDbEntity
  8
0
  6
Continuous
 62
     7
370
    25
100
AcDbLine
 10
483.3526517645
 20
1016.9544229577
 30
0.0
 11
485.3945030882
 21
1015.5407413323
 31
0.0
  0
SPLINE
  5
17F
330
1F
100
AcDbEntity
  8
0
  6
Continuous
 62
     7
370
    25
100
AcDbSpline
210
0.0
220
0.0
230
1.0
 70
     8
 71
     3
 72
    17
 73
    13
 74
     0
 42
0.00000001
 43
0.00000001
 40
0.0
 40
0.0
 40
0.0
 40
0.0
 40
0.0836663565525509
 40
0.1587792075488025
 40
0.2508997239092944
 40
0.4078926662748827
 40
0.4625571756379424
 40
0.5013674068971488
 40
0.6063645879279735
 40
0.7510758208015893
 40
0.8754678802718899
 40
1.0
 40
1.0
 40
1.0
 40
1.0
 10
466.6686846052013
 20
1063.081564168894
 30
0.0
 10
466.4239291628257
 20
1062.909538054412
 30
0.0
 10
465.959440486792
 20
1062.58307265947
 30
0.0
 10
465.2092421323724
 20
1062.029995821656
 30
0.0
 10
464.2187852825695
 20
1061.284703049546
 30
0.0
 10
463.25880246958
 20
1060.544817862235
 30
0.0
 10
462.4399288999731
 20
1059.916649899032
 30
0.0
 10
461.7809812427984
 20
1059.413385634046
 30
0.0
 10
460.8014057196413
 20
1058.670473444917
 30
0.0
 10
459.4705083992231
 20
1057.695343495668
 30
0.0
 10
458.0046187236561
 20
1056.668836093735
 30
0.0
 10
457.0191650314985
 20
1056.036685586279
 30
0.0
 10
456.5261609465861
 20
1055.720432488914
 30
0.0
  0
LINE
  5
180
330
1F
100
AcDbEntity
  8
0
  6
Continuous
 62
     7
370
    25
100
AcDbLine
 10
485.394502351
 20
1015.540741251
 30
0.0
 11
487.3358786009
 21
1013.3562131409
 31
0.0
  0
LINE
  5
181
330
1F
100
AcDbEntity
  8
0
  6
Continuous
 62
     7
370
    25
100
AcDbLine
 10
414.2702526186
 20
1045.5070486191
 30
0.0
 11
415.7238260997
 21
1046.1222083142
 31
0.0
  0
SPLINE
  5
182
330
1F
100
AcDbEntity
  8
0
  6
Continuous
 62
     7
370
    25
100
AcDbSpline
210
0.0
220
0.0
230
1.0
 70
     8
 71
     3
 72
    14
 73
    10
 74
     0
 42
0.00000001
 43
0.00000001
 40
0.0
 40
0.0
 40
0.0
 40
0.0
 40
0.1180940950557898
 40
0.2236333209262351
 40
0.3506721171370459
 40
0.4657126682887617
 40
0.6443166663452566
 40
0.8292779878369455
 40
1.0
 40
1.0
 40
1.0
 40
1.0
 10
411.5869056348494
 20
1040.041973581306
 30
0.0
 10
411.3969804462838
 20
1040.294422823936
 30
0.0
 10
411.0373214758129
 20
1040.77248281896
 30
0.0
 10
410.774057349526
 20
1041.460819826257
 30
0.0
 10
410.7307427903602
 20
1042.107604359175
 30
0.0
 10
410.9596407800838
 20
1042.853000186777
 30
0.0
 10
411.5893486938878
 20
1043.675016550829
 30
0.0
 10
412.7232914931885
 20
1044.578078976136
 30
0.0
 10
413.7685475167316
 20
1045.205768166971
 30
0.0
 10
414.2702528109642
 20
1045.507048411314
 30
0.0
  0
SPLINE
  5
183
330
1F
100
AcDbEntity
  8
0
  6
Continuous
 62
     7
370
    25
100
AcDbSpline
210
0.0
220
0.0
230
1.0
 70
     8
 71
     3
 72
     9
 73
     5
 74
     0
 42
0.00000001
 43
0.00000001
 40
0.0
 40
0.0
 40
0.0
 40
0.0
 40
0.0505972453865872
 40
1.0
 40
1.0
 40
1.0
 40
1.0
 10
412.301128151387
 20
1039.274020377496
 30
0.0
 10
412.2855974629283
 20
1039.288132397436
 30
0.0
 10
411.9786501510728
 20
1039.567041255649
 30
0.0
 10
411.7776939785752
 20
1039.810670913262
 30
0.0
 10
411.5869056348494
 20
1040.041973581306
 30
0.0
  0
SPLINE
  5
184
330
1F
100
AcDbEntity
  8
0
  6
Continuous
 62
     7
370
    25
100
AcDbSpline
210
0.0
220
0.0
230
1.0
 70
     8
 71
     3
 72
     9
 73
     5
 74
     0
 42
0.00000001
 43
0.00000001
 40
0.0
 40
0.0
 40
0.0
 40
0.0
 40
0.5017843849077913
 40
1.0
 40
1.0
 40
1.0
 40
1.0
 10
444.8062922595462
 20
1067.54037623877
 30
0.0
 10
445.4341274363461
 20
1067.779638452064
 30
0.0
 10
446.6853325269852
 20
1068.256461207992
 30
0.0
 10
447.9650961252584
 20
1068.654900541186
 30
0.0
 10
448.6026943335445
 20
1068.853409238651
 30
0.0
  0
SPLINE
  5
185
330
1F
100
AcDbEntity
  8
0
  6
Continuous
 62
     7
370
    25
100
AcDbSpline
210
0.0
220
0.0
230
1.0
 70
     8
 71
     3
 72
    23
 73
    19
 74
     0
 42
0.00000001
 43
0.00000001
 40
0.0
 40
0.0
 40
0.0
 40
0.0
 40
0.0614883601368091
 40
0.1246524378946674
 40
0.1979558299808067
 40
0.2493807701275229
 40
0.279269121359107
 40
0.3100578760841618
 40
0.3417472606289889
 40
0.3743371654744163
 40
0.461980248986075
 40
0.4869933805870938
 40
0.4947942617015808
 40
0.4994572919727684
 40
0.6245949563968923
 40
0.749739954096185
 40
0.8748833076597311
 40
1.0
 40
1.0
 40
1.0
 40
1.0
 10
474.6272229151198
 20
1066.926537535472
 30
0.0
 10
474.541789097886
 20
1066.904119331742
 30
0.0
 10
474.3685931698576
 20
1066.858671969965
 30
0.0
 10
474.0298033213786
 20
1066.762562594102
 30
0.0
 10
473.6663134525645
 20
1066.65315274686
 30
0.0
 10
473.3358348747535
 20
1066.547271674384
 30
0.0
 10
473.0830608029886
 20
1066.462846769775
 30
0.0
 10
472.8670500105236
 20
1066.388321164315
 30
0.0
 10
472.6370748207204
 20
1066.306108377707
 30
0.0
 10
472.2575817328324
 20
1066.165343890588
 30
0.0
 10
471.8748411991407
 20
1066.012985720542
 30
0.0
 10
471.5444616182573
 20
1065.871856054537
 30
0.0
 10
471.4405478980198
 20
1065.826577607634
 30
0.0
 10
471.057664651347
 20
1065.658324498466
 30
0.0
 10
470.3205718335377
 20
1065.30894710537
 30
0.0
 10
469.1623572116756
 20
1064.679491103523
 30
0.0
 10
467.9465140067188
 20
1063.946942426241
 30
0.0
 10
467.0945948327062
 20
1063.369989167664
 30
0.0
 10
466.6686806249119
 20
1063.081543270968
 30
0.0
  0
SPLINE
  5
186
330
1F
100
AcDbEntity
  8
0
  6
Continuous
 62
     7
370
    25
100
AcDbSpline
210
0.0
220
0.0
230
1.0
 70
     8
 71
     3
 72
     9
 73
     5
 74
     0
 42
0.00000001
 43
0.00000001
 40
0.0
 40
0.0
 40
0.0
 40
0.0
 40
0.6713407721729162
 40
1.0
 40
1.0
 40
1.0
 40
1.0
 10
413.6172235991248
 20
1037.969826853741
 30
0.0
 10
413.8811050446409
 20
1037.728462890354
 30
0.0
 10
414.2741713627522
 20
1037.368937633746
 30
0.0
 10
414.7897813323677
 20
1036.973474999772
 30
0.0
 10
414.9592413068416
 20
1036.843502555856
 30
0.0
  0
SPLINE
  5
187
330
1F
100
AcDbEntity
  8
0
  6
Continuous
 62
     7
370
    25
100
AcDbSpline
210
0.0
220
0.0
230
1.0
 70
     8
 71
     3
 72
    13
 73
     9
 74
     0
 42
0.00000001
 43
0.00000001
 40
0.0
 40
0.0
 40
0.0
 40
0.0
 40
0.1256416017777365
 40
0.2521751357830062
 40
0.3790351074231273
 40
0.5058053506012113
 40
0.7563797043124948
 40
1.0
 40
1.0
 40
1.0
 40
1.0
 10
413.6172621076918
 20
1037.969883573967
 30
0.0
 10
413.3027062397384
 20
1038.290214984187
 30
0.0
 10
412.6713614654748
 20
1038.933151843674
 30
0.0
 10
412.1855840698277
 20
1039.796520879096
 30
0.0
 10
412.0402444815133
 20
1040.589787010868
 30
0.0
 10
412.3092443058356
 20
1041.564462977193
 30
0.0
 10
413.351493296501
 20
1042.674409949457
 30
0.0
 10
414.9645408816496
 20
1043.542709943502
 30
0.0
 10
415.7597156779166
 20
1043.970750800585
 30
0.0
  0
LINE
  5
188
330
1F
100
AcDbEntity
  8
0
  6
Continuous
 62
     7
370
    25
100
AcDbLine
 10
415.7597159145
 20
1043.9707509232
 30
0.0
 11
417.1226092095
 21
1044.5263994567
 31
0.0
  0
LINE
  5
189
330
1F
100
AcDbEntity
  8
0
  6
Continuous
 62
     7
370
    25
100
AcDbLine
 10
416.8776770264
 20
1046.0710373667
 30
0.0
 11
415.723826162
 21
1046.1222083748
 31
0.0
  0
LINE
  5
18A
330
1F
100
AcDbEntity
  8
0
  6
Continuous
 62
     7
370
    25
100
AcDbLine
 10
469.4437601944
 20
1068.8816645372
 30
0.0
 11
472.2353537563
 21
1067.9867832096
 31
0.0
  0
SPLINE
  5
18B
330
1F
100
AcDbEntity
  8
0
  6
Continuous
 62
     7
370
    25
100
AcDbSpline
210
0.0
220
0.0
230
1.0
 70
     8
 71
     3
 72
     9
 73
     5
 74
     0
 42
0.00000001
 43
0.00000001
 40
0.0
 40
0.0
 40
0.0
 40
0.0
 40
0.3811371515757822
 40
1.0
 40
1.0
 40
1.0
 40
1.0
 10
502.5848379097235
 20
1004.539002882305
 30
0.0
 10
502.5534454858915
 20
1004.309925902715
 30
0.0
 10
502.4710803223217
 20
1003.708890347289
 30
0.0
 10
501.8901950320355
 20
1003.640868325873
 30
0.0
 10
501.5307067066813
 20
1003.598772023944
 30
0.0
  0
LINE
  5
18C
330
1F
100
AcDbEntity
  8
0
  6
Continuous
 62
     7
370
    25
100
AcDbLine
 10
490.884546806
 20
997.6460666621
 30
0.0
 11
491.0001032972
 21
997.6862812488
 31
0.0
  0
SPLINE
  5
18D
330
1F
100
AcDbEntity
  8
0
  6
Continuous
 62
     7
370
    25
100
AcDbSpline
210
0.0
220
0.0
230
1.0
 70
     8
 71
     3
 72
    12
 73
     8
 74
     0
 42
0.00000001
 43
0.00000001
 40
0.0
 40
0.0
 40
0.0
 40
0.0
 40
0.087218663021167
 40
0.3133912535561747
 40
0.5681197311064241
 40
0.8053438116313569
 40
1.0
 40
1.0
 40
1.0
 40
1.0
 10
492.8150434921081
 20
998.4429943682982
 30
0.0
 10
493.0273841211986
 20
998.5453177006917
 30
0.0
 10
493.7903595398359
 20
998.9129825592904
 30
0.0
 10
494.9538779472966
 20
999.7844836567957
 30
0.0
 10
496.3342934936743
 20
1001.034496324133
 30
0.0
 10
497.6002955354239
 20
1002.399169251781
 30
0.0
 10
498.4846292901081
 20
1003.356912110627
 30
0.0
 10
498.883214384939
 20
1003.788584006214
 30
0.0
  0
LWPOLYLINE
  5
18E
330
1F
100
AcDbEntity
  8
0
  6
Continuous
 62
     7
370
    25
100
AcDbPolyline
 90
       19
 70
   128
 43
0.0
 10
490.6221439035
 20
1058.5438172831
 10
490.5769669987
 20
1058.654201982
 10
490.0928510404
 20
1059.4814074938
 10
489.3108692983
 20
1060.4247108014
 10
488.2502767581
 20
1061.4608846465
 10
486.9371887282
 20
1062.5644149903
 10
485.4039377937
 20
1063.7081292532
 10
483.6882776812
 20
1064.8638653945
 10
481.8324536365
 20
1066.0031653545
 10
479.8821622069
 20
1067.0979757871
 10
477.8854260399
 20
1068.1213388261
 10
475.8914114067
 20
1069.0480558771
 10
473.9492175655
 20
1069.8553080906
 10
472.1066677742
 20
1070.5232182382
 10
470.409131724
 20
1071.0353401551
 10
468.898408386
 20
1071.3790637003
 10
467.6116967828
 20
1071.5459252593
 10
466.5806800243
 20
1071.5318161468
 10
466.394215212
 20
1071.5049618364
  0
LINE
  5
18F
330
1F
100
AcDbEntity
  8
0
  6
Continuous
 62
     7
370
    25
100
AcDbLine
 10
411.5869056594
 20
1040.0419735624
 30
0.0
 11
413.6172621065
 21
1037.9698835752
 31
0.0
  0
SPLINE
  5
190
330
1F
100
AcDbEntity
  8
0
  6
Continuous
 62
     7
370
    25
100
AcDbSpline
210
0.0
220
0.0
230
1.0
 70
     8
 71
     3
 72
     9
 73
     5
 74
     0
 42
0.00000001
 43
0.00000001
 40
0.0
 40
0.0
 40
0.0
 40
0.0
 40
0.4964434010130609
 40
1.0
 40
1.0
 40
1.0
 40
1.0
 10
497.5782993496931
 20
999.8824114678584
 30
0.0
 10
497.1417726331458
 20
999.4535524256216
 30
0.0
 10
496.2624645072715
 20
998.5896895132304
 30
0.0
 10
494.9697978154465
 20
997.962718790342
 30
0.0
 10
494.3188669724875
 20
997.64700354546
 30
0.0
  0
LINE
  5
191
330
1F
100
AcDbEntity
  8
0
  6
Continuous
 62
     7
370
    25
100
AcDbLine
 10
494.3189514253
 20
997.6469727471
 30
0.0
 11
491.8895106219
 21
996.896268273
 31
0.0
  0
SPLINE
  5
192
330
1F
100
AcDbEntity
  8
0
  6
Continuous
 62
     7
370
    25
100
AcDbSpline
210
0.0
220
0.0
230
1.0
 70
     8
 71
     3
 72
     9
 73
     5
 74
     0
 42
0.00000001
 43
0.00000001
 40
0.0
 40
0.0
 40
0.0
 40
0.0
 40
0.3491868901371449
 40
1.0
 40
1.0
 40
1.0
 40
1.0
 10
501.2650729625628
 20
1003.608552755583
 30
0.0
 10
500.8183060012532
 20
1003.118727920243
 30
0.0
 10
499.5388565891228
 20
1001.715969543068
 30
0.0
 10
498.3512190976541
 20
1000.605271433909
 30
0.0
 10
497.5782890484416
 20
999.8824145433676
 30
0.0
  0
SPLINE
  5
193
330
1F
100
AcDbEntity
  8
0
  6
Continuous
 62
     7
370
    25
100
AcDbSpline
210
0.0
220
0.0
230
1.0
 70
     8
 71
     3
 72
    19
 73
    15
 74
     0
 42
0.00000001
 43
0.00000001
 40
0.0
 40
0.0
 40
0.0
 40
0.0
 40
0.1103418360131321
 40
0.1841500750220094
 40
0.25870171433991
 40
0.3336302325014764
 40
0.4444139362141167
 40
0.5550348948847771
 40
0.6665434367023338
 40
0.7775520241945523
 40
0.8332810436518401
 40
0.8882323975687688
 40
0.9439504841231003
 40
1.0
 40
1.0
 40
1.0
 40
1.0
 10
467.2993192447136
 20
984.6678820239185
 30
0.0
 10
467.8356193789004
 20
984.7297514466006
 30
0.0
 10
468.7306535156629
 20
984.8330056540722
 30
0.0
 10
469.6239303845088
 20
985.1877789289186
 30
0.0
 10
470.106112067763
 20
985.5853840155412
 30
0.0
 10
470.3559038544209
 20
986.1669643080362
 30
0.0
 10
470.3531397067823
 20
986.9975780568046
 30
0.0
 10
470.1039459409557
 20
988.1628253283217
 30
0.0
 10
469.5650530300353
 20
989.54687701675
 30
0.0
 10
468.7741018806059
 20
990.8559456482149
 30
0.0
 10
467.9522265280747
 20
991.9768056024469
 30
0.0
 10
467.2469021621374
 20
992.8568115137542
 30
0.0
 10
466.4491925759956
 20
993.7680882922397
 30
0.0
 10
465.8447135769774
 20
994.4055762545394
 30
0.0
 10
465.5415778335621
 20
994.7252654210511
 30
0.0
  0
SPLINE
  5
194
330
1F
100
AcDbEntity
  8
0
  6
Continuous
 62
     7
370
    25
100
AcDbSpline
210
0.0
220
0.0
230
1.0
 70
     8
 71
     3
 72
    12
 73
     8
 74
     0
 42
0.00000001
 43
0.00000001
 40
0.0
 40
0.0
 40
0.0
 40
0.0
 40
0.2133408865675805
 40
0.425817977370621
 40
0.6373166159220424
 40
0.8502879886449705
 40
1.0
 40
1.0
 40
1.0
 40
1.0
 10
418.6985577481214
 20
1015.443498696326
 30
0.0
 10
418.3836881629096
 20
1015.230360321193
 30
0.0
 10
417.7552238677262
 20
1014.804946546744
 30
0.0
 10
417.3402485329634
 20
1013.884555452881
 30
0.0
 10
417.3267085530295
 20
1012.784106380086
 30
0.0
 10
417.6234865605551
 20
1011.686994957214
 30
0.0
 10
418.1146033894215
 20
1010.870676598639
 30
0.0
 10
418.3173314202268
 20
1010.533708684659
 30
0.0
  0
SPLINE
  5
195
330
1F
100
AcDbEntity
  8
0
  6
Continuous
 62
     7
370
    25
100
AcDbSpline
210
0.0
220
0.0
230
1.0
 70
     8
 71
     3
 72
    13
 73
     9
 74
     0
 42
0.00000001
 43
0.00000001
 40
0.0
 40
0.0
 40
0.0
 40
0.0
 40
0.2634085415248041
 40
0.5258203367308263
 40
0.6572079447916527
 40
0.7901580951679612
 40
0.9224696218460934
 40
1.0
 40
1.0
 40
1.0
 40
1.0
 10
480.3634404840532
 20
993.1233130633702
 30
0.0
 10
480.9414355071361
 20
991.8368915496667
 30
0.0
 10
482.0952384017075
 20
989.2689163822794
 30
0.0
 10
482.2628577077439
 20
986.3242284623354
 30
0.0
 10
482.1354919574005
 20
984.456229720319
 30
0.0
 10
481.9812243637218
 20
983.4204353571392
 30
0.0
 10
481.861482689738
 20
982.8276311902524
 30
0.0
 10
481.9205887306347
 20
982.8142348225202
 30
0.0
 10
481.9424266647955
 20
982.8092852608157
 30
0.0
  0
SPLINE
  5
196
330
1F
100
AcDbEntity
  8
0
  6
Continuous
 62
     7
370
    25
100
AcDbSpline
210
0.0
220
0.0
230
1.0
 70
     8
 71
     3
 72
     9
 73
     5
 74
     0
 42
0.00000001
 43
0.00000001
 40
0.0
 40
0.0
 40
0.0
 40
0.0
 40
0.3595956311186748
 40
1.0
 40
1.0
 40
1.0
 40
1.0
 10
431.1670470245902
 20
1029.969887933201
 30
0.0
 10
431.0796524880414
 20
1029.601286922895
 30
0.0
 10
430.8366168975452
 20
1028.576243851157
 30
0.0
 10
430.844066336924
 20
1027.537096960679
 30
0.0
 10
430.8488369904478
 20
1026.871622752107
 30
0.0
  0
SPLINE
  5
197
330
1F
100
AcDbEntity
  8
0
  6
Continuous
 62
     7
370
    25
100
AcDbSpline
210
0.0
220
0.0
230
1.0
 70
     8
 71
     3
 72
     9
 73
     5
 74
     0
 42
0.00000001
 43
0.00000001
 40
0.0
 40
0.0
 40
0.0
 40
0.0
 40
0.2155141974074382
 40
1.0
 40
1.0
 40
1.0
 40
1.0
 10
484.5795244918633
 20
986.1010161973554
 30
0.0
 10
484.5332051841257
 20
986.0332062382681
 30
0.0
 10
484.3182805606217
 20
985.7185635840816
 30
0.0
 10
484.1207136907442
 20
985.4366556671074
 30
0.0
 10
483.9657252862626
 20
985.2155029086028
 30
0.0
  0
SPLINE
  5
198
330
1F
100
AcDbEntity
  8
0
  6
Continuous
 62
     7
370
    25
100
AcDbSpline
210
0.0
220
0.0
230
1.0
 70
     8
 71
     3
 72
     9
 73
     5
 74
     0
 42
0.00000001
 43
0.00000001
 40
0.0
 40
0.0
 40
0.0
 40
0.0
 40
0.3678488930649063
 40
1.0
 40
1.0
 40
1.0
 40
1.0
 10
409.5481949037079
 20
1026.216259583683
 30
0.0
 10
409.6072142617111
 20
1026.375230884519
 30
0.0
 10
409.7676588331531
 20
1026.807395569075
 30
0.0
 10
410.109126133454
 20
1026.993894796715
 30
0.0
 10
410.3249850653214
 20
1027.11179048991
 30
0.0
  0
SPLINE
  5
199
330
1F
100
AcDbEntity
  8
0
  6
Continuous
 62
     7
370
    25
100
AcDbSpline
210
0.0
220
0.0
230
1.0
 70
     8
 71
     3
 72
     9
 73
     5
 74
     0
 42
0.00000001
 43
0.00000001
 40
0.0
 40
0.0
 40
0.0
 40
0.0
 40
0.6150648134910828
 40
1.0
 40
1.0
 40
1.0
 40
1.0
 10
410.300096045676
 20
1027.313300099355
 30
0.0
 10
410.0865320379128
 20
1027.18913031062
 30
0.0
 10
409.7393100816593
 20
1026.987249490889
 30
0.0
 10
409.5790121707851
 20
1026.530173832254
 30
0.0
 10
409.5173078645657
 20
1026.354229328349
 30
0.0
  0
SPLINE
  5
19A
330
1F
100
AcDbEntity
  8
0
  6
Continuous
 62
     7
370
    25
100
AcDbSpline
210
0.0
220
0.0
230
1.0
 70
     8
 71
     3
 72
     9
 73
     5
 74
     0
 42
0.00000001
 43
0.00000001
 40
0.0
 40
0.0
 40
0.0
 40
0.0
 40
0.3457484969855146
 40
1.0
 40
1.0
 40
1.0
 40
1.0
 10
414.4619537134284
 20
1036.106637041483
 30
0.0
 10
414.5235328113872
 20
1036.212422841952
 30
0.0
 10
414.7016365442905
 20
1036.518384549351
 30
0.0
 10
415.0259147038609
 20
1036.744966516304
 30
0.0
 10
415.2380741771546
 20
1036.89320810874
 30
0.0
  0
SPLINE
  5
19B
330
1F
100
AcDbEntity
  8
0
  6
Continuous
 62
     7
370
    25
100
AcDbSpline
210
0.0
220
0.0
230
1.0
 70
     8
 71
     3
 72
    10
 73
     6
 74
     0
 42
0.00000001
 43
0.00000001
 40
0.0
 40
0.0
 40
0.0
 40
0.0
 40
0.2407742171053472
 40
0.6211356928442787
 40
1.0
 40
1.0
 40
1.0
 40
1.0
 10
493.8544969421824
 20
1006.439813473419
 30
0.0
 10
493.7386360939487
 20
1005.606199047239
 30
0.0
 10
493.4397448376242
 20
1003.455687749166
 30
0.0
 10
492.3638228940536
 20
999.9668091954536
 30
0.0
 10
491.2471035479932
 20
997.3049695781544
 30
0.0
 10
490.689844942102
 20
995.9766743001373
 30
0.0
  0
SPLINE
  5
19C
330
1F
100
AcDbEntity
  8
0
  6
Continuous
 62
     7
370
    25
100
AcDbSpline
210
0.0
220
0.0
230
1.0
 70
     8
 71
     3
 72
    10
 73
     6
 74
     0
 42
0.00000001
 43
0.00000001
 40
0.0
 40
0.0
 40
0.0
 40
0.0
 40
0.357733182654938
 40
0.7877886725183193
 40
1.0
 40
1.0
 40
1.0
 40
1.0
 10
474.9246291785019
 20
1066.243902704292
 30
0.0
 10
475.0264559632609
 20
1066.266010427218
 30
0.0
 10
475.2506956801269
 20
1066.314695353695
 30
0.0
 10
475.4289312267018
 20
1066.343821895742
 30
0.0
 10
475.4274966257547
 20
1066.325152410555
 30
0.0
 10
475.4270226193711
 20
1066.318983827456
 30
0.0
  0
LINE
  5
19D
330
1F
100
AcDbEntity
  8
0
  6
Continuous
 62
     7
370
    25
100
AcDbLine
 10
471.1621221137
 20
1068.4130449649
 30
0.0
 11
469.4437601944
 21
1068.8816645372
 31
0.0
  0
SPLINE
  5
19E
330
1F
100
AcDbEntity
  8
0
  6
Continuous
 62
     7
370
    25
100
AcDbSpline
210
0.0
220
0.0
230
1.0
 70
     8
 71
     3
 72
     9
 73
     5
 74
     0
 42
0.00000001
 43
0.00000001
 40
0.0
 40
0.0
 40
0.0
 40
0.0
 40
0.3727764022780419
 40
1.0
 40
1.0
 40
1.0
 40
1.0
 10
475.1131907837872
 20
1067.014821727214
 30
0.0
 10
475.1119035731131
 20
1067.023029682427
 30
0.0
 10
475.1084505362088
 20
1067.045048123408
 30
0.0
 10
474.8127805418458
 20
1066.972419776836
 30
0.0
 10
474.6273293442429
 20
1066.926865564003
 30
0.0
  0
SPLINE
  5
19F
330
1F
100
AcDbEntity
  8
0
  6
Continuous
 62
     7
370
    25
100
AcDbSpline
210
0.0
220
0.0
230
1.0
 70
     8
 71
     3
 72
     9
 73
     5
 74
     0
 42
0.00000001
 43
0.00000001
 40
0.0
 40
0.0
 40
0.0
 40
0.0
 40
0.3665467117882333
 40
0.9999999999999999
 40
0.9999999999999999
 40
0.9999999999999999
 40
0.9999999999999999
 10
502.8361090286913
 20
1035.595936623331
 30
0.0
 10
502.8217212186643
 20
1035.647900616003
 30
0.0
 10
502.7824688953875
 20
1035.789666974836
 30
0.0
 10
502.6993482822263
 20
1035.952066780417
 30
0.0
 10
502.6466952565012
 20
1036.054939471266
 30
0.0
  0
LWPOLYLINE
  5
1A0
330
1F
100
AcDbEntity
  8
0
  6
Continuous
 62
     7
370
    25
100
AcDbPolyline
 90
       21
 70
   128
 43
0.0
 10
490.8241697476
 20
1056.5803501953
 10
490.8933152283
 20
1057.0716918071
 10
490.6772275548
 20
1057.8066216754
 10
490.1396625274
 20
1058.6814876658
 10
489.2938567812
 20
1059.6747476741
 10
488.1606368607
 20
1060.7619443424
 10
486.7679064013
 20
1061.9163072806
 10
485.1499590491
 20
1063.109412242
 10
483.3466340376
 20
1064.3118810228
 10
481.4023352135
 20
1065.4941048509
 10
479.3649376666
 20
1066.6269734519
 10
477.2846088862
 20
1067.6825918412
 10
475.2125734711
 20
1068.6349671907
 10
473.1998518099
 20
1069.4606488585
 10
471.2960037897
 20
1070.1393058215
 10
469.5479084674
 20
1070.6542272932
 10
467.9986097514
 20
1070.9927341979
 10
466.6862565178
 20
1071.1464913722
 10
465.6431632587
 20
1071.1117128041
 10
464.895014392
 20
1070.8892548574
 10
464.4916085444
 20
1070.5366647751
  0
LWPOLYLINE
  5
1A1
330
1F
100
AcDbEntity
  8
0
  6
Continuous
 62
     7
370
    25
100
AcDbPolyline
 90
       11
 70
   128
 43
0.0
 10
485.8404807956
 20
1072.5644689442
 10
484.348369925
 20
1073.470221345
 10
482.7738955707
 20
1074.3247838865
 10
481.1775638994
 20
1075.0953162094
 10
479.6207210418
 20
1075.7522071886
 10
478.163195596
 20
1076.2702128722
 10
476.8609994473
 20
1076.6294265923
 10
475.7641752636
 20
1076.8160439671
 10
474.9148733831
 20
1076.8228933955
 10
474.3457320008
 20
1076.6497116579
 10
474.1771067112
 20
1076.5020485595
  0
SPLINE
  5
1A2
330
1F
100
AcDbEntity
  8
0
  6
Continuous
 62
     7
370
    25
100
AcDbSpline
210
0.0
220
0.0
230
1.0
 70
     8
 71
     3
 72
    12
 73
     8
 74
     0
 42
0.00000001
 43
0.00000001
 40
0.0
 40
0.0
 40
0.0
 40
0.0
 40
0.1500962293621908
 40
0.3625721720216431
 40
0.575048114681096
 40
0.7875240573405482
 40
1.0
 40
1.0
 40
1.0
 40
1.0
 10
490.2692824416736
 20
1067.971584610465
 30
0.0
 10
490.3060303196813
 20
1068.100692644933
 30
0.0
 10
490.3947984253364
 20
1068.412565772467
 30
0.0
 10
489.932447378697
 20
1069.196373475704
 30
0.0
 10
488.9923611653312
 20
1070.216707111896
 30
0.0
 10
487.6176843779696
 20
1071.37096089116
 30
0.0
 10
486.4328840859529
 20
1072.166637557905
 30
0.0
 10
485.8404839399446
 20
1072.564475891278
 30
0.0
  0
ENDSEC
  0
SECTION
  2
OBJECTS
  0
DICTIONARY
  5
C
330
0
100
AcDbDictionary
281
     1
  3
ACAD_GROUP
350
D
  3
ACAD_LAYOUT
350
1A
  3
ACAD_MLINESTYLE
350
17
  3
ACAD_PLOTSETTINGS
350
19
  3
ACAD_PLOTSTYLENAME
350
E
  3
ACAD_SCALELIST
350
47
  3
DWGPROPS
350
1A3
  0
DICTIONARY
  5
D
102
{ACAD_REACTORS
330
C
102
}
330
C
100
AcDbDictionary
281
     1
  0
DICTIONARY
  5
1A
102
{ACAD_REACTORS
330
C
102
}
330
C
100
AcDbDictionary
281
     1
  3
Layout1
350
1E
  3
Layout2
350
26
  3
Model
350
22
  0
DICTIONARY
  5
17
102
{ACAD_REACTORS
330
C
102
}
330
C
100
AcDbDictionary
281
     1
  3
Standard
350
18
  0
DICTIONARY
  5
19
102
{ACAD_REACTORS
330
C
102
}
330
C
100
AcDbDictionary
281
     1
  0
ACDBDICTIONARYWDFLT
  5
E
102
{ACAD_REACTORS
330
C
102
}
330
C
100
AcDbDictionary
281
     1
  3
Normal
350
F
100
AcDbDictionaryWithDefault
340
F
  0
DICTIONARY
  5
47
102
{ACAD_REACTORS
330
C
102
}
330
C
100
AcDbDictionary
281
     1
  3
A0
350
48
  3
A1
350
49
  3
A2
350
4A
  3
A3
350
4B
  3
A4
350
4C
  3
A5
350
4D
  3
A6
350
4E
  3
A7
350
4F
  3
A8
350
50
  3
A9
350
51
  3
B0
350
52
  3
B1
350
53
  3
B2
350
54
  3
B3
350
55
  3
B4
350
56
  3
B5
350
57
  3
B6
350
58
  0
XRECORD
  5
1A3
102
{ACAD_REACTORS
330
C
102
}
330
C
100
AcDbXrecord
280
     1
  1
DWGPROPS COOKIE
  2

  3

  4

  6

  7

  8
9128
  9

300
=
301
=
302
=
303
=
304
=
305
=
306
=
307
=
308
=
309
=
 40
0.0
 41
2460151.215710845
 42
2460151.215712049
  1

 90
        0
  0
LAYOUT
  5
1E
102
{ACAD_REACTORS
330
1A
102
}
330
1A
100
AcDbPlotSettings
  1

  2
none_device
  4

  6

 40
0.0
 41
0.0
 42
0.0
 43
0.0
 44
0.0
 45
0.0
 46
0.0
 47
0.0
 48
0.0
 49
0.0
140
0.0
141
0.0
142
1.0
143
1.0
 70
   688
 72
     1
 73
     0
 74
     5
  7

 75
    16
147
1.0
148
0.0
149
0.0
100
AcDbLayout
  1
Layout1
 70
     1
 71
     1
 10
0.0
 20
0.0
 11
420.0
 21
297.0
 12
0.0
 22
0.0
 32
0.0
 14
1.0000000000E+20
 24
1.0000000000E+20
 34
1.0000000000E+20
 15
-1.0000000000E+20
 25
-1.0000000000E+20
 35
-1.0000000000E+20
146
0.0
 13
0.0
 23
0.0
 33
0.0
 16
1.0
 26
0.0
 36
0.0
 17
0.0
 27
1.0
 37
0.0
 76
     0
330
1B
  0
LAYOUT
  5
26
102
{ACAD_REACTORS
330
1A
102
}
330
1A
100
AcDbPlotSettings
  1

  2
none_device
  4

  6

 40
0.0
 41
0.0
 42
0.0
 43
0.0
 44
0.0
 45
0.0
 46
0.0
 47
0.0
 48
0.0
 49
0.0
140
0.0
141
0.0
142
1.0
143
1.0
 70
   688
 72
     1
 73
     0
 74
     5
  7

 75
    16
147
1.0
148
0.0
149
0.0
100
AcDbLayout
  1
Layout2
 70
     1
 71
     2
 10
0.0
 20
0.0
 11
0.0
 21
0.0
 12
0.0
 22
0.0
 32
0.0
 14
0.0
 24
0.0
 34
0.0
 15
0.0
 25
0.0
 35
0.0
146
0.0
 13
0.0
 23
0.0
 33
0.0
 16
1.0
 26
0.0
 36
0.0
 17
0.0
 27
1.0
 37
0.0
 76
     0
330
23
  0
LAYOUT
  5
22
102
{ACAD_REACTORS
330
1A
102
}
330
1A
100
AcDbPlotSettings
  1

  2
none_device
  4
Letter_(8.50_x_11.00_Inches)
  6

 40
6.35
 41
6.35
 42
6.35000508
 43
6.35000508
 44
215.9
 45
279.4
 46
0.0
 47
0.0
 48
0.0
 49
0.0
140
0.0
141
0.0
142
1.0
143
1.0
 70
  1712
 72
     1
 73
     0
 74
     0
  7

 75
     0
147
1.0
148
0.0
149
0.0
100
AcDbLayout
  1
Model
 70
     1
 71
     0
 10
0.0
 20
0.0
 11
1050.0
 21
1485.0
 12
0.0
 22
0.0
 32
0.0
 14
0.0
 24
0.0
 34
0.0
 15
1050.0
 25
1485.0
 35
0.0
146
0.0
 13
0.0
 23
0.0
 33
0.0
 16
1.0
 26
0.0
 36
0.0
 17
0.0
 27
1.0
 37
0.0
 76
     0
330
1F
331
29
  0
MLINESTYLE
  5
18
102
{ACAD_REACTORS
330
17
102
}
330
17
100
AcDbMlineStyle
  2
Standard
 70
     0
  3

 62
   256
 51
90.0
 52
90.0
 71
     2
 49
0.5
 62
   256
  6
BYLAYER
 49
-0.5
 62
   256
  6
BYLAYER
  0
ACDBPLACEHOLDER
  5
F
102
{ACAD_REACTORS
330
E
102
}
330
E
  0
SCALE
  5
48
102
{ACAD_REACTORS
330
47
102
}
330
47
100
AcDbScale
 70
     0
300
1:1
140
1.0
141
1.0
290
     1
  0
SCALE
  5
49
102
{ACAD_REACTORS
330
47
102
}
330
47
100
AcDbScale
 70
     0
300
1:2
140
1.0
141
2.0
290
     0
  0
SCALE
  5
4A
102
{ACAD_REACTORS
330
47
102
}
330
47
100
AcDbScale
 70
     0
300
1:4
140
1.0
141
4.0
290
     0
  0
SCALE
  5
4B
102
{ACAD_REACTORS
330
47
102
}
330
47
100
AcDbScale
 70
     0
300
1:5
140
1.0
141
5.0
290
     0
  0
SCALE
  5
4C
102
{ACAD_REACTORS
330
47
102
}
330
47
100
AcDbScale
 70
     0
300
1:8
140
1.0
141
8.0
290
     0
  0
SCALE
  5
4D
102
{ACAD_REACTORS
330
47
102
}
330
47
100
AcDbScale
 70
     0
300
1:10
140
1.0
141
10.0
290
     0
  0
SCALE
  5
4E
102
{ACAD_REACTORS
330
47
102
}
330
47
100
AcDbScale
 70
     0
300
1:16
140
1.0
141
16.0
290
     0
  0
SCALE
  5
4F
102
{ACAD_REACTORS
330
47
102
}
330
47
100
AcDbScale
 70
     0
300
1:20
140
1.0
141
20.0
290
     0
  0
SCALE
  5
50
102
{ACAD_REACTORS
330
47
102
}
330
47
100
AcDbScale
 70
     0
300
1:30
140
1.0
141
30.0
290
     0
  0
SCALE
  5
51
102
{ACAD_REACTORS
330
47
102
}
330
47
100
AcDbScale
 70
     0
300
1:40
140
1.0
141
40.0
290
     0
  0
SCALE
  5
52
102
{ACAD_REACTORS
330
47
102
}
330
47
100
AcDbScale
 70
     0
300
1:50
140
1.0
141
50.0
290
     0
  0
SCALE
  5
53
102
{ACAD_REACTORS
330
47
102
}
330
47
100
AcDbScale
 70
     0
300
1:100
140
1.0
141
100.0
290
     0
  0
SCALE
  5
54
102
{ACAD_REACTORS
330
47
102
}
330
47
100
AcDbScale
 70
     0
300
2:1
140
2.0
141
1.0
290
     0
  0
SCALE
  5
55
102
{ACAD_REACTORS
330
47
102
}
330
47
100
AcDbScale
 70
     0
300
4:1
140
4.0
141
1.0
290
     0
  0
SCALE
  5
56
102
{ACAD_REACTORS
330
47
102
}
330
47
100
AcDbScale
 70
     0
300
8:1
140
8.0
141
1.0
290
     0
  0
SCALE
  5
57
102
{ACAD_REACTORS
330
47
102
}
330
47
100
AcDbScale
 70
     0
300
10:1
140
10.0
141
1.0
290
     0
  0
SCALE
  5
58
102
{ACAD_REACTORS
330
47
102
}
330
47
100
AcDbScale
 70
     0
300
100:1
140
100.0
141
1.0
290
     0
  0
ENDSEC
  0
EOF
