  0
SECTION
  2
HEADER
  9
$ACADVER
  1
AC1015
  9
$ACADMAINTVER
 70
     6
  9
$DWGCODEPAGE
  3
DOS932
  9
$INSBASE
 10
0.0
 20
0.0
 30
0.0
  9
$EXTMIN
 10
0.0
 20
0.0
 30
0.0
  9
$EXTMAX
 10
420.0
 20
594.0
 30
0.0
  9
$LIMMIN
 10
0.0
 20
0.0
  9
$LIMMAX
 10
420.0
 20
594.0
  9
$ORTHOMODE
 70
     0
  9
$REGENMODE
 70
     1
  9
$FILLMODE
 70
     1
  9
$QTEXTMODE
 70
     0
  9
$MIRRTEXT
 70
     1
  9
$LTSCALE
 40
2.0
  9
$ATTMODE
 70
     1
  9
$TEXTSIZE
 40
7.0
  9
$TRACEWID
 40
1.0
  9
$TEXTSTYLE
  7
STANDARD
  9
$CLAYER
  8
0
  9
$CELTYPE
  6
ByLayer
  9
$CECOLOR
 62
   256
  9
$CELTSCALE
 40
1.0
  9
$DISPSILH
 70
     0
  9
$DIMSCALE
 40
1.0
  9
$DIMASZ
 40
6.604
  9
$DIMEXO
 40
2.0
  9
$DIMDLI
 40
3.75
  9
$DIMRND
 40
0.0
  9
$DIMDLE
 40
0.0
  9
$DIMEXE
 40
2.0
  9
$DIMTP
 40
0.0
  9
$DIMTM
 40
0.0
  9
$DIMTXT
 40
7.0
  9
$DIMCEN
 40
2.5
  9
$DIMTSZ
 40
0.0
  9
$DIMTOL
 70
     0
  9
$DIMLIM
 70
     0
  9
$DIMTIH
 70
     1
  9
$DIMTOH
 70
     1
  9
$DIMSE1
 70
     0
  9
$DIMSE2
 70
     0
  9
$DIMTAD
 70
     1
  9
$DIMZIN
 70
     1
  9
$DIMBLK
  1

  9
$DIMASO
 70
     1
  9
$DIMSHO
 70
     1
  9
$DIMPOST
  1

  9
$DIMAPOST
  1

  9
$DIMALT
 70
     0
  9
$DIMALTD
 70
     3
  9
$DIMALTF
 40
0.0393700787
  9
$DIMLFAC
 40
1.0
  9
$DIMTOFL
 70
     1
  9
$DIMTVP
 40
0.0
  9
$DIMTIX
 70
     0
  9
$DIMSOXD
 70
     0
  9
$DIMSAH
 70
     0
  9
$DIMBLK1
  1

  9
$DIMBLK2
  1

  9
$DIMSTYLE
  2
ISO-25
  9
$DIMCLRD
 70
     0
  9
$DIMCLRE
 70
     0
  9
$DIMCLRT
 70
     0
  9
$DIMTFAC
 40
1.0
  9
$DIMGAP
 40
3.048
  9
$DIMJUST
 70
     0
  9
$DIMSD1
 70
     0
  9
$DIMSD2
 70
     0
  9
$DIMTOLJ
 70
     0
  9
$DIMTZIN
 70
     1
  9
$DIMALTZ
 70
     0
  9
$DIMALTTZ
 70
     0
  9
$DIMUPT
 70
     0
  9
$DIMDEC
 70
     2
  9
$DIMTDEC
 70
     2
  9
$DIMALTU
 70
     2
  9
$DIMALTTD
 70
     3
  9
$DIMTXSTY
  7
STANDARD
  9
$DIMAUNIT
 70
     0
  9
$DIMADEC
 70
     2
  9
$DIMALTRND
 40
0.0
  9
$DIMAZIN
 70
     0
  9
$DIMDSEP
 70
    44
  9
$DIMATFIT
 70
     3
  9
$DIMFRAC
 70
     0
  9
$DIMLDRBLK
  1

  9
$DIMLUNIT
 70
     2
  9
$DIMLWD
 70
    -2
  9
$DIMLWE
 70
    -2
  9
$DIMTMOVE
 70
     0
  9
$LUNITS
 70
     2
  9
$LUPREC
 70
     2
  9
$SKETCHINC
 40
1.0
  9
$FILLETRAD
 40
10.0
  9
$AUNITS
 70
     0
  9
$AUPREC
 70
     2
  9
$MENU
  1
.
  9
$ELEVATION
 40
0.0
  9
$PELEVATION
 40
0.0
  9
$THICKNESS
 40
0.0
  9
$LIMCHECK
 70
     0
  9
$CHAMFERA
 40
0.0
  9
$CHAMFERB
 40
0.0
  9
$CHAMFERC
 40
0.0
  9
$CHAMFERD
 40
0.0
  9
$SKPOLY
 70
     0
  9
$TDCREATE
 40
2458876.449757083
  9
$TDUCREATE
 40
2458876.074757083
  9
$TDUPDATE
 40
2458876.449757338
  9
$TDUUPDATE
 40
2458876.074757338
  9
$TDINDWG
 40
0.0000000116
  9
$TDUSRTIMER
 40
0.0000000116
  9
$USRTIMER
 70
     1
  9
$ANGBASE
 50
0.0
  9
$ANGDIR
 70
     0
  9
$PDMODE
 70
     0
  9
$PDSIZE
 40
-1.0
  9
$PLINEWID
 40
0.0
  9
$SPLFRAME
 70
     0
  9
$SPLINETYPE
 70
     6
  9
$SPLINESEGS
 70
     8
  9
$HANDSEED
  5
D8
  9
$SURFTAB1
 70
     6
  9
$SURFTAB2
 70
     6
  9
$SURFTYPE
 70
     6
  9
$SURFU
 70
     6
  9
$SURFV
 70
     6
  9
$UCSBASE
  2

  9
$UCSNAME
  2

  9
$UCSORG
 10
0.0
 20
0.0
 30
0.0
  9
$UCSXDIR
 10
1.0
 20
0.0
 30
0.0
  9
$UCSYDIR
 10
0.0
 20
1.0
 30
0.0
  9
$UCSORTHOREF
  2

  9
$UCSORTHOVIEW
 70
     0
  9
$UCSORGTOP
 10
0.0
 20
0.0
 30
0.0
  9
$UCSORGBOTTOM
 10
0.0
 20
0.0
 30
0.0
  9
$UCSORGLEFT
 10
0.0
 20
0.0
 30
0.0
  9
$UCSORGRIGHT
 10
0.0
 20
0.0
 30
0.0
  9
$UCSORGFRONT
 10
0.0
 20
0.0
 30
0.0
  9
$UCSORGBACK
 10
0.0
 20
0.0
 30
0.0
  9
$PUCSBASE
  2

  9
$PUCSNAME
  2

  9
$PUCSORG
 10
0.0
 20
0.0
 30
0.0
  9
$PUCSXDIR
 10
1.0
 20
0.0
 30
0.0
  9
$PUCSYDIR
 10
0.0
 20
1.0
 30
0.0
  9
$PUCSORTHOREF
  2

  9
$PUCSORTHOVIEW
 70
     0
  9
$PUCSORGTOP
 10
0.0
 20
0.0
 30
0.0
  9
$PUCSORGBOTTOM
 10
0.0
 20
0.0
 30
0.0
  9
$PUCSORGLEFT
 10
0.0
 20
0.0
 30
0.0
  9
$PUCSORGRIGHT
 10
0.0
 20
0.0
 30
0.0
  9
$PUCSORGFRONT
 10
0.0
 20
0.0
 30
0.0
  9
$PUCSORGBACK
 10
0.0
 20
0.0
 30
0.0
  9
$USERI1
 70
     0
  9
$USERI2
 70
     0
  9
$USERI3
 70
     0
  9
$USERI4
 70
     0
  9
$USERI5
 70
     0
  9
$USERR1
 40
0.0
  9
$USERR2
 40
0.0
  9
$USERR3
 40
0.0
  9
$USERR4
 40
0.0
  9
$USERR5
 40
0.0
  9
$WORLDVIEW
 70
     1
  9
$SHADEDGE
 70
     3
  9
$SHADEDIF
 70
    70
  9
$TILEMODE
 70
     1
  9
$MAXACTVP
 70
    64
  9
$PINSBASE
 10
0.0
 20
0.0
 30
0.0
  9
$PLIMCHECK
 70
     0
  9
$PEXTMIN
 10
1.0000000000E+20
 20
1.0000000000E+20
 30
1.0000000000E+20
  9
$PEXTMAX
 10
-1.0000000000E+20
 20
-1.0000000000E+20
 30
-1.0000000000E+20
  9
$PLIMMIN
 10
0.0
 20
0.0
  9
$PLIMMAX
 10
420.0
 20
297.0
  9
$UNITMODE
 70
     0
  9
$VISRETAIN
 70
     1
  9
$PLINEGEN
 70
     0
  9
$PSLTSCALE
 70
     1
  9
$TREEDEPTH
 70
  3020
  9
$CMLSTYLE
  2
Standard
  9
$CMLJUST
 70
     0
  9
$CMLSCALE
 40
20.0
  9
$PROXYGRAPHICS
 70
     1
  9
$MEASUREMENT
 70
     1
  9
$CELWEIGHT
370
    -1
  9
$ENDCAPS
280
     0
  9
$JOINSTYLE
280
     0
  9
$LWDISPLAY
290
     1
  9
$INSUNITS
 70
     4
  9
$HYPERLINKBASE
  1

  9
$STYLESHEET
  1

  9
$XEDIT
290
     1
  9
$CEPSNTYPE
380
     0
  9
$PSTYLEMODE
290
     1
  9
$FINGERPRINTGUID
  2
{12F3BFFE-81A1-4CE6-A14C-70DF89C6907E}
  9
$VERSIONGUID
  2
{FAEB1C32-E019-11D5-929B-00C0DF256EC4}
  9
$EXTNAMES
290
     1
  9
$PSVPSCALE
 40
0.0
  9
$OLESTARTUP
290
     0
  0
ENDSEC
  0
SECTION
  2
CLASSES
  0
CLASS
  1
ACDBDICTIONARYWDFLT
  2
AcDbDictionaryWithDefault
  3
ObjectDBX Classes
 90
        0
280
     0
281
     0
  0
CLASS
  1
VISUALSTYLE
  2
AcDbVisualStyle
  3
ObjectDBX Classes
 90
     4095
280
     0
281
     0
  0
CLASS
  1
MATERIAL
  2
AcDbMaterial
  3
ObjectDBX Classes
 90
     1153
280
     0
281
     0
  0
CLASS
  1
SCALE
  2
AcDbScale
  3
ObjectDBX Classes
 90
     1153
280
     0
281
     0
  0
CLASS
  1
TABLESTYLE
  2
AcDbTableStyle
  3
ObjectDBX Classes
 90
     4095
280
     0
281
     0
  0
CLASS
  1
MLEADERSTYLE
  2
AcDbMLeaderStyle
  3
ACDB_MLEADERSTYLE_CLASS
 90
     4095
280
     0
281
     0
  0
CLASS
  1
SUN
  2
AcDbSun
  3
SCENEOE
 90
     1153
280
     0
281
     0
  0
CLASS
  1
ACDBPLACEHOLDER
  2
AcDbPlaceHolder
  3
ObjectDBX Classes
 90
        0
280
     0
281
     0
  0
CLASS
  1
LAYOUT
  2
AcDbLayout
  3
ObjectDBX Classes
 90
        0
280
     0
281
     0
  0
ENDSEC
  0
SECTION
  2
TABLES
  0
TABLE
  2
VPORT
  5
8
330
0
100
AcDbSymbolTable
 70
     1
  0
VPORT
  5
29
330
8
100
AcDbSymbolTableRecord
100
AcDbViewportTableRecord
  2
*Active
 70
     0
 10
0.0
 20
0.0
 11
1.0
 21
1.0
 12
210.0
 22
297.0
 13
0.0
 23
0.0
 14
10.0
 24
10.0
 15
10.0
 25
10.0
 16
0.0
 26
0.0
 36
1.0
 17
0.0
 27
0.0
 37
0.0
 40
594.0
 41
0.7070707071
 42
50.0
 43
0.0
 44
0.0
 50
0.0
 51
0.0
 71
     0
 72
  2000
 73
     1
 74
     3
 75
     0
 76
     0
 77
     0
 78
     0
281
     0
 65
     1
110
0.0
120
0.0
130
0.0
111
1.0
121
0.0
131
0.0
112
0.0
122
1.0
132
0.0
 79
     0
146
0.0
  0
ENDTAB
  0
TABLE
  2
LTYPE
  5
5
330
0
100
AcDbSymbolTable
 70
     8
  0
LTYPE
  5
14
330
5
100
AcDbSymbolTableRecord
100
AcDbLinetypeTableRecord
  2
ByBlock
 70
     0
  3

 72
    65
 73
     0
 40
0.0
  0
LTYPE
  5
15
330
5
100
AcDbSymbolTableRecord
100
AcDbLinetypeTableRecord
  2
ByLayer
 70
     0
  3

 72
    65
 73
     0
 40
0.0
  0
LTYPE
  5
16
330
5
100
AcDbSymbolTableRecord
100
AcDbLinetypeTableRecord
  2
Continuous
 70
     0
  3
Solid line
 72
    65
 73
     0
 40
0.0
  0
LTYPE
  5
6E
330
5
100
AcDbSymbolTableRecord
100
AcDbLinetypeTableRecord
  2
SLD-実線
 70
     0
  3
SolidWorks Line Style
 72
    65
 73
     0
 40
0.0
  0
LTYPE
  5
6F
330
5
100
AcDbSymbolTableRecord
100
AcDbLinetypeTableRecord
  2
SLD-破線
 70
     0
  3
SolidWorks Line Style
 72
    65
 73
     2
 40
1.905
 49
1.27
 74
     0
 49
-0.635
 74
     0
  0
LTYPE
  5
70
330
5
100
AcDbSymbolTableRecord
100
AcDbLinetypeTableRecord
  2
SLD-2点鎖線
 70
     0
  3
SolidWorks Line Style
 72
    65
 73
     6
 40
12.7
 49
6.35
 74
     0
 49
-1.27
 74
     0
 49
1.27
 74
     0
 49
-1.27
 74
     0
 49
1.27
 74
     0
 49
-1.27
 74
     0
  0
LTYPE
  5
71
330
5
100
AcDbSymbolTableRecord
100
AcDbLinetypeTableRecord
  2
SLD-鎖線
 70
     0
  3
SolidWorks Line Style
 72
    65
 73
     4
 40
10.16
 49
6.35
 74
     0
 49
-1.27
 74
     0
 49
1.27
 74
     0
 49
-1.27
 74
     0
  0
LTYPE
  5
72
330
5
100
AcDbSymbolTableRecord
100
AcDbLinetypeTableRecord
  2
SLD-1点鎖線(中心線)
 70
     0
  3
SolidWorks Line Style
 72
    65
 73
     4
 40
34.29
 49
30.48
 74
     0
 49
-1.27
 74
     0
 49
1.27
 74
     0
 49
-1.27
 74
     0
  0
LTYPE
  5
73
330
5
100
AcDbSymbolTableRecord
100
AcDbLinetypeTableRecord
  2
SLD-点線
 70
     0
  3
SolidWorks Line Style
 72
    65
 73
     2
 40
0.635
 49
0.0
 74
     0
 49
-0.635
 74
     0
  0
LTYPE
  5
74
330
5
100
AcDbSymbolTableRecord
100
AcDbLinetypeTableRecord
  2
SLD-細-太鎖線(切断面)
 70
     0
  3
SolidWorks Line Style
 72
    65
 73
     4
 40
10.16
 49
6.35
 74
     0
 49
-1.27
 74
     0
 49
1.27
 74
     0
 49
-1.27
 74
     0
  0
ENDTAB
  0
TABLE
  2
LAYER
  5
2
330
0
100
AcDbSymbolTable
 70
     1
  0
LAYER
  5
10
330
2
100
AcDbSymbolTableRecord
100
AcDbLayerTableRecord
  2
0
 70
     0
 62
     7
  6
Continuous
370
    -3
390
F
  0
ENDTAB
  0
TABLE
  2
STYLE
  5
3
330
0
100
AcDbSymbolTable
 70
     2
  0
STYLE
  5
11
330
3
100
AcDbSymbolTableRecord
100
AcDbTextStyleTableRecord
  2
STANDARD
 70
     0
 40
0.0
 41
1.0
 50
0.0
 71
     0
 42
7.0
  3
MSGOTHIC.TTC
  4

1001
ACAD
1000
ＭＳ Ｐゴシック
1071
    32818
  0
STYLE
  5
78
330
3
100
AcDbSymbolTableRecord
100
AcDbTextStyleTableRecord
  2
SLDTEXTSTYLE0
 70
     0
 40
0.0
 41
1.0
 50
0.0
 71
     0
 42
7.0
  3
MSGOTHIC.TTC
  4

1001
ACAD
1000
ＭＳ Ｐゴシック
1071
      306
  0
ENDTAB
  0
TABLE
  2
VIEW
  5
6
330
0
100
AcDbSymbolTable
 70
     0
  0
ENDTAB
  0
TABLE
  2
UCS
  5
7
330
0
100
AcDbSymbolTable
 70
     0
  0
ENDTAB
  0
TABLE
  2
APPID
  5
9
330
0
100
AcDbSymbolTable
 70
     1
  0
APPID
  5
12
330
9
100
AcDbSymbolTableRecord
100
AcDbRegAppTableRecord
  2
ACAD
 70
     0
  0
ENDTAB
  0
TABLE
  2
DIMSTYLE
  5
A
330
0
100
AcDbSymbolTable
 70
     1
100
AcDbDimStyleTable
  0
DIMSTYLE
105
27
330
A
100
AcDbSymbolTableRecord
100
AcDbDimStyleTableRecord
  2
ISO-25
 70
     0
 41
2.5
 42
0.625
 43
3.75
 44
1.25
 73
     0
 74
     0
 77
     1
 78
     8
140
2.5
141
2.5
143
0.0393700787
147
0.625
171
     3
172
     1
178
     0
271
     2
272
     2
274
     3
278
    44
283
     0
284
     8
340
11
  0
ENDTAB
  0
TABLE
  2
BLOCK_RECORD
  5
1
330
0
100
AcDbSymbolTable
 70
     2
  0
BLOCK_RECORD
  5
1F
330
1
100
AcDbSymbolTableRecord
100
AcDbBlockTableRecord
  2
*Model_Space
340
22
  0
BLOCK_RECORD
  5
1B
330
1
100
AcDbSymbolTableRecord
100
AcDbBlockTableRecord
  2
*Paper_Space
340
1E
  0
BLOCK_RECORD
  5
23
330
1
100
AcDbSymbolTableRecord
100
AcDbBlockTableRecord
  2
*Paper_Space0
340
26
  0
BLOCK_RECORD
  5
75
330
1
100
AcDbSymbolTableRecord
100
AcDbBlockTableRecord
  2
SW_NOTE_0
340
0
102
{BLKREFS
331
7C
102
}
  0
ENDTAB
  0
ENDSEC
  0
SECTION
  2
BLOCKS
  0
BLOCK
  5
20
330
1F
100
AcDbEntity
  8
0
100
AcDbBlockBegin
  2
*Model_Space
 70
     0
 10
0.0
 20
0.0
 30
0.0
  3
*Model_Space
  1

  0
ENDBLK
  5
21
330
1F
100
AcDbEntity
  8
0
100
AcDbBlockEnd
  0
BLOCK
  5
1C
330
1B
100
AcDbEntity
 67
     1
  8
0
100
AcDbBlockBegin
  2
*Paper_Space
 70
     0
 10
0.0
 20
0.0
 30
0.0
  3
*Paper_Space
  1

  0
ENDBLK
  5
1D
330
1B
100
AcDbEntity
 67
     1
  8
0
100
AcDbBlockEnd
  0
BLOCK
  5
24
330
23
100
AcDbEntity
  8
0
100
AcDbBlockBegin
  2
*Paper_Space0
 70
     0
 10
0.0
 20
0.0
 30
0.0
  3
*Paper_Space0
  1

  0
ENDBLK
  5
25
330
23
100
AcDbEntity
  8
0
100
AcDbBlockEnd
  0
BLOCK
  5
76
330
75
100
AcDbEntity
  8
0
100
AcDbBlockBegin
  2
SW_NOTE_0
 70
     0
 10
0.0
 20
0.0
 30
0.0
  3
SW_NOTE_0
  1

  0
MTEXT
  5
79
330
75
100
AcDbEntity
  8
0
  6
Continuous
 62
     0
370
     0
100
AcDbMText
 10
0.0
 20
8.1454545455
 30
0.0
 40
7.0
 41
0.0
 71
     1
 72
     1
  1
HCD-B17S
  7
SLDTEXTSTYLE0
 73
     1
 44
1.0
  0
MTEXT
  5
7A
330
75
100
AcDbEntity
  8
0
  6
Continuous
 62
     0
370
     0
100
AcDbMText
 10
0.0
 20
-0.8545450671
 30
0.0
 40
7.0
 41
0.0
 71
     1
 72
     1
  1
HCD-D17S
  7
SLDTEXTSTYLE0
 73
     1
 44
1.0
  0
MTEXT
  5
7B
330
75
100
AcDbEntity
  8
0
  6
Continuous
 62
     0
370
     0
100
AcDbMText
 10
0.0
 20
-9.8545446797
 30
0.0
 40
7.0
 41
0.0
 71
     1
 72
     1
  1
HCD-W17S
  7
SLDTEXTSTYLE0
 73
     1
 44
1.0
  0
ENDBLK
  5
77
330
75
100
AcDbEntity
  8
0
100
AcDbBlockEnd
  0
ENDSEC
  0
SECTION
  2
ENTITIES
  0
INSERT
  5
7C
330
1F
100
AcDbEntity
  8
0
  6
Continuous
 62
     7
370
     0
100
AcDbBlockReference
  2
SW_NOTE_0
 10
305.7111286967
 20
179.9538921381
 30
0.0
  0
LINE
  5
7D
330
1F
100
AcDbEntity
  8
0
  6
SLD-実線
 62
     7
370
    25
100
AcDbLine
 10
136.762180571
 20
393.8419768386
 30
0.0
 11
136.762180571
 21
392.1276421557
 31
0.0
  0
LINE
  5
7E
330
1F
100
AcDbEntity
  8
0
  6
SLD-実線
 62
     7
370
    25
100
AcDbLine
 10
272.7621778801
 20
392.127642502
 30
0.0
 11
272.7621778801
 21
393.8419771848
 31
0.0
  0
LINE
  5
7F
330
1F
100
AcDbEntity
  8
0
  6
SLD-実線
 62
     7
370
    25
100
AcDbLine
 10
150.7621783344
 20
370.8421708055
 30
0.0
 11
150.7621783344
 21
368.9841244942
 31
0.0
  0
LINE
  5
80
330
1F
100
AcDbEntity
  8
0
  6
SLD-実線
 62
     7
370
    25
100
AcDbLine
 10
258.7621801166
 20
368.9841247249
 30
0.0
 11
258.7621801166
 21
370.8421710363
 31
0.0
  0
LINE
  5
81
330
1F
100
AcDbEntity
  8
0
  6
SLD-実線
 62
     7
370
    25
100
AcDbLine
 10
161.5970735258
 20
352.2729556205
 30
0.0
 11
163.9951346027
 21
350.6298536276
 31
0.0
  0
LINE
  5
82
330
1F
100
AcDbEntity
  8
0
  6
SLD-実線
 62
     7
370
    25
100
AcDbLine
 10
245.5292250505
 20
350.6298523982
 30
0.0
 11
247.9272836988
 21
352.27295587
 31
0.0
  0
LINE
  5
83
330
1F
100
AcDbEntity
  8
0
  6
SLD-実線
 62
     7
370
    25
100
AcDbLine
 10
239.7621794456
 20
397.2985791168
 30
0.0
 11
239.7621794456
 21
399.8421473528
 31
0.0
  0
LINE
  5
84
330
1F
100
AcDbEntity
  8
0
  6
SLD-実線
 62
     7
370
    25
100
AcDbLine
 10
169.7621790055
 20
399.8421480534
 30
0.0
 11
169.7621790055
 21
397.2985798174
 31
0.0
  0
LINE
  5
85
330
1F
100
AcDbEntity
  8
0
  6
SLD-実線
 62
     7
370
    25
100
AcDbLine
 10
159.8284167278
 20
353.5591267706
 30
0.0
 11
162.8038019497
 21
319.1628062622
 31
0.0
  0
LINE
  5
86
330
1F
100
AcDbEntity
  8
0
  6
SLD-実線
 62
     7
370
    25
100
AcDbLine
 10
246.7205568471
 20
319.162806749
 30
0.0
 11
249.6959432698
 21
353.5591265469
 31
0.0
  0
LINE
  5
87
330
1F
100
AcDbEntity
  8
0
  6
SLD-実線
 62
     7
370
    25
100
AcDbLine
 10
198.262179446
 20
292.8938908007
 30
0.0
 11
198.262179446
 21
220.6941796163
 31
0.0
  0
LINE
  5
88
330
1F
100
AcDbEntity
  8
0
  6
SLD-実線
 62
     7
370
    25
100
AcDbLine
 10
211.2621790051
 20
220.6941796515
 30
0.0
 11
211.2621790051
 21
293.1487654363
 31
0.0
  0
LWPOLYLINE
  5
89
330
1F
100
AcDbEntity
  8
0
  6
SLD-実線
 62
     7
370
    25
100
AcDbPolyline
 90
      100
 70
   128
 43
0.0
 10
181.4274094313
 20
377.9238644647
 10
184.2790541526
 20
377.2074725245
 10
187.2131755031
 20
376.5856723825
 10
190.2179609091
 20
376.0609693845
 10
193.2813103067
 20
375.635476248
 10
196.3908898402
 20
375.3109071453
 10
199.5341787882
 20
375.0885692894
 10
202.6985162836
 20
374.9693545746
 10
205.8711649172
 20
374.9537461548
 10
209.0393477114
 20
375.0418062246
 10
212.1903099849
 20
375.2331809006
 10
215.311359254
 20
375.527098054
 10
218.3899321304
 20
375.9223729935
 10
221.4136297369
 20
376.4174183642
 10
224.3702790239
 20
377.010236161
 10
227.2479705625
 20
377.6984443373
 10
230.035123934
 20
378.479266626
 10
232.7205098273
 20
379.3495623299
 10
235.2933166629
 20
380.3058255693
 10
237.7431848166
 20
381.3442063531
 10
240.0602534063
 20
382.4605233534
 10
242.2351868744
 20
383.650281629
 10
244.2592302843
 20
384.9086895963
 10
246.1242325744
 20
386.2306817249
 10
247.8226833505
 20
387.6109338933
 10
249.3477465051
 20
389.0438879796
 10
250.6932790081
 20
390.5237743123
 10
251.8538657284
 20
392.044633325
 10
252.8248263767
 20
393.6003428878
 10
253.6022562924
 20
395.1846375608
 10
254.1830264434
 20
396.7911373724
 10
254.5647970131
 20
398.4133734137
 10
254.7460279095
 20
400.0448145409
 10
254.7259914823
 20
401.6788921209
 10
254.5047677155
 20
403.3090241173
 10
254.0832522758
 20
404.9286476129
 10
253.4631341796
 20
406.5312422351
 10
252.646915969
 20
408.1103539593
 10
251.6378823638
 20
409.659622069
 10
250.4400974656
 20
411.1728113714
 10
249.0583829292
 20
412.6438278931
 10
247.498302492
 20
414.0667469475
 10
245.766141471
 20
415.4358404017
 10
243.868870977
 20
416.7455972492
 10
241.8141302494
 20
417.9907392578
 10
239.6101956277
 20
419.1662554357
 10
237.2659400999
 20
420.2674108557
 10
234.7908019089
 20
421.2897725429
 10
232.1947514669
 20
422.2292249745
 10
229.488239464
 20
423.0819841832
 10
226.6821634621
 20
423.8446155136
 10
223.7878226836
 20
424.5140480791
 10
220.8168727094
 20
425.0875870742
 10
217.7812767905
 20
425.5629248374
 10
214.6932585334
 20
425.9381450325
 10
211.5652500086
 20
426.2117367521
 10
208.4098482334
 20
426.382599836
 10
205.2397559613
 20
426.4500436079
 10
202.0677447075
 20
426.4137990942
 10
198.9065819946
 20
426.274012764
 10
195.7689963013
 20
426.0312452079
 10
192.6676238916
 20
425.686474742
 10
189.6149535395
 20
425.2410907361
 10
186.6232728103
 20
424.6968843502
 10
183.7046305842
 20
424.0560489572
 10
180.8707838425
 20
423.3211631485
 10
178.133136763
 20
422.4951888473
 10
175.5027139553
 20
421.5814492948
 10
172.9901103096
 20
420.5836253256
 10
170.6054434116
 20
419.5057335894
 10
168.3583122246
 20
418.3521150017
 10
166.2577646033
 20
417.1274153701
 10
164.3122604274
 20
415.8365658561
 10
162.5296382465
 20
414.484762753
 10
160.9170691536
 20
413.0774512435
 10
159.4810489463
 20
411.6202971922
 10
158.227358236
 20
410.1191687679
 10
157.1610473952
 20
408.5801094172
 10
156.2864111768
 20
407.0093172041
 10
155.6069682744
 20
405.4131166372
 10
155.1254574763
 20
403.7979343605
 10
154.8438144117
 20
402.1702764569
 10
154.7631755598
 20
400.5366953602
 10
154.8838648447
 20
398.9037685498
 10
155.2053995657
 20
397.2780714486
 10
155.726475941
 20
395.6661509802
 10
156.4450079145
 20
394.0744976664
 10
157.3580918798
 20
392.5095194194
 10
158.4620599003
 20
390.9775194852
 10
159.7524583901
 20
389.4846653568
 10
161.2240955222
 20
388.0369672127
 10
162.8710453502
 20
386.640257272
 10
164.6866764566
 20
385.3001581444
 10
166.6636779463
 20
384.0220670885
 10
168.7940865391
 20
382.8111269546
 10
171.069327021
 20
381.6722173598
 10
173.4802375993
 20
380.6099239341
 10
176.0171096675
 20
379.6285231739
 10
178.669727778
 20
378.7319672398
 10
181.4274094313
 20
377.9238644647
  0
LWPOLYLINE
  5
8A
330
1F
100
AcDbEntity
  8
0
  6
SLD-実線
 62
     7
370
    25
100
AcDbPolyline
 90
      116
 70
   128
 43
0.0
 10
173.0268910536
 20
362.8673628657
 10
176.3584682005
 20
362.0210019992
 10
179.7748155538
 20
361.2696096843
 10
183.2657333014
 20
360.6154243362
 10
186.8208011166
 20
360.0603971955
 10
190.4294176476
 20
359.6061902735
 10
194.0808080247
 20
359.2541569568
 10
197.7640744224
 20
359.0053456201
 10
201.4682269918
 20
358.8605020676
 10
205.1822074736
 20
358.8200566063
 10
208.8949377922
 20
358.8841303645
 10
212.5953314962
 20
359.0525300128
 10
216.2723525106
 20
359.3247578293
 10
219.9150178839
 20
359.6999979372
 10
223.512461665
 20
360.1771293152
 10
227.0539484467
 20
360.7547307951
 10
230.5289082342
 20
361.4310780934
 10
233.9269701217
 20
362.2041520136
 10
237.2379942307
 20
363.0716449522
 10
240.4520937644
 20
364.0309700909
 10
243.5596834193
 20
365.0792634247
 10
246.5514856529
 20
366.2133939907
 10
249.4185721842
 20
367.4299797066
 10
252.1523874214
 20
368.7253896812
 10
254.7447698291
 20
370.0957568474
 10
257.187984232
 20
371.5369930458
 10
259.4747412607
 20
373.0447956721
 10
261.5982145203
 20
374.6146644337
 10
263.5520642397
 20
376.2419162096
 10
265.3304625118
 20
377.9216932411
 10
266.9281040898
 20
379.6489818917
 10
268.3402145755
 20
381.4186288613
 10
269.5625859436
 20
383.2253511924
 10
270.5915657227
 20
385.0637585991
 10
271.4240838651
 20
386.9283632489
 10
272.0576573884
 20
388.8136007372
 10
272.4903972602
 20
390.7138450297
 10
272.7210082585
 20
392.6234247705
 10
272.7488030626
 20
394.5366411468
 10
272.5736988191
 20
396.4477850926
 10
272.1962176889
 20
398.3511501568
 10
271.6174863861
 20
400.2410608305
 10
270.8392361775
 20
402.1118725475
 10
269.8637809146
 20
403.9580036872
 10
268.6940390878
 20
405.7739447673
 10
267.3335012438
 20
407.554275976
 10
265.7862241262
 20
409.29368612
 10
264.0568293016
 20
410.9869795064
 10
262.1504711248
 20
412.6291063427
 10
260.0728485441
 20
414.2151660371
 10
257.8301557713
 20
415.7404227742
 10
255.4290882278
 20
417.2003277632
 10
252.876809232
 20
418.590519613
 10
250.1809379156
 20
419.9068536503
 10
247.3495174671
 20
421.1453997022
 10
244.3910026836
 20
422.3024628355
 10
241.3142171854
 20
423.3745863067
 10
238.1283480484
 20
424.358574715
 10
234.8429003897
 20
425.25148899
 10
231.4676794847
 20
426.0506642679
 10
228.0127607033
 20
426.7537180625
 10
224.4884507642
 20
427.3585477787
 10
220.9052701378
 20
427.8633528506
 10
217.2739129066
 20
428.2666239565
 10
213.6052178893
 20
428.567159544
 10
209.9101283743
 20
428.7640594187
 10
206.1996777499
 20
428.8567394965
 10
202.4849356942
 20
428.844920395
 10
198.7769887712
 20
428.7286413848
 10
195.0869081285
 20
428.5082453051
 10
191.4256966899
 20
428.1843907462
 10
187.8042905294
 20
427.7580451679
 10
184.2334920646
 20
427.2304813615
 10
180.7239582519
 20
426.6032741508
 10
177.286166909
 20
425.8782921887
 10
173.9303702246
 20
425.0577019151
 10
170.6665924722
 20
424.1439529925
 10
167.5045663161
 20
423.1397695833
 10
164.453732811
 20
422.0481503501
 10
161.5231957381
 20
420.8723526639
 10
158.7217012891
 20
419.6158851093
 10
156.0576085533
 20
418.2824992341
 10
153.5388688374
 20
416.8761734766
 10
151.1729994471
 20
415.4011040201
 10
148.9670636238
 20
413.8616934327
 10
146.9276395452
 20
412.262536856
 10
145.0608198132
 20
410.6084050599
 10
143.3721695572
 20
408.9042364407
 10
141.8667304469
 20
407.1551162695
 10
140.5489993251
 20
405.3662640598
 10
139.4229042319
 20
403.5430183894
 10
138.4918055228
 20
401.6908215461
 10
137.758485398
 20
399.8152010864
 10
137.2251307343
 20
397.921753078
 10
136.8933334066
 20
396.0161300812
 10
136.7640843428
 20
394.1040189008
 10
136.8377653354
 20
392.1911243714
 10
137.1141585603
 20
390.2831580931
 10
137.5924446133
 20
388.3858118476
 10
138.2711896532
 20
386.5047491599
 10
139.1483694733
 20
384.6455835714
 10
140.221367216
 20
382.8138640741
 10
141.4869809705
 20
381.0150578607
 10
142.941429633
 20
379.2545313759
 10
144.5803773431
 20
377.5375371674
 10
146.3989331189
 20
375.8692053073
 10
148.3916660538
 20
374.2545088901
 10
150.5526289265
 20
372.6982706324
 10
152.8753752274
 20
371.2051322128
 10
155.3529740761
 20
369.7795523869
 10
157.9780275212
 20
368.4257827607
 10
160.7427045851
 20
367.1478650467
 10
163.63875481
 20
365.9496165348
 10
166.6575310035
 20
364.8346065557
 10
169.7900245623
 20
363.8061642354
 10
173.0268910536
 20
362.8673628657
  0
LWPOLYLINE
  5
8B
330
1F
100
AcDbEntity
  8
0
  6
SLD-実線
 62
     7
370
    25
100
AcDbPolyline
 90
       39
 70
   128
 43
0.0
 10
173.0268910536
 20
361.1530281828
 10
176.3584682005
 20
360.3066673164
 10
179.7748155538
 20
359.5552750015
 10
183.2657333014
 20
358.9010896533
 10
186.8208011166
 20
358.3460625126
 10
190.4294176476
 20
357.8918555907
 10
194.0808080247
 20
357.5398222739
 10
197.7640744224
 20
357.2910109373
 10
201.4682269918
 20
357.1461673848
 10
205.1822074736
 20
357.1057219235
 10
208.8949377922
 20
357.1697956817
 10
212.5953314962
 20
357.3381953299
 10
216.2723525106
 20
357.6104231465
 10
219.9150178839
 20
357.9856632543
 10
223.512461665
 20
358.4627946323
 10
227.0539484467
 20
359.0403961123
 10
230.5289082342
 20
359.7167434106
 10
233.9269701217
 20
360.4898173307
 10
237.2379942307
 20
361.3573102694
 10
240.4520937644
 20
362.316635408
 10
243.5596834193
 20
363.3649287418
 10
246.5514856529
 20
364.4990593078
 10
249.4185721842
 20
365.7156450238
 10
252.1523874214
 20
367.0110549984
 10
254.7447698291
 20
368.3814221645
 10
257.187984232
 20
369.8226583629
 10
259.4747412607
 20
371.3304609893
 10
261.5982145203
 20
372.9003297509
 10
263.5520642397
 20
374.5275815268
 10
265.3304625118
 20
376.2073585583
 10
266.9281040898
 20
377.9346472088
 10
268.3402145755
 20
379.7042941784
 10
269.5625859436
 20
381.5110165095
 10
270.5915657227
 20
383.3494239163
 10
271.4240838651
 20
385.2140285661
 10
272.0576573884
 20
387.0992660544
 10
272.4903972602
 20
388.9995103469
 10
272.7210082585
 20
390.9090900877
 10
272.7621778801
 20
392.127642502
  0
LWPOLYLINE
  5
8C
330
1F
100
AcDbEntity
  8
0
  6
SLD-実線
 62
     7
370
    25
100
AcDbPolyline
 90
       21
 70
   128
 43
0.0
 10
136.762180571
 20
392.1276421557
 10
136.8377653354
 20
390.4767896885
 10
137.1141585603
 20
388.5688234103
 10
137.5924446133
 20
386.6714771647
 10
138.2711896532
 20
384.7904144771
 10
139.1483694733
 20
382.9312488886
 10
140.221367216
 20
381.0995293913
 10
141.4869809705
 20
379.3007231778
 10
142.941429633
 20
377.540196693
 10
144.5803773431
 20
375.8232024846
 10
146.3989331189
 20
374.1548706245
 10
148.3916660538
 20
372.5401742073
 10
150.5526289265
 20
370.9839359496
 10
152.8753752274
 20
369.49079753
 10
155.3529740761
 20
368.0652177041
 10
157.9780275212
 20
366.7114480779
 10
160.7427045851
 20
365.4335303639
 10
163.63875481
 20
364.235281852
 10
166.6575310035
 20
363.1202718728
 10
169.7900245623
 20
362.0918295526
 10
173.0268910536
 20
361.1530281828
  0
LWPOLYLINE
  5
8D
330
1F
100
AcDbEntity
  8
0
  6
SLD-実線
 62
     7
370
    25
100
AcDbPolyline
 90
       85
 70
   128
 43
0.0
 10
188.0078145376
 20
384.3465415801
 10
185.6819377905
 20
385.0371241589
 10
183.4627650459
 20
385.8152953586
 10
181.362706919
 20
386.6767038357
 10
179.3935084908
 20
387.61653264
 10
177.5661797752
 20
388.6295246206
 10
175.890945769
 20
389.7100176954
 10
174.3771686143
 20
390.8519660054
 10
173.0333170256
 20
392.0489851042
 10
171.8669074869
 20
393.2943798708
 10
170.8844610498
 20
394.5811866226
 10
170.0914723506
 20
395.9022086539
 10
169.4923763839
 20
397.2500578071
 10
169.0905236042
 20
398.6171959499
 10
168.8881618001
 20
399.9959789514
 10
168.8864227271
 20
401.3786950252
 10
169.0853116224
 20
402.757612052
 10
169.4837251598
 20
404.1250177154
 10
170.0794271683
 20
405.4732656923
 10
170.8690897058
 20
406.7948157431
 10
171.8482956445
 20
408.0822773453
 10
173.0115682303
 20
409.3284508795
 10
174.3524061459
 20
410.5263659618
 10
175.8633064806
 20
411.6693244201
 10
177.5358206481
 20
412.750934315
 10
179.3605960386
 20
413.7651464825
 10
181.3274253469
 20
414.7062903465
 10
183.4253150513
 20
415.569099644
 10
185.6425264881
 20
416.3487525156
 10
187.96666359
 20
417.0408872508
 10
190.3847270832
 20
417.6416325742
 10
192.8831962537
 20
418.1476298958
 10
195.4480979487
 20
418.5560492689
 10
198.0650872915
 20
418.8646065023
 10
200.7195282143
 20
419.0715759843
 10
203.3965788416
 20
419.1758000184
 10
206.0812659378
 20
419.1766957072
 10
208.7585767892
 20
419.0742603534
 10
211.4135371308
 20
418.8690622121
 10
214.0313008315
 20
418.5622529964
 10
216.5972277311
 20
418.1555467233
 10
219.0969683619
 20
417.6512183817
 10
221.5165439135
 20
417.0520887085
 10
223.8424206606
 20
416.3615061297
 10
226.0615934052
 20
415.5833349299
 10
228.1616515321
 20
414.7219264528
 10
230.1308499603
 20
413.7820976485
 10
231.9581786759
 20
412.7691056679
 10
233.6334126821
 20
411.6886125932
 10
235.1471898368
 20
410.5466642831
 10
236.4910414254
 20
409.3496451843
 10
237.6574509642
 20
408.1042504178
 10
238.6398974012
 20
406.817443666
 10
239.4328861004
 20
405.4964216347
 10
240.0319820672
 20
404.1485724815
 10
240.4338348469
 20
402.7814343387
 10
240.6361966509
 20
401.4026513371
 10
240.637935724
 20
400.0199352634
 10
240.4390468287
 20
398.6410182365
 10
240.0406332912
 20
397.2736125732
 10
239.4449312828
 20
395.9253645962
 10
238.6552687453
 20
394.6038145455
 10
237.6760628066
 20
393.3163529432
 10
236.5127902208
 20
392.0701794091
 10
235.1719523052
 20
390.8722643268
 10
233.6610519705
 20
389.7293058685
 10
231.988537803
 20
388.6476959736
 10
230.1637624124
 20
387.633483806
 10
228.1969331042
 20
386.6923399421
 10
226.0990433998
 20
385.8295306446
 10
223.881831963
 20
385.049877773
 10
221.5576948611
 20
384.3577430378
 10
219.1396313679
 20
383.7569977144
 10
216.6411621974
 20
383.2510003927
 10
214.0762605024
 20
382.8425810197
 10
211.4592711596
 20
382.5340237863
 10
208.8048302368
 20
382.3270543042
 10
206.1277796095
 20
382.2228302702
 10
203.4430925133
 20
382.2219345814
 10
200.7657816619
 20
382.3243699352
 10
198.1108213203
 20
382.5295680765
 10
195.4930576195
 20
382.8363772921
 10
192.92713072
 20
383.2430835653
 10
190.4273900892
 20
383.7474119069
 10
188.0078145376
 20
384.3465415801
  0
LWPOLYLINE
  5
8E
330
1F
100
AcDbEntity
  8
0
  6
SLD-実線
 62
     7
370
    25
100
AcDbPolyline
 90
       35
 70
   128
 43
0.0
 10
179.5606275696
 20
344.3866376041
 10
182.519057567
 20
343.6410935493
 10
185.5602315569
 20
342.9898256551
 10
188.6728375714
 20
342.4352574487
 10
191.8452967392
 20
341.979453283
 10
195.0658102119
 20
341.6241099223
 10
198.3223926373
 20
341.3705452752
 10
201.6029312326
 20
341.2197062032
 10
204.8952251381
 20
341.1721534866
 10
208.187020377
 20
341.228061001
 10
211.4660785826
 20
341.3872252404
 10
214.7201963104
 20
341.6490492224
 10
217.9372676327
 20
342.012564525
 10
221.1053299904
 20
342.4764123173
 10
224.2125921018
 20
343.038872654
 10
227.2474983919
 20
343.6978513043
 10
230.1987580008
 20
344.4508957311
 10
233.0553926912
 20
345.29520485
 10
235.806773133
 20
346.2276397766
 10
238.4426666289
 20
347.2447292967
 10
240.9532671737
 20
348.342690983
 10
243.3292337307
 20
349.5174397751
 10
245.5617264462
 20
350.7646068821
 10
247.6424438036
 20
352.0795513785
 10
249.5636445732
 20
353.4573816279
 10
251.3181787762
 20
354.8929731718
 10
252.8995242334
 20
356.3809838461
 10
254.3017955809
 20
357.9158790247
 10
255.5197749621
 20
359.4919492437
 10
256.54893338
 20
361.1033310406
 10
257.385441214
 20
362.7440295536
 10
258.0261845854
 20
364.407942716
 10
258.4687866893
 20
366.0888779668
 10
258.7115948067
 20
367.7805847965
 10
258.7621801166
 20
368.9841247249
  0
LWPOLYLINE
  5
8F
330
1F
100
AcDbEntity
  8
0
  6
SLD-実線
 62
     7
370
    25
100
AcDbPolyline
 90
       19
 70
   128
 43
0.0
 10
150.7621783344
 20
368.9841244942
 10
150.8249326531
 20
367.6436819027
 10
151.0839247235
 20
365.9526121901
 10
151.5426021098
 20
364.2728199541
 10
152.1992583993
 20
362.6105536952
 10
153.0514520831
 20
360.9719981142
 10
154.096017953
 20
359.3632482355
 10
155.3290578612
 20
357.7902880548
 10
156.7459981962
 20
356.25897058
 10
158.3415586785
 20
354.7749894316
 10
160.1098086454
 20
353.343870054
 10
162.0441670558
 20
351.9709306647
 10
164.1374391883
 20
350.6612831277
 10
166.381840166
 20
349.4197983577
 10
168.7690160068
 20
348.2510919212
 10
171.2900899321
 20
347.1595157898
 10
173.9356831911
 20
346.149128817
 10
176.6959520111
 20
345.2236888654
 10
179.5606275696
 20
344.3866376041
  0
LWPOLYLINE
  5
90
330
1F
100
AcDbEntity
  8
0
  6
SLD-実線
 62
     7
370
    25
100
AcDbPolyline
 90
       24
 70
   128
 43
0.0
 10
180.9607148352
 20
343.18166497
 10
183.8398675403
 20
342.4577774245
 10
186.8015921504
 20
341.8284297503
 10
189.8341988641
 20
341.2961047736
 10
192.925719174
 20
340.8629033208
 10
196.06395229
 20
340.530533772
 10
199.2365143983
 20
340.3003095194
 10
202.4308819958
 20
340.1731393604
 10
205.6344517421
 20
340.149524247
 10
208.8345796286
 20
340.2295574873
 10
212.0186342413
 20
340.4129232871
 10
215.1740501147
 20
340.6988974345
 10
218.288376326
 20
341.0863536182
 10
221.349321339
 20
341.5737599175
 10
224.3448052574
 20
342.159192803
 10
227.2630026083
 20
342.8403439494
 10
230.0924008206
 20
343.6145238667
 10
232.8218333971
 20
344.4786778331
 10
235.4405269532
 20
345.4293948048
 10
237.9381460115
 20
346.4629223599
 10
240.3048353724
 20
347.5751833847
 10
242.5312526686
 20
348.7617872937
 10
244.6086142127
 20
350.0180501099
 10
245.5292250505
 20
350.6298523982
  0
ARC
  5
91
330
1F
100
AcDbEntity
  8
0
  6
SLD-実線
 62
     7
370
    25
100
AcDbCircle
 10
194.4456637112
 20
396.9441586374
 30
0.0
 40
55.42787720565742
100
AcDbArc
 50
236.6760531713
 51
255.9193053614
  0
LWPOLYLINE
  5
92
330
1F
100
AcDbEntity
  8
0
  6
SLD-実線
 62
     7
370
    25
100
AcDbPolyline
 90
       61
 70
   128
 43
0.0
 10
233.2978712503
 20
389.4799422922
 10
233.6954952438
 20
389.7622631931
 10
235.1682953268
 20
390.9196052151
 10
236.4669284974
 20
392.1310016867
 10
237.5839600924
 20
393.3895127094
 10
238.5129936139
 20
394.6879289788
 10
239.248705865
 20
396.0188143017
 10
239.7868795877
 20
397.3745456724
 10
240.1244353041
 20
398.7473566859
 10
240.2594413253
 20
400.1293843062
 10
240.1911206093
 20
401.5127125612
 10
239.9198681196
 20
402.8894182629
 10
239.4472331335
 20
404.2516154079
 10
238.7759257568
 20
405.5915005914
 10
237.9097922984
 20
406.9014009187
 10
236.8537901906
 20
408.173811193
 10
235.6139726524
 20
409.4014447259
 10
234.1974377557
 20
410.577269959
 10
232.6122984482
 20
411.6945500676
 10
230.8676386195
 20
412.7468874419
 10
228.9734485776
 20
413.7282542397
 10
226.940577776
 20
414.6330269284
 10
224.7806714791
 20
415.456025192
 10
222.5061014463
 20
416.1925351082
 10
220.1298956668
 20
416.8383369231
 10
217.6656643995
 20
417.38973166
 10
215.1275239819
 20
417.8435618265
 10
212.5300124391
 20
418.1972278419
 10
209.8880053092
 20
418.4487022364
 10
207.2166393736
 20
418.5965460409
 10
204.5312145509
 20
418.6399137558
 10
201.8471118521
 20
418.5785539551
 10
199.1797079948
 20
418.4128194759
 10
196.5442793115
 20
418.1436609929
 10
193.9559213539
 20
417.7726174116
 10
191.4294614489
 20
417.3018168554
 10
188.979368604
 20
416.7339545083
 10
186.6196797461
 20
416.0722822907
 10
184.3639090312
 20
415.3205922874
 10
182.2249787309
 20
414.4831883472
 10
180.2151380823
 20
413.5648685456
 10
178.3458998032
 20
412.570892
 10
176.6279739297
 20
411.5069512934
 10
175.0711985025
 20
410.3791418231
 10
173.6844879569
 20
409.1939237606
 10
172.4757873064
 20
407.9580855571
 10
171.4520238283
 20
406.6787050076
 10
170.6190557788
 20
405.3631115305
 10
169.981655252
 20
404.0188406584
 10
169.5434740214
 20
402.6535924758
 10
169.3070253114
 20
401.2751850503
 10
169.2736594711
 20
399.891516299
 10
169.4435677222
 20
398.5105100915
 10
169.8157775658
 20
397.1400768207
 10
170.388158326
 20
395.7880674244
 10
171.1574307649
 20
394.4622252135
 10
172.1191861704
 20
393.1701448896
 10
173.2679193992
 20
391.9192266846
 10
174.5970479644
 20
390.7166353776
 10
176.0989603608
 20
389.5692611285
 10
176.2264894974
 20
389.4799431333
  0
LWPOLYLINE
  5
93
330
1F
100
AcDbEntity
  8
0
  6
SLD-実線
 62
     7
370
    25
100
AcDbPolyline
 90
        3
 70
   128
 43
0.0
 10
240.1355564377
 20
398.8135476545
 10
239.9198681196
 20
399.8036156342
 10
239.7469119436
 20
400.374510294
  0
LWPOLYLINE
  5
94
330
1F
100
AcDbEntity
  8
0
  6
SLD-実線
 62
     7
370
    25
100
AcDbPolyline
 90
        3
 70
   128
 43
0.0
 10
169.7774465869
 20
400.3745102101
 10
169.5434740214
 20
399.5677898472
 10
169.3888020437
 20
398.8135473471
  0
LWPOLYLINE
  5
95
330
1F
100
AcDbEntity
  8
0
  6
SLD-実線
 62
     7
370
    25
100
AcDbPolyline
 90
       57
 70
   128
 43
0.0
 10
235.2719028974
 20
391.0087316196
 10
236.0203817125
 20
391.732552229
 10
237.1216822923
 20
392.9733371507
 10
238.0376318178
 20
394.2534658424
 10
238.7629804039
 20
395.5656065544
 10
239.2935738666
 20
396.9022430667
 10
239.6263773731
 20
398.2557183274
 10
239.7594789864
 20
399.618281081
 10
239.6921226291
 20
400.982126263
 10
239.4246888356
 20
402.3394419931
 10
238.9587115846
 20
403.6824527268
 10
238.2968590518
 20
405.0034662478
 10
237.4429254587
 20
406.2949171025
 10
236.4017961076
 20
407.5494064737
 10
235.1794394135
 20
408.7597499046
 10
233.7828559696
 20
409.9190139199
 10
232.2200436744
 20
411.0205580451
 10
230.4999560399
 20
412.0580732549
 10
228.6324454013
 20
413.0256180169
 10
226.6282062638
 20
413.91764779
 10
224.4987211655
 20
414.729054686
 10
222.2561880671
 20
415.4551915423
 10
219.913449995
 20
416.0918975515
 10
217.4839261145
 20
416.635525672
 10
214.9815338918
 20
417.0829637827
 10
212.4206062588
 20
417.4316485181
 10
209.8158108244
 20
417.6795807168
 10
207.1820703102
 20
417.8253427067
 10
204.5344684259
 20
417.8680989372
 10
201.888170615
 20
417.8076034184
 10
199.2583342309
 20
417.6442035237
 10
196.6600233817
 20
417.3788360151
 10
194.1081218989
 20
417.0130181559
 10
191.6172458938
 20
416.5488486966
 10
189.2016627683
 20
415.9889843289
 10
186.8752075706
 20
415.3366320463
 10
184.6512087778
 20
414.5955280963
 10
182.542402113
 20
413.7699196415
 10
180.5608708812
 20
412.8645332485
 10
178.7179597861
 20
411.8845565492
 10
177.0242287881
 20
410.8356014268
 10
175.4893803699
 20
409.7236761928
 10
174.1222029397
 20
408.555150902
 10
172.9305270331
 20
407.3367187159
 10
171.9211786824
 20
406.0753586118
 10
171.0999420174
 20
404.7782947686
 10
170.4715225457
 20
403.452956617
 10
170.0395124787
 20
402.1069367729
 10
169.8063933225
 20
400.7479442335
 10
169.7734964524
 20
399.3837638399
 10
169.9410125106
 20
398.0222078942
 10
170.3079810022
 20
396.6710772262
 10
170.8722989504
 20
395.3381100288
 10
171.6307366887
 20
394.0309417713
 10
172.5789475679
 20
392.7570591727
 10
173.711499535
 20
391.5237590782
 10
174.25245347
 20
391.008731366
  0
LWPOLYLINE
  5
96
330
1F
100
AcDbEntity
  8
0
  6
SLD-実線
 62
     7
370
    25
100
AcDbPolyline
 90
       36
 70
   128
 43
0.0
 10
162.8038019497
 20
319.1628062622
 10
162.8370635907
 20
318.8344204937
 10
163.1190337402
 20
317.3117412424
 10
163.6092224009
 20
315.8031303754
 10
164.3051751083
 20
314.316133081
 10
165.2034136655
 20
312.8581833668
 10
166.2994480444
 20
311.4365704531
 10
167.5877973942
 20
310.0584037769
 10
169.062018325
 20
308.7305727633
 10
170.7147411074
 20
307.4597163779
 10
172.5377023936
 20
306.2521892859
 10
174.5217872283
 20
305.1140309096
 10
176.6570733473
 20
304.0509295256
 10
178.9328865933
 20
303.0682028648
 10
181.3378477774
 20
302.1707636827
 10
183.8599311836
 20
301.3630995202
 10
186.4865255676
 20
300.6492474478
 10
189.2044977868
 20
300.0327767721
 10
192.0002595175
 20
299.516770904
 10
194.8598308843
 20
299.103810065
 10
197.7689153681
 20
298.795959607
 10
200.7129652648
 20
298.5947565603
 10
203.6772633182
 20
298.5012091424
 10
206.6469850899
 20
298.515784145
 10
209.607281507
 20
298.6384083637
 10
212.5433521671
 20
298.8684681996
 10
215.4405180467
 20
299.2048148469
 10
218.2842907338
 20
299.6457660866
 10
221.0604528688
 20
300.1891169652
 10
223.7551260941
 20
300.8321506149
 10
226.3548316361
 20
301.5716521601
 10
228.8465725762
 20
302.4039232382
 10
231.217890634
 20
303.3248045317
 10
233.4569300433
 20
304.3296887796
 10
235.5524960043
 20
305.4135531611
 10
237.494107989
 20
306.5709784343
  0
ARC
  5
97
330
1F
100
AcDbEntity
  8
0
  6
SLD-実線
 62
     7
370
    25
100
AcDbCircle
 10
235.0140577054
 20
320.2025208076
 30
0.0
 40
11.75257960954062
100
AcDbArc
 50
341.3048236977
 51
354.9245860069
  0
ARC
  5
98
330
1F
100
AcDbEntity
  8
0
  6
SLD-実線
 62
     7
370
    25
100
AcDbCircle
 10
221.3799951625
 20
331.8583734327
 30
0.0
 40
29.98527935488413
100
AcDbArc
 50
302.506874065
 51
308.2483268075
  0
LINE
  5
99
330
1F
100
AcDbEntity
  8
0
  6
SLD-実線
 62
     7
370
    25
100
AcDbLine
 10
274.8271042759
 20
372.6012678898
 30
0.0
 11
267.3599776983
 21
365.3131234348
 31
0.0
  0
LINE
  5
9A
330
1F
100
AcDbEntity
  8
0
  6
SLD-実線
 62
     7
370
    25
100
AcDbLine
 10
275.6181519881
 20
372.0029411547
 30
0.0
 11
274.8271042759
 21
372.6012678898
 31
0.0
  0
LINE
  5
9B
330
1F
100
AcDbEntity
  8
0
  6
SLD-実線
 62
     7
370
    25
100
AcDbLine
 10
268.1510254105
 20
364.7147966997
 30
0.0
 11
275.6181519881
 21
372.0029411547
 31
0.0
  0
LINE
  5
9C
330
1F
100
AcDbEntity
  8
0
  6
SLD-実線
 62
     7
370
    25
100
AcDbLine
 10
267.3599776983
 20
365.3131234348
 30
0.0
 11
268.1510254105
 21
364.7147966997
 31
0.0
  0
LINE
  5
9D
330
1F
100
AcDbEntity
  8
0
  6
SLD-実線
 62
     7
370
    25
100
AcDbLine
 10
264.7067179563
 20
360.8912187313
 30
0.0
 11
267.3599776983
 21
365.3131234348
 31
0.0
  0
LINE
  5
9E
330
1F
100
AcDbEntity
  8
0
  6
SLD-実線
 62
     7
370
    25
100
AcDbLine
 10
265.5773461965
 20
360.4255110964
 30
0.0
 11
268.1510254105
 21
364.7147966997
 31
0.0
  0
LINE
  5
9F
330
1F
100
AcDbEntity
  8
0
  6
SLD-実線
 62
     7
370
    25
100
AcDbLine
 10
265.5773461965
 20
360.4255110964
 30
0.0
 11
264.7067179563
 21
360.8912187313
 31
0.0
  0
LINE
  5
A0
330
1F
100
AcDbEntity
  8
0
  6
SLD-実線
 62
     7
370
    25
100
AcDbLine
 10
273.044472774
 20
367.7136555514
 30
0.0
 11
275.6181519881
 21
372.0029411547
 31
0.0
  0
LINE
  5
A1
330
1F
100
AcDbEntity
  8
0
  6
SLD-実線
 62
     7
370
    25
100
AcDbLine
 10
273.044472774
 20
367.7136555514
 30
0.0
 11
265.5773461965
 21
360.4255110964
 31
0.0
  0
LINE
  5
A2
330
1F
100
AcDbEntity
  8
0
  6
SLD-実線
 62
     7
370
    25
100
AcDbLine
 10
263.804269366
 20
335.1307450443
 30
0.0
 11
262.9378847178
 21
335.6569312577
 31
0.0
  0
LINE
  5
A3
330
1F
100
AcDbEntity
  8
0
  6
SLD-実線
 62
     7
370
    25
100
AcDbLine
 10
262.9378847178
 20
335.6569312577
 30
0.0
 11
264.7067179563
 21
360.8912187313
 31
0.0
  0
LINE
  5
A4
330
1F
100
AcDbEntity
  8
0
  6
SLD-実線
 62
     7
370
    25
100
AcDbLine
 10
263.804269366
 20
335.1307450443
 30
0.0
 11
265.5773461965
 21
360.4255110964
 31
0.0
  0
LINE
  5
A5
330
1F
100
AcDbEntity
  8
0
  6
SLD-実線
 62
     7
370
    25
100
AcDbLine
 10
271.2713959435
 20
342.4188894994
 30
0.0
 11
263.804269366
 21
335.1307450443
 31
0.0
  0
LINE
  5
A6
330
1F
100
AcDbEntity
  8
0
  6
SLD-実線
 62
     7
370
    25
100
AcDbLine
 10
271.2713959435
 20
342.4188894994
 30
0.0
 11
273.044472774
 21
367.7136555514
 31
0.0
  0
LINE
  5
A7
330
1F
100
AcDbEntity
  8
0
  6
SLD-実線
 62
     7
370
    25
100
AcDbLine
 10
240.8274329937
 20
308.8285460332
 30
0.0
 11
239.9430130797
 21
309.3340882691
 31
0.0
  0
LINE
  5
A8
330
1F
100
AcDbEntity
  8
0
  6
SLD-実線
 62
     7
370
    25
100
AcDbLine
 10
239.9430130797
 20
309.3340882691
 30
0.0
 11
262.9378847178
 21
335.6569312577
 31
0.0
  0
LINE
  5
A9
330
1F
100
AcDbEntity
  8
0
  6
SLD-実線
 62
     7
370
    25
100
AcDbLine
 10
240.8274329937
 20
308.8285460332
 30
0.0
 11
263.804269366
 21
335.1307450443
 31
0.0
  0
LINE
  5
AA
330
1F
100
AcDbEntity
  8
0
  6
SLD-実線
 62
     7
370
    25
100
AcDbLine
 10
248.2945595713
 20
316.1166904882
 30
0.0
 11
240.8274329937
 21
308.8285460332
 31
0.0
  0
LINE
  5
AB
330
1F
100
AcDbEntity
  8
0
  6
SLD-実線
 62
     7
370
    25
100
AcDbLine
 10
248.2945595713
 20
316.1166904882
 30
0.0
 11
271.2713959435
 21
342.4188894994
 31
0.0
  0
LINE
  5
AC
330
1F
100
AcDbEntity
  8
0
  6
SLD-実線
 62
     7
370
    25
100
AcDbLine
 10
240.8274329937
 20
304.8078830847
 30
0.0
 11
239.9430130797
 21
305.9054185043
 31
0.0
  0
LINE
  5
AD
330
1F
100
AcDbEntity
  8
0
  6
SLD-実線
 62
     7
370
    25
100
AcDbLine
 10
239.9430130797
 20
305.9054185043
 30
0.0
 11
239.9430130797
 21
309.3340882691
 31
0.0
  0
LINE
  5
AE
330
1F
100
AcDbEntity
  8
0
  6
SLD-実線
 62
     7
370
    25
100
AcDbLine
 10
240.8274329937
 20
304.8078830847
 30
0.0
 11
240.8274329937
 21
308.8285460332
 31
0.0
  0
LINE
  5
AF
330
1F
100
AcDbEntity
  8
0
  6
SLD-実線
 62
     7
370
    25
100
AcDbLine
 10
248.2945595713
 20
312.0960275397
 30
0.0
 11
248.2945595713
 21
316.1166904882
 31
0.0
  0
LINE
  5
B0
330
1F
100
AcDbEntity
  8
0
  6
SLD-実線
 62
     7
370
    25
100
AcDbLine
 10
248.2945595713
 20
312.0960275397
 30
0.0
 11
240.8274329937
 21
304.8078830847
 31
0.0
  0
ARC
  5
B1
330
1F
100
AcDbEntity
  8
0
  6
SLD-実線
 62
     7
370
    25
100
AcDbCircle
 10
203.4211898089
 20
324.1611908023
 30
0.0
 40
26.89257294408482
100
AcDbArc
 50
253.1187652566
 51
256.472208426
  0
LWPOLYLINE
  5
B2
330
1F
100
AcDbEntity
  8
0
  6
SLD-実線
 62
     7
370
    25
100
AcDbPolyline
 90
        3
 70
   128
 43
0.0
 10
193.1157929814
 20
299.3422752849
 10
194.0268335791
 20
298.9695043843
 10
195.6118876421
 20
298.4274526514
  0
LINE
  5
B3
330
1F
100
AcDbEntity
  8
0
  6
SLD-実線
 62
     7
370
    25
100
AcDbLine
 10
215.0644010383
 20
298.8088329486
 30
0.0
 11
216.4085662803
 21
299.3422750297
 31
0.0
  0
ARC
  5
B4
330
1F
100
AcDbEntity
  8
0
  6
SLD-実線
 62
     7
370
    25
100
AcDbCircle
 10
206.7561519114
 20
321.9670713903
 30
0.0
 40
24.60347559342278
100
AcDbArc
 50
286.1775540161
 51
289.7359549177
  0
ARC
  5
B5
330
1F
100
AcDbEntity
  8
0
  6
SLD-実線
 62
     7
370
    25
100
AcDbCircle
 10
204.7412219599
 20
330.2883834848
 30
0.0
 40
33.15889281940127
100
AcDbArc
 50
256.7311280549
 51
285.5152345904
  0
LINE
  5
B6
330
1F
100
AcDbEntity
  8
0
  6
SLD-実線
 62
     7
370
    25
100
AcDbLine
 10
237.494107989
 20
306.5709784343
 30
0.0
 11
239.9430130797
 21
305.9054185043
 31
0.0
  0
LINE
  5
B7
330
1F
100
AcDbEntity
  8
0
  6
SLD-実線
 62
     7
370
    25
100
AcDbLine
 10
236.5302986404
 20
305.9757521255
 30
0.0
 11
240.8274329937
 21
304.8078830847
 31
0.0
  0
LINE
  5
B8
330
1F
100
AcDbEntity
  8
0
  6
SLD-実線
 62
     7
370
    25
100
AcDbLine
 10
134.6972541752
 20
401.3680090701
 30
0.0
 11
133.906206463
 21
401.1996619711
 31
0.0
  0
LINE
  5
B9
330
1F
100
AcDbEntity
  8
0
  6
SLD-実線
 62
     7
370
    25
100
AcDbLine
 10
134.6972541752
 20
401.3680090701
 30
0.0
 11
136.9441043252
 21
396.4021275881
 31
0.0
  0
LINE
  5
BA
330
1F
100
AcDbEntity
  8
0
  6
SLD-実線
 62
     7
370
    25
100
AcDbLine
 10
133.906206463
 20
401.1996619711
 30
0.0
 11
136.479885677
 21
395.5114346416
 31
0.0
  0
LINE
  5
BB
330
1F
100
AcDbEntity
  8
0
  6
SLD-実線
 62
     7
370
    25
100
AcDbLine
 10
142.1643807527
 20
408.6561535251
 30
0.0
 11
134.6972541752
 21
401.3680090701
 31
0.0
  0
LINE
  5
BC
330
1F
100
AcDbEntity
  8
0
  6
SLD-実線
 62
     7
370
    25
100
AcDbLine
 10
142.1643807527
 20
408.6561535251
 30
0.0
 11
142.4975686153
 21
407.9197561467
 31
0.0
  0
LINE
  5
BD
330
1F
100
AcDbEntity
  8
0
  6
SLD-実線
 62
     7
370
    25
100
AcDbLine
 10
141.3733330405
 20
408.4878064262
 30
0.0
 11
142.1643807527
 21
408.6561535251
 31
0.0
  0
LINE
  5
BE
330
1F
100
AcDbEntity
  8
0
  6
SLD-実線
 62
     7
370
    25
100
AcDbLine
 10
133.906206463
 20
401.1996619711
 30
0.0
 11
141.3733330405
 21
408.4878064262
 31
0.0
  0
LINE
  5
BF
330
1F
100
AcDbEntity
  8
0
  6
SLD-実線
 62
     7
370
    25
100
AcDbLine
 10
139.1193471558
 20
369.3081566567
 30
0.0
 11
145.193384018
 21
375.2366028425
 31
0.0
  0
LINE
  5
C0
330
1F
100
AcDbEntity
  8
0
  6
SLD-実線
 62
     7
370
    25
100
AcDbLine
 10
138.0336663272
 20
385.3866259702
 30
0.0
 11
139.1193471558
 21
369.3081566567
 31
0.0
  0
LINE
  5
C1
330
1F
100
AcDbEntity
  8
0
  6
SLD-実線
 62
     7
370
    25
100
AcDbLine
 10
138.2529625076
 20
369.2529000094
 30
0.0
 11
139.1193471558
 21
369.3081566567
 31
0.0
  0
LINE
  5
C2
330
1F
100
AcDbEntity
  8
0
  6
SLD-実線
 62
     7
370
    25
100
AcDbLine
 10
136.479885677
 20
395.5114346416
 30
0.0
 11
138.2529625076
 21
369.2529000094
 31
0.0
  0
LINE
  5
C3
330
1F
100
AcDbEntity
  8
0
  6
SLD-実線
 62
     7
370
    25
100
AcDbLine
 10
214.6017225523
 20
293.2142431082
 30
0.0
 11
214.6017225523
 21
298.3572445622
 31
0.0
  0
LINE
  5
C4
330
1F
100
AcDbEntity
  8
0
  6
SLD-実線
 62
     7
370
    25
100
AcDbLine
 10
214.6017225523
 20
293.2142431082
 30
0.0
 11
196.139884641
 21
292.8522856842
 31
0.0
  0
LINE
  5
C5
330
1F
100
AcDbEntity
  8
0
  6
SLD-実線
 62
     7
370
    25
100
AcDbLine
 10
196.139884641
 20
292.8522856842
 30
0.0
 11
196.139884641
 21
297.9952871382
 31
0.0
  0
LINE
  5
C6
330
1F
100
AcDbEntity
  8
0
  6
SLD-実線
 62
     7
370
    25
100
AcDbLine
 10
197.1305601261
 20
298.0147100115
 30
0.0
 11
196.139884641
 21
297.9952871382
 31
0.0
  0
LINE
  5
C7
330
1F
100
AcDbEntity
  8
0
  6
SLD-実線
 62
     7
370
    25
100
AcDbLine
 10
214.6017225523
 20
298.3572445622
 30
0.0
 11
213.611046398
 21
298.3378218708
 31
0.0
  0
LINE
  5
C8
330
1F
100
AcDbEntity
  8
0
  6
SLD-実線
 62
     7
370
    25
100
AcDbLine
 10
139.1193471558
 20
369.3081566567
 30
0.0
 11
161.7747017852
 21
331.0594877393
 31
0.0
  0
LINE
  5
C9
330
1F
100
AcDbEntity
  8
0
  6
SLD-実線
 62
     7
370
    25
100
AcDbLine
 10
138.2529625076
 20
369.2529000094
 30
0.0
 11
161.2297988798
 21
330.4614774144
 31
0.0
  0
LINE
  5
CA
330
1F
100
AcDbEntity
  8
0
  6
SLD-実線
 62
     7
370
    25
100
AcDbLine
 10
149.4565256729
 20
371.7508445351
 30
0.0
 11
150.762181393
 21
369.5465243065
 31
0.0
  0
LINE
  5
CB
330
1F
100
AcDbEntity
  8
0
  6
SLD-実線
 62
     7
370
    25
100
AcDbLine
 10
196.139884641
 20
297.9952871382
 30
0.0
 11
195.6118876421
 21
298.4274526514
 31
0.0
  0
LINE
  5
CC
330
1F
100
AcDbEntity
  8
0
  6
SLD-実線
 62
     7
370
    25
100
AcDbLine
 10
196.139884641
 20
292.8522856842
 30
0.0
 11
186.6691735571
 21
300.6040630295
 31
0.0
  0
LINE
  5
CD
330
1F
100
AcDbEntity
  8
0
  6
SLD-実線
 62
     7
370
    25
100
AcDbLine
 10
215.0644010383
 20
298.8088329486
 30
0.0
 11
214.6017225523
 21
298.3572445622
 31
0.0
  0
LINE
  5
CE
330
1F
100
AcDbEntity
  8
0
  6
SLD-実線
 62
     7
370
    25
100
AcDbLine
 10
221.952540147
 20
300.3888664304
 30
0.0
 11
214.6017225523
 21
293.2142431082
 31
0.0
  0
LWPOLYLINE
  5
CF
330
1F
100
AcDbEntity
  8
0
  6
SLD-実線
 62
     7
370
    25
100
AcDbPolyline
 90
       19
 70
   128
 43
0.0
 10
211.2621790051
 20
220.6941796515
 10
211.16694393
 20
220.1232096935
 10
210.8660692002
 20
219.543380186
 10
210.3690099595
 20
219.0005383873
 10
209.6917427825
 20
218.5121315501
 10
208.8560357423
 20
218.0938574365
 10
207.8887484743
 20
217.7591599959
 10
206.820970605
 20
217.5187964779
 10
205.6870215378
 20
217.3804922588
 10
204.5233473712
 20
217.3486928589
 10
203.3673493383
 20
217.4244199919
 10
202.256182395
 20
217.6052399947
 10
201.225560257
 20
217.8853410082
 10
200.3086078782
 20
218.2557203799
 10
199.5347970527
 20
218.7044739438
 10
198.9289983943
 20
219.2171781423
 10
198.5106832037
 20
219.7773545256
 10
198.2932960044
 20
220.3669983715
 10
198.262179446
 20
220.6941796163
  0
LINE
  5
D0
330
1F
100
AcDbEntity
  8
0
  6
SLD-実線
 62
     7
370
    25
100
AcDbLine
 10
161.2297988798
 20
326.4408144659
 30
0.0
 11
162.1142187938
 21
327.0576171219
 31
0.0
  0
LINE
  5
D1
330
1F
100
AcDbEntity
  8
0
  6
SLD-実線
 62
     7
370
    25
100
AcDbLine
 10
162.1142187938
 20
327.0576171219
 30
0.0
 11
162.1210355576
 21
327.0557644715
 31
0.0
  0
LINE
  5
D2
330
1F
100
AcDbEntity
  8
0
  6
SLD-実線
 62
     7
370
    25
100
AcDbLine
 10
161.2297988798
 20
326.4408144659
 30
0.0
 11
162.1969688369
 21
326.1779583955
 31
0.0
  0
LINE
  5
D3
330
1F
100
AcDbEntity
  8
0
  6
SLD-実線
 62
     7
370
    25
100
AcDbLine
 10
162.1142187938
 20
327.0576171219
 30
0.0
 11
162.1203572703
 21
327.0636084631
 31
0.0
  0
LINE
  5
D4
330
1F
100
AcDbEntity
  8
0
  6
SLD-実線
 62
     7
370
    25
100
AcDbLine
 10
162.1142187938
 20
327.1345731703
 30
0.0
 11
162.1142187938
 21
327.0576171219
 31
0.0
  0
LINE
  5
D5
330
1F
100
AcDbEntity
  8
0
  6
SLD-実線
 62
     7
370
    25
100
AcDbLine
 10
161.2297988798
 20
330.4614774144
 30
0.0
 11
161.2297988798
 21
326.4408144659
 31
0.0
  0
LINE
  5
D6
330
1F
100
AcDbEntity
  8
0
  6
SLD-実線
 62
     8
370
    25
100
AcDbLine
 10
136.479885677
 20
395.5114346416
 30
0.0
 11
136.8391940341
 21
395.5083273052
 31
0.0
  0
LINE
  5
D7
330
1F
100
AcDbEntity
  8
0
  6
SLD-実線
 62
     8
370
    25
100
AcDbLine
 10
161.2297988798
 20
330.4614774144
 30
0.0
 11
161.8249857141
 21
330.4781733953
 31
0.0
  0
ENDSEC
  0
SECTION
  2
OBJECTS
  0
DICTIONARY
  5
C
330
0
100
AcDbDictionary
281
     1
  3
ACAD_GROUP
350
D
  3
ACAD_LAYOUT
350
1A
  3
ACAD_MLINESTYLE
350
17
  3
ACAD_PLOTSETTINGS
350
19
  3
ACAD_PLOTSTYLENAME
350
E
  3
ACAD_SCALELIST
350
47
  0
DICTIONARY
  5
D
102
{ACAD_REACTORS
330
C
102
}
330
C
100
AcDbDictionary
281
     1
  0
DICTIONARY
  5
1A
102
{ACAD_REACTORS
330
C
102
}
330
C
100
AcDbDictionary
281
     1
  3
Layout1
350
1E
  3
Layout2
350
26
  3
Model
350
22
  0
DICTIONARY
  5
17
102
{ACAD_REACTORS
330
C
102
}
330
C
100
AcDbDictionary
281
     1
  3
Standard
350
18
  0
DICTIONARY
  5
19
102
{ACAD_REACTORS
330
C
102
}
330
C
100
AcDbDictionary
281
     1
  0
ACDBDICTIONARYWDFLT
  5
E
102
{ACAD_REACTORS
330
C
102
}
330
C
100
AcDbDictionary
281
     1
  3
Normal
350
F
100
AcDbDictionaryWithDefault
340
F
  0
DICTIONARY
  5
47
102
{ACAD_REACTORS
330
C
102
}
330
C
100
AcDbDictionary
281
     1
  3
A0
350
48
  3
A1
350
49
  3
A2
350
4A
  3
A3
350
4B
  3
A4
350
4C
  3
A5
350
4D
  3
A6
350
4E
  3
A7
350
4F
  3
A8
350
50
  3
A9
350
51
  3
B0
350
52
  3
B1
350
53
  3
B2
350
54
  3
B3
350
55
  3
B4
350
56
  3
B5
350
57
  3
B6
350
58
  3
B7
350
59
  3
B8
350
5A
  3
B9
350
5B
  3
C0
350
5C
  3
C1
350
5D
  3
C2
350
5E
  3
C3
350
5F
  3
C4
350
60
  3
C5
350
61
  3
C6
350
62
  3
C7
350
63
  3
C8
350
64
  3
C9
350
65
  3
D0
350
66
  3
D1
350
67
  3
D2
350
68
  0
LAYOUT
  5
1E
102
{ACAD_REACTORS
330
1A
102
}
330
1A
100
AcDbPlotSettings
  1

  2
none_device
  4

  6

 40
0.0
 41
0.0
 42
0.0
 43
0.0
 44
0.0
 45
0.0
 46
0.0
 47
0.0
 48
0.0
 49
0.0
140
0.0
141
0.0
142
1.0
143
1.0
 70
   688
 72
     1
 73
     0
 74
     5
  7

 75
    16
147
1.0
148
0.0
149
0.0
100
AcDbLayout
  1
Layout1
 70
     1
 71
     1
 10
0.0
 20
0.0
 11
420.0
 21
297.0
 12
0.0
 22
0.0
 32
0.0
 14
1.0000000000E+20
 24
1.0000000000E+20
 34
1.0000000000E+20
 15
-1.0000000000E+20
 25
-1.0000000000E+20
 35
-1.0000000000E+20
146
0.0
 13
0.0
 23
0.0
 33
0.0
 16
1.0
 26
0.0
 36
0.0
 17
0.0
 27
1.0
 37
0.0
 76
     0
330
1B
  0
LAYOUT
  5
26
102
{ACAD_REACTORS
330
1A
102
}
330
1A
100
AcDbPlotSettings
  1

  2
none_device
  4

  6

 40
0.0
 41
0.0
 42
0.0
 43
0.0
 44
0.0
 45
0.0
 46
0.0
 47
0.0
 48
0.0
 49
0.0
140
0.0
141
0.0
142
1.0
143
1.0
 70
   688
 72
     1
 73
     0
 74
     5
  7

 75
    16
147
1.0
148
0.0
149
0.0
100
AcDbLayout
  1
Layout2
 70
     1
 71
     2
 10
0.0
 20
0.0
 11
0.0
 21
0.0
 12
0.0
 22
0.0
 32
0.0
 14
0.0
 24
0.0
 34
0.0
 15
0.0
 25
0.0
 35
0.0
146
0.0
 13
0.0
 23
0.0
 33
0.0
 16
1.0
 26
0.0
 36
0.0
 17
0.0
 27
1.0
 37
0.0
 76
     0
330
23
  0
LAYOUT
  5
22
102
{ACAD_REACTORS
330
1A
102
}
330
1A
100
AcDbPlotSettings
  1

  2
none_device
  4
Letter_(8.50_x_11.00_Inches)
  6

 40
6.35
 41
6.35
 42
6.35000508
 43
6.35000508
 44
215.9
 45
279.4
 46
0.0
 47
0.0
 48
0.0
 49
0.0
140
0.0
141
0.0
142
1.0
143
1.0
 70
  1712
 72
     1
 73
     0
 74
     0
  7

 75
     0
147
1.0
148
0.0
149
0.0
100
AcDbLayout
  1
Model
 70
     1
 71
     0
 10
0.0
 20
0.0
 11
420.0
 21
594.0
 12
0.0
 22
0.0
 32
0.0
 14
0.0
 24
0.0
 34
0.0
 15
420.0
 25
594.0
 35
0.0
146
0.0
 13
0.0
 23
0.0
 33
0.0
 16
1.0
 26
0.0
 36
0.0
 17
0.0
 27
1.0
 37
0.0
 76
     0
330
1F
331
29
  0
MLINESTYLE
  5
18
102
{ACAD_REACTORS
330
17
102
}
330
17
100
AcDbMlineStyle
  2
Standard
 70
     0
  3

 62
   256
 51
90.0
 52
90.0
 71
     2
 49
0.5
 62
   256
  6
BYLAYER
 49
-0.5
 62
   256
  6
BYLAYER
  0
ACDBPLACEHOLDER
  5
F
102
{ACAD_REACTORS
330
E
102
}
330
E
  0
SCALE
  5
48
102
{ACAD_REACTORS
330
47
102
}
330
47
100
AcDbScale
 70
     0
300
1:1
140
1.0
141
1.0
290
     1
  0
SCALE
  5
49
102
{ACAD_REACTORS
330
47
102
}
330
47
100
AcDbScale
 70
     0
300
1:2
140
1.0
141
2.0
290
     0
  0
SCALE
  5
4A
102
{ACAD_REACTORS
330
47
102
}
330
47
100
AcDbScale
 70
     0
300
1:4
140
1.0
141
4.0
290
     0
  0
SCALE
  5
4B
102
{ACAD_REACTORS
330
47
102
}
330
47
100
AcDbScale
 70
     0
300
1:5
140
1.0
141
5.0
290
     0
  0
SCALE
  5
4C
102
{ACAD_REACTORS
330
47
102
}
330
47
100
AcDbScale
 70
     0
300
1:8
140
1.0
141
8.0
290
     0
  0
SCALE
  5
4D
102
{ACAD_REACTORS
330
47
102
}
330
47
100
AcDbScale
 70
     0
300
1:10
140
1.0
141
10.0
290
     0
  0
SCALE
  5
4E
102
{ACAD_REACTORS
330
47
102
}
330
47
100
AcDbScale
 70
     0
300
1:16
140
1.0
141
16.0
290
     0
  0
SCALE
  5
4F
102
{ACAD_REACTORS
330
47
102
}
330
47
100
AcDbScale
 70
     0
300
1:20
140
1.0
141
20.0
290
     0
  0
SCALE
  5
50
102
{ACAD_REACTORS
330
47
102
}
330
47
100
AcDbScale
 70
     0
300
1:30
140
1.0
141
30.0
290
     0
  0
SCALE
  5
51
102
{ACAD_REACTORS
330
47
102
}
330
47
100
AcDbScale
 70
     0
300
1:40
140
1.0
141
40.0
290
     0
  0
SCALE
  5
52
102
{ACAD_REACTORS
330
47
102
}
330
47
100
AcDbScale
 70
     0
300
1:50
140
1.0
141
50.0
290
     0
  0
SCALE
  5
53
102
{ACAD_REACTORS
330
47
102
}
330
47
100
AcDbScale
 70
     0
300
1:100
140
1.0
141
100.0
290
     0
  0
SCALE
  5
54
102
{ACAD_REACTORS
330
47
102
}
330
47
100
AcDbScale
 70
     0
300
2:1
140
2.0
141
1.0
290
     0
  0
SCALE
  5
55
102
{ACAD_REACTORS
330
47
102
}
330
47
100
AcDbScale
 70
     0
300
4:1
140
4.0
141
1.0
290
     0
  0
SCALE
  5
56
102
{ACAD_REACTORS
330
47
102
}
330
47
100
AcDbScale
 70
     0
300
8:1
140
8.0
141
1.0
290
     0
  0
SCALE
  5
57
102
{ACAD_REACTORS
330
47
102
}
330
47
100
AcDbScale
 70
     0
300
10:1
140
10.0
141
1.0
290
     0
  0
SCALE
  5
58
102
{ACAD_REACTORS
330
47
102
}
330
47
100
AcDbScale
 70
     0
300
100:1
140
100.0
141
1.0
290
     0
  0
SCALE
  5
59
102
{ACAD_REACTORS
330
47
102
}
330
47
100
AcDbScale
 70
     0
300
1/128" = 1'-0"
140
0.0078125
141
12.0
290
     0
  0
SCALE
  5
5A
102
{ACAD_REACTORS
330
47
102
}
330
47
100
AcDbScale
 70
     0
300
1/64" = 1'-0"
140
0.015625
141
12.0
290
     0
  0
SCALE
  5
5B
102
{ACAD_REACTORS
330
47
102
}
330
47
100
AcDbScale
 70
     0
300
1/32" = 1'-0"
140
0.03125
141
12.0
290
     0
  0
SCALE
  5
5C
102
{ACAD_REACTORS
330
47
102
}
330
47
100
AcDbScale
 70
     0
300
1/16" = 1'-0"
140
0.0625
141
12.0
290
     0
  0
SCALE
  5
5D
102
{ACAD_REACTORS
330
47
102
}
330
47
100
AcDbScale
 70
     0
300
3/32" = 1'-0"
140
0.09375
141
12.0
290
     0
  0
SCALE
  5
5E
102
{ACAD_REACTORS
330
47
102
}
330
47
100
AcDbScale
 70
     0
300
1/8" = 1'-0"
140
0.125
141
12.0
290
     0
  0
SCALE
  5
5F
102
{ACAD_REACTORS
330
47
102
}
330
47
100
AcDbScale
 70
     0
300
3/16" = 1'-0"
140
0.1875
141
12.0
290
     0
  0
SCALE
  5
60
102
{ACAD_REACTORS
330
47
102
}
330
47
100
AcDbScale
 70
     0
300
1/4" = 1'-0"
140
0.25
141
12.0
290
     0
  0
SCALE
  5
61
102
{ACAD_REACTORS
330
47
102
}
330
47
100
AcDbScale
 70
     0
300
3/8" = 1'-0"
140
0.375
141
12.0
290
     0
  0
SCALE
  5
62
102
{ACAD_REACTORS
330
47
102
}
330
47
100
AcDbScale
 70
     0
300
1/2" = 1'-0"
140
0.5
141
12.0
290
     0
  0
SCALE
  5
63
102
{ACAD_REACTORS
330
47
102
}
330
47
100
AcDbScale
 70
     0
300
3/4" = 1'-0"
140
0.75
141
12.0
290
     0
  0
SCALE
  5
64
102
{ACAD_REACTORS
330
47
102
}
330
47
100
AcDbScale
 70
     0
300
1" = 1'-0"
140
1.0
141
12.0
290
     0
  0
SCALE
  5
65
102
{ACAD_REACTORS
330
47
102
}
330
47
100
AcDbScale
 70
     0
300
1-1/2" = 1'-0"
140
1.5
141
12.0
290
     0
  0
SCALE
  5
66
102
{ACAD_REACTORS
330
47
102
}
330
47
100
AcDbScale
 70
     0
300
3" = 1'-0"
140
3.0
141
12.0
290
     0
  0
SCALE
  5
67
102
{ACAD_REACTORS
330
47
102
}
330
47
100
AcDbScale
 70
     0
300
6" = 1'-0"
140
6.0
141
12.0
290
     0
  0
SCALE
  5
68
102
{ACAD_REACTORS
330
47
102
}
330
47
100
AcDbScale
 70
     0
300
1'-0" = 1'-0"
140
12.0
141
12.0
290
     0
  0
ENDSEC
  0
EOF
