  0
SECTION
  2
HEADER
  9
$ACADVER
  1
AC1015
  9
$ACADMAINTVER
 70
     6
  9
$DWGCODEPAGE
  3
DOS932
  9
$INSBASE
 10
0.0
 20
0.0
 30
0.0
  9
$EXTMIN
 10
0.0
 20
0.0
 30
0.0
  9
$EXTMAX
 10
420.0
 20
594.0
 30
0.0
  9
$LIMMIN
 10
0.0
 20
0.0
  9
$LIMMAX
 10
420.0
 20
594.0
  9
$ORTHOMODE
 70
     0
  9
$REGENMODE
 70
     1
  9
$FILLMODE
 70
     1
  9
$QTEXTMODE
 70
     0
  9
$MIRRTEXT
 70
     1
  9
$LTSCALE
 40
2.0
  9
$ATTMODE
 70
     1
  9
$TEXTSIZE
 40
7.0
  9
$TRACEWID
 40
1.0
  9
$TEXTSTYLE
  7
STANDARD
  9
$CLAYER
  8
0
  9
$CELTYPE
  6
ByLayer
  9
$CECOLOR
 62
   256
  9
$CELTSCALE
 40
1.0
  9
$DISPSILH
 70
     0
  9
$DIMSCALE
 40
1.0
  9
$DIMASZ
 40
6.604
  9
$DIMEXO
 40
2.0
  9
$DIMDLI
 40
3.75
  9
$DIMRND
 40
0.0
  9
$DIMDLE
 40
0.0
  9
$DIMEXE
 40
2.0
  9
$DIMTP
 40
0.0
  9
$DIMTM
 40
0.0
  9
$DIMTXT
 40
7.0
  9
$DIMCEN
 40
2.5
  9
$DIMTSZ
 40
0.0
  9
$DIMTOL
 70
     0
  9
$DIMLIM
 70
     0
  9
$DIMTIH
 70
     1
  9
$DIMTOH
 70
     1
  9
$DIMSE1
 70
     0
  9
$DIMSE2
 70
     0
  9
$DIMTAD
 70
     1
  9
$DIMZIN
 70
     1
  9
$DIMBLK
  1

  9
$DIMASO
 70
     1
  9
$DIMSHO
 70
     1
  9
$DIMPOST
  1

  9
$DIMAPOST
  1

  9
$DIMALT
 70
     0
  9
$DIMALTD
 70
     3
  9
$DIMALTF
 40
0.0393700787
  9
$DIMLFAC
 40
1.0
  9
$DIMTOFL
 70
     1
  9
$DIMTVP
 40
0.0
  9
$DIMTIX
 70
     0
  9
$DIMSOXD
 70
     0
  9
$DIMSAH
 70
     0
  9
$DIMBLK1
  1

  9
$DIMBLK2
  1

  9
$DIMSTYLE
  2
ISO-25
  9
$DIMCLRD
 70
     0
  9
$DIMCLRE
 70
     0
  9
$DIMCLRT
 70
     0
  9
$DIMTFAC
 40
1.0
  9
$DIMGAP
 40
3.048
  9
$DIMJUST
 70
     0
  9
$DIMSD1
 70
     0
  9
$DIMSD2
 70
     0
  9
$DIMTOLJ
 70
     0
  9
$DIMTZIN
 70
     1
  9
$DIMALTZ
 70
     0
  9
$DIMALTTZ
 70
     0
  9
$DIMUPT
 70
     0
  9
$DIMDEC
 70
     2
  9
$DIMTDEC
 70
     2
  9
$DIMALTU
 70
     2
  9
$DIMALTTD
 70
     3
  9
$DIMTXSTY
  7
STANDARD
  9
$DIMAUNIT
 70
     0
  9
$DIMADEC
 70
     2
  9
$DIMALTRND
 40
0.0
  9
$DIMAZIN
 70
     0
  9
$DIMDSEP
 70
    44
  9
$DIMATFIT
 70
     3
  9
$DIMFRAC
 70
     0
  9
$DIMLDRBLK
  1

  9
$DIMLUNIT
 70
     2
  9
$DIMLWD
 70
    -2
  9
$DIMLWE
 70
    -2
  9
$DIMTMOVE
 70
     0
  9
$LUNITS
 70
     2
  9
$LUPREC
 70
     2
  9
$SKETCHINC
 40
1.0
  9
$FILLETRAD
 40
10.0
  9
$AUNITS
 70
     0
  9
$AUPREC
 70
     2
  9
$MENU
  1
.
  9
$ELEVATION
 40
0.0
  9
$PELEVATION
 40
0.0
  9
$THICKNESS
 40
0.0
  9
$LIMCHECK
 70
     0
  9
$CHAMFERA
 40
0.0
  9
$CHAMFERB
 40
0.0
  9
$CHAMFERC
 40
0.0
  9
$CHAMFERD
 40
0.0
  9
$SKPOLY
 70
     0
  9
$TDCREATE
 40
2458876.451789282
  9
$TDUCREATE
 40
2458876.076789282
  9
$TDUPDATE
 40
2458876.451789584
  9
$TDUUPDATE
 40
2458876.076789584
  9
$TDINDWG
 40
0.0000000116
  9
$TDUSRTIMER
 40
0.0000000116
  9
$USRTIMER
 70
     1
  9
$ANGBASE
 50
0.0
  9
$ANGDIR
 70
     0
  9
$PDMODE
 70
     0
  9
$PDSIZE
 40
-1.0
  9
$PLINEWID
 40
0.0
  9
$SPLFRAME
 70
     0
  9
$SPLINETYPE
 70
     6
  9
$SPLINESEGS
 70
     8
  9
$HANDSEED
  5
EB
  9
$SURFTAB1
 70
     6
  9
$SURFTAB2
 70
     6
  9
$SURFTYPE
 70
     6
  9
$SURFU
 70
     6
  9
$SURFV
 70
     6
  9
$UCSBASE
  2

  9
$UCSNAME
  2

  9
$UCSORG
 10
0.0
 20
0.0
 30
0.0
  9
$UCSXDIR
 10
1.0
 20
0.0
 30
0.0
  9
$UCSYDIR
 10
0.0
 20
1.0
 30
0.0
  9
$UCSORTHOREF
  2

  9
$UCSORTHOVIEW
 70
     0
  9
$UCSORGTOP
 10
0.0
 20
0.0
 30
0.0
  9
$UCSORGBOTTOM
 10
0.0
 20
0.0
 30
0.0
  9
$UCSORGLEFT
 10
0.0
 20
0.0
 30
0.0
  9
$UCSORGRIGHT
 10
0.0
 20
0.0
 30
0.0
  9
$UCSORGFRONT
 10
0.0
 20
0.0
 30
0.0
  9
$UCSORGBACK
 10
0.0
 20
0.0
 30
0.0
  9
$PUCSBASE
  2

  9
$PUCSNAME
  2

  9
$PUCSORG
 10
0.0
 20
0.0
 30
0.0
  9
$PUCSXDIR
 10
1.0
 20
0.0
 30
0.0
  9
$PUCSYDIR
 10
0.0
 20
1.0
 30
0.0
  9
$PUCSORTHOREF
  2

  9
$PUCSORTHOVIEW
 70
     0
  9
$PUCSORGTOP
 10
0.0
 20
0.0
 30
0.0
  9
$PUCSORGBOTTOM
 10
0.0
 20
0.0
 30
0.0
  9
$PUCSORGLEFT
 10
0.0
 20
0.0
 30
0.0
  9
$PUCSORGRIGHT
 10
0.0
 20
0.0
 30
0.0
  9
$PUCSORGFRONT
 10
0.0
 20
0.0
 30
0.0
  9
$PUCSORGBACK
 10
0.0
 20
0.0
 30
0.0
  9
$USERI1
 70
     0
  9
$USERI2
 70
     0
  9
$USERI3
 70
     0
  9
$USERI4
 70
     0
  9
$USERI5
 70
     0
  9
$USERR1
 40
0.0
  9
$USERR2
 40
0.0
  9
$USERR3
 40
0.0
  9
$USERR4
 40
0.0
  9
$USERR5
 40
0.0
  9
$WORLDVIEW
 70
     1
  9
$SHADEDGE
 70
     3
  9
$SHADEDIF
 70
    70
  9
$TILEMODE
 70
     1
  9
$MAXACTVP
 70
    64
  9
$PINSBASE
 10
0.0
 20
0.0
 30
0.0
  9
$PLIMCHECK
 70
     0
  9
$PEXTMIN
 10
1.0000000000E+20
 20
1.0000000000E+20
 30
1.0000000000E+20
  9
$PEXTMAX
 10
-1.0000000000E+20
 20
-1.0000000000E+20
 30
-1.0000000000E+20
  9
$PLIMMIN
 10
0.0
 20
0.0
  9
$PLIMMAX
 10
420.0
 20
297.0
  9
$UNITMODE
 70
     0
  9
$VISRETAIN
 70
     1
  9
$PLINEGEN
 70
     0
  9
$PSLTSCALE
 70
     1
  9
$TREEDEPTH
 70
  3020
  9
$CMLSTYLE
  2
Standard
  9
$CMLJUST
 70
     0
  9
$CMLSCALE
 40
20.0
  9
$PROXYGRAPHICS
 70
     1
  9
$MEASUREMENT
 70
     1
  9
$CELWEIGHT
370
    -1
  9
$ENDCAPS
280
     0
  9
$JOINSTYLE
280
     0
  9
$LWDISPLAY
290
     1
  9
$INSUNITS
 70
     4
  9
$HYPERLINKBASE
  1

  9
$STYLESHEET
  1

  9
$XEDIT
290
     1
  9
$CEPSNTYPE
380
     0
  9
$PSTYLEMODE
290
     1
  9
$FINGERPRINTGUID
  2
{F643B98B-FC39-4F71-809C-623E3E98A6A5}
  9
$VERSIONGUID
  2
{FAEB1C32-E019-11D5-929B-00C0DF256EC4}
  9
$EXTNAMES
290
     1
  9
$PSVPSCALE
 40
0.0
  9
$OLESTARTUP
290
     0
  0
ENDSEC
  0
SECTION
  2
CLASSES
  0
CLASS
  1
ACDBDICTIONARYWDFLT
  2
AcDbDictionaryWithDefault
  3
ObjectDBX Classes
 90
        0
280
     0
281
     0
  0
CLASS
  1
VISUALSTYLE
  2
AcDbVisualStyle
  3
ObjectDBX Classes
 90
     4095
280
     0
281
     0
  0
CLASS
  1
MATERIAL
  2
AcDbMaterial
  3
ObjectDBX Classes
 90
     1153
280
     0
281
     0
  0
CLASS
  1
SCALE
  2
AcDbScale
  3
ObjectDBX Classes
 90
     1153
280
     0
281
     0
  0
CLASS
  1
TABLESTYLE
  2
AcDbTableStyle
  3
ObjectDBX Classes
 90
     4095
280
     0
281
     0
  0
CLASS
  1
MLEADERSTYLE
  2
AcDbMLeaderStyle
  3
ACDB_MLEADERSTYLE_CLASS
 90
     4095
280
     0
281
     0
  0
CLASS
  1
SUN
  2
AcDbSun
  3
SCENEOE
 90
     1153
280
     0
281
     0
  0
CLASS
  1
ACDBPLACEHOLDER
  2
AcDbPlaceHolder
  3
ObjectDBX Classes
 90
        0
280
     0
281
     0
  0
CLASS
  1
LAYOUT
  2
AcDbLayout
  3
ObjectDBX Classes
 90
        0
280
     0
281
     0
  0
ENDSEC
  0
SECTION
  2
TABLES
  0
TABLE
  2
VPORT
  5
8
330
0
100
AcDbSymbolTable
 70
     1
  0
VPORT
  5
29
330
8
100
AcDbSymbolTableRecord
100
AcDbViewportTableRecord
  2
*Active
 70
     0
 10
0.0
 20
0.0
 11
1.0
 21
1.0
 12
210.0
 22
297.0
 13
0.0
 23
0.0
 14
10.0
 24
10.0
 15
10.0
 25
10.0
 16
0.0
 26
0.0
 36
1.0
 17
0.0
 27
0.0
 37
0.0
 40
594.0
 41
0.7070707071
 42
50.0
 43
0.0
 44
0.0
 50
0.0
 51
0.0
 71
     0
 72
  2000
 73
     1
 74
     3
 75
     0
 76
     0
 77
     0
 78
     0
281
     0
 65
     1
110
0.0
120
0.0
130
0.0
111
1.0
121
0.0
131
0.0
112
0.0
122
1.0
132
0.0
 79
     0
146
0.0
  0
ENDTAB
  0
TABLE
  2
LTYPE
  5
5
330
0
100
AcDbSymbolTable
 70
     8
  0
LTYPE
  5
14
330
5
100
AcDbSymbolTableRecord
100
AcDbLinetypeTableRecord
  2
ByBlock
 70
     0
  3

 72
    65
 73
     0
 40
0.0
  0
LTYPE
  5
15
330
5
100
AcDbSymbolTableRecord
100
AcDbLinetypeTableRecord
  2
ByLayer
 70
     0
  3

 72
    65
 73
     0
 40
0.0
  0
LTYPE
  5
16
330
5
100
AcDbSymbolTableRecord
100
AcDbLinetypeTableRecord
  2
Continuous
 70
     0
  3
Solid line
 72
    65
 73
     0
 40
0.0
  0
LTYPE
  5
6E
330
5
100
AcDbSymbolTableRecord
100
AcDbLinetypeTableRecord
  2
SLD-実線
 70
     0
  3
SolidWorks Line Style
 72
    65
 73
     0
 40
0.0
  0
LTYPE
  5
6F
330
5
100
AcDbSymbolTableRecord
100
AcDbLinetypeTableRecord
  2
SLD-破線
 70
     0
  3
SolidWorks Line Style
 72
    65
 73
     2
 40
1.905
 49
1.27
 74
     0
 49
-0.635
 74
     0
  0
LTYPE
  5
70
330
5
100
AcDbSymbolTableRecord
100
AcDbLinetypeTableRecord
  2
SLD-2点鎖線
 70
     0
  3
SolidWorks Line Style
 72
    65
 73
     6
 40
12.7
 49
6.35
 74
     0
 49
-1.27
 74
     0
 49
1.27
 74
     0
 49
-1.27
 74
     0
 49
1.27
 74
     0
 49
-1.27
 74
     0
  0
LTYPE
  5
71
330
5
100
AcDbSymbolTableRecord
100
AcDbLinetypeTableRecord
  2
SLD-鎖線
 70
     0
  3
SolidWorks Line Style
 72
    65
 73
     4
 40
10.16
 49
6.35
 74
     0
 49
-1.27
 74
     0
 49
1.27
 74
     0
 49
-1.27
 74
     0
  0
LTYPE
  5
72
330
5
100
AcDbSymbolTableRecord
100
AcDbLinetypeTableRecord
  2
SLD-1点鎖線(中心線)
 70
     0
  3
SolidWorks Line Style
 72
    65
 73
     4
 40
34.29
 49
30.48
 74
     0
 49
-1.27
 74
     0
 49
1.27
 74
     0
 49
-1.27
 74
     0
  0
LTYPE
  5
73
330
5
100
AcDbSymbolTableRecord
100
AcDbLinetypeTableRecord
  2
SLD-点線
 70
     0
  3
SolidWorks Line Style
 72
    65
 73
     2
 40
0.635
 49
0.0
 74
     0
 49
-0.635
 74
     0
  0
LTYPE
  5
74
330
5
100
AcDbSymbolTableRecord
100
AcDbLinetypeTableRecord
  2
SLD-細-太鎖線(切断面)
 70
     0
  3
SolidWorks Line Style
 72
    65
 73
     4
 40
10.16
 49
6.35
 74
     0
 49
-1.27
 74
     0
 49
1.27
 74
     0
 49
-1.27
 74
     0
  0
ENDTAB
  0
TABLE
  2
LAYER
  5
2
330
0
100
AcDbSymbolTable
 70
     1
  0
LAYER
  5
10
330
2
100
AcDbSymbolTableRecord
100
AcDbLayerTableRecord
  2
0
 70
     0
 62
     7
  6
Continuous
370
    -3
390
F
  0
ENDTAB
  0
TABLE
  2
STYLE
  5
3
330
0
100
AcDbSymbolTable
 70
     2
  0
STYLE
  5
11
330
3
100
AcDbSymbolTableRecord
100
AcDbTextStyleTableRecord
  2
STANDARD
 70
     0
 40
0.0
 41
1.0
 50
0.0
 71
     0
 42
7.0
  3
MSGOTHIC.TTC
  4

1001
ACAD
1000
ＭＳ Ｐゴシック
1071
    32818
  0
STYLE
  5
78
330
3
100
AcDbSymbolTableRecord
100
AcDbTextStyleTableRecord
  2
SLDTEXTSTYLE0
 70
     0
 40
0.0
 41
1.0
 50
0.0
 71
     0
 42
7.0
  3
MSGOTHIC.TTC
  4

1001
ACAD
1000
ＭＳ Ｐゴシック
1071
      306
  0
ENDTAB
  0
TABLE
  2
VIEW
  5
6
330
0
100
AcDbSymbolTable
 70
     0
  0
ENDTAB
  0
TABLE
  2
UCS
  5
7
330
0
100
AcDbSymbolTable
 70
     0
  0
ENDTAB
  0
TABLE
  2
APPID
  5
9
330
0
100
AcDbSymbolTable
 70
     1
  0
APPID
  5
12
330
9
100
AcDbSymbolTableRecord
100
AcDbRegAppTableRecord
  2
ACAD
 70
     0
  0
ENDTAB
  0
TABLE
  2
DIMSTYLE
  5
A
330
0
100
AcDbSymbolTable
 70
     1
100
AcDbDimStyleTable
  0
DIMSTYLE
105
27
330
A
100
AcDbSymbolTableRecord
100
AcDbDimStyleTableRecord
  2
ISO-25
 70
     0
 41
2.5
 42
0.625
 43
3.75
 44
1.25
 73
     0
 74
     0
 77
     1
 78
     8
140
2.5
141
2.5
143
0.0393700787
147
0.625
171
     3
172
     1
178
     0
271
     2
272
     2
274
     3
278
    44
283
     0
284
     8
340
11
  0
ENDTAB
  0
TABLE
  2
BLOCK_RECORD
  5
1
330
0
100
AcDbSymbolTable
 70
     2
  0
BLOCK_RECORD
  5
1F
330
1
100
AcDbSymbolTableRecord
100
AcDbBlockTableRecord
  2
*Model_Space
340
22
  0
BLOCK_RECORD
  5
1B
330
1
100
AcDbSymbolTableRecord
100
AcDbBlockTableRecord
  2
*Paper_Space
340
1E
  0
BLOCK_RECORD
  5
23
330
1
100
AcDbSymbolTableRecord
100
AcDbBlockTableRecord
  2
*Paper_Space0
340
26
  0
BLOCK_RECORD
  5
75
330
1
100
AcDbSymbolTableRecord
100
AcDbBlockTableRecord
  2
SW_NOTE_0
340
0
102
{BLKREFS
331
7C
102
}
  0
ENDTAB
  0
ENDSEC
  0
SECTION
  2
BLOCKS
  0
BLOCK
  5
20
330
1F
100
AcDbEntity
  8
0
100
AcDbBlockBegin
  2
*Model_Space
 70
     0
 10
0.0
 20
0.0
 30
0.0
  3
*Model_Space
  1

  0
ENDBLK
  5
21
330
1F
100
AcDbEntity
  8
0
100
AcDbBlockEnd
  0
BLOCK
  5
1C
330
1B
100
AcDbEntity
 67
     1
  8
0
100
AcDbBlockBegin
  2
*Paper_Space
 70
     0
 10
0.0
 20
0.0
 30
0.0
  3
*Paper_Space
  1

  0
ENDBLK
  5
1D
330
1B
100
AcDbEntity
 67
     1
  8
0
100
AcDbBlockEnd
  0
BLOCK
  5
24
330
23
100
AcDbEntity
  8
0
100
AcDbBlockBegin
  2
*Paper_Space0
 70
     0
 10
0.0
 20
0.0
 30
0.0
  3
*Paper_Space0
  1

  0
ENDBLK
  5
25
330
23
100
AcDbEntity
  8
0
100
AcDbBlockEnd
  0
BLOCK
  5
76
330
75
100
AcDbEntity
  8
0
100
AcDbBlockBegin
  2
SW_NOTE_0
 70
     0
 10
0.0
 20
0.0
 30
0.0
  3
SW_NOTE_0
  1

  0
MTEXT
  5
79
330
75
100
AcDbEntity
  8
0
  6
Continuous
 62
     0
370
     0
100
AcDbMText
 10
0.0
 20
8.1454545455
 30
0.0
 40
7.0
 41
0.0
 71
     1
 72
     1
  1
HCD-B18S
  7
SLDTEXTSTYLE0
 73
     1
 44
1.0
  0
MTEXT
  5
7A
330
75
100
AcDbEntity
  8
0
  6
Continuous
 62
     0
370
     0
100
AcDbMText
 10
0.0
 20
-0.8545450671
 30
0.0
 40
7.0
 41
0.0
 71
     1
 72
     1
  1
HCD-D18S
  7
SLDTEXTSTYLE0
 73
     1
 44
1.0
  0
MTEXT
  5
7B
330
75
100
AcDbEntity
  8
0
  6
Continuous
 62
     0
370
     0
100
AcDbMText
 10
0.0
 20
-9.8545446797
 30
0.0
 40
7.0
 41
0.0
 71
     1
 72
     1
  1
HCD-W18S
  7
SLDTEXTSTYLE0
 73
     1
 44
1.0
  0
ENDBLK
  5
77
330
75
100
AcDbEntity
  8
0
100
AcDbBlockEnd
  0
ENDSEC
  0
SECTION
  2
ENTITIES
  0
INSERT
  5
7C
330
1F
100
AcDbEntity
  8
0
  6
Continuous
 62
     7
370
     0
100
AcDbBlockReference
  2
SW_NOTE_0
 10
276.9504011065
 20
170.6286644162
 30
0.0
  0
SPLINE
  5
7D
330
1F
100
AcDbEntity
  8
0
  6
SLD-実線
 62
     7
370
    25
100
AcDbSpline
210
0.0
220
0.0
230
1.0
 70
     8
 71
     3
 72
    26
 73
    22
 74
     0
 42
0.000000001
 43
0.00000001
 40
0.0
 40
0.0
 40
0.0
 40
0.0
 40
0.0504193034180933
 40
0.1084695546791764
 40
0.1662889886595331
 40
0.2238006959938487
 40
0.2809666782751457
 40
0.337777618260128
 40
0.3942376309528987
 40
0.4503544412362908
 40
0.5061320577671322
 40
0.561563502836663
 40
0.616620456340576
 40
0.6712342829194357
 40
0.725254044598734
 40
0.7783374048596398
 40
0.8296030809617686
 40
0.8793030675608291
 40
0.9145813893386509
 40
0.9495686502296988
 40
1.0
 40
1.0
 40
1.0
 40
1.0
 10
269.9089530354333
 20
436.9386834600165
 30
0.0
 10
269.1988881495096
 20
437.4590219361811
 30
0.0
 10
267.6712902505305
 20
438.578451975188
 30
0.0
 10
265.1833365652535
 20
440.1600869005582
 30
0.0
 10
262.482960727735
 20
441.7139347481827
 30
0.0
 10
259.6804652067489
 20
443.1550322844085
 30
0.0
 10
256.787740451517
 20
444.4892521122597
 30
0.0
 10
253.8111801028573
 20
445.7178221349391
 30
0.0
 10
250.7581688041734
 20
446.8428939787825
 30
0.0
 10
247.6358765048479
 20
447.8659091246481
 30
0.0
 10
244.4520851290896
 20
448.7880156452771
 30
0.0
 10
241.215487435579
 20
449.6099602373171
 30
0.0
 10
237.9365052546395
 20
450.3322156192662
 30
0.0
 10
234.6287231204886
 20
450.9549506111077
 30
0.0
 10
231.3125008272055
 20
451.4779649857395
 30
0.0
 10
228.0255258137643
 20
451.9004299714473
 30
0.0
 10
224.7978453687404
 20
452.2255776611471
 30
0.0
 10
221.9230499896084
 20
452.4397885698868
 30
0.0
 10
219.3812836070392
 20
452.5725104817565
 30
0.0
 10
216.8177616353462
 20
452.6640873797955
 30
0.0
 10
215.0002175757442
 20
452.6771875296593
 30
0.0
 10
213.9271352640204
 20
452.684921889124
 30
0.0
  0
LINE
  5
7E
330
1F
100
AcDbEntity
  8
0
  6
SLD-実線
 62
     7
370
    25
100
AcDbLine
 10
270.1726218495
 20
436.7496379039
 30
0.0
 11
269.9089530354
 21
436.93868346
 31
0.0
  0
LINE
  5
7F
330
1F
100
AcDbEntity
  8
0
  6
SLD-実線
 62
     7
370
    25
100
AcDbLine
 10
157.9775190061
 20
436.9603324802
 30
0.0
 11
157.6816513603
 21
436.7496368257
 31
0.0
  0
SPLINE
  5
80
330
1F
100
AcDbEntity
  8
0
  6
SLD-実線
 62
     7
370
    25
100
AcDbSpline
210
0.0
220
0.0
230
1.0
 70
     8
 71
     3
 72
    27
 73
    23
 74
     0
 42
0.000000001
 43
0.00000001
 40
0.0
 40
0.0
 40
0.0
 40
0.0
 40
0.0598913331822522
 40
0.0842794779006929
 40
0.1247335248205428
 40
0.1667214572146283
 40
0.2117483828893675
 40
0.2587203892869333
 40
0.3072056061142917
 40
0.356863954458404
 40
0.4074604621267935
 40
0.4588272560790733
 40
0.510843910022379
 40
0.563423378235012
 40
0.6165025408734226
 40
0.6700350676116155
 40
0.7239855977812053
 40
0.7783240837530965
 40
0.8330189496009394
 40
0.8880283686044151
 40
0.9432868677006658
 40
1.0
 40
1.0
 40
1.0
 40
1.0
 10
213.9271352640204
 20
452.684921889124
 30
0.0
 10
212.6536112707261
 20
452.6743753075744
 30
0.0
 10
210.8614999326427
 20
452.6595340886632
 30
0.0
 10
208.2150620353947
 20
452.560126780855
 30
0.0
 10
205.9533249603633
 20
452.4404855608057
 30
0.0
 10
203.2659829007721
 20
452.2401614136293
 30
0.0
 10
200.4578372556128
 20
451.967494629307
 30
0.0
 10
197.5368392131673
 20
451.6126554879593
 30
0.0
 10
194.5498562955411
 20
451.1727799986209
 30
0.0
 10
191.5258713275261
 20
450.645141895355
 30
0.0
 10
188.4882834329866
 20
450.0280031402077
 30
0.0
 10
185.4558250009579
 20
449.3200781591704
 30
0.0
 10
182.4439693576152
 20
448.5204203555302
 30
0.0
 10
179.4658238920834
 20
447.6282107985591
 30
0.0
 10
176.5326967811224
 20
446.6426628494136
 30
0.0
 10
173.6545720118546
 20
445.5628526772873
 30
0.0
 10
170.8402970361167
 20
444.3877531315446
 30
0.0
 10
168.0983187742376
 20
443.1157424931787
 30
0.0
 10
165.4354069742564
 20
441.7460717662719
 30
0.0
 10
162.8629412957438
 20
440.2733379572633
 30
0.0
 10
160.3552724062619
 20
438.6964290751726
 30
0.0
 10
158.7769382316755
 20
437.5440216867209
 30
0.0
 10
157.9775190061072
 20
436.9603324801835
 30
0.0
  0
LINE
  5
81
330
1F
100
AcDbEntity
  8
0
  6
SLD-実線
 62
     7
370
    25
100
AcDbLine
 10
145.9271373567
 20
417.0670601977
 30
0.0
 11
145.9271373567
 21
416.2098927565
 31
0.0
  0
LINE
  5
82
330
1F
100
AcDbEntity
  8
0
  6
SLD-実線
 62
     7
370
    25
100
AcDbLine
 10
281.9271346658
 20
416.2098931028
 30
0.0
 11
281.9271346658
 21
417.067060544
 31
0.0
  0
LINE
  5
83
330
1F
100
AcDbEntity
  8
0
  6
SLD-実線
 62
     7
370
    25
100
AcDbLine
 10
261.3271348727
 20
420.4957292168
 30
0.0
 11
261.3271348727
 21
421.3528965582
 31
0.0
  0
LINE
  5
84
330
1F
100
AcDbEntity
  8
0
  6
SLD-実線
 62
     7
370
    25
100
AcDbLine
 10
166.5271371499
 20
421.3528969989
 30
0.0
 11
166.5271371499
 21
420.4957296575
 31
0.0
  0
LINE
  5
85
330
1F
100
AcDbEntity
  8
0
  6
SLD-実線
 62
     7
370
    25
100
AcDbLine
 10
158.9271358748
 20
393.0629463889
 30
0.0
 11
158.9271358748
 21
379.3482705228
 31
0.0
  0
LINE
  5
86
330
1F
100
AcDbEntity
  8
0
  6
SLD-実線
 62
     7
370
    25
100
AcDbLine
 10
268.9271361478
 20
379.3482707752
 30
0.0
 11
268.9271361478
 21
393.0629466413
 31
0.0
  0
LINE
  5
87
330
1F
100
AcDbEntity
  8
0
  6
SLD-実線
 62
     7
370
    25
100
AcDbLine
 10
160.9271352348
 20
371.778788255
 30
0.0
 11
160.9271352348
 21
348.4868172092
 31
0.0
  0
LINE
  5
88
330
1F
100
AcDbEntity
  8
0
  6
SLD-実線
 62
     7
370
    25
100
AcDbLine
 10
266.9271367877
 20
348.6662095305
 30
0.0
 11
266.9271367877
 21
371.7787867672
 31
0.0
  0
LINE
  5
89
330
1F
100
AcDbEntity
  8
0
  6
SLD-実線
 62
     7
370
    25
100
AcDbLine
 10
285.5564638642
 20
394.1407722901
 30
0.0
 11
284.6720439502
 21
394.3811386719
 31
0.0
  0
LINE
  5
8A
330
1F
100
AcDbEntity
  8
0
  6
SLD-実線
 62
     7
370
    25
100
AcDbLine
 10
169.3452554818
 20
333.7252843607
 30
0.0
 11
184.4862713777
 21
321.5952922806
 31
0.0
  0
LINE
  5
8B
330
1F
100
AcDbEntity
  8
0
  6
SLD-実線
 62
     7
370
    25
100
AcDbLine
 10
243.3679999007
 20
321.595292243
 30
0.0
 11
258.5090160281
 21
333.7252840991
 31
0.0
  0
LINE
  5
8C
330
1F
100
AcDbEntity
  8
0
  6
SLD-実線
 62
     7
370
    25
100
AcDbLine
 10
150.2404937779
 20
430.916753489
 30
0.0
 11
149.3560738639
 21
431.1571198708
 31
0.0
  0
SPLINE
  5
8D
330
1F
100
AcDbEntity
  8
0
  6
SLD-実線
 62
     7
370
    25
100
AcDbSpline
210
0.0
220
0.0
230
1.0
 70
     8
 71
     3
 72
    10
 73
     6
 74
     0
 42
0.000000001
 43
0.00000001
 40
0.0
 40
0.0
 40
0.0
 40
0.0
 40
0.369245380043945
 40
0.8148628052600771
 40
1.0
 40
1.0
 40
1.0
 40
1.0
 10
202.4669855792262
 20
293.7913985308122
 30
0.0
 10
202.9155867388189
 20
293.6445661519322
 30
0.0
 10
203.9055744789635
 20
293.3205316463609
 30
0.0
 10
205.1850567413218
 20
292.9882880200536
 30
0.0
 10
206.0234898525737
 20
292.8255308278997
 30
0.0
 10
206.269584212065
 20
292.7777588274644
 30
0.0
  0
SPLINE
  5
8E
330
1F
100
AcDbEntity
  8
0
  6
SLD-実線
 62
     7
370
    25
100
AcDbSpline
210
0.0
220
0.0
230
1.0
 70
     8
 71
     3
 72
    10
 73
     6
 74
     0
 42
0.000000001
 43
0.00000001
 40
0.0
 40
0.0
 40
0.0
 40
0.0
 40
0.3207095397408109
 40
0.7500014302582712
 40
1.0
 40
1.0
 40
1.0
 40
1.0
 10
223.1615564307081
 20
293.1348125764543
 30
0.0
 10
223.5514648100499
 20
293.2362043653285
 30
0.0
 10
224.4632925106302
 20
293.4733160731172
 30
0.0
 10
225.6283358425567
 20
293.8486613907902
 30
0.0
 10
226.3727235843519
 20
294.1449381778647
 30
0.0
 10
226.6466798396937
 20
294.2539766192231
 30
0.0
  0
SPLINE
  5
8F
330
1F
100
AcDbEntity
  8
0
  6
SLD-実線
 62
     7
370
    25
100
AcDbSpline
210
0.0
220
0.0
230
1.0
 70
     8
 71
     3
 72
    33
 73
    29
 74
     0
 42
0.000000001
 43
0.00000001
 40
0.0
 40
0.0
 40
0.0
 40
0.0
 40
0.0099987289807582
 40
0.0447662156951391
 40
0.0796848082353226
 40
0.1151117755225802
 40
0.1514434153996816
 40
0.1890912760849415
 40
0.2283971139022454
 40
0.2694636218176938
 40
0.3119687521240198
 40
0.3551670611093714
 40
0.3982465578475948
 40
0.4409783888805875
 40
0.4834218227179213
 40
0.5257836065326718
 40
0.5683239205573896
 40
0.6112594310022584
 40
0.6549069808460858
 40
0.6995607378561675
 40
0.7453784771953867
 40
0.7866742307191952
 40
0.8264837284384978
 40
0.8646425417226918
 40
0.9013654076544482
 40
0.936981144662948
 40
0.9718020962059943
 40
1.0
 40
1.0
 40
1.0
 40
1.0
 10
197.4214123195233
 20
297.3757365039003
 30
0.0
 10
197.455941619708
 20
297.246397839738
 30
0.0
 10
197.610535878923
 20
296.6673239845759
 30
0.0
 10
198.059953158829
 20
295.6980219808662
 30
0.0
 10
198.7575176135117
 20
294.4890679709675
 30
0.0
 10
199.6177550397141
 20
293.3678937844464
 30
0.0
 10
200.6204425520118
 20
292.3306875138381
 30
0.0
 10
201.771848376845
 20
291.3802507795612
 30
0.0
 10
203.0742572594524
 20
290.5200679148701
 30
0.0
 10
204.5272091680697
 20
289.7592047769662
 30
0.0
 10
206.1170692275236
 20
289.1113974642477
 30
0.0
 10
207.8141794792018
 20
288.5907202134761
 30
0.0
 10
209.5824165681233
 20
288.2048773463733
 30
0.0
 10
211.3904810913206
 20
287.9547879030587
 30
0.0
 10
213.2183068435165
 20
287.8380434726365
 30
0.0
 10
215.0518226150155
 20
287.8529486691962
 30
0.0
 10
216.879011223782
 20
287.9999736424325
 30
0.0
 10
218.6894765862839
 20
288.2824453596533
 30
0.0
 10
220.4734243786336
 20
288.7074450451694
 30
0.0
 10
222.2200309777797
 20
289.2867120429721
 30
0.0
 10
223.8436933400442
 20
290.0055944007882
 30
0.0
 10
225.307856768886
 20
290.843782384261
 30
0.0
 10
226.5836438582879
 20
291.7660382392189
 30
0.0
 10
227.7014845549037
 20
292.7830683277892
 30
0.0
 10
228.6604696331279
 20
293.8840555113839
 30
0.0
 10
229.4530303004349
 20
295.0631930666124
 30
0.0
 10
230.0624439370963
 20
296.2308480302037
 30
0.0
 10
230.3258172567774
 20
297.0317664159475
 30
0.0
 10
230.4436641375333
 20
297.3901388342859
 30
0.0
  0
LINE
  5
90
330
1F
100
AcDbEntity
  8
0
  6
SLD-実線
 62
     7
370
    25
100
AcDbLine
 10
207.4271362317
 20
288.7360137929
 30
0.0
 11
207.4271362317
 21
207.911381636
 31
0.0
  0
LINE
  5
91
330
1F
100
AcDbEntity
  8
0
  6
SLD-実線
 62
     7
370
    25
100
AcDbLine
 10
220.4271357908
 20
207.9113816712
 30
0.0
 11
220.4271357908
 21
288.7226534917
 31
0.0
  0
LINE
  5
92
330
1F
100
AcDbEntity
  8
0
  6
SLD-実線
 62
     7
370
    25
100
AcDbLine
 10
158.9271358748
 20
395.6148089541
 30
0.0
 11
158.9271358748
 21
393.0646611357
 31
0.0
  0
LINE
  5
93
330
1F
100
AcDbEntity
  8
0
  6
SLD-実線
 62
     7
370
    25
100
AcDbLine
 10
268.9271361478
 20
393.0646613881
 30
0.0
 11
268.9271361478
 21
395.6148092065
 31
0.0
  0
LWPOLYLINE
  5
94
330
1F
100
AcDbEntity
  8
0
  6
SLD-実線
 62
     7
370
    25
100
AcDbPolyline
 90
       48
 70
   128
 43
0.0
 10
182.1918478394
 20
386.0924462248
 10
185.676950975
 20
385.2098532328
 10
189.2541998
 20
384.4311711416
 10
192.9119274294
 20
383.7589416315
 10
196.6382038259
 20
383.1953570359
 10
200.4208685406
 20
382.7422514438
 10
204.2475925543
 20
382.4011099251
 10
208.1058866547
 20
382.1730402207
 10
211.9831677846
 20
382.0587850831
 10
215.8667923536
 20
382.0587218997
 10
219.744085617
 20
382.1728482006
 10
223.6024071083
 20
382.4007920774
 10
227.4291722377
 20
382.7418106526
 10
231.2118973178
 20
383.1947908583
 10
234.9382398299
 20
383.7582558485
 10
238.5960501307
 20
384.430366132
 10
242.1733952452
 20
385.2089304613
 10
245.6586057219
 20
386.0914104537
 10
249.0403158998
 20
387.0749270029
 10
252.3074942902
 20
388.1562693769
 10
255.4494843903
 20
389.3319144981
 10
258.456037126
 20
390.5980257181
 10
261.3173442071
 20
391.9504730404
 10
264.0240728554
 20
393.3848464603
 10
266.5673999165
 20
394.8964645919
 10
268.9390245774
 20
396.480399414
 10
271.1312101534
 20
398.1314841668
 10
273.1368112697
 20
399.8443316587
 10
274.9492801319
 20
401.613356832
 10
276.5627048218
 20
403.4327894733
 10
277.971829073
 20
405.2966935152
 10
279.1720510299
 20
407.1989904921
 10
280.1594558767
 20
409.1334749422
 10
280.9308298388
 20
411.0938362962
 10
281.4836492557
 20
413.0736811007
 10
281.816113066
 20
415.0665523919
 10
281.9271373826
 20
417.0659490672
 10
281.8163572743
 20
419.0653481803
 10
281.4841403522
 20
421.0582305354
 10
280.9315664972
 20
423.0380937899
 10
280.1604357262
 20
424.9984806883
 10
279.1732656276
 20
426.9329971145
 10
277.9732789117
 20
428.8353328304
 10
276.5643843724
 20
430.6992840057
 10
274.9511809119
 20
432.5187694792
 10
273.1389301736
 20
434.2878533824
 10
271.1335440934
 20
436.0007658783
 10
269.9533559458
 20
436.9148300943
  0
LWPOLYLINE
  5
95
330
1F
100
AcDbEntity
  8
0
  6
SLD-実線
 62
     7
370
    25
100
AcDbPolyline
 90
       31
 70
   128
 43
0.0
 10
157.9265634383
 20
436.9340245635
 10
156.7230618691
 20
436.0026365749
 10
154.7174607528
 20
434.289789083
 10
152.9049918906
 20
432.5207639097
 10
151.2915672008
 20
430.7013312684
 10
149.8824429495
 20
428.8374272265
 10
148.6822209926
 20
426.9351302496
 10
147.6948161459
 20
425.0006457995
 10
146.9234421837
 20
423.0402844456
 10
146.3706227668
 20
421.060439641
 10
146.0381589566
 20
419.0675683498
 10
145.92713464
 20
417.0681716745
 10
146.0379147483
 20
415.0687725614
 10
146.3701316703
 20
413.0758902063
 10
146.9227055254
 20
411.0960269518
 10
147.6938362963
 20
409.1356400534
 10
148.681006395
 20
407.2011236272
 10
149.8809931109
 20
405.2987879113
 10
151.2898876501
 20
403.434836736
 10
152.9030911106
 20
401.6153512625
 10
154.715341849
 20
399.8462673593
 10
156.7207279291
 20
398.1333548634
 10
158.9127112858
 20
396.4821979971
 10
161.2841423683
 20
394.8981870492
 10
163.8272803698
 20
393.3864846743
 10
166.5338330381
 20
391.9520215821
 10
169.394976079
 20
390.5994825858
 10
172.4013708235
 20
389.3332714289
 10
175.5432143315
 20
388.1575232011
 10
178.8102595071
 20
387.0760728384
 10
182.1918478394
 20
386.0924462248
  0
LWPOLYLINE
  5
96
330
1F
100
AcDbEntity
  8
0
  6
SLD-実線
 62
     7
370
    25
100
AcDbPolyline
 90
       38
 70
   128
 43
0.0
 10
182.1918478394
 20
385.2352787836
 10
185.676950975
 20
384.3526857916
 10
189.2541998
 20
383.5740037004
 10
192.9119274294
 20
382.9017741903
 10
196.6382038259
 20
382.3381895947
 10
200.4208685406
 20
381.8850840026
 10
204.2475925543
 20
381.5439424839
 10
208.1058866547
 20
381.3158727795
 10
211.9831677846
 20
381.2016176419
 10
215.8667923536
 20
381.2015544585
 10
219.744085617
 20
381.3156807594
 10
223.6024071083
 20
381.5436246362
 10
227.4291722377
 20
381.8846432114
 10
231.2118973178
 20
382.3376234171
 10
234.9382398299
 20
382.9010884073
 10
238.5960501307
 20
383.5731986908
 10
242.1733952452
 20
384.3517630201
 10
245.6586057219
 20
385.2342430125
 10
249.0403158998
 20
386.2177595617
 10
252.3074942902
 20
387.2991019357
 10
255.4494843903
 20
388.4747470569
 10
258.456037126
 20
389.7408582769
 10
261.3173442071
 20
391.0933055992
 10
264.0240728554
 20
392.5276790191
 10
266.5673999165
 20
394.0392971507
 10
268.9390245774
 20
395.6232319728
 10
271.1312101534
 20
397.2743167256
 10
273.1368112697
 20
398.9871642175
 10
274.9492801319
 20
400.7561893908
 10
276.5627048218
 20
402.5756220321
 10
277.971829073
 20
404.439526074
 10
279.1720510299
 20
406.3418230509
 10
280.1594558767
 20
408.276307501
 10
280.9308298388
 20
410.236668855
 10
281.4836492557
 20
412.2165136595
 10
281.816113066
 20
414.2093849507
 10
281.9271373826
 20
416.208781626
 10
281.9271346658
 20
416.2098931028
  0
LWPOLYLINE
  5
97
330
1F
100
AcDbEntity
  8
0
  6
SLD-実線
 62
     7
370
    25
100
AcDbPolyline
 90
       20
 70
   128
 43
0.0
 10
145.9271373567
 20
416.2098927565
 10
146.0379147483
 20
414.2116051202
 10
146.3701316703
 20
412.2187227651
 10
146.9227055254
 20
410.2388595106
 10
147.6938362963
 20
408.2784726122
 10
148.681006395
 20
406.343956186
 10
149.8809931109
 20
404.4416204701
 10
151.2898876501
 20
402.5776692948
 10
152.9030911106
 20
400.7581838213
 10
154.715341849
 20
398.9890999181
 10
156.7207279291
 20
397.2761874222
 10
158.9127112858
 20
395.6250305559
 10
161.2841423683
 20
394.041019608
 10
163.8272803698
 20
392.5293172331
 10
166.5338330381
 20
391.0948541409
 10
169.394976079
 20
389.7423151446
 10
172.4013708235
 20
388.4761039877
 10
175.5432143315
 20
387.3003557599
 10
178.8102595071
 20
386.2189053972
 10
182.1918478394
 20
385.2352787836
  0
LWPOLYLINE
  5
98
330
1F
100
AcDbEntity
  8
0
  6
SLD-実線
 62
     7
370
    25
100
AcDbPolyline
 90
       93
 70
   128
 43
0.0
 10
191.7591053153
 20
399.7162192269
 10
194.6776386945
 20
398.987510131
 10
197.685920349
 20
398.3630771396
 10
200.769927985
 20
397.8458352448
 10
203.9152811835
 20
397.4381936734
 10
207.1073127611
 20
397.1420538477
 10
210.3311412298
 20
396.9587940312
 10
213.5717371915
 20
396.8892729783
 10
216.8139900565
 20
396.9338118014
 10
220.0427818036
 20
397.0922042962
 10
223.2430600119
 20
397.3637101102
 10
226.3999049402
 20
397.7470647137
 10
229.4985945952
 20
398.2404812406
 10
232.5246834346
 20
398.8416594705
 10
235.4640602495
 20
399.5477950454
 10
238.303022977
 20
400.3555949326
 10
241.0283344316
 20
401.2612948196
 10
243.6272886069
 20
402.2606703814
 10
246.0877634769
 20
403.3490641492
 10
248.3982932006
 20
404.5213984276
 10
250.5481033285
 20
405.7722096574
 10
252.5271696104
 20
407.0956647024
 10
254.3262609871
 20
408.4855945873
 10
255.9369962638
 20
409.9355169244
 10
257.3518607784
 20
411.4386727376
 10
258.5642623888
 20
412.9880523297
 10
259.5685413344
 20
414.5764336855
 10
260.3600198508
 20
416.1964103418
 10
260.9350061287
 20
417.8404281406
 10
261.2908241262
 20
419.5008225489
 10
261.4258064824
 20
421.1698528546
 10
261.3393297243
 20
422.8397365285
 10
261.0317942185
 20
424.5026872143
 10
260.5046374369
 20
426.1509523419
 10
259.7603145952
 20
427.7768476765
 10
258.8022950798
 20
429.3727908312
 10
257.6350450081
 20
430.9313418015
 10
256.2640093327
 20
432.4452327777
 10
254.6955818191
 20
433.9074066756
 10
252.9370712718
 20
435.3110458408
 10
250.9966796571
 20
436.649606196
 10
248.8834499353
 20
437.9168444364
 10
246.60724098
 20
439.1068552173
 10
244.17866086
 20
440.214089287
 10
241.6090352159
 20
441.233383775
 10
238.9103417549
 20
442.1599843342
 10
236.0951667073
 20
442.9895743303
 10
233.176633328
 20
443.7182834261
 10
230.1683516735
 20
444.3427164176
 10
227.0843440376
 20
444.8599583124
 10
223.938990839
 20
445.2675998838
 10
220.7469592614
 20
445.5637397095
 10
217.5231307928
 20
445.7469995259
 10
214.282534831
 20
445.8165205788
 10
211.0402819661
 20
445.7719817558
 10
207.8114902189
 20
445.6135892609
 10
204.6112120106
 20
445.3420834469
 10
201.4543670824
 20
444.9587288434
 10
198.3556774273
 20
444.4653123165
 10
195.3295885879
 20
443.8641340866
 10
192.3902117731
 20
443.1579985118
 10
189.5512490455
 20
442.3501986245
 10
186.8259375909
 20
441.4444987375
 10
184.2269834156
 20
440.4451231757
 10
181.7665085457
 20
439.356729408
 10
179.4559788219
 20
438.1843951295
 10
177.3061686941
 20
436.9335838997
 10
175.3271024121
 20
435.6101288548
 10
173.5280110354
 20
434.2201989699
 10
171.9172757587
 20
432.7702766328
 10
170.5024112442
 20
431.2671208196
 10
169.2900096337
 20
429.7177412274
 10
168.2857306881
 20
428.1293598716
 10
167.4942521718
 20
426.5093832153
 10
166.9192658939
 20
424.8653654165
 10
166.5634478964
 20
423.2049710082
 10
166.4284655401
 20
421.5359407025
 10
166.5149422983
 20
419.8660570286
 10
166.822477804
 20
418.2031063428
 10
167.3496345857
 20
416.5548412153
 10
168.0939574274
 20
414.9289458806
 10
169.0519769427
 20
413.333002726
 10
170.2192270145
 20
411.7744517556
 10
171.5902626898
 20
410.2605607794
 10
173.1586902034
 20
408.7983868815
 10
174.9172007508
 20
407.3947477164
 10
176.8575923655
 20
406.0561873612
 10
178.9708220872
 20
404.7889491208
 10
181.2470310425
 20
403.5989383398
 10
183.6756111626
 20
402.4917042702
 10
186.2452368066
 20
401.4724097822
 10
188.9439302676
 20
400.5458092229
 10
191.7591053153
 20
399.7162192269
  0
LWPOLYLINE
  5
99
330
1F
100
AcDbEntity
  8
0
  6
SLD-実線
 62
     7
370
    25
100
AcDbPolyline
 90
       34
 70
   128
 43
0.0
 10
188.2588897592
 20
370.5848830938
 10
191.3956983693
 20
369.7968514673
 10
194.6232322232
 20
369.1128716448
 10
197.928496641
 20
368.5356986529
 10
201.2981811796
 20
368.0676570158
 10
204.7187168546
 20
367.7106295428
 10
208.1763346426
 20
367.4660566145
 10
211.6571078092
 20
367.3349225093
 10
215.1470209128
 20
367.3177518358
 10
218.6320227001
 20
367.4146190203
 10
222.0980786386
 20
367.6251296908
 10
225.5312333289
 20
367.9484384253
 10
228.9176635842
 20
368.3832430033
 10
232.2437304115
 20
368.9277919731
 10
235.4960459998
 20
369.5798924782
 10
238.6615091359
 20
370.3369201572
 10
241.7273746185
 20
371.1958252261
 10
244.6812973669
 20
372.1531508632
 10
247.5113860483
 20
373.2050403277
 10
250.2062423353
 20
374.3472588317
 10
252.7550173241
 20
375.5752074942
 10
255.1474427159
 20
376.8839414418
 10
257.3738937546
 20
378.2681901258
 10
259.4253933988
 20
379.7223819503
 10
261.2936939412
 20
381.2406581563
 10
262.9712623278
 20
382.8169078269
 10
264.4513464528
 20
384.4447832593
 10
265.7279884382
 20
386.1177293703
 10
266.7960468204
 20
387.8290094629
 10
267.6512239056
 20
389.5717319254
 10
268.2900689211
 20
391.3388820856
 10
268.7100153168
 20
393.1233421741
 10
268.9093686117
 20
394.917928795
 10
268.9271361478
 20
395.6378784585
  0
LWPOLYLINE
  5
9A
330
1F
100
AcDbEntity
  8
0
  6
SLD-実線
 62
     7
370
    25
100
AcDbPolyline
 90
       19
 70
   128
 43
0.0
 10
158.9271358748
 20
395.6378782061
 10
158.9282342852
 20
395.458995943
 10
159.0609909382
 20
393.6627769841
 10
159.4146764269
 20
391.8745112332
 10
159.9878639266
 20
390.1013984211
 10
160.7782483837
 20
388.3505786682
 10
161.7826419443
 20
386.6291033555
 10
162.9970033809
 20
384.9439021787
 10
164.4164422139
 20
383.3017625031
 10
166.0352439741
 20
381.7092964654
 10
167.8468874123
 20
380.172914602
 10
169.84408367
 20
378.6988065256
 10
172.0187830577
 20
377.2929043727
 10
174.3622345412
 20
375.9608709748
 10
176.865000389
 20
374.7080720149
 10
179.5170008354
 20
373.5395487022
 10
182.3075598863
 20
372.4600074931
 10
185.2254394807
 20
371.4737956205
 10
188.2588897592
 20
370.5848830938
  0
LWPOLYLINE
  5
9B
330
1F
100
AcDbEntity
  8
0
  6
SLD-実線
 62
     7
370
    25
100
AcDbPolyline
 90
        3
 70
   128
 43
0.0
 10
261.4198464098
 20
420.9243133162
 10
261.3393297243
 20
421.9825691871
 10
261.2841186977
 20
422.3927303934
  0
LWPOLYLINE
  5
9C
330
1F
100
AcDbEntity
  8
0
  6
SLD-実線
 62
     7
370
    25
100
AcDbPolyline
 90
        3
 70
   128
 43
0.0
 10
166.5701530142
 20
422.3927299957
 10
166.5634478964
 20
422.3478036668
 10
166.4344258244
 20
420.9243133866
  0
LWPOLYLINE
  5
9D
330
1F
100
AcDbEntity
  8
0
  6
SLD-実線
 62
     7
370
    25
100
AcDbPolyline
 90
       93
 70
   128
 43
0.0
 10
191.8057739056
 20
399.7617692017
 10
194.7181639885
 20
399.0345952187
 10
197.7201134416
 20
398.4114775041
 10
200.7976279761
 20
397.8953234389
 10
203.936357923
 20
397.488540401
 10
207.1216703726
 20
397.1930226673
 10
210.3387131217
 20
397.0101513893
 10
213.5724846863
 20
396.9407755655
 10
216.8079130041
 20
396.9852210232
 10
220.0299065945
 20
397.143278684
 10
223.2234482691
 20
397.4142138055
 10
226.3736450097
 20
397.7967632733
 10
229.4658115208
 20
398.2891410943
 10
232.4855299432
 20
398.8890514564
 10
235.4187203195
 20
399.5936999481
 10
238.2517041971
 20
400.3998001364
 10
240.9712796234
 20
401.303593319
 10
243.5647593516
 20
402.3008652584
 10
246.0200583273
 20
403.386965793
 10
248.325723062
 20
404.556833395
 10
250.4710064457
 20
405.8050106336
 10
252.4459046916
 20
407.1256802341
 10
254.2412100984
 20
408.5126836861
 10
255.8485562492
 20
409.9595530253
 10
257.2604401825
 20
411.459544807
 10
258.4702880462
 20
413.0056630743
 10
259.4724548574
 20
414.5907002356
 10
260.2622664416
 20
416.2072656651
 10
260.8360448633
 20
417.8478228572
 10
261.191108473
 20
419.5047223616
 10
261.3258088518
 20
421.1702378429
 10
261.2395133722
 20
422.8366066152
 10
260.9326279816
 20
424.4960559914
 10
260.4065792587
 20
426.1408515476
 10
259.6638196719
 20
427.7633228125
 10
258.7078169119
 20
429.3559062997
 10
257.5430285374
 20
430.9111762627
 10
256.1748801888
 20
432.4218809874
 10
254.6097528175
 20
433.88097555
 10
252.8549443351
 20
435.2816604422
 10
250.9186371221
 20
436.6174012487
 10
248.8098599511
 20
437.8819737065
 10
246.5384403047
 20
439.0694788328
 10
244.1149743525
 20
440.1743814569
 10
241.5507569385
 20
441.1915292476
 10
238.8577454516
 20
442.1161798882
 10
236.0484981169
 20
442.9440243554
 10
233.1361080341
 20
443.6711983384
 10
230.134158581
 20
444.2943160531
 10
227.0566440465
 20
444.8104701183
 10
223.9179140996
 20
445.2172531561
 10
220.7326016499
 20
445.5127708898
 10
217.5155589008
 20
445.6956421679
 10
214.2817873363
 20
445.7650179917
 10
211.0463590184
 20
445.720572534
 10
207.8243654281
 20
445.5625148732
 10
204.6308237534
 20
445.2915797516
 10
201.4806270128
 20
444.9090302839
 10
198.3884605017
 20
444.4166524628
 10
195.3687420793
 20
443.8167421007
 10
192.4355517031
 20
443.112093609
 10
189.6025678255
 20
442.3059934208
 10
186.8829923991
 20
441.4022002381
 10
184.2895126709
 20
440.4049282987
 10
181.8342136952
 20
439.3188277642
 10
179.5285489605
 20
438.1489601622
 10
177.3832655768
 20
436.9007829235
 10
175.4083673309
 20
435.580113323
 10
173.6130619241
 20
434.1931098711
 10
172.0057157733
 20
432.7462405319
 10
170.59383184
 20
431.2462487502
 10
169.3839839763
 20
429.7001304829
 10
168.3818171651
 20
428.1150933215
 10
167.5920055809
 20
426.498527892
 10
167.0182271592
 20
424.8579707
 10
166.6631635496
 20
423.2010711956
 10
166.5284631707
 20
421.5355557143
 10
166.6147586503
 20
419.8691869419
 10
166.9216440409
 20
418.2097375658
 10
167.4476927639
 20
416.5649420095
 10
168.1904523507
 20
414.9424707447
 10
169.1464551106
 20
413.3498872575
 10
170.3112434852
 20
411.7946172944
 10
171.6793918338
 20
410.2839125697
 10
173.244519205
 20
408.8248180071
 10
174.9993276875
 20
407.424133115
 10
176.9356349005
 20
406.0883923084
 10
179.0444120714
 20
404.8238198507
 10
181.3158317178
 20
403.6363147243
 10
183.7392976701
 20
402.5314121003
 10
186.303515084
 20
401.5142643095
 10
188.9965265709
 20
400.589613669
 10
191.8057739056
 20
399.7617692017
  0
LWPOLYLINE
  5
9E
330
1F
100
AcDbEntity
  8
0
  6
SLD-実線
 62
     7
370
    25
100
AcDbPolyline
 90
        3
 70
   128
 43
0.0
 10
261.2841192201
 20
419.4558967072
 10
261.3258088518
 20
420.3130705015
 10
261.3271348727
 20
420.4957292168
  0
LINE
  5
9F
330
1F
100
AcDbEntity
  8
0
  6
SLD-実線
 62
     7
370
    25
100
AcDbLine
 10
166.5271371499
 20
420.4957296575
 30
0.0
 11
166.5701535365
 21
419.4558963094
 31
0.0
  0
LWPOLYLINE
  5
A0
330
1F
100
AcDbEntity
  8
0
  6
SLD-実線
 62
     7
370
    25
100
AcDbPolyline
 90
       34
 70
   128
 43
0.0
 10
188.2588897592
 20
368.0099512766
 10
191.3956983693
 20
367.2219196501
 10
194.6232322232
 20
366.5379398276
 10
197.928496641
 20
365.9607668357
 10
201.2981811796
 20
365.4927251986
 10
204.7187168546
 20
365.1356977256
 10
208.1763346426
 20
364.8911247973
 10
211.6571078092
 20
364.7599906921
 10
215.1470209128
 20
364.7428200186
 10
218.6320227001
 20
364.8396872031
 10
222.0980786386
 20
365.0501978736
 10
225.5312333289
 20
365.3735066081
 10
228.9176635842
 20
365.8083111861
 10
232.2437304115
 20
366.3528601559
 10
235.4960459998
 20
367.004960661
 10
238.6615091359
 20
367.7619883399
 10
241.7273746185
 20
368.6208934089
 10
244.6812973669
 20
369.578219046
 10
247.5113860483
 20
370.6301085105
 10
250.2062423353
 20
371.7723270145
 10
252.7550173241
 20
373.000275677
 10
255.1474427159
 20
374.3090096246
 10
257.3738937546
 20
375.6932583086
 10
259.4253933988
 20
377.1474501331
 10
261.2936939412
 20
378.665726339
 10
262.9712623278
 20
380.2419760097
 10
264.4513464528
 20
381.869851442
 10
265.7279884382
 20
383.5427975531
 10
266.7960468204
 20
385.2540776457
 10
267.6512239056
 20
386.9968001081
 10
268.2900689211
 20
388.7639502684
 10
268.7100153168
 20
390.5484103569
 10
268.9093686117
 20
392.3429969778
 10
268.9271361478
 20
393.0629466413
  0
LWPOLYLINE
  5
A1
330
1F
100
AcDbEntity
  8
0
  6
SLD-実線
 62
     7
370
    25
100
AcDbPolyline
 90
       19
 70
   128
 43
0.0
 10
158.9271358748
 20
393.0629463889
 10
158.9282342852
 20
392.8840641257
 10
159.0609909382
 20
391.0878451669
 10
159.4146764269
 20
389.299579416
 10
159.9878639266
 20
387.5264666039
 10
160.7782483837
 20
385.775646851
 10
161.7826419443
 20
384.0541715383
 10
162.9970033809
 20
382.3689703615
 10
164.4164422139
 20
380.7268306859
 10
166.0352439741
 20
379.1343646482
 10
167.8468874123
 20
377.5979827848
 10
169.84408367
 20
376.1238747084
 10
172.0187830577
 20
374.7179725554
 10
174.3622345412
 20
373.3859391576
 10
176.865000389
 20
372.1331401977
 10
179.5170008354
 20
370.964616885
 10
182.3075598863
 20
369.8850756759
 10
185.2254394807
 20
368.8988638033
 10
188.2588897592
 20
368.0099512766
  0
LWPOLYLINE
  5
A2
330
1F
100
AcDbEntity
  8
0
  6
SLD-実線
 62
     7
370
    25
100
AcDbPolyline
 90
       34
 70
   128
 43
0.0
 10
188.2588897592
 20
354.2952754105
 10
191.3956983693
 20
353.507243784
 10
194.6232322232
 20
352.8232639616
 10
197.928496641
 20
352.2460909696
 10
201.2981811796
 20
351.7780493325
 10
204.7187168546
 20
351.4210218595
 10
208.1763346426
 20
351.1764489312
 10
211.6571078092
 20
351.045314826
 10
215.1470209128
 20
351.0281441526
 10
218.6320227001
 20
351.1250113371
 10
222.0980786386
 20
351.3355220076
 10
225.5312333289
 20
351.658830742
 10
228.9176635842
 20
352.0936353201
 10
232.2437304115
 20
352.6381842899
 10
235.4960459998
 20
353.290284795
 10
238.6615091359
 20
354.0473124739
 10
241.7273746185
 20
354.9062175428
 10
244.6812973669
 20
355.8635431799
 10
247.5113860483
 20
356.9154326444
 10
250.2062423353
 20
358.0576511484
 10
252.7550173241
 20
359.285599811
 10
255.1474427159
 20
360.5943337585
 10
257.3738937546
 20
361.9785824426
 10
259.4253933988
 20
363.4327742671
 10
261.2936939412
 20
364.951050473
 10
262.9712623278
 20
366.5273001437
 10
264.4513464528
 20
368.155175576
 10
265.7279884382
 20
369.828121687
 10
266.7960468204
 20
371.5394017796
 10
267.6512239056
 20
373.2821242421
 10
268.2900689211
 20
375.0492744024
 10
268.7100153168
 20
376.8337344908
 10
268.9093686117
 20
378.6283211117
 10
268.9271361478
 20
379.3482707752
  0
LWPOLYLINE
  5
A3
330
1F
100
AcDbEntity
  8
0
  6
SLD-実線
 62
     7
370
    25
100
AcDbPolyline
 90
       19
 70
   128
 43
0.0
 10
158.9271358748
 20
379.3482705228
 10
158.9282342852
 20
379.1693882597
 10
159.0609909382
 20
377.3731693008
 10
159.4146764269
 20
375.58490355
 10
159.9878639266
 20
373.8117907379
 10
160.7782483837
 20
372.060970985
 10
161.7826419443
 20
370.3394956723
 10
162.9970033809
 20
368.6542944954
 10
164.4164422139
 20
367.0121548199
 10
166.0352439741
 20
365.4196887822
 10
167.8468874123
 20
363.8833069187
 10
169.84408367
 20
362.4091988423
 10
172.0187830577
 20
361.0032966894
 10
174.3622345412
 20
359.6712632916
 10
176.865000389
 20
358.4184643317
 10
179.5170008354
 20
357.249941019
 10
182.3075598863
 20
356.1703998098
 10
185.2254394807
 20
355.1841879373
 10
188.2588897592
 20
354.2952754105
  0
LWPOLYLINE
  5
A4
330
1F
100
AcDbEntity
  8
0
  6
SLD-実線
 62
     7
370
    25
100
AcDbPolyline
 90
       24
 70
   128
 43
0.0
 10
189.1922806901
 20
353.4885291975
 10
192.2783087283
 20
352.7145394469
 10
195.4551409715
 20
352.0450573108
 10
198.7094510086
 20
351.4828889238
 10
202.0275901699
 20
351.0303943281
 10
205.3956374975
 20
350.6894673849
 10
208.7994720882
 20
350.4615421458
 10
212.2248109387
 20
350.3475717203
 10
215.6572917666
 20
350.3480361385
 10
219.0825151093
 20
350.4629330792
 10
222.4861160723
 20
350.6917800638
 10
225.8538177751
 20
351.0336172869
 10
229.171491476
 20
351.4870107997
 10
232.4252268566
 20
352.0500594414
 10
235.6013756737
 20
352.7204025003
 10
238.6866161401
 20
353.4952249952
 10
241.6680055439
 20
354.3712802544
 10
244.5330387267
 20
355.3448935479
 10
247.2697038144
 20
356.4119794814
 10
249.8665131474
 20
357.5680639621
 10
252.3125838124
 20
358.8082970228
 10
254.5976536551
 20
360.1274766719
 10
256.7121365414
 20
361.5200699413
 10
257.1202355871
 20
361.8115746871
  0
ARC
  5
A5
330
1F
100
AcDbEntity
  8
0
  6
SLD-実線
 62
     7
370
    25
100
AcDbCircle
 10
202.8123598728
 20
408.3233471641
 30
0.0
 40
56.50100723336356
100
AcDbArc
 50
235.4066765898
 51
256.0509451719
  0
LWPOLYLINE
  5
A6
330
1F
100
AcDbEntity
  8
0
  6
SLD-実線
 62
     7
370
    25
100
AcDbPolyline
 90
       26
 70
   128
 43
0.0
 10
189.1922806901
 20
324.3448393898
 10
192.2783087283
 20
323.5708496392
 10
195.4551409715
 20
322.9013675031
 10
198.7094510086
 20
322.3391991161
 10
202.0275901699
 20
321.8867045204
 10
205.3956374975
 20
321.5457775772
 10
208.7994720882
 20
321.3178523381
 10
212.2248109387
 20
321.2038819126
 10
215.6572917666
 20
321.2043463308
 10
219.0825151093
 20
321.3192432715
 10
222.4861160723
 20
321.5480902561
 10
225.8538177751
 20
321.8899274792
 10
229.171491476
 20
322.343320992
 10
232.4252268566
 20
322.9063696337
 10
235.6013756737
 20
323.5767126926
 10
238.6866161401
 20
324.3515351875
 10
241.6680055439
 20
325.2275904467
 10
244.5330387267
 20
326.2012037402
 10
247.2697038144
 20
327.2682896737
 10
249.8665131474
 20
328.4243741544
 10
252.3125838124
 20
329.6646072151
 10
254.5976536551
 20
330.9837868642
 10
256.7121365414
 20
332.3763801336
 10
258.6471633537
 20
333.8365466474
 10
260.3946180349
 20
335.3581614684
 10
260.6408544644
 20
335.592045339
  0
LWPOLYLINE
  5
A7
330
1F
100
AcDbEntity
  8
0
  6
SLD-実線
 62
     7
370
    25
100
AcDbPolyline
 90
       18
 70
   128
 43
0.0
 10
160.9271352348
 20
348.4868172092
 10
160.9903443311
 20
347.1540500512
 10
161.2688638144
 20
345.3920214078
 10
161.7682526821
 20
343.6429734693
 10
162.4864099807
 20
341.914241453
 10
163.4203288936
 20
340.2130781049
 10
164.5660902476
 20
338.546618584
 10
165.9188903844
 20
336.9218501091
 10
167.473053518
 20
335.345589075
 10
169.2220602929
 20
333.8244472588
 10
171.1585766153
 20
332.3648044588
 10
173.2744792813
 20
330.9727841745
 10
175.5608929536
 20
329.654221863
 10
178.0082287837
 20
328.4146522725
 10
180.6062185523
 20
327.2592697924
 10
183.3439699007
 20
326.1929242892
 10
186.2099969472
 20
325.2200867531
 10
189.1922806901
 20
324.3448393898
  0
LINE
  5
A8
330
1F
100
AcDbEntity
  8
0
  6
SLD-実線
 62
     7
370
    25
100
AcDbLine
 10
277.8760432741
 20
387.8961836437
 30
0.0
 11
278.7604631881
 21
387.6558172619
 31
0.0
  0
ARC
  5
A9
330
1F
100
AcDbEntity
  8
0
  6
SLD-実線
 62
     7
370
    25
100
AcDbCircle
 10
280.338720731
 20
386.3553995622
 30
0.0
 40
2.044989747006178
100
AcDbArc
 50
140.5129156614
 51
180.3434429369
  0
LINE
  5
AA
330
1F
100
AcDbEntity
  8
0
  6
SLD-実線
 62
     7
370
    25
100
AcDbLine
 10
278.2937677226
 20
386.3431415375
 30
0.0
 11
277.4093478086
 21
386.5835079193
 31
0.0
  0
ARC
  5
AB
330
1F
100
AcDbEntity
  8
0
  6
SLD-実線
 62
     7
370
    25
100
AcDbCircle
 10
279.454300817
 20
386.595765944
 30
0.0
 40
2.044989747006506
100
AcDbArc
 50
140.5129156614
 51
180.3434429369
  0
LWPOLYLINE
  5
AC
330
1F
100
AcDbEntity
  8
0
  6
SLD-実線
 62
     7
370
    25
100
AcDbPolyline
 90
        9
 70
   128
 43
0.0
 10
285.7608943002
 20
393.6312859926
 10
285.7519267262
 20
393.7897579007
 10
285.7253691115
 20
393.9246358791
 10
285.6822415654
 20
394.0307351529
 10
285.6242022547
 20
394.1039790768
 10
285.5534809028
 20
394.141552164
 10
285.4727953382
 20
394.1420118233
 10
285.3852465284
 20
394.1053391822
 10
285.2941988348
 20
394.032943554
  0
LINE
  5
AD
330
1F
100
AcDbEntity
  8
0
  6
SLD-実線
 62
     7
370
    25
100
AcDbLine
 10
285.7608943002
 20
393.6312859926
 30
0.0
 11
285.7608943002
 21
377.345105408
 31
0.0
  0
LINE
  5
AE
330
1F
100
AcDbEntity
  8
0
  6
SLD-実線
 62
     7
370
    25
100
AcDbLine
 10
285.7608943002
 20
377.345105408
 30
0.0
 11
278.2937677226
 21
370.056960953
 31
0.0
  0
LINE
  5
AF
330
1F
100
AcDbEntity
  8
0
  6
SLD-実線
 62
     7
370
    25
100
AcDbLine
 10
278.2937677226
 20
386.3431415375
 30
0.0
 11
278.2937677226
 21
370.056960953
 31
0.0
  0
LINE
  5
B0
330
1F
100
AcDbEntity
  8
0
  6
SLD-実線
 62
     7
370
    25
100
AcDbLine
 10
285.2941988348
 20
394.032943554
 30
0.0
 11
278.7604631881
 21
387.6558172619
 31
0.0
  0
LINE
  5
B1
330
1F
100
AcDbEntity
  8
0
  6
SLD-実線
 62
     7
370
    25
100
AcDbLine
 10
278.2937677226
 20
370.056960953
 30
0.0
 11
260.0483782306
 21
332.1103260703
 31
0.0
  0
LINE
  5
B2
330
1F
100
AcDbEntity
  8
0
  6
SLD-実線
 62
     7
370
    25
100
AcDbLine
 10
260.0483782306
 20
332.1103260703
 30
0.0
 11
245.5702967989
 21
317.2275971899
 31
0.0
  0
LINE
  5
B3
330
1F
100
AcDbEntity
  8
0
  6
SLD-実線
 62
     7
370
    25
100
AcDbLine
 10
245.5702967989
 20
317.2275971899
 30
0.0
 11
240.3287490798
 21
318.6521375471
 31
0.0
  0
LINE
  5
B4
330
1F
100
AcDbEntity
  8
0
  6
SLD-実線
 62
     7
370
    25
100
AcDbLine
 10
240.3287490798
 20
319.5093065849
 30
0.0
 11
240.3287490798
 21
318.6521375471
 31
0.0
  0
LINE
  5
B5
330
1F
100
AcDbEntity
  8
0
  6
SLD-実線
 62
     7
370
    25
100
AcDbLine
 10
240.3287490798
 20
319.5093065849
 30
0.0
 11
245.1265580944
 21
318.2053648994
 31
0.0
  0
LINE
  5
B6
330
1F
100
AcDbEntity
  8
0
  6
SLD-実線
 62
     7
370
    25
100
AcDbLine
 10
245.1265580944
 20
318.2053648994
 30
0.0
 11
259.2729968847
 21
332.7471838629
 31
0.0
  0
LINE
  5
B7
330
1F
100
AcDbEntity
  8
0
  6
SLD-実線
 62
     7
370
    25
100
AcDbLine
 10
259.2729968847
 20
332.7471838629
 30
0.0
 11
277.4093478086
 21
370.4670425637
 31
0.0
  0
LINE
  5
B8
330
1F
100
AcDbEntity
  8
0
  6
SLD-実線
 62
     7
370
    25
100
AcDbLine
 10
277.4093478086
 20
370.4670425637
 30
0.0
 11
277.4093478086
 21
386.5835079193
 31
0.0
  0
LINE
  5
B9
330
1F
100
AcDbEntity
  8
0
  6
SLD-実線
 62
     7
370
    25
100
AcDbLine
 10
285.2941988348
 20
394.032943554
 30
0.0
 11
284.4097789208
 21
394.2733099358
 31
0.0
  0
LINE
  5
BA
330
1F
100
AcDbEntity
  8
0
  6
SLD-実線
 62
     7
370
    25
100
AcDbLine
 10
284.4097789208
 20
394.2733099358
 30
0.0
 11
277.8760432741
 21
387.8961836437
 31
0.0
  0
LINE
  5
BB
330
1F
100
AcDbEntity
  8
0
  6
SLD-実線
 62
     7
370
    25
100
AcDbLine
 10
285.7608943002
 20
377.345105408
 30
0.0
 11
267.5155048082
 21
339.3984705253
 31
0.0
  0
LINE
  5
BC
330
1F
100
AcDbEntity
  8
0
  6
SLD-実線
 62
     7
370
    25
100
AcDbLine
 10
267.5155048082
 20
339.3984705253
 30
0.0
 11
260.0483782306
 21
332.1103260703
 31
0.0
  0
ARC
  5
BD
330
1F
100
AcDbEntity
  8
0
  6
SLD-実線
 62
     7
370
    25
100
AcDbCircle
 10
284.6284868477
 20
394.1142201557
 30
0.0
 40
0.2704490995078689
100
AcDbArc
 50
80.731879089
 51
143.9675774707
  0
ARC
  5
BE
330
1F
100
AcDbEntity
  8
0
  6
SLD-実線
 62
     7
370
    25
100
AcDbCircle
 10
227.1966272494
 20
341.8996824399
 30
0.0
 40
25.95730253119986
100
AcDbArc
 50
300.3919398147
 51
308.5354671683
  0
LWPOLYLINE
  5
BF
330
1F
100
AcDbEntity
  8
0
  6
SLD-実線
 62
     7
370
    25
100
AcDbPolyline
 90
       24
 70
   128
 43
0.0
 10
184.4862713777
 20
321.5952922806
 10
185.8228181731
 20
320.5996859071
 10
187.6079440247
 20
319.460705545
 10
189.5666102194
 20
318.4000762446
 10
191.6859004451
 20
317.4247902873
 10
193.9518405377
 20
316.5412792164
 10
196.3494910453
 20
315.7553691552
 10
198.8630411066
 20
315.0722401075
 10
201.4759168673
 20
314.4963964914
 10
204.1708922656
 20
314.0316370315
 10
206.9301974479
 20
313.6810252925
 10
209.7356369884
 20
313.4468727366
 10
212.5687137463
 20
313.3307245855
 10
215.4107473364
 20
313.3333438941
 10
218.2429984536
 20
313.4547157261
 10
221.046791826
 20
313.6940386858
 10
223.803642506
 20
314.0497361532
 10
226.4953693961
 20
314.519461225
 10
229.1042269833
 20
315.1001184015
 10
231.6130133725
 20
315.7878765288
 10
234.0051859128
 20
316.5782035415
 10
236.2649699389
 20
317.4658862627
 10
238.3774692943
 20
318.4450724994
 10
240.3287490798
 20
319.5093065849
  0
LWPOLYLINE
  5
C0
330
1F
100
AcDbEntity
  8
0
  6
SLD-実線
 62
     7
370
    25
100
AcDbPolyline
 90
       27
 70
   128
 43
0.0
 10
180.9787391301
 20
324.4052958882
 10
181.6201918165
 20
323.5521747207
 10
182.8190380591
 20
322.2250200799
 10
184.222998734
 20
320.9523366539
 10
185.8228181731
 20
319.7425168693
 10
187.6079440247
 20
318.6035365072
 10
189.5666102194
 20
317.5429072068
 10
191.6859004451
 20
316.5676212495
 10
193.9518405377
 20
315.6841101786
 10
196.3494910453
 20
314.8982001174
 10
198.8630411066
 20
314.2150710697
 10
201.4759168673
 20
313.6392274536
 10
204.1708922656
 20
313.1744679937
 10
206.9301974479
 20
312.8238562547
 10
209.7356369884
 20
312.5897036988
 10
212.5687137463
 20
312.4735555477
 10
215.4107473364
 20
312.4761748563
 10
218.2429984536
 20
312.5975466883
 10
221.046791826
 20
312.836869648
 10
223.803642506
 20
313.1925671154
 10
226.4953693961
 20
313.6622921872
 10
229.1042269833
 20
314.2429493637
 10
231.6130133725
 20
314.930707491
 10
234.0051859128
 20
315.7210345037
 10
236.2649699389
 20
316.6087172249
 10
238.3774692943
 20
317.5879034616
 10
240.3287490798
 20
318.6521375471
  0
LINE
  5
C1
330
1F
100
AcDbEntity
  8
0
  6
SLD-実線
 62
     7
370
    25
100
AcDbLine
 10
253.0374233764
 20
324.5157416449
 30
0.0
 11
245.5702967989
 21
317.2275971899
 31
0.0
  0
LINE
  5
C2
330
1F
100
AcDbEntity
  8
0
  6
SLD-実線
 62
     7
370
    25
100
AcDbLine
 10
267.5155048082
 20
339.3984705253
 30
0.0
 11
253.0374233764
 21
324.5157416449
 31
0.0
  0
LINE
  5
C3
330
1F
100
AcDbEntity
  8
0
  6
SLD-実線
 62
     7
370
    25
100
AcDbLine
 10
160.3387672144
 20
359.209261826
 30
0.0
 11
160.9271372849
 21
358.284642237
 31
0.0
  0
LINE
  5
C4
330
1F
100
AcDbEntity
  8
0
  6
SLD-実線
 62
     7
370
    25
100
AcDbLine
 10
142.0933777223
 20
407.0733085337
 30
0.0
 11
160.3387672144
 21
359.209261826
 31
0.0
  0
LINE
  5
C5
330
1F
100
AcDbEntity
  8
0
  6
SLD-実線
 62
     7
370
    25
100
AcDbLine
 10
142.0933777223
 20
423.3594891183
 30
0.0
 11
142.0933777223
 21
407.0733085337
 31
0.0
  0
LINE
  5
C6
330
1F
100
AcDbEntity
  8
0
  6
SLD-実線
 62
     7
370
    25
100
AcDbLine
 10
142.9777976363
 20
423.1191227365
 30
0.0
 11
142.0933777223
 21
423.3594891183
 31
0.0
  0
LINE
  5
C7
330
1F
100
AcDbEntity
  8
0
  6
SLD-実線
 62
     7
370
    25
100
AcDbLine
 10
142.9777976363
 20
407.0026573808
 30
0.0
 11
142.9777976363
 21
423.1191227365
 31
0.0
  0
LINE
  5
C8
330
1F
100
AcDbEntity
  8
0
  6
SLD-実線
 62
     7
370
    25
100
AcDbLine
 10
160.9271372849
 20
359.9152546865
 30
0.0
 11
142.9777976363
 21
407.0026573808
 31
0.0
  0
LINE
  5
C9
330
1F
100
AcDbEntity
  8
0
  6
SLD-実線
 62
     7
370
    25
100
AcDbLine
 10
203.6881615182
 20
309.3495800485
 30
0.0
 11
203.6881615182
 21
313.2485758037
 31
0.0
  0
LINE
  5
CA
330
1F
100
AcDbEntity
  8
0
  6
SLD-実線
 62
     7
370
    25
100
AcDbLine
 10
225.6115925363
 20
309.7794046941
 30
0.0
 11
225.6115925363
 21
313.4941593672
 31
0.0
  0
LINE
  5
CB
330
1F
100
AcDbEntity
  8
0
  6
SLD-実線
 62
     7
370
    25
100
AcDbLine
 10
225.6115925363
 20
309.7794046941
 30
0.0
 11
203.6881615182
 21
309.3495800485
 31
0.0
  0
LWPOLYLINE
  5
CC
330
1F
100
AcDbEntity
  8
0
  6
SLD-実線
 62
     7
370
    25
100
AcDbPolyline
 90
        9
 70
   128
 43
0.0
 10
150.4449242139
 20
430.4072671915
 10
150.4359566399
 20
430.5657390996
 10
150.4093990252
 20
430.700617078
 10
150.3662714791
 20
430.8067163519
 10
150.3082321684
 20
430.8799602758
 10
150.2375108165
 20
430.917533363
 10
150.1568252519
 20
430.9179930223
 10
150.0692764421
 20
430.8813203812
 10
149.9782287485
 20
430.808924753
  0
LINE
  5
CD
330
1F
100
AcDbEntity
  8
0
  6
SLD-実線
 62
     7
370
    25
100
AcDbLine
 10
146.7720846444
 20
410.70599782
 30
0.0
 11
142.9777976363
 21
407.0026573808
 31
0.0
  0
ARC
  5
CE
330
1F
100
AcDbEntity
  8
0
  6
SLD-実線
 62
     7
370
    25
100
AcDbCircle
 10
145.0227506447
 20
423.1313807612
 30
0.0
 40
2.044989747006542
100
AcDbArc
 50
140.5129156614
 51
180.3434429369
  0
LINE
  5
CF
330
1F
100
AcDbEntity
  8
0
  6
SLD-実線
 62
     7
370
    25
100
AcDbLine
 10
149.9782287485
 20
430.808924753
 30
0.0
 11
143.4444931018
 21
424.4317984609
 31
0.0
  0
LINE
  5
D0
330
1F
100
AcDbEntity
  8
0
  6
SLD-実線
 62
     7
370
    25
100
AcDbLine
 10
150.4449242139
 20
429.6197170337
 30
0.0
 11
150.4449242139
 21
430.4072671915
 31
0.0
  0
ARC
  5
D1
330
1F
100
AcDbEntity
  8
0
  6
SLD-実線
 62
     7
370
    25
100
AcDbCircle
 10
144.1383307306
 20
423.3717471429
 30
0.0
 40
2.044989747006364
100
AcDbArc
 50
140.5129156614
 51
180.3434429369
  0
LINE
  5
D2
330
1F
100
AcDbEntity
  8
0
  6
SLD-実線
 62
     7
370
    25
100
AcDbLine
 10
142.5600731878
 20
424.6721648427
 30
0.0
 11
143.4444931018
 21
424.4317984609
 31
0.0
  0
LINE
  5
D3
330
1F
100
AcDbEntity
  8
0
  6
SLD-実線
 62
     7
370
    25
100
AcDbLine
 10
249.3382500068
 20
326.3782667409
 30
0.0
 11
252.2954043069
 21
325.5745755662
 31
0.0
  0
LINE
  5
D4
330
1F
100
AcDbEntity
  8
0
  6
SLD-実線
 62
     7
370
    25
100
AcDbLine
 10
149.9782287485
 20
430.808924753
 30
0.0
 11
149.0938088345
 21
431.0492911348
 31
0.0
  0
LINE
  5
D5
330
1F
100
AcDbEntity
  8
0
  6
SLD-実線
 62
     7
370
    25
100
AcDbLine
 10
149.0938088345
 20
431.0492911348
 30
0.0
 11
142.5600731878
 21
424.6721648427
 31
0.0
  0
LINE
  5
D6
330
1F
100
AcDbEntity
  8
0
  6
SLD-実線
 62
     7
370
    25
100
AcDbLine
 10
158.9271330994
 20
392.038987251
 30
0.0
 11
157.0219711747
 21
397.0368983153
 31
0.0
  0
LINE
  5
D7
330
1F
100
AcDbEntity
  8
0
  6
SLD-実線
 62
     7
370
    25
100
AcDbLine
 10
203.6881615182
 20
309.3495800485
 30
0.0
 11
197.2153052858
 21
314.6476120086
 31
0.0
  0
LINE
  5
D8
330
1F
100
AcDbEntity
  8
0
  6
SLD-実線
 62
     7
370
    25
100
AcDbLine
 10
230.5834754304
 20
314.6321148189
 30
0.0
 11
225.6115925363
 21
309.7794046941
 31
0.0
  0
LWPOLYLINE
  5
D9
330
1F
100
AcDbEntity
  8
0
  6
SLD-実線
 62
     7
370
    25
100
AcDbPolyline
 90
       27
 70
   128
 43
0.0
 10
235.0037912207
 20
316.0949368341
 10
234.7147154767
 20
315.633551045
 10
233.8793924318
 20
314.5694356767
 10
232.8393321604
 20
313.5543049673
 10
231.6052070187
 20
312.5985754636
 10
230.1896807241
 20
311.7120543024
 10
228.6072795453
 20
310.9038381553
 10
226.8742387109
 20
310.1822208747
 10
225.0083443295
 20
309.5546070382
 10
223.0287422913
 20
309.0274364315
 10
220.9557448912
 20
308.6061186428
 10
218.810623072
 20
308.2949772593
 10
216.6153924877
 20
308.0972055062
 10
214.3925745594
 20
308.0148313938
 10
212.1649816424
 20
308.0487012594
 10
209.9554715585
 20
308.1984678392
 10
207.7867148235
 20
308.4625927875
 10
205.680967638
 20
308.8383671541
 10
203.6598375104
 20
309.3219349486
 10
201.7440633381
 20
309.9083333852
 10
199.9533043625
 20
310.5915459011
 10
198.3059360799
 20
311.3645619629
 10
196.8188616159
 20
312.219447855
 10
195.5073416762
 20
313.1474330299
 10
194.3848336031
 20
314.1389950678
 10
193.4628559638
 20
315.1839572223
 10
192.8504803662
 20
316.0949366714
  0
LWPOLYLINE
  5
DA
330
1F
100
AcDbEntity
  8
0
  6
SLD-実線
 62
     7
370
    25
100
AcDbPolyline
 90
       33
 70
   128
 43
0.0
 10
235.9189677527
 20
316.4628901832
 10
235.9175555051
 20
316.4372681882
 10
235.7390531052
 20
315.2931606709
 10
235.3367296129
 20
314.1642246946
 10
234.7147154767
 20
313.0620439316
 10
233.8793924318
 20
311.9979285633
 10
232.8393321604
 20
310.9827978539
 10
231.6052070187
 20
310.0270683502
 10
230.1896807241
 20
309.140547189
 10
228.6072795453
 20
308.3323310419
 10
226.8742387109
 20
307.6107137613
 10
225.0083443295
 20
306.9830999248
 10
223.0287422913
 20
306.4559293181
 10
220.9557448912
 20
306.0346115294
 10
218.810623072
 20
305.7234701459
 10
216.6153924877
 20
305.5256983928
 10
214.3925745594
 20
305.4433242804
 10
212.1649816424
 20
305.477194146
 10
209.9554715585
 20
305.6269607258
 10
207.7867148235
 20
305.8910856741
 10
205.680967638
 20
306.2668600407
 10
203.6598375104
 20
306.7504278352
 10
201.7440633381
 20
307.3368262718
 10
199.9533043625
 20
308.0200387877
 10
198.3059360799
 20
308.7930548495
 10
196.8188616159
 20
309.6479407416
 10
195.5073416762
 20
310.5759259165
 10
194.3848336031
 20
311.5674879544
 10
193.4628559638
 20
312.6124501089
 10
192.7508691283
 20
313.7000924043
 10
192.2561803996
 20
314.8192522641
 10
191.9838650173
 20
315.9584457729
 10
191.9353041881
 20
316.4628898589
  0
LINE
  5
DB
330
1F
100
AcDbEntity
  8
0
  6
SLD-実線
 62
     7
370
    25
100
AcDbLine
 10
225.6115925363
 20
294.3503939456
 30
0.0
 11
225.6115925363
 21
307.1709906094
 31
0.0
  0
SPLINE
  5
DC
330
1F
100
AcDbEntity
  8
0
  6
SLD-実線
 62
     7
370
    25
100
AcDbSpline
210
0.0
220
0.0
230
1.0
 70
     8
 71
     3
 72
    30
 73
    26
 74
     0
 42
0.000000001
 43
0.00000001
 40
0.0
 40
0.0
 40
0.0
 40
0.0
 40
0.0624999999999998
 40
0.0624999999999998
 40
0.1249999999999996
 40
0.1249999999999996
 40
0.1874999999999994
 40
0.1874999999999994
 40
0.2499999999999993
 40
0.2499999999999993
 40
0.3749999999999992
 40
0.3749999999999992
 40
0.4999999999999992
 40
0.4999999999999992
 40
0.6249999999999992
 40
0.6249999999999992
 40
0.7499999999999991
 40
0.7499999999999991
 40
0.8124999999999992
 40
0.8124999999999992
 40
0.8749999999999994
 40
0.8749999999999994
 40
0.9374999999999998
 40
0.9374999999999998
 40
1.0
 40
1.0
 40
1.0
 40
1.0
 10
203.6881610906215
 20
293.920565834357
 30
0.0
 10
204.0011468439455
 20
293.6086536031315
 30
0.0
 10
204.3916055366465
 20
293.3750611527211
 30
0.0
 10
205.2450347465684
 20
293.0123791353669
 30
0.0
 10
205.6948443948782
 20
292.8869274813128
 30
0.0
 10
206.6180520762509
 20
292.6931074001344
 30
0.0
 10
207.0907024958489
 20
292.6262084720091
 30
0.0
 10
208.0319655916993
 20
292.5268962699535
 30
0.0
 10
208.5037897945392
 20
292.4942502245258
 30
0.0
 10
209.9212651379631
 20
292.4248757839586
 30
0.0
 10
210.8688377705411
 20
292.4155523701333
 30
0.0
 10
212.7655198273844
 20
292.4188237953883
 30
0.0
 10
213.7146921298836
 20
292.4323154255184
 30
0.0
 10
215.6137643113753
 20
292.4696756325826
 30
0.0
 10
216.5631553451644
 20
292.4935265787591
 30
0.0
 10
218.4612139479918
 20
292.5652264106434
 30
0.0
 10
219.4106071463306
 20
292.6121816587527
 30
0.0
 10
220.8308088767919
 20
292.7388151576914
 30
0.0
 10
221.3026200250338
 20
292.790634338655
 30
0.0
 10
222.2406550252098
 20
292.9280476216509
 30
0.0
 10
222.7087944664341
 20
293.0136765884585
 30
0.0
 10
223.6261195290816
 20
293.2445327109287
 30
0.0
 10
224.0733955200743
 20
293.3882126296045
 30
0.0
 10
224.9202268028794
 20
293.7845820403559
 30
0.0
 10
225.3012624458829
 20
294.0289560348504
 30
0.0
 10
225.6115928602533
 20
294.3503905383309
 30
0.0
  0
LINE
  5
DD
330
1F
100
AcDbEntity
  8
0
  6
SLD-実線
 62
     7
370
    25
100
AcDbLine
 10
203.6881615157
 20
293.9205693007
 30
0.0
 11
203.6881615182
 21
306.7427497895
 31
0.0
  0
ARC
  5
DE
330
1F
100
AcDbEntity
  8
0
  6
SLD-実線
 62
     7
370
    25
100
AcDbCircle
 10
149.3125167614
 20
430.8902013547
 30
0.0
 40
0.2704490995054576
100
AcDbArc
 50
80.7318790887
 51
143.9675774711
  0
SPLINE
  5
DF
330
1F
100
AcDbEntity
  8
0
  6
SLD-実線
 62
     7
370
    25
100
AcDbSpline
210
0.0
220
0.0
230
1.0
 70
     8
 71
     3
 72
    30
 73
    26
 74
     0
 42
0.000000001
 43
0.00000001
 40
0.0
 40
0.0
 40
0.0
 40
0.0
 40
0.0624999999999999
 40
0.0624999999999999
 40
0.1249999999999998
 40
0.1249999999999998
 40
0.1874999999999997
 40
0.1874999999999997
 40
0.2499999999999998
 40
0.2499999999999998
 40
0.3749999999999999
 40
0.3749999999999999
 40
0.5000000000000001
 40
0.5000000000000001
 40
0.6250000000000002
 40
0.6250000000000002
 40
0.7500000000000003
 40
0.7500000000000003
 40
0.8125000000000003
 40
0.8125000000000003
 40
0.8750000000000002
 40
0.8750000000000002
 40
0.9375000000000001
 40
0.9375000000000001
 40
1.0
 40
1.0
 40
1.0
 40
1.0
 10
192.003704238888
 20
303.484294538785
 30
0.0
 10
192.1705151911147
 20
303.0297112205025
 30
0.0
 10
192.3786166326888
 20
302.6181325017914
 30
0.0
 10
192.8334658955122
 20
301.8664242372872
 30
0.0
 10
193.0731994135956
 20
301.535931840052
 30
0.0
 10
193.5652382709264
 20
300.9212777687016
 30
0.0
 10
193.8171451571642
 20
300.6389263849004
 30
0.0
 10
194.3188069473066
 20
300.1105498320203
 30
0.0
 10
194.5702734876093
 20
299.8628279526429
 30
0.0
 10
195.3257404993246
 20
299.1473130856962
 30
0.0
 10
195.8307650617869
 20
298.7060491885931
 30
0.0
 10
196.8416332453476
 20
297.8447391178207
 30
0.0
 10
197.3475103784444
 20
297.4255610728545
 30
0.0
 10
198.3596524186063
 20
296.5972502720438
 30
0.0
 10
198.8656461281767
 20
296.1883318368864
 30
0.0
 10
199.877247964767
 20
295.394822689498
 30
0.0
 10
200.3832428279645
 20
295.0090075695948
 30
0.0
 10
201.1401629129033
 20
294.4882578487836
 30
0.0
 10
201.3916224955396
 20
294.3250071465678
 30
0.0
 10
201.8915638185034
 20
294.0348275703076
 30
0.0
 10
202.1410665039363
 20
293.9070603608905
 30
0.0
 10
202.6299701219529
 20
293.7197640196067
 30
0.0
 10
202.8683532852776
 20
293.6595581346276
 30
0.0
 10
203.3196860732742
 20
293.6699088899193
 30
0.0
 10
203.5227653436914
 20
293.7405920092873
 30
0.0
 10
203.6881610889314
 20
293.9205658325172
 30
0.0
  0
SPLINE
  5
E0
330
1F
100
AcDbEntity
  8
0
  6
SLD-実線
 62
     7
370
    25
100
AcDbSpline
210
0.0
220
0.0
230
1.0
 70
     8
 71
     3
 72
    30
 73
    26
 74
     0
 42
0.000000001
 43
0.00000001
 40
0.0
 40
0.0
 40
0.0
 40
0.0
 40
0.0625000000000001
 40
0.0625000000000001
 40
0.1250000000000001
 40
0.1250000000000001
 40
0.1875
 40
0.1875
 40
0.2499999999999998
 40
0.2499999999999998
 40
0.3749999999999999
 40
0.3749999999999999
 40
0.5
 40
0.5
 40
0.6250000000000001
 40
0.6250000000000001
 40
0.7500000000000002
 40
0.7500000000000002
 40
0.8125000000000002
 40
0.8125000000000002
 40
0.8750000000000002
 40
0.8750000000000002
 40
0.9375000000000001
 40
0.9375000000000001
 40
1.0
 40
1.0
 40
1.0
 40
1.0
 10
225.6115928626317
 20
294.3503905407945
 30
0.0
 10
225.7577676637456
 20
294.1750130849528
 30
0.0
 10
225.9401249152776
 20
294.1117516782375
 30
0.0
 10
226.3387048624677
 20
294.1213638127052
 30
0.0
 10
226.5487809927184
 20
294.1921340591109
 30
0.0
 10
226.9799498167899
 20
294.4010478153
 30
0.0
 10
227.2006933501476
 20
294.5403346902685
 30
0.0
 10
227.6402946558532
 20
294.8516326967067
 30
0.0
 10
227.8606523183875
 20
295.0248120311857
 30
0.0
 10
228.5226606500849
 20
295.573787389776
 30
0.0
 10
228.9652087201896
 20
295.9778266137851
 30
0.0
 10
229.8510225934479
 20
296.8084937142416
 30
0.0
 10
230.294317762837
 20
297.2360458113113
 30
0.0
 10
231.181247904139
 20
298.1018443452609
 30
0.0
 10
231.6246452283465
 20
298.5398511762144
 30
0.0
 10
232.5111019945576
 20
299.4395471783055
 30
0.0
 10
232.9545003296814
 20
299.9006592554325
 30
0.0
 10
233.6177819751901
 20
300.6468318939893
 30
0.0
 10
233.8381335407902
 20
300.9044707599843
 30
0.0
 10
234.2762272179883
 20
301.4510860489219
 30
0.0
 10
234.494863973768
 20
301.7409329802766
 30
0.0
 10
234.9232854183912
 20
302.3719567464689
 30
0.0
 10
235.1321782460355
 20
302.7107533001297
 30
0.0
 10
235.5276767408447
 20
303.4765386277592
 30
0.0
 10
235.7056331134221
 20
303.8871330185551
 30
0.0
 10
235.8505677825374
 20
304.3439439504924
 30
0.0
  0
LINE
  5
E1
330
1F
100
AcDbEntity
  8
0
  6
SLD-実線
 62
     7
370
    25
100
AcDbLine
 10
192.0037049932
 20
303.4842976499
 30
0.0
 11
192.0037049932
 21
315.827109015
 31
0.0
  0
LINE
  5
E2
330
1F
100
AcDbEntity
  8
0
  6
SLD-実線
 62
     7
370
    25
100
AcDbLine
 10
235.8505670294
 20
304.3439469412
 30
0.0
 11
235.8505670294
 21
315.8271049611
 31
0.0
  0
LWPOLYLINE
  5
E3
330
1F
100
AcDbEntity
  8
0
  6
SLD-実線
 62
     7
370
    25
100
AcDbPolyline
 90
       19
 70
   128
 43
0.0
 10
220.4271357908
 20
207.9113816712
 10
220.4253332174
 20
207.8325439427
 10
220.2865621835
 20
207.2189099127
 10
219.9312288605
 20
206.6288570643
 10
219.3714330411
 20
206.0824791832
 10
218.6262378285
 20
205.5983824426
 10
217.7210207136
 20
205.1930520345
 10
216.6866075803
 20
204.8802911166
 10
215.558223641
 20
204.6707503611
 10
214.3742952586
 20
204.5715653139
 10
213.1751390514
 20
204.5861137071
 10
212.0015915875
 20
204.7139003037
 10
210.8936159206
 20
204.9505730483
 10
209.8889433856
 20
205.2880728164
 10
209.0217864397
 20
205.7149059514
 10
208.3216753779
 20
206.2165377055
 10
207.8124517553
 20
206.7758851878
 10
207.5114560414
 20
207.3739007052
 10
207.4271362317
 20
207.911381636
  0
LWPOLYLINE
  5
E4
330
1F
100
AcDbEntity
  8
0
  6
SLD-実線
 62
     7
370
    25
100
AcDbPolyline
 90
       34
 70
   128
 43
0.0
 10
188.2588897592
 20
370.583168347
 10
191.3956983693
 20
369.7951367205
 10
194.6232322232
 20
369.111156898
 10
197.928496641
 20
368.5339839061
 10
201.2981811796
 20
368.065942269
 10
204.7187168546
 20
367.708914796
 10
208.1763346426
 20
367.4643418677
 10
211.6571078092
 20
367.3332077625
 10
215.1470209128
 20
367.316037089
 10
218.6320227001
 20
367.4129042735
 10
222.0980786386
 20
367.623414944
 10
225.5312333289
 20
367.9467236785
 10
228.9176635842
 20
368.3815282565
 10
232.2437304115
 20
368.9260772263
 10
235.4960459998
 20
369.5781777314
 10
238.6615091359
 20
370.3352054104
 10
241.7273746185
 20
371.1941104793
 10
244.6812973669
 20
372.1514361164
 10
247.5113860483
 20
373.2033255809
 10
250.2062423353
 20
374.3455440849
 10
252.7550173241
 20
375.5734927474
 10
255.1474427159
 20
376.882226695
 10
257.3738937546
 20
378.266475379
 10
259.4253933988
 20
379.7206672035
 10
261.2936939412
 20
381.2389434095
 10
262.9712623278
 20
382.8151930801
 10
264.4513464528
 20
384.4430685125
 10
265.7279884382
 20
386.1160146235
 10
266.7960468204
 20
387.8272947161
 10
267.6512239056
 20
389.5700171786
 10
268.2900689211
 20
391.3371673388
 10
268.7100153168
 20
393.1216274273
 10
268.9093686117
 20
394.9162140482
 10
268.9271361478
 20
395.6361637117
  0
LWPOLYLINE
  5
E5
330
1F
100
AcDbEntity
  8
0
  6
SLD-実線
 62
     7
370
    25
100
AcDbPolyline
 90
       19
 70
   128
 43
0.0
 10
158.9271358748
 20
395.6361634593
 10
158.9282342852
 20
395.4572811961
 10
159.0609909382
 20
393.6610622373
 10
159.4146764269
 20
391.8727964864
 10
159.9878639266
 20
390.0996836743
 10
160.7782483837
 20
388.3488639214
 10
161.7826419443
 20
386.6273886087
 10
162.9970033809
 20
384.9421874319
 10
164.4164422139
 20
383.3000477563
 10
166.0352439741
 20
381.7075817186
 10
167.8468874123
 20
380.1711998552
 10
169.84408367
 20
378.6970917788
 10
172.0187830577
 20
377.2911896259
 10
174.3622345412
 20
375.959156228
 10
176.865000389
 20
374.7063572681
 10
179.5170008354
 20
373.5378339554
 10
182.3075598863
 20
372.4582927463
 10
185.2254394807
 20
371.4720808737
 10
188.2588897592
 20
370.583168347
  0
LWPOLYLINE
  5
E6
330
1F
100
AcDbEntity
  8
0
  6
SLD-実線
 62
     7
370
    25
100
AcDbPolyline
 90
       34
 70
   128
 43
0.0
 10
188.2588897592
 20
368.0116660234
 10
191.3956983693
 20
367.2236343969
 10
194.6232322232
 20
366.5396545744
 10
197.928496641
 20
365.9624815825
 10
201.2981811796
 20
365.4944399454
 10
204.7187168546
 20
365.1374124724
 10
208.1763346426
 20
364.8928395441
 10
211.6571078092
 20
364.7617054389
 10
215.1470209128
 20
364.7445347654
 10
218.6320227001
 20
364.8414019499
 10
222.0980786386
 20
365.0519126204
 10
225.5312333289
 20
365.3752213549
 10
228.9176635842
 20
365.8100259329
 10
232.2437304115
 20
366.3545749027
 10
235.4960459998
 20
367.0066754078
 10
238.6615091359
 20
367.7637030867
 10
241.7273746185
 20
368.6226081557
 10
244.6812973669
 20
369.5799337928
 10
247.5113860483
 20
370.6318232573
 10
250.2062423353
 20
371.7740417613
 10
252.7550173241
 20
373.0019904238
 10
255.1474427159
 20
374.3107243714
 10
257.3738937546
 20
375.6949730554
 10
259.4253933988
 20
377.1491648799
 10
261.2936939412
 20
378.6674410859
 10
262.9712623278
 20
380.2436907565
 10
264.4513464528
 20
381.8715661888
 10
265.7279884382
 20
383.5445122999
 10
266.7960468204
 20
385.2557923925
 10
267.6512239056
 20
386.9985148549
 10
268.2900689211
 20
388.7656650152
 10
268.7100153168
 20
390.5501251037
 10
268.9093686117
 20
392.3447117246
 10
268.9271361478
 20
393.0646613881
  0
LWPOLYLINE
  5
E7
330
1F
100
AcDbEntity
  8
0
  6
SLD-実線
 62
     7
370
    25
100
AcDbPolyline
 90
       19
 70
   128
 43
0.0
 10
158.9271358748
 20
393.0646611357
 10
158.9282342852
 20
392.8857788725
 10
159.0609909382
 20
391.0895599137
 10
159.4146764269
 20
389.3012941628
 10
159.9878639266
 20
387.5281813507
 10
160.7782483837
 20
385.7773615978
 10
161.7826419443
 20
384.0558862851
 10
162.9970033809
 20
382.3706851083
 10
164.4164422139
 20
380.7285454327
 10
166.0352439741
 20
379.136079395
 10
167.8468874123
 20
377.5996975316
 10
169.84408367
 20
376.1255894552
 10
172.0187830577
 20
374.7196873022
 10
174.3622345412
 20
373.3876539044
 10
176.865000389
 20
372.1348549445
 10
179.5170008354
 20
370.9663316318
 10
182.3075598863
 20
369.8867904227
 10
185.2254394807
 20
368.9005785501
 10
188.2588897592
 20
368.0116660234
  0
LWPOLYLINE
  5
E8
330
1F
100
AcDbEntity
  8
0
  6
SLD-実線
 62
     7
370
    25
100
AcDbPolyline
 90
       24
 70
   128
 43
0.0
 10
189.1922806901
 20
353.4902439443
 10
192.2783087283
 20
352.7162541937
 10
195.4551409715
 20
352.0467720576
 10
198.7094510086
 20
351.4846036706
 10
202.0275901699
 20
351.0321090749
 10
205.3956374975
 20
350.6911821317
 10
208.7994720882
 20
350.4632568926
 10
212.2248109387
 20
350.3492864671
 10
215.6572917666
 20
350.3497508853
 10
219.0825151093
 20
350.464647826
 10
222.4861160723
 20
350.6934948106
 10
225.8538177751
 20
351.0353320337
 10
229.171491476
 20
351.4887255465
 10
232.4252268566
 20
352.0517741882
 10
235.6013756737
 20
352.7221172471
 10
238.6866161401
 20
353.496939742
 10
241.6680055439
 20
354.3729950012
 10
244.5330387267
 20
355.3466082948
 10
247.2697038144
 20
356.4136942282
 10
249.8665131474
 20
357.5697787089
 10
252.3125838124
 20
358.8100117696
 10
254.5976536551
 20
360.1291914187
 10
256.7121365414
 20
361.5217846881
 10
257.096031271
 20
361.795770374
  0
ARC
  5
E9
330
1F
100
AcDbEntity
  8
0
  6
SLD-実線
 62
     7
370
    25
100
AcDbCircle
 10
202.8212056605
 20
408.3493668177
 30
0.0
 40
56.52672782225481
100
AcDbArc
 50
235.4435615498
 51
256.0481820726
  0
ARC
  5
EA
330
1F
100
AcDbEntity
  8
0
  6
SLD-実線
 62
     8
370
    25
100
AcDbCircle
 10
213.9185795916
 20
322.5898557029
 30
0.0
 40
30.87871154811248
100
AcDbArc
 50
254.2521406462
 51
286.5763787455
  0
ENDSEC
  0
SECTION
  2
OBJECTS
  0
DICTIONARY
  5
C
330
0
100
AcDbDictionary
281
     1
  3
ACAD_GROUP
350
D
  3
ACAD_LAYOUT
350
1A
  3
ACAD_MLINESTYLE
350
17
  3
ACAD_PLOTSETTINGS
350
19
  3
ACAD_PLOTSTYLENAME
350
E
  3
ACAD_SCALELIST
350
47
  0
DICTIONARY
  5
D
102
{ACAD_REACTORS
330
C
102
}
330
C
100
AcDbDictionary
281
     1
  0
DICTIONARY
  5
1A
102
{ACAD_REACTORS
330
C
102
}
330
C
100
AcDbDictionary
281
     1
  3
Layout1
350
1E
  3
Layout2
350
26
  3
Model
350
22
  0
DICTIONARY
  5
17
102
{ACAD_REACTORS
330
C
102
}
330
C
100
AcDbDictionary
281
     1
  3
Standard
350
18
  0
DICTIONARY
  5
19
102
{ACAD_REACTORS
330
C
102
}
330
C
100
AcDbDictionary
281
     1
  0
ACDBDICTIONARYWDFLT
  5
E
102
{ACAD_REACTORS
330
C
102
}
330
C
100
AcDbDictionary
281
     1
  3
Normal
350
F
100
AcDbDictionaryWithDefault
340
F
  0
DICTIONARY
  5
47
102
{ACAD_REACTORS
330
C
102
}
330
C
100
AcDbDictionary
281
     1
  3
A0
350
48
  3
A1
350
49
  3
A2
350
4A
  3
A3
350
4B
  3
A4
350
4C
  3
A5
350
4D
  3
A6
350
4E
  3
A7
350
4F
  3
A8
350
50
  3
A9
350
51
  3
B0
350
52
  3
B1
350
53
  3
B2
350
54
  3
B3
350
55
  3
B4
350
56
  3
B5
350
57
  3
B6
350
58
  3
B7
350
59
  3
B8
350
5A
  3
B9
350
5B
  3
C0
350
5C
  3
C1
350
5D
  3
C2
350
5E
  3
C3
350
5F
  3
C4
350
60
  3
C5
350
61
  3
C6
350
62
  3
C7
350
63
  3
C8
350
64
  3
C9
350
65
  3
D0
350
66
  3
D1
350
67
  3
D2
350
68
  0
LAYOUT
  5
1E
102
{ACAD_REACTORS
330
1A
102
}
330
1A
100
AcDbPlotSettings
  1

  2
none_device
  4

  6

 40
0.0
 41
0.0
 42
0.0
 43
0.0
 44
0.0
 45
0.0
 46
0.0
 47
0.0
 48
0.0
 49
0.0
140
0.0
141
0.0
142
1.0
143
1.0
 70
   688
 72
     1
 73
     0
 74
     5
  7

 75
    16
147
1.0
148
0.0
149
0.0
100
AcDbLayout
  1
Layout1
 70
     1
 71
     1
 10
0.0
 20
0.0
 11
420.0
 21
297.0
 12
0.0
 22
0.0
 32
0.0
 14
1.0000000000E+20
 24
1.0000000000E+20
 34
1.0000000000E+20
 15
-1.0000000000E+20
 25
-1.0000000000E+20
 35
-1.0000000000E+20
146
0.0
 13
0.0
 23
0.0
 33
0.0
 16
1.0
 26
0.0
 36
0.0
 17
0.0
 27
1.0
 37
0.0
 76
     0
330
1B
  0
LAYOUT
  5
26
102
{ACAD_REACTORS
330
1A
102
}
330
1A
100
AcDbPlotSettings
  1

  2
none_device
  4

  6

 40
0.0
 41
0.0
 42
0.0
 43
0.0
 44
0.0
 45
0.0
 46
0.0
 47
0.0
 48
0.0
 49
0.0
140
0.0
141
0.0
142
1.0
143
1.0
 70
   688
 72
     1
 73
     0
 74
     5
  7

 75
    16
147
1.0
148
0.0
149
0.0
100
AcDbLayout
  1
Layout2
 70
     1
 71
     2
 10
0.0
 20
0.0
 11
0.0
 21
0.0
 12
0.0
 22
0.0
 32
0.0
 14
0.0
 24
0.0
 34
0.0
 15
0.0
 25
0.0
 35
0.0
146
0.0
 13
0.0
 23
0.0
 33
0.0
 16
1.0
 26
0.0
 36
0.0
 17
0.0
 27
1.0
 37
0.0
 76
     0
330
23
  0
LAYOUT
  5
22
102
{ACAD_REACTORS
330
1A
102
}
330
1A
100
AcDbPlotSettings
  1

  2
none_device
  4
Letter_(8.50_x_11.00_Inches)
  6

 40
6.35
 41
6.35
 42
6.35000508
 43
6.35000508
 44
215.9
 45
279.4
 46
0.0
 47
0.0
 48
0.0
 49
0.0
140
0.0
141
0.0
142
1.0
143
1.0
 70
  1712
 72
     1
 73
     0
 74
     0
  7

 75
     0
147
1.0
148
0.0
149
0.0
100
AcDbLayout
  1
Model
 70
     1
 71
     0
 10
0.0
 20
0.0
 11
420.0
 21
594.0
 12
0.0
 22
0.0
 32
0.0
 14
0.0
 24
0.0
 34
0.0
 15
420.0
 25
594.0
 35
0.0
146
0.0
 13
0.0
 23
0.0
 33
0.0
 16
1.0
 26
0.0
 36
0.0
 17
0.0
 27
1.0
 37
0.0
 76
     0
330
1F
331
29
  0
MLINESTYLE
  5
18
102
{ACAD_REACTORS
330
17
102
}
330
17
100
AcDbMlineStyle
  2
Standard
 70
     0
  3

 62
   256
 51
90.0
 52
90.0
 71
     2
 49
0.5
 62
   256
  6
BYLAYER
 49
-0.5
 62
   256
  6
BYLAYER
  0
ACDBPLACEHOLDER
  5
F
102
{ACAD_REACTORS
330
E
102
}
330
E
  0
SCALE
  5
48
102
{ACAD_REACTORS
330
47
102
}
330
47
100
AcDbScale
 70
     0
300
1:1
140
1.0
141
1.0
290
     1
  0
SCALE
  5
49
102
{ACAD_REACTORS
330
47
102
}
330
47
100
AcDbScale
 70
     0
300
1:2
140
1.0
141
2.0
290
     0
  0
SCALE
  5
4A
102
{ACAD_REACTORS
330
47
102
}
330
47
100
AcDbScale
 70
     0
300
1:4
140
1.0
141
4.0
290
     0
  0
SCALE
  5
4B
102
{ACAD_REACTORS
330
47
102
}
330
47
100
AcDbScale
 70
     0
300
1:5
140
1.0
141
5.0
290
     0
  0
SCALE
  5
4C
102
{ACAD_REACTORS
330
47
102
}
330
47
100
AcDbScale
 70
     0
300
1:8
140
1.0
141
8.0
290
     0
  0
SCALE
  5
4D
102
{ACAD_REACTORS
330
47
102
}
330
47
100
AcDbScale
 70
     0
300
1:10
140
1.0
141
10.0
290
     0
  0
SCALE
  5
4E
102
{ACAD_REACTORS
330
47
102
}
330
47
100
AcDbScale
 70
     0
300
1:16
140
1.0
141
16.0
290
     0
  0
SCALE
  5
4F
102
{ACAD_REACTORS
330
47
102
}
330
47
100
AcDbScale
 70
     0
300
1:20
140
1.0
141
20.0
290
     0
  0
SCALE
  5
50
102
{ACAD_REACTORS
330
47
102
}
330
47
100
AcDbScale
 70
     0
300
1:30
140
1.0
141
30.0
290
     0
  0
SCALE
  5
51
102
{ACAD_REACTORS
330
47
102
}
330
47
100
AcDbScale
 70
     0
300
1:40
140
1.0
141
40.0
290
     0
  0
SCALE
  5
52
102
{ACAD_REACTORS
330
47
102
}
330
47
100
AcDbScale
 70
     0
300
1:50
140
1.0
141
50.0
290
     0
  0
SCALE
  5
53
102
{ACAD_REACTORS
330
47
102
}
330
47
100
AcDbScale
 70
     0
300
1:100
140
1.0
141
100.0
290
     0
  0
SCALE
  5
54
102
{ACAD_REACTORS
330
47
102
}
330
47
100
AcDbScale
 70
     0
300
2:1
140
2.0
141
1.0
290
     0
  0
SCALE
  5
55
102
{ACAD_REACTORS
330
47
102
}
330
47
100
AcDbScale
 70
     0
300
4:1
140
4.0
141
1.0
290
     0
  0
SCALE
  5
56
102
{ACAD_REACTORS
330
47
102
}
330
47
100
AcDbScale
 70
     0
300
8:1
140
8.0
141
1.0
290
     0
  0
SCALE
  5
57
102
{ACAD_REACTORS
330
47
102
}
330
47
100
AcDbScale
 70
     0
300
10:1
140
10.0
141
1.0
290
     0
  0
SCALE
  5
58
102
{ACAD_REACTORS
330
47
102
}
330
47
100
AcDbScale
 70
     0
300
100:1
140
100.0
141
1.0
290
     0
  0
SCALE
  5
59
102
{ACAD_REACTORS
330
47
102
}
330
47
100
AcDbScale
 70
     0
300
1/128" = 1'-0"
140
0.0078125
141
12.0
290
     0
  0
SCALE
  5
5A
102
{ACAD_REACTORS
330
47
102
}
330
47
100
AcDbScale
 70
     0
300
1/64" = 1'-0"
140
0.015625
141
12.0
290
     0
  0
SCALE
  5
5B
102
{ACAD_REACTORS
330
47
102
}
330
47
100
AcDbScale
 70
     0
300
1/32" = 1'-0"
140
0.03125
141
12.0
290
     0
  0
SCALE
  5
5C
102
{ACAD_REACTORS
330
47
102
}
330
47
100
AcDbScale
 70
     0
300
1/16" = 1'-0"
140
0.0625
141
12.0
290
     0
  0
SCALE
  5
5D
102
{ACAD_REACTORS
330
47
102
}
330
47
100
AcDbScale
 70
     0
300
3/32" = 1'-0"
140
0.09375
141
12.0
290
     0
  0
SCALE
  5
5E
102
{ACAD_REACTORS
330
47
102
}
330
47
100
AcDbScale
 70
     0
300
1/8" = 1'-0"
140
0.125
141
12.0
290
     0
  0
SCALE
  5
5F
102
{ACAD_REACTORS
330
47
102
}
330
47
100
AcDbScale
 70
     0
300
3/16" = 1'-0"
140
0.1875
141
12.0
290
     0
  0
SCALE
  5
60
102
{ACAD_REACTORS
330
47
102
}
330
47
100
AcDbScale
 70
     0
300
1/4" = 1'-0"
140
0.25
141
12.0
290
     0
  0
SCALE
  5
61
102
{ACAD_REACTORS
330
47
102
}
330
47
100
AcDbScale
 70
     0
300
3/8" = 1'-0"
140
0.375
141
12.0
290
     0
  0
SCALE
  5
62
102
{ACAD_REACTORS
330
47
102
}
330
47
100
AcDbScale
 70
     0
300
1/2" = 1'-0"
140
0.5
141
12.0
290
     0
  0
SCALE
  5
63
102
{ACAD_REACTORS
330
47
102
}
330
47
100
AcDbScale
 70
     0
300
3/4" = 1'-0"
140
0.75
141
12.0
290
     0
  0
SCALE
  5
64
102
{ACAD_REACTORS
330
47
102
}
330
47
100
AcDbScale
 70
     0
300
1" = 1'-0"
140
1.0
141
12.0
290
     0
  0
SCALE
  5
65
102
{ACAD_REACTORS
330
47
102
}
330
47
100
AcDbScale
 70
     0
300
1-1/2" = 1'-0"
140
1.5
141
12.0
290
     0
  0
SCALE
  5
66
102
{ACAD_REACTORS
330
47
102
}
330
47
100
AcDbScale
 70
     0
300
3" = 1'-0"
140
3.0
141
12.0
290
     0
  0
SCALE
  5
67
102
{ACAD_REACTORS
330
47
102
}
330
47
100
AcDbScale
 70
     0
300
6" = 1'-0"
140
6.0
141
12.0
290
     0
  0
SCALE
  5
68
102
{ACAD_REACTORS
330
47
102
}
330
47
100
AcDbScale
 70
     0
300
1'-0" = 1'-0"
140
12.0
141
12.0
290
     0
  0
ENDSEC
  0
EOF
