  0
SECTION
  2
HEADER
  9
$ACADVER
  1
AC1015
  9
$ACADMAINTVER
 70
     6
  9
$DWGCODEPAGE
  3
DOS932
  9
$INSBASE
 10
0.0
 20
0.0
 30
0.0
  9
$EXTMIN
 10
0.0
 20
0.0
 30
0.0
  9
$EXTMAX
 10
210.0
 20
297.0
 30
0.0
  9
$LIMMIN
 10
0.0
 20
0.0
  9
$LIMMAX
 10
210.0
 20
297.0
  9
$ORTHOMODE
 70
     0
  9
$REGENMODE
 70
     1
  9
$FILLMODE
 70
     1
  9
$QTEXTMODE
 70
     0
  9
$MIRRTEXT
 70
     1
  9
$LTSCALE
 40
1.0
  9
$ATTMODE
 70
     1
  9
$TEXTSIZE
 40
3.5
  9
$TRACEWID
 40
1.0
  9
$TEXTSTYLE
  7
Standard
  9
$CLAYER
  8
0
  9
$CELTYPE
  6
ByLayer
  9
$CECOLOR
 62
   256
  9
$CELTSCALE
 40
1.0
  9
$DISPSILH
 70
     0
  9
$DIMSCALE
 40
1.0
  9
$DIMASZ
 40
3.302
  9
$DIMEXO
 40
1.0
  9
$DIMDLI
 40
3.75
  9
$DIMRND
 40
0.0
  9
$DIMDLE
 40
0.0
  9
$DIMEXE
 40
1.0
  9
$DIMTP
 40
0.0
  9
$DIMTM
 40
0.0
  9
$DIMTXT
 40
3.5
  9
$DIMCEN
 40
2.5
  9
$DIMTSZ
 40
0.0
  9
$DIMTOL
 70
     0
  9
$DIMLIM
 70
     0
  9
$DIMTIH
 70
     1
  9
$DIMTOH
 70
     1
  9
$DIMSE1
 70
     0
  9
$DIMSE2
 70
     0
  9
$DIMTAD
 70
     1
  9
$DIMZIN
 70
     1
  9
$DIMBLK
  1

  9
$DIMASO
 70
     1
  9
$DIMSHO
 70
     1
  9
$DIMPOST
  1

  9
$DIMAPOST
  1

  9
$DIMALT
 70
     0
  9
$DIMALTD
 70
     3
  9
$DIMALTF
 40
0.0393700787
  9
$DIMLFAC
 40
2.0
  9
$DIMTOFL
 70
     1
  9
$DIMTVP
 40
0.0
  9
$DIMTIX
 70
     0
  9
$DIMSOXD
 70
     0
  9
$DIMSAH
 70
     0
  9
$DIMBLK1
  1

  9
$DIMBLK2
  1

  9
$DIMSTYLE
  2
ISO-25
  9
$DIMCLRD
 70
     0
  9
$DIMCLRE
 70
     0
  9
$DIMCLRT
 70
     0
  9
$DIMTFAC
 40
1.0
  9
$DIMGAP
 40
1.524
  9
$DIMJUST
 70
     0
  9
$DIMSD1
 70
     0
  9
$DIMSD2
 70
     0
  9
$DIMTOLJ
 70
     0
  9
$DIMTZIN
 70
     1
  9
$DIMALTZ
 70
     0
  9
$DIMALTTZ
 70
     0
  9
$DIMUPT
 70
     0
  9
$DIMDEC
 70
     2
  9
$DIMTDEC
 70
     2
  9
$DIMALTU
 70
     2
  9
$DIMALTTD
 70
     3
  9
$DIMTXSTY
  7
Standard
  9
$DIMAUNIT
 70
     0
  9
$DIMADEC
 70
     2
  9
$DIMALTRND
 40
0.0
  9
$DIMAZIN
 70
     0
  9
$DIMDSEP
 70
    44
  9
$DIMATFIT
 70
     3
  9
$DIMFRAC
 70
     0
  9
$DIMLDRBLK
  1

  9
$DIMLUNIT
 70
     2
  9
$DIMLWD
 70
    -2
  9
$DIMLWE
 70
    -2
  9
$DIMTMOVE
 70
     0
  9
$LUNITS
 70
     2
  9
$LUPREC
 70
     2
  9
$SKETCHINC
 40
1.0
  9
$FILLETRAD
 40
10.0
  9
$AUNITS
 70
     0
  9
$AUPREC
 70
     2
  9
$MENU
  1
.
  9
$ELEVATION
 40
0.0
  9
$PELEVATION
 40
0.0
  9
$THICKNESS
 40
0.0
  9
$LIMCHECK
 70
     0
  9
$CHAMFERA
 40
0.0
  9
$CHAMFERB
 40
0.0
  9
$CHAMFERC
 40
0.0
  9
$CHAMFERD
 40
0.0
  9
$SKPOLY
 70
     0
  9
$TDCREATE
 40
2458998.750371123
  9
$TDUCREATE
 40
2458998.375371123
  9
$TDUPDATE
 40
2458998.750371597
  9
$TDUUPDATE
 40
2458998.375371597
  9
$TDINDWG
 40
0.0000000116
  9
$TDUSRTIMER
 40
0.0000000116
  9
$USRTIMER
 70
     1
  9
$ANGBASE
 50
0.0
  9
$ANGDIR
 70
     0
  9
$PDMODE
 70
     0
  9
$PDSIZE
 40
-1.0
  9
$PLINEWID
 40
0.0
  9
$SPLFRAME
 70
     0
  9
$SPLINETYPE
 70
     6
  9
$SPLINESEGS
 70
     8
  9
$HANDSEED
  5
213
  9
$SURFTAB1
 70
     6
  9
$SURFTAB2
 70
     6
  9
$SURFTYPE
 70
     6
  9
$SURFU
 70
     6
  9
$SURFV
 70
     6
  9
$UCSBASE
  2

  9
$UCSNAME
  2

  9
$UCSORG
 10
0.0
 20
0.0
 30
0.0
  9
$UCSXDIR
 10
1.0
 20
0.0
 30
0.0
  9
$UCSYDIR
 10
0.0
 20
1.0
 30
0.0
  9
$UCSORTHOREF
  2

  9
$UCSORTHOVIEW
 70
     0
  9
$UCSORGTOP
 10
0.0
 20
0.0
 30
0.0
  9
$UCSORGBOTTOM
 10
0.0
 20
0.0
 30
0.0
  9
$UCSORGLEFT
 10
0.0
 20
0.0
 30
0.0
  9
$UCSORGRIGHT
 10
0.0
 20
0.0
 30
0.0
  9
$UCSORGFRONT
 10
0.0
 20
0.0
 30
0.0
  9
$UCSORGBACK
 10
0.0
 20
0.0
 30
0.0
  9
$PUCSBASE
  2

  9
$PUCSNAME
  2

  9
$PUCSORG
 10
0.0
 20
0.0
 30
0.0
  9
$PUCSXDIR
 10
1.0
 20
0.0
 30
0.0
  9
$PUCSYDIR
 10
0.0
 20
1.0
 30
0.0
  9
$PUCSORTHOREF
  2

  9
$PUCSORTHOVIEW
 70
     0
  9
$PUCSORGTOP
 10
0.0
 20
0.0
 30
0.0
  9
$PUCSORGBOTTOM
 10
0.0
 20
0.0
 30
0.0
  9
$PUCSORGLEFT
 10
0.0
 20
0.0
 30
0.0
  9
$PUCSORGRIGHT
 10
0.0
 20
0.0
 30
0.0
  9
$PUCSORGFRONT
 10
0.0
 20
0.0
 30
0.0
  9
$PUCSORGBACK
 10
0.0
 20
0.0
 30
0.0
  9
$USERI1
 70
     0
  9
$USERI2
 70
     0
  9
$USERI3
 70
     0
  9
$USERI4
 70
     0
  9
$USERI5
 70
     0
  9
$USERR1
 40
0.0
  9
$USERR2
 40
0.0
  9
$USERR3
 40
0.0
  9
$USERR4
 40
0.0
  9
$USERR5
 40
0.0
  9
$WORLDVIEW
 70
     1
  9
$SHADEDGE
 70
     3
  9
$SHADEDIF
 70
    70
  9
$TILEMODE
 70
     1
  9
$MAXACTVP
 70
    64
  9
$PINSBASE
 10
0.0
 20
0.0
 30
0.0
  9
$PLIMCHECK
 70
     0
  9
$PEXTMIN
 10
1.0000000000E+20
 20
1.0000000000E+20
 30
1.0000000000E+20
  9
$PEXTMAX
 10
-1.0000000000E+20
 20
-1.0000000000E+20
 30
-1.0000000000E+20
  9
$PLIMMIN
 10
0.0
 20
0.0
  9
$PLIMMAX
 10
420.0
 20
297.0
  9
$UNITMODE
 70
     0
  9
$VISRETAIN
 70
     1
  9
$PLINEGEN
 70
     0
  9
$PSLTSCALE
 70
     1
  9
$TREEDEPTH
 70
  3020
  9
$CMLSTYLE
  2
Standard
  9
$CMLJUST
 70
     0
  9
$CMLSCALE
 40
20.0
  9
$PROXYGRAPHICS
 70
     1
  9
$MEASUREMENT
 70
     1
  9
$CELWEIGHT
370
    -1
  9
$ENDCAPS
280
     0
  9
$JOINSTYLE
280
     0
  9
$LWDISPLAY
290
     1
  9
$INSUNITS
 70
     4
  9
$HYPERLINKBASE
  1

  9
$STYLESHEET
  1

  9
$XEDIT
290
     1
  9
$CEPSNTYPE
380
     0
  9
$PSTYLEMODE
290
     1
  9
$FINGERPRINTGUID
  2
{5A45D1CF-1631-483C-B793-803EB5F27E2C}
  9
$VERSIONGUID
  2
{FAEB1C32-E019-11D5-929B-00C0DF256EC4}
  9
$EXTNAMES
290
     1
  9
$PSVPSCALE
 40
0.0
  9
$OLESTARTUP
290
     0
  0
ENDSEC
  0
SECTION
  2
CLASSES
  0
CLASS
  1
ACDBDICTIONARYWDFLT
  2
AcDbDictionaryWithDefault
  3
ObjectDBX Classes
 90
        0
280
     0
281
     0
  0
CLASS
  1
VISUALSTYLE
  2
AcDbVisualStyle
  3
ObjectDBX Classes
 90
     4095
280
     0
281
     0
  0
CLASS
  1
MATERIAL
  2
AcDbMaterial
  3
ObjectDBX Classes
 90
     1153
280
     0
281
     0
  0
CLASS
  1
SCALE
  2
AcDbScale
  3
ObjectDBX Classes
 90
     1153
280
     0
281
     0
  0
CLASS
  1
TABLESTYLE
  2
AcDbTableStyle
  3
ObjectDBX Classes
 90
     4095
280
     0
281
     0
  0
CLASS
  1
MLEADERSTYLE
  2
AcDbMLeaderStyle
  3
ACDB_MLEADERSTYLE_CLASS
 90
     4095
280
     0
281
     0
  0
CLASS
  1
SUN
  2
AcDbSun
  3
SCENEOE
 90
     1153
280
     0
281
     0
  0
CLASS
  1
ACDBPLACEHOLDER
  2
AcDbPlaceHolder
  3
ObjectDBX Classes
 90
        0
280
     0
281
     0
  0
CLASS
  1
LAYOUT
  2
AcDbLayout
  3
ObjectDBX Classes
 90
        0
280
     0
281
     0
  0
ENDSEC
  0
SECTION
  2
TABLES
  0
TABLE
  2
VPORT
  5
8
330
0
100
AcDbSymbolTable
 70
     1
  0
VPORT
  5
29
330
8
100
AcDbSymbolTableRecord
100
AcDbViewportTableRecord
  2
*Active
 70
     0
 10
0.0
 20
0.0
 11
1.0
 21
1.0
 12
105.0
 22
148.5
 13
0.0
 23
0.0
 14
10.0
 24
10.0
 15
10.0
 25
10.0
 16
0.0
 26
0.0
 36
1.0
 17
0.0
 27
0.0
 37
0.0
 40
297.0
 41
0.7070707071
 42
50.0
 43
0.0
 44
0.0
 50
0.0
 51
0.0
 71
     0
 72
  2000
 73
     1
 74
     3
 75
     0
 76
     0
 77
     0
 78
     0
281
     0
 65
     1
110
0.0
120
0.0
130
0.0
111
1.0
121
0.0
131
0.0
112
0.0
122
1.0
132
0.0
 79
     0
146
0.0
  0
ENDTAB
  0
TABLE
  2
LTYPE
  5
5
330
0
100
AcDbSymbolTable
 70
     6
  0
LTYPE
  5
14
330
5
100
AcDbSymbolTableRecord
100
AcDbLinetypeTableRecord
  2
ByBlock
 70
     0
  3

 72
    65
 73
     0
 40
0.0
  0
LTYPE
  5
15
330
5
100
AcDbSymbolTableRecord
100
AcDbLinetypeTableRecord
  2
ByLayer
 70
     0
  3

 72
    65
 73
     0
 40
0.0
  0
LTYPE
  5
16
330
5
100
AcDbSymbolTableRecord
100
AcDbLinetypeTableRecord
  2
Continuous
 70
     0
  3
Solid line
 72
    65
 73
     0
 40
0.0
  0
LTYPE
  5
6E
330
5
100
AcDbSymbolTableRecord
100
AcDbLinetypeTableRecord
  2
HIDDEN
 70
     0
  3
Hidden __ __ __ __ __ __ __ __ __ __ __ __ __ __
 72
    65
 73
     2
 40
1.905
 49
1.27
 74
     0
 49
-0.635
 74
     0
  0
LTYPE
  5
6F
330
5
100
AcDbSymbolTableRecord
100
AcDbLinetypeTableRecord
  2
PHANTOM
 70
     0
  3
Phantom ______  __  __  ______  __  __  ______
 72
    65
 73
     6
 40
12.7
 49
6.35
 74
     0
 49
-1.27
 74
     0
 49
1.27
 74
     0
 49
-1.27
 74
     0
 49
1.27
 74
     0
 49
-1.27
 74
     0
  0
LTYPE
  5
70
330
5
100
AcDbSymbolTableRecord
100
AcDbLinetypeTableRecord
  2
CENTER
 70
     0
  3
Center ____ _ ____ _ ____ _ ____ _ ____ _ ____
 72
    65
 73
     4
 40
10.16
 49
6.35
 74
     0
 49
-1.27
 74
     0
 49
1.27
 74
     0
 49
-1.27
 74
     0
  0
LTYPE
  5
71
330
5
100
AcDbSymbolTableRecord
100
AcDbLinetypeTableRecord
  2
CENTERX2
 70
     0
  3
Center (2x) ________  __  ________  __  _____
 72
    65
 73
     4
 40
20.32
 49
12.7
 74
     0
 49
-2.54
 74
     0
 49
2.54
 74
     0
 49
-2.54
 74
     0
  0
LTYPE
  5
72
330
5
100
AcDbSymbolTableRecord
100
AcDbLinetypeTableRecord
  2
DOT2
 70
     0
  3
Dot (.5x) ........................................
 72
    65
 73
     2
 40
0.635
 49
0.0
 74
     0
 49
-0.635
 74
     0
  0
ENDTAB
  0
TABLE
  2
LAYER
  5
2
330
0
100
AcDbSymbolTable
 70
     2
  0
LAYER
  5
10
330
2
100
AcDbSymbolTableRecord
100
AcDbLayerTableRecord
  2
0
 70
     0
 62
     7
  6
Continuous
370
    -3
390
F
  0
LAYER
  5
73
330
2
100
AcDbSymbolTableRecord
100
AcDbLayerTableRecord
  2
FORMAT
 70
     0
 62
     7
  6
Continuous
370
    -3
390
F
  0
ENDTAB
  0
TABLE
  2
STYLE
  5
3
330
0
100
AcDbSymbolTable
 70
     2
  0
STYLE
  5
11
330
3
100
AcDbSymbolTableRecord
100
AcDbTextStyleTableRecord
  2
Standard
 70
     0
 40
0.0
 41
1.0
 50
0.0
 71
     0
 42
3.5
  3
txt
  4
bigfont
  0
STYLE
  5
211
330
3
100
AcDbSymbolTableRecord
100
AcDbTextStyleTableRecord
  2
SLDTEXTSTYLE0
 70
     0
 40
0.0
 41
0.75
 50
0.0
 71
     0
 42
3.5
  3
TXT
  4
bigfont
  0
ENDTAB
  0
TABLE
  2
VIEW
  5
6
330
0
100
AcDbSymbolTable
 70
     0
  0
ENDTAB
  0
TABLE
  2
UCS
  5
7
330
0
100
AcDbSymbolTable
 70
     0
  0
ENDTAB
  0
TABLE
  2
APPID
  5
9
330
0
100
AcDbSymbolTable
 70
     1
  0
APPID
  5
12
330
9
100
AcDbSymbolTableRecord
100
AcDbRegAppTableRecord
  2
ACAD
 70
     0
  0
ENDTAB
  0
TABLE
  2
DIMSTYLE
  5
A
330
0
100
AcDbSymbolTable
 70
     1
100
AcDbDimStyleTable
  0
DIMSTYLE
105
27
330
A
100
AcDbSymbolTableRecord
100
AcDbDimStyleTableRecord
  2
ISO-25
 70
     0
 41
2.5
 42
0.625
 43
3.75
 44
1.25
 73
     0
 74
     0
 77
     1
 78
     8
140
2.5
141
2.5
143
0.0393700787
147
0.625
171
     3
172
     1
178
     0
271
     2
272
     2
274
     3
278
    44
283
     0
284
     8
340
11
  0
ENDTAB
  0
TABLE
  2
BLOCK_RECORD
  5
1
330
0
100
AcDbSymbolTable
 70
     1
  0
BLOCK_RECORD
  5
1F
330
1
100
AcDbSymbolTableRecord
100
AcDbBlockTableRecord
  2
*Model_Space
340
22
  0
BLOCK_RECORD
  5
1B
330
1
100
AcDbSymbolTableRecord
100
AcDbBlockTableRecord
  2
*Paper_Space
340
1E
  0
BLOCK_RECORD
  5
23
330
1
100
AcDbSymbolTableRecord
100
AcDbBlockTableRecord
  2
*Paper_Space0
340
26
  0
ENDTAB
  0
ENDSEC
  0
SECTION
  2
BLOCKS
  0
BLOCK
  5
20
330
1F
100
AcDbEntity
  8
0
100
AcDbBlockBegin
  2
*Model_Space
 70
     0
 10
0.0
 20
0.0
 30
0.0
  3
*Model_Space
  1

  0
ENDBLK
  5
21
330
1F
100
AcDbEntity
  8
0
100
AcDbBlockEnd
  0
BLOCK
  5
1C
330
1B
100
AcDbEntity
 67
     1
  8
0
100
AcDbBlockBegin
  2
*Paper_Space
 70
     0
 10
0.0
 20
0.0
 30
0.0
  3
*Paper_Space
  1

  0
ENDBLK
  5
1D
330
1B
100
AcDbEntity
 67
     1
  8
0
100
AcDbBlockEnd
  0
BLOCK
  5
24
330
23
100
AcDbEntity
  8
0
100
AcDbBlockBegin
  2
*Paper_Space0
 70
     0
 10
0.0
 20
0.0
 30
0.0
  3
*Paper_Space0
  1

  0
ENDBLK
  5
25
330
23
100
AcDbEntity
  8
0
100
AcDbBlockEnd
  0
ENDSEC
  0
SECTION
  2
ENTITIES
  0
SPLINE
  5
74
330
1F
100
AcDbEntity
  8
0
  6
Continuous
 62
     7
370
    25
100
AcDbSpline
210
0.0
220
0.0
230
1.0
 70
     8
 71
     3
 72
    15
 73
    11
 74
     0
 42
0.000000001
 43
0.00000001
 40
0.0
 40
0.0
 40
0.0
 40
0.0
 40
0.0483003370616953
 40
0.210018240807138
 40
0.3801456779559588
 40
0.5753284256301668
 40
0.6887365039450302
 40
0.8004685302578897
 40
0.9127875788842023
 40
1.0
 40
1.0
 40
1.0
 40
1.0
 10
77.29893970449382
 20
174.0546154766246
 30
0.0
 10
77.35008791999373
 20
174.0568672128786
 30
0.0
 10
77.57248923007143
 20
174.0666581525612
 30
0.0
 10
77.9465234385757
 20
174.1206075321731
 30
0.0
 10
78.41406167398843
 20
174.224562375803
 30
0.0
 10
78.78328293671248
 20
174.3690939774081
 30
0.0
 10
79.08835112335119
 20
174.5730749129953
 30
0.0
 10
79.30340486279849
 20
174.8050435239748
 30
0.0
 10
79.45540181546309
 20
175.0772704942779
 30
0.0
 10
79.48013298656647
 20
175.2762797409794
 30
0.0
 10
79.49094263635128
 20
175.3632639056914
 30
0.0
  0
SPLINE
  5
75
330
1F
100
AcDbEntity
  8
0
  6
Continuous
 62
     7
370
    25
100
AcDbSpline
210
0.0
220
0.0
230
1.0
 70
     8
 71
     3
 72
    15
 73
    11
 74
     0
 42
0.000000001
 43
0.00000001
 40
0.0
 40
0.0
 40
0.0
 40
0.0
 40
0.1000263739350103
 40
0.2075271107503024
 40
0.3112375008237326
 40
0.4202058696174878
 40
0.5473842865732469
 40
0.7146615852898958
 40
0.8786177070610155
 40
1.0
 40
1.0
 40
1.0
 40
1.0
 10
74.15873541408452
 20
175.3680812234238
 30
0.0
 10
74.1722885145618
 20
175.2702588846859
 30
0.0
 10
74.20040745632794
 20
175.0673045384823
 30
0.0
 10
74.35184092267438
 20
174.8030684734194
 30
0.0
 10
74.55075064753878
 20
174.585830682053
 30
0.0
 10
74.79121687103407
 20
174.4176922833625
 30
0.0
 10
75.09039678353008
 20
174.2778483808025
 30
0.0
 10
75.46287576097853
 20
174.168815072836
 30
0.0
 10
75.87605089199495
 20
174.0911875466221
 30
0.0
 10
76.16692855628393
 20
174.0687489525189
 30
0.0
 10
76.29066723301278
 20
174.0592036271713
 30
0.0
  0
LINE
  5
76
330
1F
100
AcDbEntity
  8
0
  6
Continuous
 62
     7
370
    25
100
AcDbLine
 10
74.0765543278
 20
176.1879104047
 30
0.0
 11
74.1506583657
 21
175.3699806835
 31
0.0
  0
LINE
  5
77
330
1F
100
AcDbEntity
  8
0
  6
Continuous
 62
     7
370
    25
100
AcDbLine
 10
79.5009380249
 20
175.3699805131
 30
0.0
 11
79.5750427213
 21
176.1879104047
 31
0.0
  0
ARC
  5
78
330
1F
100
AcDbEntity
  8
0
  6
Continuous
 62
     7
370
    25
100
AcDbCircle
 10
76.8257984392
 20
181.0342248486
 30
0.0
 40
6.99999999999999
100
AcDbArc
 50
263.6584954661
 51
276.3415045339
  0
LINE
  5
79
330
1F
100
AcDbEntity
  8
0
  6
Continuous
 62
     7
370
    25
100
AcDbLine
 10
97.9591936295
 20
126.0972644831
 30
0.0
 11
98.6912443816
 21
129.6398467631
 31
0.0
  0
LINE
  5
7A
330
1F
100
AcDbEntity
  8
0
  6
Continuous
 62
     7
370
    25
100
AcDbLine
 10
69.311957627
 20
135.710881555
 30
0.0
 11
68.5799063811
 21
132.1682994028
 31
0.0
  0
SPLINE
  5
7B
330
1F
100
AcDbEntity
  8
0
  6
Continuous
 62
     7
370
    25
100
AcDbSpline
210
0.0
220
0.0
230
1.0
 70
     8
 71
     3
 72
    11
 73
     7
 74
     0
 42
0.000000001
 43
0.00000001
 40
0.0
 40
0.0
 40
0.0
 40
0.0
 40
0.4175077639824254
 40
0.5906427770038517
 40
0.8793966940428283
 40
1.0
 40
1.0
 40
1.0
 40
1.0
 10
92.83275018225685
 20
124.2072697993631
 30
0.0
 10
93.02684697087328
 20
124.5379052589619
 30
0.0
 10
93.30143316094177
 20
125.0056509223494
 30
0.0
 10
93.63582530098368
 20
125.7399563609598
 30
0.0
 10
93.8399294844313
 20
126.2347938720769
 30
0.0
 10
93.94797872686738
 20
126.5944965325307
 30
0.0
 10
93.97981179371442
 20
126.7004707955346
 30
0.0
  0
SPLINE
  5
7C
330
1F
100
AcDbEntity
  8
0
  6
Continuous
 62
     7
370
    25
100
AcDbSpline
210
0.0
220
0.0
230
1.0
 70
     8
 71
     3
 72
    36
 73
    32
 74
     0
 42
0.000000001
 43
0.00000001
 40
0.0
 40
0.0
 40
0.0
 40
0.0
 40
0.0013637627511863
 40
0.0350692771161519
 40
0.0698412401297371
 40
0.1054430881244123
 40
0.1416867131297666
 40
0.1784265021966525
 40
0.215551869490494
 40
0.2529806089895187
 40
0.2906526958899573
 40
0.3285253089458693
 40
0.3665692016886682
 40
0.4047661289864752
 40
0.443107222570733
 40
0.4815924858183976
 40
0.5202311855080892
 40
0.5590435552115095
 40
0.5980637845921013
 40
0.6373463009078902
 40
0.6769762037103232
 40
0.7170888195847608
 40
0.7532948701211779
 40
0.7894075199386258
 40
0.8253325639293291
 40
0.8608560230360873
 40
0.8953757321787715
 40
0.9267538072027466
 40
0.948470253038872
 40
0.9721594587377425
 40
1.0
 40
1.0
 40
1.0
 40
1.0
 10
72.46693259744325
 20
131.1490944908321
 30
0.0
 10
72.4650569813751
 20
131.1357603838486
 30
0.0
 10
72.4168253519361
 20
130.7928726693301
 30
0.0
 10
72.40261409420592
 20
130.1007016492836
 30
0.0
 10
72.43784763466812
 20
129.0735412464529
 30
0.0
 10
72.58358945607002
 20
128.0287991725951
 30
0.0
 10
72.83073944482273
 20
126.9840704835023
 30
0.0
 10
73.18448480301306
 20
125.954154518551
 30
0.0
 10
73.64301086668699
 20
124.9535841730424
 30
0.0
 10
74.20383832450287
 20
123.995785048093
 30
0.0
 10
74.86246312275978
 20
123.0932268929939
 30
0.0
 10
75.61306124079283
 20
122.2573527209436
 30
0.0
 10
76.44856850558665
 20
121.4985785818521
 30
0.0
 10
77.3608885151672
 20
120.8262694164135
 30
0.0
 10
78.34105748081372
 20
120.2487370945305
 30
0.0
 10
79.37940535283464
 20
119.773231973233
 30
0.0
 10
80.46572568796016
 20
119.4059663065226
 30
0.0
 10
81.58944156332865
 20
119.1521060769521
 30
0.0
 10
82.73983593127356
 20
119.015946388348
 30
0.0
 10
83.90628267325842
 20
119.000999437964
 30
0.0
 10
85.07856759755254
 20
119.1103278370564
 30
0.0
 10
86.20276638681418
 20
119.3381368374739
 30
0.0
 10
87.26414223637816
 20
119.6690936855369
 30
0.0
 10
88.25037540142264
 20
120.0851591347604
 30
0.0
 10
89.18591922190858
 20
120.5911725774717
 30
0.0
 10
90.05569542397757
 20
121.1755417203387
 30
0.0
 10
90.83187463450851
 20
121.8104272923296
 30
0.0
 10
91.45154461034656
 20
122.415614918238
 30
0.0
 10
91.95435315617407
 20
122.9833567336049
 30
0.0
 10
92.40322693221279
 20
123.5513790594268
 30
0.0
 10
92.68208725745689
 20
123.9772044484936
 30
0.0
 10
92.83275018225685
 20
124.2072697993631
 30
0.0
  0
LINE
  5
7D
330
1F
100
AcDbEntity
  8
0
  6
Continuous
 62
     7
370
    25
100
AcDbLine
 10
112.98415543
 20
151.9562561573
 30
0.0
 11
102.7389651509
 21
158.3579060692
 31
0.0
  0
LINE
  5
7E
330
1F
100
AcDbEntity
  8
0
  6
Continuous
 62
     7
370
    25
100
AcDbLine
 10
88.8435683604
 20
120.4254250907
 30
0.0
 11
113.0000428162
 21
126.6775807424
 31
0.0
  0
LINE
  5
7F
330
1F
100
AcDbEntity
  8
0
  6
Continuous
 62
     7
370
    25
100
AcDbLine
 10
113.1451807574
 20
126.7151452057
 30
0.0
 11
113.3199545186
 21
126.7603799837
 31
0.0
  0
LINE
  5
80
330
1F
100
AcDbEntity
  8
0
  6
Continuous
 62
     7
370
    25
100
AcDbLine
 10
97.0298415435
 20
156.775888334
 30
0.0
 11
96.8468288966
 21
155.8902436529
 31
0.0
  0
LINE
  5
81
330
1F
100
AcDbEntity
  8
0
  6
Continuous
 62
     7
370
    25
100
AcDbLine
 10
54.1057429959
 20
136.9651459507
 30
0.0
 11
73.8580690164
 21
124.6230115341
 31
0.0
  0
LINE
  5
82
330
1F
100
AcDbEntity
  8
0
  6
Continuous
 62
     7
370
    25
100
AcDbLine
 10
93.9377825366
 20
165.8581957096
 30
0.0
 11
92.5998828556
 21
165.5119217917
 31
0.0
  0
LINE
  5
83
330
1F
100
AcDbEntity
  8
0
  6
Continuous
 62
     7
370
    25
100
AcDbLine
 10
88.3572421316
 20
164.4138455708
 30
0.0
 11
85.1752615886
 21
163.5902884052
 31
0.0
  0
LINE
  5
84
330
1F
100
AcDbEntity
  8
0
  6
Continuous
 62
     7
370
    25
100
AcDbLine
 10
85.6527842298
 20
168.196184979
 30
0.0
 11
93.9377825366
 21
166.0518696286
 31
0.0
  0
LINE
  5
85
330
1F
100
AcDbEntity
  8
0
  6
Continuous
 62
     7
370
    25
100
AcDbLine
 10
105.8751915032
 20
162.0842332681
 30
0.0
 11
108.2086451855
 21
161.4802910142
 31
0.0
  0
LINE
  5
86
330
1F
100
AcDbEntity
  8
0
  6
Continuous
 62
     7
370
    25
100
AcDbLine
 10
110.3299645597
 20
160.9312531594
 30
0.0
 11
112.663416925
 21
160.3273112465
 31
0.0
  0
LINE
  5
87
330
1F
100
AcDbEntity
  8
0
  6
Continuous
 62
     7
370
    25
100
AcDbLine
 10
114.7847362992
 20
159.7782733917
 30
0.0
 11
117.1181886644
 21
159.1743314787
 31
0.0
  0
LINE
  5
88
330
1F
100
AcDbEntity
  8
0
  6
Continuous
 62
     7
370
    25
100
AcDbLine
 10
119.2395106728
 20
158.6252929421
 30
0.0
 11
121.5729630381
 21
158.0213510292
 31
0.0
  0
LINE
  5
89
330
1F
100
AcDbEntity
  8
0
  6
Continuous
 62
     7
370
    25
100
AcDbLine
 10
114.8484251263
 20
160.639797081
 30
0.0
 11
114.9977145321
 21
160.6011581396
 31
0.0
  0
LINE
  5
8A
330
1F
100
AcDbEntity
  8
0
  6
Continuous
 62
     7
370
    25
100
AcDbLine
 10
123.6942824122
 20
157.4723131744
 30
0.0
 11
126.0277347775
 21
156.8683712614
 31
0.0
  0
LINE
  5
8B
330
1F
100
AcDbEntity
  8
0
  6
Continuous
 62
     7
370
    25
100
AcDbLine
 10
128.1490567859
 20
156.3193327249
 30
0.0
 11
130.482506517
 21
155.7153914937
 31
0.0
  0
LINE
  5
8C
330
1F
100
AcDbEntity
  8
0
  6
Continuous
 62
     7
370
    25
100
AcDbLine
 10
105.6884503419
 20
188.4728091702
 30
0.0
 11
103.3549979767
 21
189.0767510832
 31
0.0
  0
LINE
  5
8D
330
1F
100
AcDbEntity
  8
0
  6
Continuous
 62
     7
370
    25
100
AcDbLine
 10
110.1432233985
 20
187.3198290616
 30
0.0
 11
107.8097710332
 21
187.9237709745
 31
0.0
  0
LINE
  5
8E
330
1F
100
AcDbEntity
  8
0
  6
Continuous
 62
     7
370
    25
100
AcDbLine
 10
114.597996455
 20
186.1668489529
 30
0.0
 11
112.2645427727
 21
186.7707912068
 31
0.0
  0
LINE
  5
8F
330
1F
100
AcDbEntity
  8
0
  6
Continuous
 62
     7
370
    25
100
AcDbLine
 10
119.0527681945
 20
185.0138691852
 30
0.0
 11
116.7193158292
 21
185.6178110981
 31
0.0
  0
LINE
  5
90
330
1F
100
AcDbEntity
  8
0
  6
Continuous
 62
     7
370
    25
100
AcDbLine
 10
123.5075399339
 20
183.8608894174
 30
0.0
 11
121.1740875687
 21
184.4648313304
 31
0.0
  0
LINE
  5
91
330
1F
100
AcDbEntity
  8
0
  6
Continuous
 62
     7
370
    25
100
AcDbLine
 10
127.9623143076
 20
182.7079089679
 30
0.0
 11
125.6288619423
 21
183.3118508808
 31
0.0
  0
LINE
  5
92
330
1F
100
AcDbEntity
  8
0
  6
Continuous
 62
     7
370
    25
100
AcDbLine
 10
132.417086047
 20
181.5549292001
 30
0.0
 11
130.0836336817
 21
182.1588711131
 31
0.0
  0
LINE
  5
93
330
1F
100
AcDbEntity
  8
0
  6
Continuous
 62
     7
370
    25
100
AcDbLine
 10
136.8718577865
 20
180.4019494324
 30
0.0
 11
134.5384080554
 21
181.0058906636
 31
0.0
  0
LINE
  5
94
330
1F
100
AcDbEntity
  8
0
  6
Continuous
 62
     7
370
    25
100
AcDbLine
 10
141.3266321601
 20
179.2489689828
 30
0.0
 11
138.9931771607
 21
179.8529115776
 31
0.0
  0
LINE
  5
95
330
1F
100
AcDbEntity
  8
0
  6
Continuous
 62
     7
370
    25
100
AcDbLine
 10
130.8767527478
 20
155.8662149151
 30
0.0
 11
130.8767527478
 21
155.3679400265
 31
0.0
  0
LINE
  5
96
330
1F
100
AcDbEntity
  8
0
  6
Continuous
 62
     7
370
    25
100
AcDbLine
 10
139.3767510191
 20
155.3679402822
 30
0.0
 11
139.3767510191
 21
155.7152894044
 31
0.0
  0
LINE
  5
97
330
1F
100
AcDbEntity
  8
0
  6
Continuous
 62
     7
370
    25
100
AcDbLine
 10
108.6368278612
 20
154.67266112
 30
0.0
 11
108.7217544195
 21
155.0836434716
 31
0.0
  0
SPLINE
  5
98
330
1F
100
AcDbEntity
  8
0
  6
Continuous
 62
     7
370
    25
100
AcDbSpline
210
0.0
220
0.0
230
1.0
 70
     8
 71
     3
 72
    14
 73
    10
 74
     0
 42
0.000000001
 43
0.00000001
 40
0.0
 40
0.0
 40
0.0
 40
0.0
 40
0.0642087902724159
 40
0.3119173477242529
 40
0.4123433341069303
 40
0.5776457806327161
 40
0.746684171808719
 40
0.9264920626757791
 40
0.9999999999999999
 40
0.9999999999999999
 40
0.9999999999999999
 40
0.9999999999999999
 10
105.4460898286621
 20
158.1419724202847
 30
0.0
 10
105.3900242778637
 20
158.1558171719023
 30
0.0
 10
105.1176656517387
 20
158.2230730442858
 30
0.0
 10
104.7479032343362
 20
158.2774714550799
 30
0.0
 10
104.2955341506451
 20
158.3237867986327
 30
0.0
 10
103.916615791662
 20
158.3435183870143
 30
0.0
 10
103.4834515580975
 20
158.3360688335179
 30
0.0
 10
103.1379878309371
 20
158.3112066549387
 30
0.0
 10
102.9461769163446
 20
158.2740069637379
 30
0.0
 10
102.8905166570208
 20
158.263212247163
 30
0.0
  0
SPLINE
  5
99
330
1F
100
AcDbEntity
  8
0
  6
Continuous
 62
     7
370
    25
100
AcDbSpline
210
0.0
220
0.0
230
1.0
 70
     8
 71
     3
 72
    13
 73
     9
 74
     0
 42
0.000000001
 43
0.00000001
 40
0.0
 40
0.0
 40
0.0
 40
0.0
 40
0.0902345588599354
 40
0.3014667604952909
 40
0.5015650371485432
 40
0.6458892510410275
 40
0.7955662208477535
 40
1.0
 40
1.0
 40
1.0
 40
1.0
 10
104.0125507166222
 20
158.3337970233376
 30
0.0
 10
104.0384534950709
 20
158.4059293002665
 30
0.0
 10
104.1249926969619
 20
158.6469177211956
 30
0.0
 10
104.1966213875209
 20
159.0841120440562
 30
0.0
 10
104.2329077001179
 20
159.5792294619811
 30
0.0
 10
104.2187781406387
 20
160.0279672260192
 30
0.0
 10
104.1720664279959
 20
160.4829237502984
 30
0.0
 10
104.0996023606389
 20
160.8018950323701
 30
0.0
 10
104.0577676996294
 20
160.9860422372394
 30
0.0
  0
SPLINE
  5
9A
330
1F
100
AcDbEntity
  8
0
  6
Continuous
 62
     7
370
    25
100
AcDbSpline
210
0.0
220
0.0
230
1.0
 70
     8
 71
     3
 72
    19
 73
    15
 74
     0
 42
0.000000001
 43
0.00000001
 40
0.0
 40
0.0
 40
0.0
 40
0.0
 40
0.1184897983481811
 40
0.1652440648277409
 40
0.2426460288596151
 40
0.3222825711041847
 40
0.4071951961283982
 40
0.4953376327345102
 40
0.5858508338358805
 40
0.6780274694544626
 40
0.7714460691631962
 40
0.8661859298902378
 40
0.9630309030530951
 40
1.0
 40
1.0
 40
1.0
 40
1.0
 10
104.0577676996294
 20
160.9860422372394
 30
0.0
 10
103.9885350588026
 20
161.2178479290913
 30
0.0
 10
103.8919842742755
 20
161.5411206099954
 30
0.0
 10
103.6916471879687
 20
161.988535206699
 30
0.0
 10
103.4998139993112
 20
162.3488163398709
 30
0.0
 10
103.2352238167461
 20
162.7457666495065
 30
0.0
 10
102.9225626034481
 20
163.1210414247226
 30
0.0
 10
102.5597527884986
 20
163.4623999506966
 30
0.0
 10
102.152022455634
 20
163.7530149645127
 30
0.0
 10
101.705030423354
 20
163.9780206253
 30
0.0
 10
101.2253790777373
 20
164.1264595277502
 30
0.0
 10
100.724643380198
 20
164.1777430129448
 30
0.0
 10
100.3176741036672
 20
164.1581581230116
 30
0.0
 10
100.0948920667179
 20
164.0829066496324
 30
0.0
 10
100.0333436008858
 20
164.0621167654859
 30
0.0
  0
LINE
  5
9B
330
1F
100
AcDbEntity
  8
0
  6
Continuous
 62
     7
370
    25
100
AcDbLine
 10
100.0730531762
 20
164.0865240215
 30
0.0
 11
99.7237559008
 21
163.9961192342
 31
0.0
  0
SPLINE
  5
9C
330
1F
100
AcDbEntity
  8
0
  6
Continuous
 62
     7
370
    25
100
AcDbSpline
210
0.0
220
0.0
230
1.0
 70
     8
 71
     3
 72
    12
 73
     8
 74
     0
 42
0.000000001
 43
0.00000001
 40
0.0
 40
0.0
 40
0.0
 40
0.0
 40
0.3406820804442695
 40
0.4751107451174584
 40
0.6976570107408077
 40
0.926628033642847
 40
1.0
 40
1.0
 40
1.0
 40
1.0
 10
97.74354516323163
 20
159.3518009218214
 30
0.0
 10
97.81283183656201
 20
159.1200591884407
 30
0.0
 10
97.90945811919413
 20
158.7968752173973
 30
0.0
 10
98.10944321837967
 20
158.3490432085496
 30
0.0
 10
98.30302297775943
 20
157.9908466834592
 30
0.0
 10
98.49701833105298
 20
157.6845978316823
 30
0.0
 10
98.62852173429975
 20
157.5307068208919
 30
0.0
 10
98.66043470606243
 20
157.4933608712006
 30
0.0
  0
SPLINE
  5
9D
330
1F
100
AcDbEntity
  8
0
  6
Continuous
 62
     7
370
    25
100
AcDbSpline
210
0.0
220
0.0
230
1.0
 70
     8
 71
     3
 72
    18
 73
    14
 74
     0
 42
0.000000001
 43
0.00000001
 40
0.0
 40
0.0
 40
0.0
 40
0.0
 40
0.064692073630799
 40
0.1729761390551777
 40
0.2734329809372309
 40
0.3757521730289555
 40
0.4789238232461632
 40
0.5808203856321896
 40
0.6781468864238155
 40
0.7703430808061361
 40
0.8368416257688183
 40
0.9058062033908779
 40
1.0
 40
1.0
 40
1.0
 40
1.0
 10
99.68426397445556
 20
163.9717782739182
 30
0.0
 10
99.57635075546955
 20
163.9425210633063
 30
0.0
 10
99.28780826601792
 20
163.864292015339
 30
0.0
 10
98.8783037927842
 20
163.6148545115514
 30
0.0
 10
98.47117551020234
 20
163.2553957884401
 30
0.0
 10
98.14140549616604
 20
162.8236329467086
 30
0.0
 10
97.88420419669278
 20
162.3308846272402
 30
0.0
 10
97.7052552058425
 20
161.7995007271009
 30
0.0
 10
97.60213229792583
 20
161.2551145522676
 30
0.0
 10
97.56886694528795
 20
160.7583609716393
 30
0.0
 10
97.58242492657133
 20
160.3099343080667
 30
0.0
 10
97.6292862694462
 20
159.8548965230815
 30
0.0
 10
97.70172511964361
 20
159.5359395851375
 30
0.0
 10
97.74354516323163
 20
159.3518009218214
 30
0.0
  0
LINE
  5
9E
330
1F
100
AcDbEntity
  8
0
  6
Continuous
 62
     7
370
    25
100
AcDbLine
 10
100.684551923
 20
161.114098375
 30
0.0
 11
101.4973723358
 21
161.3244717781
 31
0.0
  0
LINE
  5
9F
330
1F
100
AcDbEntity
  8
0
  6
Continuous
 62
     7
370
    25
100
AcDbLine
 10
102.6443013535
 20
159.6190993656
 30
0.0
 11
101.5751174663
 21
159.3423742129
 31
0.0
  0
LINE
  5
A0
330
1F
100
AcDbEntity
  8
0
  6
Continuous
 62
     7
370
    25
100
AcDbLine
 10
102.3981742949
 20
189.1694531027
 30
0.0
 11
91.7915728142
 21
191.9146435697
 31
0.0
  0
LINE
  5
A1
330
1F
100
AcDbEntity
  8
0
  6
Continuous
 62
     7
370
    25
100
AcDbLine
 10
86.0411565728
 20
169.6967408595
 30
0.0
 11
86.9250400295
 21
169.4679749873
 31
0.0
  0
LINE
  5
A2
330
1F
100
AcDbEntity
  8
0
  6
Continuous
 62
     7
370
    25
100
AcDbLine
 10
92.111690147
 20
189.5076516692
 30
0.0
 11
91.2278066903
 21
189.7364175414
 31
0.0
  0
LINE
  5
A3
330
1F
100
AcDbEntity
  8
0
  6
Continuous
 62
     7
370
    25
100
AcDbLine
 10
76.0526178814
 20
174.0770564646
 30
0.0
 11
76.1118078617
 21
174.0707725403
 31
0.0
  0
LWPOLYLINE
  5
A4
330
1F
100
AcDbEntity
  8
0
  6
Continuous
 62
     7
370
    25
100
AcDbPolyline
 90
       12
 70
   128
 43
0.0
 10
78.7703421623
 20
176.7078804226
 10
78.288886858
 20
176.8072536249
 10
77.7340657442
 20
176.8764067898
 10
77.1337016678
 20
176.9118725779
 10
76.5178966984
 20
176.9118725779
 10
75.917531305
 20
176.8764067898
 10
75.3627101912
 20
176.8072536249
 10
74.8812548868
 20
176.7078804226
 10
74.4973069751
 20
176.5832707909
 10
74.2301196631
 20
176.43967252
 10
74.0930903804
 20
176.2842865222
 10
74.0765543278
 20
176.1879104047
  0
LWPOLYLINE
  5
A5
330
1F
100
AcDbEntity
  8
0
  6
Continuous
 62
     7
370
    25
100
AcDbPolyline
 90
        5
 70
   128
 43
0.0
 10
79.5750427213
 20
176.1879104047
 10
79.5585073272
 20
176.2842866926
 10
79.421477386
 20
176.43967252
 10
79.1542907326
 20
176.5832706204
 10
78.7703421623
 20
176.7078804226
  0
ARC
  5
A6
330
1F
100
AcDbEntity
  8
0
  6
Continuous
 62
     7
370
    25
100
AcDbCircle
 10
77.9896831933
 20
177.7361992669
 30
0.0
 40
3.510842045687052
100
AcDbArc
 50
259.0164716757
 51
275.8262836036
  0
ARC
  5
A7
330
1F
100
AcDbEntity
  8
0
  6
Continuous
 62
     7
370
    25
100
AcDbCircle
 10
75.8289685402
 20
178.7732716871
 30
0.0
 40
4.725270078992114
100
AcDbArc
 50
288.4035558075
 51
302.1874763078
  0
ARC
  5
A8
330
1F
100
AcDbEntity
  8
0
  6
Continuous
 62
     7
370
    25
100
AcDbCircle
 10
79.0638881312
 20
178.5679055939
 30
0.0
 40
3.860987381832271
100
AcDbArc
 50
251.692753245
 51
259.2856093568
  0
ARC
  5
A9
330
1F
100
AcDbEntity
  8
0
  6
Continuous
 62
     7
370
    25
100
AcDbCircle
 10
75.3339933171
 20
178.9013807017
 30
0.0
 40
4.72527007898895
100
AcDbArc
 50
288.4035558075
 51
302.1874763078
  0
ARC
  5
AA
330
1F
100
AcDbEntity
  8
0
  6
Continuous
 62
     7
370
    25
100
AcDbCircle
 10
78.317603732
 20
178.9013807017
 30
0.0
 40
4.725270078988914
100
AcDbArc
 50
237.8125236922
 51
251.5964441925
  0
ARC
  5
AB
330
1F
100
AcDbEntity
  8
0
  6
Continuous
 62
     7
370
    25
100
AcDbCircle
 10
74.5877112541
 20
178.5678979247
 30
0.0
 40
3.860979366982196
100
AcDbArc
 50
280.7143878092
 51
288.307249589
  0
ARC
  5
AC
330
1F
100
AcDbEntity
  8
0
  6
Continuous
 62
     7
370
    25
100
AcDbCircle
 10
77.8226291675
 20
178.7732718575
 30
0.0
 40
4.725270078988995
100
AcDbArc
 50
237.8125236922
 51
251.5964441925
  0
ARC
  5
AD
330
1F
100
AcDbEntity
  8
0
  6
Continuous
 62
     7
370
    25
100
AcDbCircle
 10
75.6619138205
 20
177.7361968706
 30
0.0
 40
3.510839658177463
100
AcDbArc
 50
264.1737130011
 51
280.9835474224
  0
ARC
  5
AE
330
1F
100
AcDbEntity
  8
0
  6
Continuous
 62
     7
370
    25
100
AcDbCircle
 10
76.5183034334
 20
177.9090597932
 30
0.0
 40
3.86098738182761
100
AcDbArc
 50
251.692753245
 51
259.2856093568
  0
ARC
  5
AF
330
1F
100
AcDbEntity
  8
0
  6
Continuous
 62
     7
370
    25
100
AcDbCircle
 10
76.1568890436
 20
177.608087856
 30
0.0
 40
3.510839658178618
100
AcDbArc
 50
264.1737130011
 51
280.9835474224
  0
ARC
  5
B0
330
1F
100
AcDbEntity
  8
0
  6
Continuous
 62
     7
370
    25
100
AcDbCircle
 10
77.4947086287
 20
177.6080904227
 30
0.0
 40
3.510842045687663
100
AcDbArc
 50
259.0164716757
 51
275.8262836036
  0
ARC
  5
B1
330
1F
100
AcDbEntity
  8
0
  6
Continuous
 62
     7
370
    25
100
AcDbCircle
 10
77.133295952
 20
177.909052124
 30
0.0
 40
3.860979366983198
100
AcDbArc
 50
280.7143878092
 51
288.307249589
  0
LINE
  5
B2
330
1F
100
AcDbEntity
  8
0
  6
Continuous
 62
     7
370
    25
100
AcDbLine
 10
77.3207737477
 20
174.6140154778
 30
0.0
 11
77.3207737477
 21
174.2896688342
 31
0.0
  0
LINE
  5
B3
330
1F
100
AcDbEntity
  8
0
  6
Continuous
 62
     7
370
    25
100
AcDbLine
 10
76.33082396
 20
174.6140156482
 30
0.0
 11
76.33082396
 21
174.2896690046
 31
0.0
  0
LINE
  5
B4
330
1F
100
AcDbEntity
  8
0
  6
Continuous
 62
     7
370
    25
100
AcDbLine
 10
76.8257991831
 20
174.4177780957
 30
0.0
 11
76.8257991831
 21
174.1615599901
 31
0.0
  0
LINE
  5
B5
330
1F
100
AcDbEntity
  8
0
  6
Continuous
 62
     7
370
    25
100
AcDbLine
 10
77.8511035912
 20
174.2280534883
 30
0.0
 11
77.8511035912
 21
174.1153845232
 31
0.0
  0
LINE
  5
B6
330
1F
100
AcDbEntity
  8
0
  6
Continuous
 62
     7
370
    25
100
AcDbLine
 10
75.8004941165
 20
174.2280533179
 30
0.0
 11
75.8004941165
 21
174.1153843528
 31
0.0
  0
ARC
  5
B7
330
1F
100
AcDbEntity
  8
0
  6
Continuous
 62
     7
370
    25
100
AcDbCircle
 10
87.2203317743
 20
156.3892999004
 30
0.0
 40
2.017433239166108
100
AcDbArc
 50
81.7746067994
 51
91.187687142
  0
ARC
  5
B8
330
1F
100
AcDbEntity
  8
0
  6
Continuous
 62
     7
370
    25
100
AcDbCircle
 10
72.1185436165
 20
135.1212803442
 30
0.0
 40
2.867848410246107
100
AcDbArc
 50
145.9226112044
 51
168.1359555114
  0
ARC
  5
B9
330
1F
100
AcDbEntity
  8
0
  6
Continuous
 62
     7
370
    25
100
AcDbCircle
 10
95.8576727718
 20
130.2111168784
 30
0.0
 40
2.89058430292468
100
AcDbArc
 50
348.601518352
 51
10.6380217542
  0
ARC
  5
BA
330
1F
100
AcDbEntity
  8
0
  6
Continuous
 62
     7
370
    25
100
AcDbCircle
 10
89.3019705879
 20
139.4511317774
 30
0.0
 40
17.24256034378626
100
AcDbArc
 50
276.8167036929
 51
284.1418839468
  0
LWPOLYLINE
  5
BB
330
1F
100
AcDbEntity
  8
0
  6
Continuous
 62
     7
370
    25
100
AcDbPolyline
 90
       53
 70
   128
 43
0.0
 10
73.1149644302
 20
126.1138856405
 10
72.4256899305
 20
126.5384169257
 10
71.5375106234
 20
127.1551393912
 10
70.7524320565
 20
127.7892384025
 10
70.0773551179
 20
128.4351485654
 10
69.5182119765
 20
129.0871867861
 10
69.0799153743
 20
129.7396270214
 10
68.7663182906
 20
130.3867307839
 10
68.5801754171
 20
131.0228178485
 10
68.5231241835
 20
131.6422949384
 10
68.5956647132
 20
132.2397206092
 10
68.7971591647
 20
132.8098388646
 10
69.1258381524
 20
133.3476427091
 10
69.5788137117
 20
133.8484092446
 10
70.152102883
 20
134.3077347872
 10
70.8406684595
 20
134.7215806399
 10
71.6384598988
 20
135.0863115203
 10
72.5384656775
 20
135.3987222543
 10
73.5327763469
 20
135.6560687922
 10
74.6126543384
 20
135.8560896851
 10
75.768609367
 20
135.9970255999
 10
76.9904827253
 20
136.077637728
 10
78.2675375035
 20
136.0972164395
 10
79.5885488106
 20
136.0555914909
 10
80.941909141
 20
135.9531314564
 10
82.315726498
 20
135.7907338991
 10
83.6979244923
 20
135.569822264
 10
85.0763582463
 20
135.2923441362
 10
86.4389144922
 20
134.9607352573
 10
87.7736182567
 20
134.5779133509
 10
89.0687395449
 20
134.1472356626
 10
90.3128960737
 20
133.6724919527
 10
91.4951573213
 20
133.1578507483
 10
92.6051321139
 20
132.6078410679
 10
93.633063456
 20
132.0272890907
 10
94.5699213854
 20
131.4213029868
 10
95.407470803
 20
130.7952029397
 10
96.1383514861
 20
130.1544923688
 10
96.7561409794
 20
129.5048074118
 10
97.2554089249
 20
128.851850137
 10
97.6317694058
 20
128.2013618532
 10
97.8819150779
 20
127.559060566
 10
98.0036453838
 20
126.9305857988
 10
97.9958916808
 20
126.3214658025
 10
97.8587236099
 20
125.737053335
 10
97.5933453197
 20
125.1824793299
 10
97.2020885517
 20
124.6626260515
 10
96.688391896
 20
124.1820533013
 10
96.0567703339
 20
123.7449859236
 10
95.3127740784
 20
123.3552689688
 10
94.4629411594
 20
123.0163258398
 10
93.5147407886
 20
122.7311301493
 10
93.5147407886
 20
122.7311301493
  0
SPLINE
  5
BC
330
1F
100
AcDbEntity
  8
0
  6
Continuous
 62
     7
370
    25
100
AcDbSpline
210
0.0
220
0.0
230
1.0
 70
     8
 71
     3
 72
    28
 73
    24
 74
     0
 42
0.000000001
 43
0.00000001
 40
0.0
 40
0.0
 40
0.0
 40
0.0
 40
0.001089180744541
 40
0.0532818899694104
 40
0.1054746111214673
 40
0.1576673338676855
 40
0.1964055842694817
 40
0.2351438152037529
 40
0.2946505517237986
 40
0.346843279318219
 40
0.3990359909154024
 40
0.4512287399848067
 40
0.5034214247538789
 40
0.5556141257789654
 40
0.6078068635688834
 40
0.6599995795357755
 40
0.7121922857380918
 40
0.7643850127587439
 40
0.8165777288882514
 40
0.8687704569418595
 40
0.9209631485911414
 40
0.9731558788592976
 40
1.0
 40
1.0
 40
1.0
 40
1.0
 10
72.46948939649549
 20
131.1487372393484
 30
0.0
 10
72.46899677364692
 20
131.1544124014133
 30
0.0
 10
72.444898040222
 20
131.4320369942239
 30
0.0
 10
72.6760748556923
 20
131.9336354225631
 30
0.0
 10
73.19011391835028
 20
132.6192168477943
 30
0.0
 10
73.95024563609304
 20
133.1517678831937
 30
0.0
 10
74.82268769519861
 20
133.550681362039
 30
0.0
 10
75.89980870188354
 20
133.8912027902791
 30
0.0
 10
77.2787949617173
 20
134.1445329796304
 30
0.0
 10
78.96900892999211
 20
134.2591043224949
 30
0.0
 10
80.70432824413643
 20
134.2257128569251
 30
0.0
 10
82.51370682731228
 20
134.0448575138512
 30
0.0
 10
84.3441680044443
 20
133.7274107310906
 30
0.0
 10
86.14347863993866
 20
133.2768561047943
 30
0.0
 10
87.86288728253636
 20
132.7110878027817
 30
0.0
 10
89.44923950015252
 20
132.0416432133201
 30
0.0
 10
90.86370191559242
 20
131.2913448757886
 30
0.0
 10
92.05844802353732
 20
130.4784427763539
 30
0.0
 10
93.00772899268938
 20
129.6283788792254
 30
0.0
 10
93.67903868843439
 20
128.7630125473861
 30
0.0
 10
94.04539915612298
 20
127.9114581191841
 30
0.0
 10
94.13941430462812
 20
127.2163754496552
 30
0.0
 10
93.99757626115792
 20
126.8383303344033
 30
0.0
 10
93.9494023074464
 20
126.7099308765609
 30
0.0
  0
LINE
  5
BD
330
1F
100
AcDbEntity
  8
0
  6
Continuous
 62
     7
370
    25
100
AcDbLine
 10
84.9526374896
 20
146.015270107
 30
0.0
 11
87.6063216098
 21
158.8571312846
 31
0.0
  0
LINE
  5
BE
330
1F
100
AcDbEntity
  8
0
  6
Continuous
 62
     7
370
    25
100
AcDbLine
 10
87.6063216098
 20
158.8571312846
 30
0.0
 11
88.3134271898
 21
159.0401436756
 31
0.0
  0
LINE
  5
BF
330
1F
100
AcDbEntity
  8
0
  6
Continuous
 62
     7
370
    25
100
AcDbLine
 10
88.3134271898
 20
159.0401436756
 30
0.0
 11
85.6597430696
 21
146.198282498
 31
0.0
  0
ARC
  5
C0
330
1F
100
AcDbEntity
  8
0
  6
Continuous
 62
     7
370
    25
100
AcDbCircle
 10
83.5494150334
 20
146.5984924298
 30
0.0
 40
2.147941435383332
100
AcDbArc
 50
291.1542410134
 51
349.2617501133
  0
LINE
  5
C1
330
1F
100
AcDbEntity
  8
0
  6
Continuous
 62
     7
370
    25
100
AcDbLine
 10
84.507577306
 20
145.4809420657
 30
0.0
 11
84.324563836
 21
144.5952957985
 31
0.0
  0
ARC
  5
C2
330
1F
100
AcDbEntity
  8
0
  6
Continuous
 62
     7
370
    25
100
AcDbCircle
 10
84.2491926
 20
146.1486765443
 30
0.0
 40
0.7159832331875898
100
AcDbArc
 50
291.1543077452
 51
349.2615372471
  0
LINE
  5
C3
330
1F
100
AcDbEntity
  8
0
  6
Continuous
 62
     7
370
    25
100
AcDbLine
 10
114.3462763779
 20
128.2736640477
 30
0.0
 11
85.6597430696
 21
146.198282498
 31
0.0
  0
ARC
  5
C4
330
1F
100
AcDbEntity
  8
0
  6
Continuous
 62
     7
370
    25
100
AcDbCircle
 10
112.2359487582
 20
128.6738686045
 30
0.0
 40
2.147940024766386
100
AcDbArc
 50
291.1542624988
 51
349.2618889105
  0
LINE
  5
C5
330
1F
100
AcDbEntity
  8
0
  6
Continuous
 62
     7
370
    25
100
AcDbLine
 10
112.6695917676
 20
126.8840614704
 30
0.0
 11
113.0110978029
 21
126.6706735794
 31
0.0
  0
LINE
  5
C6
330
1F
100
AcDbEntity
  8
0
  6
Continuous
 62
     7
370
    25
100
AcDbLine
 10
112.6695917676
 20
126.8840614704
 30
0.0
 11
84.6660705299
 21
144.381907737
 31
0.0
  0
LINE
  5
C7
330
1F
100
AcDbEntity
  8
0
  6
Continuous
 62
     7
370
    25
100
AcDbLine
 10
84.324563836
 20
144.5952957985
 30
0.0
 11
84.6660705299
 21
144.381907737
 31
0.0
  0
ARC
  5
C8
330
1F
100
AcDbEntity
  8
0
  6
Continuous
 62
     7
370
    25
100
AcDbCircle
 10
85.8372044201
 20
145.9552615884
 30
0.0
 40
1.961376284727748
100
AcDbArc
 50
168.3735086937
 51
233.3376600716
  0
LINE
  5
C9
330
1F
100
AcDbEntity
  8
0
  6
Continuous
 62
     7
370
    25
100
AcDbLine
 10
86.5697554321
 20
159.1924005303
 30
0.0
 11
83.9160713119
 21
146.3505393526
 31
0.0
  0
LINE
  5
CA
330
1F
100
AcDbEntity
  8
0
  6
Continuous
 62
     7
370
    25
100
AcDbLine
 10
86.5697554321
 20
159.1924005303
 30
0.0
 11
87.2527675028
 21
158.7656247482
 31
0.0
  0
LINE
  5
CB
330
1F
100
AcDbEntity
  8
0
  6
Continuous
 62
     7
370
    25
100
AcDbLine
 10
87.2527675028
 20
158.7656247482
 30
0.0
 11
84.5990833825
 21
145.9237635706
 31
0.0
  0
ARC
  5
CC
330
1F
100
AcDbEntity
  8
0
  6
Continuous
 62
     7
370
    25
100
AcDbCircle
 10
85.2798561257
 20
145.7982244496
 30
0.0
 40
0.6922511095836382
100
AcDbArc
 50
169.5516486326
 51
201.8116483991
  0
LINE
  5
CD
330
1F
100
AcDbEntity
  8
0
  6
Continuous
 62
     7
370
    25
100
AcDbLine
 10
84.6660705299
 20
144.381907737
 30
0.0
 11
54.9675854619
 21
136.6953741908
 31
0.0
  0
ARC
  5
CE
330
1F
100
AcDbEntity
  8
0
  6
Continuous
 62
     7
370
    25
100
AcDbCircle
 10
56.1387193521
 20
138.2687280421
 30
0.0
 40
1.961376284727775
100
AcDbArc
 50
168.3735086937
 51
233.3376600716
  0
LINE
  5
CF
330
1F
100
AcDbEntity
  8
0
  6
Continuous
 62
     7
370
    25
100
AcDbLine
 10
83.9160713119
 20
146.3505393526
 30
0.0
 11
54.2175862439
 21
138.6640058063
 31
0.0
  0
LINE
  5
D0
330
1F
100
AcDbEntity
  8
0
  6
Continuous
 62
     7
370
    25
100
AcDbLine
 10
114.3462763779
 20
128.2736640477
 30
0.0
 11
116.9999604982
 21
141.115521627
 31
0.0
  0
LINE
  5
D1
330
1F
100
AcDbEntity
  8
0
  6
Continuous
 62
     7
370
    25
100
AcDbLine
 10
101.6321750795
 20
150.717998294
 30
0.0
 11
88.3134271898
 21
159.0401436756
 31
0.0
  0
LINE
  5
D2
330
1F
100
AcDbEntity
  8
0
  6
Continuous
 62
     7
370
    25
100
AcDbLine
 10
103.0047701779
 20
157.3603396352
 30
0.0
 11
101.6321750795
 21
150.717998294
 31
0.0
  0
LINE
  5
D3
330
1F
100
AcDbEntity
  8
0
  6
Continuous
 62
     7
370
    25
100
AcDbLine
 10
113.249960457
 20
150.9586879242
 30
0.0
 11
103.0047701779
 21
157.3603396352
 31
0.0
  0
LINE
  5
D4
330
1F
100
AcDbEntity
  8
0
  6
Continuous
 62
     7
370
    25
100
AcDbLine
 10
111.8773653586
 20
144.3163483821
 30
0.0
 11
113.249960457
 21
150.9586879242
 31
0.0
  0
LINE
  5
D5
330
1F
100
AcDbEntity
  8
0
  6
Continuous
 62
     7
370
    25
100
AcDbLine
 10
116.9999604982
 20
141.115521627
 30
0.0
 11
111.8773653586
 21
144.3163483821
 31
0.0
  0
LINE
  5
D6
330
1F
100
AcDbEntity
  8
0
  6
Continuous
 62
     7
370
    25
100
AcDbLine
 10
54.2175862439
 20
138.6640058063
 30
0.0
 11
56.8712703641
 21
151.505866984
 31
0.0
  0
LINE
  5
D7
330
1F
100
AcDbEntity
  8
0
  6
Continuous
 62
     7
370
    25
100
AcDbLine
 10
56.8712703641
 20
151.505866984
 30
0.0
 11
86.5697554321
 21
159.1924005303
 31
0.0
  0
LWPOLYLINE
  5
D8
330
1F
100
AcDbEntity
  8
0
  6
Continuous
 62
     7
370
    25
100
AcDbPolyline
 90
       42
 70
   128
 43
0.0
 10
68.7916752176
 20
133.1931008762
 10
68.6922858695
 20
133.5124383225
 10
68.5867246422
 20
134.1498974226
 10
68.6111162459
 20
134.7672225514
 10
68.7652526833
 20
135.359143592
 10
69.0478193967
 20
135.9206108589
 10
69.4564047756
 20
136.4468328968
 10
69.9875224031
 20
136.9333271994
 10
70.6366428099
 20
137.3759346765
 10
71.3982271428
 20
137.7708820777
 10
72.2657768848
 20
138.1148008082
 10
73.231891971
 20
138.4047573475
 10
74.2883277536
 20
138.6382754928
 10
75.4260733681
 20
138.8133653916
 10
76.6354205513
 20
138.9285326033
 10
77.9060518864
 20
138.9827934389
 10
79.2271277308
 20
138.9756820821
 10
80.5873751197
 20
138.907267652
 10
81.9751904987
 20
138.7781270833
 10
83.3787332377
 20
138.5893630796
 10
84.7860296803
 20
138.3425860839
 10
86.1850706091
 20
138.0399041649
 10
87.5639225388
 20
137.683897469
 10
88.9108199134
 20
137.2776019706
 10
90.2142731067
 20
136.8244872006
 10
91.4631599607
 20
136.3284167216
 10
92.6468252252
 20
135.793624852
 10
93.7551727543
 20
135.2246742439
 10
94.7787438733
 20
134.626416548
 10
95.7088069404
 20
134.0039571873
 10
96.5374258359
 20
133.3626038831
 10
97.2575338833
 20
132.707834492
 10
97.8629853806
 20
132.045230944
 10
98.3486135317
 20
131.3804509161
 10
98.7102781289
 20
130.7191584856
 10
98.944890866
 20
130.067000724
 10
99.0504527518
 20
129.4295418795
 10
99.026059934
 20
128.812216607
 10
98.8719236406
 20
128.2202956036
 10
98.5893570095
 20
127.6588281876
 10
98.1807722891
 20
127.1326027217
 10
98.1709622809
 20
127.1220695921
  0
ARC
  5
D9
330
1F
100
AcDbEntity
  8
0
  6
Continuous
 62
     7
370
    25
100
AcDbCircle
 10
95.8429532196
 20
130.3833874625
 30
0.0
 40
3.456739157358863
100
AcDbArc
 50
316.5865589
 51
338.2626977513
  0
ARC
  5
DA
330
1F
100
AcDbEntity
  8
0
  6
Continuous
 62
     7
370
    25
100
AcDbCircle
 10
72.1249355899
 20
135.2488554098
 30
0.0
 40
3.360537553778626
100
AcDbArc
 50
178.0722025543
 51
200.3766932519
  0
LWPOLYLINE
  5
DB
330
1F
100
AcDbEntity
  8
0
  6
Continuous
 62
     7
370
    25
100
AcDbPolyline
 90
        9
 70
   128
 43
0.0
 10
102.2976645979
 20
157.1773272442
 10
102.3087230419
 20
157.2619598819
 10
102.3057691405
 20
157.3398215781
 10
102.2889178097
 20
157.4079244108
 10
102.2588145878
 20
157.4636485714
 10
102.2166180192
 20
157.5048528489
 10
102.1639505929
 20
157.5299526294
 10
102.1028332174
 20
157.5379874608
 10
102.0356168965
 20
157.5286439267
  0
LINE
  5
DC
330
1F
100
AcDbEntity
  8
0
  6
Continuous
 62
     7
370
    25
100
AcDbLine
 10
102.0356168965
 20
157.5286439267
 30
0.0
 11
97.439422724
 21
156.3390613398
 31
0.0
  0
LINE
  5
DD
330
1F
100
AcDbEntity
  8
0
  6
Continuous
 62
     7
370
    25
100
AcDbLine
 10
97.439422724
 20
156.3390613398
 30
0.0
 11
97.6224353709
 21
157.2247060209
 31
0.0
  0
LINE
  5
DE
330
1F
100
AcDbEntity
  8
0
  6
Continuous
 62
     7
370
    25
100
AcDbLine
 10
102.2186295434
 20
158.4142886077
 30
0.0
 11
97.6224353709
 21
157.2247060209
 31
0.0
  0
LWPOLYLINE
  5
DF
330
1F
100
AcDbEntity
  8
0
  6
Continuous
 62
     7
370
    25
100
AcDbPolyline
 90
        9
 70
   128
 43
0.0
 10
102.2186295434
 20
158.4142886077
 10
102.4202799876
 20
158.4423195083
 10
102.6036308794
 20
158.4182200494
 10
102.7616357102
 20
158.3429160136
 10
102.8882253337
 20
158.2193032025
 10
102.9785321183
 20
158.0521319021
 10
103.0290866046
 20
157.8478250752
 10
103.0379455099
 20
157.6142357491
 10
103.0047701779
 20
157.3603396352
  0
LINE
  5
E0
330
1F
100
AcDbEntity
  8
0
  6
Continuous
 62
     7
370
    25
100
AcDbLine
 10
102.2976645979
 20
157.1773272442
 30
0.0
 11
101.0394237777
 21
151.088376179
 31
0.0
  0
ARC
  5
E1
330
1F
100
AcDbEntity
  8
0
  6
Continuous
 62
     7
370
    25
100
AcDbCircle
 10
112.4110850777
 20
151.2693634679
 30
0.0
 40
0.8945564238935519
100
AcDbArc
 50
339.6780068292
 51
50.16196514
  0
ARC
  5
E2
330
1F
100
AcDbEntity
  8
0
  6
Continuous
 62
     7
370
    25
100
AcDbCircle
 10
97.4919728689
 20
155.6641909167
 30
0.0
 40
0.6769132925964678
100
AcDbArc
 50
94.4524669471
 51
164.1743054254
  0
ARC
  5
E3
330
1F
100
AcDbEntity
  8
0
  6
Continuous
 62
     7
370
    25
100
AcDbCircle
 10
113.0967186227
 20
127.5672386951
 30
0.0
 40
0.8336142976815433
100
AcDbArc
 50
277.3795839778
 51
342.4656146314
  0
ARC
  5
E4
330
1F
100
AcDbEntity
  8
0
  6
Continuous
 62
     7
370
    25
100
AcDbCircle
 10
83.4415102489
 20
119.779816558
 30
0.0
 40
0.7285458979383053
100
AcDbArc
 50
261.0614548119
 51
284.3007372626
  0
ARC
  5
E5
330
1F
100
AcDbEntity
  8
0
  6
Continuous
 62
     7
370
    25
100
AcDbCircle
 10
97.6864074099
 20
156.5246181572
 30
0.0
 40
0.7030045794326898
100
AcDbArc
 50
95.2210262072
 51
159.0579673499
  0
LINE
  5
E6
330
1F
100
AcDbEntity
  8
0
  6
Continuous
 62
     7
370
    25
100
AcDbLine
 10
54.6417797862
 20
136.9847403185
 30
0.0
 11
54.626078768
 21
136.9087622522
 31
0.0
  0
LWPOLYLINE
  5
E7
330
1F
100
AcDbEntity
  8
0
  6
Continuous
 62
     7
370
    25
100
AcDbPolyline
 90
        9
 70
   128
 43
0.0
 10
54.626078768
 20
136.9087622522
 10
54.4244291469
 20
136.8807314795
 10
54.2410785021
 20
136.9048326736
 10
54.0830732598
 20
136.9801346759
 10
53.9564845417
 20
137.1037475935
 10
53.8661763577
 20
137.2709207145
 10
53.81562253
 20
137.4752255717
 10
53.8067631307
 20
137.7088146848
 10
53.8399379689
 20
137.9627109264
  0
LINE
  5
E8
330
1F
100
AcDbEntity
  8
0
  6
Continuous
 62
     7
370
    25
100
AcDbLine
 10
56.4936220891
 20
150.8045721041
 30
0.0
 11
53.8399379689
 21
137.9627109264
 31
0.0
  0
LINE
  5
E9
330
1F
100
AcDbEntity
  8
0
  6
Continuous
 62
     7
370
    25
100
AcDbLine
 10
56.4936220891
 20
150.8045721041
 30
0.0
 11
56.7395021935
 21
150.8682105579
 31
0.0
  0
LINE
  5
EA
330
1F
100
AcDbEntity
  8
0
  6
Continuous
 62
     7
370
    25
100
AcDbLine
 10
54.9675854619
 20
136.6953741908
 30
0.0
 11
54.626078768
 21
136.9087622522
 31
0.0
  0
LINE
  5
EB
330
1F
100
AcDbEntity
  8
0
  6
Continuous
 62
     7
370
    25
100
AcDbLine
 10
83.3126127349
 20
118.9841400331
 30
0.0
 11
83.2392521938
 21
119.029981655
 31
0.0
  0
LINE
  5
EC
330
1F
100
AcDbEntity
  8
0
  6
Continuous
 62
     7
370
    25
100
AcDbLine
 10
83.328312436
 20
119.0601184403
 30
0.0
 11
83.3126127349
 21
118.9841400331
 31
0.0
  0
LINE
  5
ED
330
1F
100
AcDbEntity
  8
0
  6
Continuous
 62
     7
370
    25
100
AcDbLine
 10
83.1202078645
 20
158.2995923023
 30
0.0
 11
83.8779119092
 21
161.9663172017
 31
0.0
  0
LINE
  5
EE
330
1F
100
AcDbEntity
  8
0
  6
Continuous
 62
     7
370
    25
100
AcDbLine
 10
87.0598924522
 20
162.7898743674
 30
0.0
 11
83.8779119092
 21
161.9663172017
 31
0.0
  0
LINE
  5
EF
330
1F
100
AcDbEntity
  8
0
  6
Continuous
 62
     7
370
    25
100
AcDbLine
 10
86.3021884075
 20
159.1231494679
 30
0.0
 11
87.0598924522
 21
162.7898743674
 31
0.0
  0
LINE
  5
F0
330
1F
100
AcDbEntity
  8
0
  6
Continuous
 62
     7
370
    25
100
AcDbLine
 10
90.0735052669
 20
157.9403691444
 30
0.0
 11
91.3025331762
 21
163.8879505883
 31
0.0
  0
LINE
  5
F1
330
1F
100
AcDbEntity
  8
0
  6
Continuous
 62
     7
370
    25
100
AcDbLine
 10
92.7408912288
 20
156.2736686098
 30
0.0
 11
93.9377831951
 21
162.0657361843
 31
0.0
  0
LINE
  5
F2
330
1F
100
AcDbEntity
  8
0
  6
Continuous
 62
     7
370
    25
100
AcDbLine
 10
101.9624117719
 20
157.1743857114
 30
0.0
 11
94.422513112
 21
155.2229163401
 31
0.0
  0
LINE
  5
F3
330
1F
100
AcDbEntity
  8
0
  6
Continuous
 62
     7
370
    25
100
AcDbLine
 10
100.7430469743
 20
151.2735665372
 30
0.0
 11
101.9624117719
 21
157.1743857114
 31
0.0
  0
LINE
  5
F4
330
1F
100
AcDbEntity
  8
0
  6
Continuous
 62
     7
370
    25
100
AcDbLine
 10
102.2587879168
 20
156.9891965401
 30
0.0
 11
101.9624117719
 21
157.1743857114
 31
0.0
  0
ARC
  5
F5
330
1F
100
AcDbEntity
  8
0
  6
Continuous
 62
     7
370
    25
100
AcDbCircle
 10
93.2311597662
 20
163.6774149844
 30
0.0
 40
1.940083957982449
100
AcDbArc
 50
108.9889857963
 51
173.7700614601
  0
LWPOLYLINE
  5
F6
330
1F
100
AcDbEntity
  8
0
  6
Continuous
 62
     7
370
    25
100
AcDbPolyline
 90
        9
 70
   128
 43
0.0
 10
87.0598924522
 20
162.7898743674
 10
87.2063761703
 20
163.2836166119
 10
87.425973928
 20
163.7091812794
 10
87.7102468479
 20
164.0502146914
 10
88.0482703352
 20
164.2936126281
 10
88.4270544349
 20
164.4300196545
 10
88.832042679
 20
164.454194782
 10
89.2476715207
 20
164.3652085206
 10
89.6579686214
 20
164.1664814421
  0
LINE
  5
F7
330
1F
100
AcDbEntity
  8
0
  6
Continuous
 62
     7
370
    25
100
AcDbLine
 10
89.6579686214
 20
164.1664814421
 30
0.0
 11
91.165444501
 21
163.2245436565
 31
0.0
  0
ARC
  5
F8
330
1F
100
AcDbEntity
  8
0
  6
Continuous
 62
     7
370
    25
100
AcDbCircle
 10
85.8065384992
 20
161.7557815978
 30
0.0
 40
1.940083957982516
100
AcDbArc
 50
108.9889857963
 51
173.7700614601
  0
LWPOLYLINE
  5
F9
330
1F
100
AcDbEntity
  8
0
  6
Continuous
 62
     7
370
    25
100
AcDbPolyline
 90
       28
 70
   128
 43
0.0
 10
97.0490530155
 20
181.894430531
 10
97.002956217
 20
180.6809955332
 10
96.8651742179
 20
179.4569945632
 10
96.6372137682
 20
178.2358374537
 10
96.3215747026
 20
177.0309040981
 10
95.9217130628
 20
175.8553946821
 10
95.442012121
 20
174.7221898324
 10
94.8877257453
 20
173.6437043934
 10
94.2649283503
 20
172.6317546038
 10
93.5804424571
 20
171.697428248
 10
92.8417675705
 20
170.8509605469
 10
92.0569958854
 20
170.1016273299
 10
91.2347273345
 20
169.4576366872
 10
90.3839694897
 20
168.9260454883
 10
89.5140440485
 20
168.5126776058
 10
88.6344814669
 20
168.2220615602
 10
87.7549195439
 20
168.0573826813
 10
86.8849941027
 20
168.0204440198
 10
86.0342362579
 20
168.1116505527
 10
85.2119673777
 20
168.3300035879
 10
84.4271963512
 20
168.673109259
 10
83.6885211353
 20
169.1372106172
 10
83.0040349128
 20
169.7172209173
 10
82.3812370239
 20
170.4067869249
 10
81.8269509981
 20
171.1983527135
 10
81.3472497065
 20
172.0832459933
 10
80.9473888487
 20
173.0517719962
 10
80.8848440368
 20
173.2324038322
  0
LINE
  5
FA
330
1F
100
AcDbEntity
  8
0
  6
Continuous
 62
     7
370
    25
100
AcDbLine
 10
108.5748937258
 20
178.9113234443
 30
0.0
 11
108.1486705494
 21
179.0216381199
 31
0.0
  0
ARC
  5
FB
330
1F
100
AcDbEntity
  8
0
  6
Continuous
 62
     7
370
    25
100
AcDbCircle
 10
91.8443339535
 20
178.9053538646
 30
0.0
 40
16.73056083734997
100
AcDbArc
 50
323.5261223381
 51
0.0204435306
  0
LWPOLYLINE
  5
FC
330
1F
100
AcDbEntity
  8
0
  6
Continuous
 62
     7
370
    25
100
AcDbPolyline
 90
       22
 70
   128
 43
0.0
 10
82.0968330947
 20
172.9187179932
 10
82.2602620685
 20
172.58896695
 10
82.7490400585
 20
171.7754915005
 10
83.3117507001
 20
171.0617714536
 10
83.9413253413
 20
170.4567728195
 10
84.6298551917
 20
169.9680953904
 10
85.3686910925
 20
169.601878467
 10
86.1485516819
 20
169.3627213538
 10
86.9596401226
 20
169.2536290084
 10
87.7917684018
 20
169.2759722459
 10
88.6344821255
 20
169.4294696612
 10
89.4771965076
 20
169.7121931389
 10
90.3093241283
 20
170.1205910241
 10
91.120412569
 20
170.649533641
 10
91.9002734877
 20
171.2923763856
 10
92.6391084007
 20
172.0410435575
 10
93.3276390743
 20
172.8861304765
 10
93.9572128923
 20
173.8170207124
 10
94.5199233693
 20
174.8220211786
 10
95.0087016885
 20
175.8885072683
 10
95.4174075811
 20
177.0030813143
 10
95.7409057168
 20
178.1517421415
  0
LINE
  5
FD
330
1F
100
AcDbEntity
  8
0
  6
Continuous
 62
     7
370
    25
100
AcDbLine
 10
95.7409057168
 20
178.1517421415
 30
0.0
 11
95.7409043997
 21
182.5217826276
 31
0.0
  0
LINE
  5
FE
330
1F
100
AcDbEntity
  8
0
  6
Continuous
 62
     7
370
    25
100
AcDbLine
 10
95.7409043997
 20
182.5217826276
 30
0.0
 11
96.165200675
 21
182.6315985844
 31
0.0
  0
LINE
  5
FF
330
1F
100
AcDbEntity
  8
0
  6
Continuous
 62
     7
370
    25
100
AcDbLine
 10
96.165200675
 20
182.6315985844
 30
0.0
 11
96.1775444332
 21
181.668867512
 31
0.0
  0
LINE
  5
100
330
1F
100
AcDbEntity
  8
0
  6
Continuous
 62
     7
370
    25
100
AcDbLine
 10
96.1775444332
 20
181.668867512
 30
0.0
 11
97.0490530155
 21
181.894430531
 31
0.0
  0
ELLIPSE
  5
101
330
1F
100
AcDbEntity
  8
0
  6
Continuous
 62
     7
370
    25
100
AcDbEllipse
 10
89.6215996019
 20
179.4610942977
 30
0.0
 11
2.782939984402006
 21
10.28033339360451
 31
0.0
210
0.0
220
0.0
230
1.0
 40
0.6807089529
 41
2.869899719175157
 42
3.083263748211043
  0
LINE
  5
102
330
1F
100
AcDbEntity
  8
0
  6
Continuous
 62
     7
370
    25
100
AcDbLine
 10
96.165200675
 20
182.6315985844
 30
0.0
 11
96.351080213
 21
182.5834894199
 31
0.0
  0
ARC
  5
103
330
1F
100
AcDbEntity
  8
0
  6
Continuous
 62
     7
370
    25
100
AcDbCircle
 10
91.4999895976
 20
178.9931161916
 30
0.0
 40
17.6760984589676
100
AcDbArc
 50
321.0752237416
 51
0.2391141234
  0
ARC
  5
104
330
1F
100
AcDbEntity
  8
0
  6
Continuous
 62
     7
370
    25
100
AcDbCircle
 10
94.905067649
 20
178.1095472189
 30
0.0
 40
16.60807912726944
100
AcDbArc
 50
308.5337345078
 51
1.2192602768
  0
LINE
  5
105
330
1F
100
AcDbEntity
  8
0
  6
Continuous
 62
     7
370
    25
100
AcDbLine
 10
111.5093864926
 20
178.4629422342
 30
0.0
 11
109.1759341274
 21
179.0668841471
 31
0.0
  0
LINE
  5
106
330
1F
100
AcDbEntity
  8
0
  6
Continuous
 62
     7
370
    25
100
AcDbLine
 10
108.5748937258
 20
178.9113234443
 30
0.0
 11
109.1759341274
 21
179.0668841471
 31
0.0
  0
LWPOLYLINE
  5
107
330
1F
100
AcDbEntity
  8
0
  6
Continuous
 62
     7
370
    25
100
AcDbPolyline
 90
       15
 70
   128
 43
0.0
 10
105.363159648
 20
164.3251005646
 10
106.2444008596
 20
164.7252054901
 10
107.1074069737
 20
165.2468021958
 10
107.942519118
 20
165.8840524087
 10
108.740391229
 20
166.6298242453
 10
109.492092126
 20
167.4757708063
 10
110.1892115371
 20
168.4124259876
 10
110.8239457099
 20
169.4293049012
 10
111.3891902661
 20
170.515027313
 10
111.8786205445
 20
171.6574418896
 10
112.2867574546
 20
172.8437633374
 10
112.6090333317
 20
174.0607135904
 10
112.8418433032
 20
175.2946734166
 10
112.9825782159
 20
176.5318318383
 10
113.0296667824
 20
177.7583433357
  0
LINE
  5
108
330
1F
100
AcDbEntity
  8
0
  6
Continuous
 62
     7
370
    25
100
AcDbLine
 10
113.0296667824
 20
177.7583433357
 30
0.0
 11
111.506536312
 21
178.1525585096
 31
0.0
  0
LINE
  5
109
330
1F
100
AcDbEntity
  8
0
  6
Continuous
 62
     7
370
    25
100
AcDbLine
 10
105.2514915729
 20
164.2927497176
 30
0.0
 11
105.363158331
 21
164.3251254122
 31
0.0
  0
LWPOLYLINE
  5
10A
330
1F
100
AcDbEntity
  8
0
  6
Continuous
 62
     7
370
    25
100
AcDbPolyline
 90
       16
 70
   128
 43
0.0
 10
113.6307071839
 20
177.9139040385
 10
113.5844510177
 20
176.6559881201
 10
113.446156671
 20
175.3870359198
 10
113.2172439658
 20
174.1200690892
 10
112.900062589
 20
172.868088166
 10
112.4978644333
 20
171.643940036
 10
112.0147798898
 20
170.4601864162
 10
111.4557638475
 20
169.3289740568
 10
110.8265535461
 20
168.2619109346
 10
110.1336053559
 20
167.2699455375
 10
109.3840289235
 20
166.3632580628
 10
108.5855173658
 20
165.5511523907
 10
107.7462649521
 20
164.8419610131
 10
106.8748814933
 20
164.2429617032
 10
105.9803093653
 20
163.760300266
 10
105.2514915729
 20
163.4603694491
  0
LINE
  5
10B
330
1F
100
AcDbEntity
  8
0
  6
Continuous
 62
     7
370
    25
100
AcDbLine
 10
113.0296667824
 20
177.7583433357
 30
0.0
 11
113.6307071839
 21
177.9139040385
 31
0.0
  0
LWPOLYLINE
  5
10C
330
1F
100
AcDbEntity
  8
0
  6
Continuous
 62
     7
370
    25
100
AcDbPolyline
 90
       19
 70
   128
 43
0.0
 10
105.2514915729
 20
162.4419182765
 10
105.5833341261
 20
162.4496716877
 10
106.4919148129
 20
162.558617403
 10
107.4051810438
 20
162.7949880968
 10
108.3137617306
 20
163.156358353
 10
109.2083338586
 20
163.6390197903
 10
110.0797173174
 20
164.2380191001
 10
110.9189697311
 20
164.9472104777
 10
111.7174812888
 20
165.7593161498
 10
112.4670577212
 20
166.6660036245
 10
113.1600059114
 20
167.6579690216
 10
113.7892162128
 20
168.7250321439
 10
114.3482322551
 20
169.8562445032
 10
114.8313167986
 20
171.039998123
 10
115.2335149543
 20
172.2641462531
 10
115.5506963311
 20
173.5161271762
 10
115.7796090363
 20
174.7830940068
 10
115.9179033829
 20
176.0520462071
 10
115.9641595492
 20
177.3099621255
  0
LINE
  5
10D
330
1F
100
AcDbEntity
  8
0
  6
Continuous
 62
     7
370
    25
100
AcDbLine
 10
115.9641595492
 20
177.3099621255
 30
0.0
 11
113.6307071839
 21
177.9139040385
 31
0.0
  0
LWPOLYLINE
  5
10E
330
1F
100
AcDbEntity
  8
0
  6
Continuous
 62
     7
370
    25
100
AcDbPolyline
 90
       19
 70
   128
 43
0.0
 10
107.2159374135
 20
162.7356196226
 10
107.320379609
 20
162.7313770567
 10
108.1903050502
 20
162.7683157183
 10
109.0698669733
 20
162.9329945971
 10
109.9494295549
 20
163.2236106428
 10
110.8193549961
 20
163.6369785252
 10
111.6701128409
 20
164.1685697241
 10
112.4923813917
 20
164.8125603669
 10
113.2771530768
 20
165.5618935838
 10
114.0158279634
 20
166.4083612849
 10
114.7003138567
 20
167.3426876407
 10
115.3231112517
 20
168.3546374303
 10
115.8773976273
 20
169.4331228693
 10
116.3570985691
 20
170.566327719
 10
116.7569602089
 20
171.741837135
 10
117.0725992745
 20
172.9467704907
 10
117.3005597243
 20
174.1679276002
 10
117.4383417233
 20
175.3919285702
 10
117.4844385218
 20
176.6053635679
  0
LINE
  5
10F
330
1F
100
AcDbEntity
  8
0
  6
Continuous
 62
     7
370
    25
100
AcDbLine
 10
117.4844385218
 20
176.6053635679
 30
0.0
 11
115.9613093686
 21
176.999578401
 31
0.0
  0
LWPOLYLINE
  5
110
330
1F
100
AcDbEntity
  8
0
  6
Continuous
 62
     7
370
    25
100
AcDbPolyline
 90
       21
 70
   128
 43
0.0
 10
118.0854789234
 20
176.7609242707
 10
118.0392227571
 20
175.5030083523
 10
117.9009284104
 20
174.2340561521
 10
117.6720157053
 20
172.9670893214
 10
117.3548343285
 20
171.7151083983
 10
116.9526361728
 20
170.4909602682
 10
116.4695516293
 20
169.3072066484
 10
115.910535587
 20
168.1759942891
 10
115.2813252856
 20
167.1089311668
 10
114.5883770954
 20
166.1169657698
 10
113.838800663
 20
165.210278295
 10
113.0402891053
 20
164.398172623
 10
112.2010366916
 20
163.6889812453
 10
111.3296532328
 20
163.0899819355
 10
110.4350811048
 20
162.6073204982
 10
109.526500418
 20
162.2459502421
 10
108.6132341871
 20
162.0095795482
 10
107.7046535003
 20
161.9006338329
 10
106.8100813723
 20
161.9202306623
 10
105.9386979135
 20
162.0681687027
 10
105.2514905851
 20
162.282800431
  0
LINE
  5
111
330
1F
100
AcDbEntity
  8
0
  6
Continuous
 62
     7
370
    25
100
AcDbLine
 10
117.4844385218
 20
176.6053635679
 30
0.0
 11
118.0854789234
 21
176.7609242707
 31
0.0
  0
LWPOLYLINE
  5
112
330
1F
100
AcDbEntity
  8
0
  6
Continuous
 62
     7
370
    25
100
AcDbPolyline
 90
       21
 70
   128
 43
0.0
 10
108.2086451855
 20
161.4802910142
 10
108.2721515959
 20
161.4642264488
 10
109.1435350547
 20
161.3162884084
 10
110.0381071827
 20
161.296691579
 10
110.9466878694
 20
161.4056372944
 10
111.8599541004
 20
161.6420079882
 10
112.7685347872
 20
162.0033782444
 10
113.6631069152
 20
162.4860396816
 10
114.5344903739
 20
163.0850389914
 10
115.3737427876
 20
163.7942303691
 10
116.1722543453
 20
164.6063360412
 10
116.9218307778
 20
165.5130235159
 10
117.6147789679
 20
166.504988913
 10
118.2439892693
 20
167.5720520352
 10
118.8030053117
 20
168.7032643946
 10
119.2860898551
 20
169.8870180144
 10
119.6882880108
 20
171.1111661444
 10
120.0054693877
 20
172.3631470675
 10
120.2343820928
 20
173.6301138982
 10
120.3726764395
 20
174.8990660984
 10
120.4189326057
 20
176.1569820169
  0
LINE
  5
113
330
1F
100
AcDbEntity
  8
0
  6
Continuous
 62
     7
370
    25
100
AcDbLine
 10
120.4189326057
 20
176.1569820169
 30
0.0
 11
118.0854789234
 21
176.7609242707
 31
0.0
  0
LWPOLYLINE
  5
114
330
1F
100
AcDbEntity
  8
0
  6
Continuous
 62
     7
370
    25
100
AcDbPolyline
 90
       19
 70
   128
 43
0.0
 10
111.67071047
 20
161.5826395139
 10
111.7751526655
 20
161.5783969481
 10
112.6450781068
 20
161.6153356096
 10
113.5246400298
 20
161.7800144885
 10
114.4042026114
 20
162.0706305341
 10
115.2741280526
 20
162.4839984166
 10
116.1248858974
 20
163.0155896155
 10
116.9471544483
 20
163.6595802582
 10
117.7319261334
 20
164.4089134752
 10
118.47060102
 20
165.2553811763
 10
119.1550869132
 20
166.1897075321
 10
119.7778843082
 20
167.2016573217
 10
120.3321706839
 20
168.2801427607
 10
120.8118716257
 20
169.4133476104
 10
121.2117332655
 20
170.5888570264
 10
121.527372331
 20
171.793790382
 10
121.7553327808
 20
173.0149474915
 10
121.8931147799
 20
174.2389484615
 10
121.9392115784
 20
175.4523834593
  0
LINE
  5
115
330
1F
100
AcDbEntity
  8
0
  6
Continuous
 62
     7
370
    25
100
AcDbLine
 10
121.9392115784
 20
175.4523834593
 30
0.0
 11
120.4160824251
 21
175.8465982923
 31
0.0
  0
LWPOLYLINE
  5
116
330
1F
100
AcDbEntity
  8
0
  6
Continuous
 62
     7
370
    25
100
AcDbPolyline
 90
       22
 70
   128
 43
0.0
 10
122.5402519799
 20
175.6079441621
 10
122.4939958137
 20
174.3500282437
 10
122.355701467
 20
173.0810760434
 10
122.1267887618
 20
171.8141092128
 10
121.809607385
 20
170.5621282896
 10
121.4074092293
 20
169.3379801596
 10
120.9243246858
 20
168.1542265398
 10
120.3653086435
 20
167.0230141804
 10
119.7360983421
 20
165.9559510582
 10
119.0431501519
 20
164.9639856611
 10
118.2935737195
 20
164.0572981864
 10
117.4950621618
 20
163.2451925143
 10
116.6558097481
 20
162.5360011367
 10
115.7844262893
 20
161.9370018268
 10
114.8898541613
 20
161.4543403896
 10
113.9812734746
 20
161.0929701334
 10
113.0680072436
 20
160.8565994396
 10
112.1594265568
 20
160.7476537243
 10
111.2648544288
 20
160.7672505536
 10
110.3934709701
 20
160.915188594
 10
109.5542175685
 20
161.1899506994
 10
109.2946881414
 20
161.3038478201
  0
LWPOLYLINE
  5
117
330
1F
100
AcDbEntity
  8
0
  6
Continuous
 62
     7
370
    25
100
AcDbPolyline
 90
       14
 70
   128
 43
0.0
 10
117.6952096429
 20
161.0889139591
 10
118.6105562159
 20
161.655416129
 10
119.4955583751
 20
162.3433534498
 10
120.3404591251
 20
163.1451413394
 10
121.1359453293
 20
164.0519418207
 10
121.8732464921
 20
165.053757457
 10
122.5442348571
 20
166.1395445192
 10
123.1415123353
 20
167.2973312913
 10
123.6584947988
 20
168.5143550336
 10
124.0894818862
 20
169.7771983464
 10
124.4297241746
 20
171.0719401438
 10
124.6754692774
 20
172.3843056718
 10
124.8240079424
 20
173.6998270962
 10
124.8737043452
 20
175.0040022491
  0
SPLINE
  5
118
330
1F
100
AcDbEntity
  8
0
  6
Continuous
 62
     7
370
    25
100
AcDbSpline
210
0.0
220
0.0
230
1.0
 70
     8
 71
     3
 72
    14
 73
    10
 74
     0
 42
0.000000001
 43
0.00000001
 40
0.0
 40
0.0
 40
0.0
 40
0.0
 40
0.1622272945482787
 40
0.3244681295081498
 40
0.4855715210772898
 40
0.642821301093754
 40
0.7994706241349248
 40
0.9595384614441711
 40
1.0
 40
1.0
 40
1.0
 40
1.0
 10
114.0209751473193
 20
160.1379520955237
 30
0.0
 10
113.9656090262558
 20
160.1870028631703
 30
0.0
 10
113.8548721629577
 20
160.2851084925193
 30
0.0
 10
114.1250870876284
 20
160.4343447310604
 30
0.0
 10
114.6866230656434
 20
160.60849542524
 30
0.0
 10
115.4951423148976
 20
160.7993925701758
 30
0.0
 10
116.4481213823098
 20
160.9763481516616
 30
0.0
 10
117.2072716825298
 20
161.0672855035005
 30
0.0
 10
117.6132865519365
 20
161.0852826164681
 30
0.0
 10
117.6952096428646
 20
161.0889139591434
 30
0.0
  0
LWPOLYLINE
  5
119
330
1F
100
AcDbEntity
  8
0
  6
Continuous
 62
     7
370
    25
100
AcDbPolyline
 90
        3
 70
   128
 43
0.0
 10
112.663416925
 20
160.3273112465
 10
113.1056292328
 20
160.2306361838
 10
114.0209751473
 20
160.1379520955
  0
LINE
  5
11A
330
1F
100
AcDbEntity
  8
0
  6
Continuous
 62
     7
370
    25
100
AcDbLine
 10
124.8737043452
 20
175.0040022491
 30
0.0
 11
122.5402519799
 21
175.6079441621
 31
0.0
  0
LINE
  5
11B
330
1F
100
AcDbEntity
  8
0
  6
Continuous
 62
     7
370
    25
100
AcDbLine
 10
121.9392115784
 20
175.4523834593
 30
0.0
 11
122.5402519799
 21
175.6079441621
 31
0.0
  0
ARC
  5
11C
330
1F
100
AcDbEntity
  8
0
  6
Continuous
 62
     7
370
    25
100
AcDbCircle
 10
111.3008295254
 20
173.8493221166
 30
0.0
 40
15.09986307312316
100
AcDbArc
 50
304.3300143604
 51
1.7080681223
  0
SPLINE
  5
11D
330
1F
100
AcDbEntity
  8
0
  6
Continuous
 62
     7
370
    25
100
AcDbSpline
210
0.0
220
0.0
230
1.0
 70
     8
 71
     3
 72
    10
 73
     6
 74
     0
 42
0.000000001
 43
0.00000001
 40
0.0
 40
0.0
 40
0.0
 40
0.0
 40
0.1562553804743865
 40
0.6883001393346724
 40
1.0
 40
1.0
 40
1.0
 40
1.0
 10
118.8158120267057
 20
161.8626471285484
 30
0.0
 10
118.8920473365885
 20
161.8500986897604
 30
0.0
 10
119.2278615290676
 20
161.7948232033104
 30
0.0
 10
119.5904373067451
 20
161.6257716734447
 30
0.0
 10
119.7555371166942
 20
161.4461623037209
 30
0.0
 10
119.8165290170467
 20
161.379810217768
 30
0.0
  0
LINE
  5
11E
330
1F
100
AcDbEntity
  8
0
  6
Continuous
 62
     7
370
    25
100
AcDbLine
 10
126.3939833178
 20
174.2994036916
 30
0.0
 11
124.8708541645
 21
174.6936185246
 31
0.0
  0
LWPOLYLINE
  5
11F
330
1F
100
AcDbEntity
  8
0
  6
Continuous
 62
     7
370
    25
100
AcDbPolyline
 90
       21
 70
   128
 43
0.0
 10
117.1181886644
 20
159.1743314787
 10
117.1816950748
 20
159.1582669133
 10
118.0530785336
 20
159.0103288729
 10
118.9476506616
 20
158.9907320435
 10
119.8562313483
 20
159.0996777589
 10
120.7694975793
 20
159.3360484527
 10
121.6780782661
 20
159.6974187088
 10
122.5726503941
 20
160.1800801461
 10
123.4440338528
 20
160.7790794559
 10
124.2832862665
 20
161.4882708336
 10
125.0817978243
 20
162.3003765057
 10
125.8313742567
 20
163.2070639804
 10
126.5243224468
 20
164.1990293775
 10
127.1535327483
 20
165.2660924997
 10
127.7125487906
 20
166.3973048591
 10
128.195633334
 20
167.5810584789
 10
128.5978314897
 20
168.8052066089
 10
128.9150128666
 20
170.057187532
 10
129.1439255717
 20
171.3241543627
 10
129.2822199184
 20
172.5931065629
 10
129.3284760846
 20
173.8510224814
  0
ARC
  5
120
330
1F
100
AcDbEntity
  8
0
  6
Continuous
 62
     7
370
    25
100
AcDbCircle
 10
116.2857071491
 20
165.5749712544
 30
0.0
 40
5.987774691173184
100
AcDbArc
 50
244.9397588616
 51
268.6275829468
  0
SPLINE
  5
121
330
1F
100
AcDbEntity
  8
0
  6
Continuous
 62
     7
370
    25
100
AcDbSpline
210
0.0
220
0.0
230
1.0
 70
     8
 71
     3
 72
    14
 73
    10
 74
     0
 42
0.000000001
 43
0.00000001
 40
0.0
 40
0.0
 40
0.0
 40
0.0
 40
0.1622275800574693
 40
0.3244680389030181
 40
0.4855714747218073
 40
0.6428214101761482
 40
0.7994706621581871
 40
0.9595379030250403
 40
1.0
 40
1.0
 40
1.0
 40
1.0
 10
119.8165290170467
 20
160.5398761043601
 30
0.0
 10
119.8718970790955
 20
160.4149633436772
 30
0.0
 10
119.9826375987067
 20
160.1651279058413
 30
0.0
 10
119.7124147266584
 20
159.7946332984912
 30
0.0
 10
119.1508864928355
 20
159.5270554088996
 30
0.0
 10
118.3423611027423
 20
159.4002401677979
 30
0.0
 10
117.3893842631713
 20
159.4144287441334
 30
0.0
 10
116.63023322872
 20
159.5066861449973
 30
0.0
 10
116.224218691563
 20
159.5751082679822
 30
0.0
 10
116.1422945215015
 20
159.5889142407404
 30
0.0
  0
ARC
  5
122
330
1F
100
AcDbEntity
  8
0
  6
Continuous
 62
     7
370
    25
100
AcDbCircle
 10
110.9709123603
 20
173.9122990877
 30
0.0
 40
16.03329755485841
100
AcDbArc
 50
303.4839172046
 51
1.9396116799
  0
LINE
  5
123
330
1F
100
AcDbEntity
  8
0
  6
Continuous
 62
     7
370
    25
100
AcDbLine
 10
129.3284760846
 20
173.8510224814
 30
0.0
 11
126.9950237194
 21
174.4549643943
 31
0.0
  0
LINE
  5
124
330
1F
100
AcDbEntity
  8
0
  6
Continuous
 62
     7
370
    25
100
AcDbLine
 10
119.816529017
 20
160.5398761044
 30
0.0
 11
119.816529017
 21
161.3798102178
 31
0.0
  0
LINE
  5
125
330
1F
100
AcDbEntity
  8
0
  6
Continuous
 62
     7
370
    25
100
AcDbLine
 10
126.3939833178
 20
174.2994036916
 30
0.0
 11
126.9950237194
 21
174.4549643943
 31
0.0
  0
LWPOLYLINE
  5
126
330
1F
100
AcDbEntity
  8
0
  6
Continuous
 62
     7
370
    25
100
AcDbPolyline
 90
       19
 70
   128
 43
0.0
 10
120.5802565831
 20
159.2766792966
 10
120.6846987786
 20
159.2724367308
 10
121.5546242199
 20
159.3093753923
 10
122.4341861429
 20
159.4740542712
 10
123.3137487245
 20
159.7646703168
 10
124.1836741657
 20
160.1780381993
 10
125.0344320105
 20
160.7096293982
 10
125.8567005614
 20
161.353620041
 10
126.6414722464
 20
162.1029532579
 10
127.3801471331
 20
162.949420959
 10
128.0646330263
 20
163.8837473148
 10
128.6874304213
 20
164.8956971044
 10
129.241716797
 20
165.9741825434
 10
129.7214177387
 20
167.1073873931
 10
130.1212793785
 20
168.2828968091
 10
130.4369184441
 20
169.4878301647
 10
130.6648788939
 20
170.7089872742
 10
130.802660893
 20
171.9329882443
 10
130.8487576914
 20
173.146423242
  0
LINE
  5
127
330
1F
100
AcDbEntity
  8
0
  6
Continuous
 62
     7
370
    25
100
AcDbLine
 10
130.8487576914
 20
173.146423242
 30
0.0
 11
129.3256285382
 21
173.540638075
 31
0.0
  0
LINE
  5
128
330
1F
100
AcDbEntity
  8
0
  6
Continuous
 62
     7
370
    25
100
AcDbLine
 10
116.1422945215
 20
159.5889142407
 30
0.0
 11
116.1422945215
 21
160.4288483541
 31
0.0
  0
SPLINE
  5
129
330
1F
100
AcDbEntity
  8
0
  6
Continuous
 62
     7
370
    25
100
AcDbSpline
210
0.0
220
0.0
230
1.0
 70
     8
 71
     3
 72
     9
 73
     5
 74
     0
 42
0.000000001
 43
0.00000001
 40
0.0
 40
0.0
 40
0.0
 40
0.0
 40
0.7558244128658491
 40
1.0
 40
1.0
 40
1.0
 40
1.0
 10
116.1422945215015
 20
160.4288483541482
 30
0.0
 10
115.8262095193626
 20
160.4906546557251
 30
0.0
 10
115.4080105345741
 20
160.5724280154164
 30
0.0
 10
115.0783437978429
 20
160.6547373604393
 30
0.0
 10
114.997847228843
 20
160.6748352930869
 30
0.0
  0
LINE
  5
12A
330
1F
100
AcDbEntity
  8
0
  6
Continuous
 62
     7
370
    25
100
AcDbLine
 10
114.0209751473
 20
160.3433443489
 30
0.0
 11
114.0209751473
 21
160.1379520955
 31
0.0
  0
LWPOLYLINE
  5
12B
330
1F
100
AcDbEntity
  8
0
  6
Continuous
 62
     7
370
    25
100
AcDbPolyline
 90
       22
 70
   128
 43
0.0
 10
131.449798093
 20
173.3019839448
 10
131.4035419268
 20
172.0440680264
 10
131.2652475801
 20
170.7751158261
 10
131.0363348749
 20
169.5081489955
 10
130.7191534981
 20
168.2561680723
 10
130.3169553424
 20
167.0320199423
 10
129.8338707989
 20
165.8482663225
 10
129.2748547566
 20
164.7170539632
 10
128.6456444552
 20
163.6499908409
 10
127.952696265
 20
162.6580254438
 10
127.2031198326
 20
161.7513379691
 10
126.4046082749
 20
160.939232297
 10
125.5653558612
 20
160.2300409194
 10
124.6939724024
 20
159.6310416095
 10
123.7994002744
 20
159.1483801723
 10
122.8908195877
 20
158.7870099161
 10
121.9775533567
 20
158.5506392223
 10
121.0689726699
 20
158.441693507
 10
120.1744005419
 20
158.4612903363
 10
119.3030170831
 20
158.6092283767
 10
118.4637636816
 20
158.8839904821
 10
118.2042342545
 20
158.9978876028
  0
LWPOLYLINE
  5
12C
330
1F
100
AcDbEntity
  8
0
  6
Continuous
 62
     7
370
    25
100
AcDbPolyline
 90
       21
 70
   128
 43
0.0
 10
121.5729630381
 20
158.0213510292
 10
121.6364694484
 20
158.0052864638
 10
122.5078529072
 20
157.8573484234
 10
123.4024250352
 20
157.837751594
 10
124.311005722
 20
157.9466973093
 10
125.2242719529
 20
158.1830680032
 10
126.1328526397
 20
158.5444382593
 10
127.0274247677
 20
159.0270996966
 10
127.8988082265
 20
159.6260990064
 10
128.7380606402
 20
160.3352903841
 10
129.5365721979
 20
161.1473960561
 10
130.2861486303
 20
162.0540835309
 10
130.9790968205
 20
163.0460489279
 10
131.6083071219
 20
164.1131120502
 10
132.1673231642
 20
165.2443244095
 10
132.6504077077
 20
166.4280780293
 10
133.0526058634
 20
167.6522261594
 10
133.3697872402
 20
168.9042070825
 10
133.5986999453
 20
170.1711739132
 10
133.736994292
 20
171.4401261134
 10
133.7832504583
 20
172.6980420318
  0
LINE
  5
12D
330
1F
100
AcDbEntity
  8
0
  6
Continuous
 62
     7
370
    25
100
AcDbLine
 10
133.7832504583
 20
172.6980420318
 30
0.0
 11
131.449798093
 21
173.3019839448
 31
0.0
  0
LINE
  5
12E
330
1F
100
AcDbEntity
  8
0
  6
Continuous
 62
     7
370
    25
100
AcDbLine
 10
130.8487576914
 20
173.146423242
 30
0.0
 11
131.449798093
 21
173.3019839448
 31
0.0
  0
LWPOLYLINE
  5
12F
330
1F
100
AcDbEntity
  8
0
  6
Continuous
 62
     7
370
    25
100
AcDbPolyline
 90
       19
 70
   128
 43
0.0
 10
125.0350283226
 20
158.1236995289
 10
125.1394705181
 20
158.119456963
 10
126.0093959593
 20
158.1563956246
 10
126.8889578824
 20
158.3210745034
 10
127.7685204639
 20
158.6116905491
 10
128.6384459052
 20
159.0250584316
 10
129.48920375
 20
159.5566496305
 10
130.3114723008
 20
160.2006402732
 10
131.0962439859
 20
160.9499734902
 10
131.8349188725
 20
161.7964411912
 10
132.5194047658
 20
162.730767547
 10
133.1422021608
 20
163.7427173367
 10
133.6964885364
 20
164.8212027756
 10
134.1761894782
 20
165.9544076254
 10
134.576051118
 20
167.1299170414
 10
134.8916901836
 20
168.334850397
 10
135.1196506334
 20
169.5560075065
 10
135.2574326324
 20
170.7800084765
 10
135.3035294309
 20
171.9934434743
  0
LINE
  5
130
330
1F
100
AcDbEntity
  8
0
  6
Continuous
 62
     7
370
    25
100
AcDbLine
 10
135.3035294309
 20
171.9934434743
 30
0.0
 11
133.7804002776
 21
172.3876583073
 31
0.0
  0
LWPOLYLINE
  5
131
330
1F
100
AcDbEntity
  8
0
  6
Continuous
 62
     7
370
    25
100
AcDbPolyline
 90
        3
 70
   128
 43
0.0
 10
114.9977145321
 20
160.6011581396
 10
115.231590358
 20
160.5459971753
 10
116.1422945215
 20
160.4288483541
  0
LWPOLYLINE
  5
132
330
1F
100
AcDbEntity
  8
0
  6
Continuous
 62
     7
370
    25
100
AcDbPolyline
 90
       22
 70
   128
 43
0.0
 10
135.9045698324
 20
172.1490041771
 10
135.8583136662
 20
170.8910882586
 10
135.7200193195
 20
169.6221360584
 10
135.4911066144
 20
168.3551692277
 10
135.1739252376
 20
167.1031883046
 10
134.7717270818
 20
165.8790401746
 10
134.2886425384
 20
164.6952865547
 10
133.7296264961
 20
163.5640741954
 10
133.1004161946
 20
162.4970110731
 10
132.4074680045
 20
161.5050456761
 10
131.6578915721
 20
160.5983582013
 10
130.8593800144
 20
159.7862525293
 10
130.0201276007
 20
159.0770611516
 10
129.1487441419
 20
158.4780618418
 10
128.2541720139
 20
157.9954004045
 10
127.3455913271
 20
157.6340301484
 10
126.4323250962
 20
157.3976594546
 10
125.5237444094
 20
157.2887137392
 10
124.6291722814
 20
157.3083105686
 10
123.7577888226
 20
157.456248609
 10
122.9185354211
 20
157.7310107143
 10
122.6590059939
 20
157.844907835
  0
LINE
  5
133
330
1F
100
AcDbEntity
  8
0
  6
Continuous
 62
     7
370
    25
100
AcDbLine
 10
135.3035294309
 20
171.9934434743
 30
0.0
 11
135.9045698324
 21
172.1490041771
 31
0.0
  0
LWPOLYLINE
  5
134
330
1F
100
AcDbEntity
  8
0
  6
Continuous
 62
     7
370
    25
100
AcDbPolyline
 90
       21
 70
   128
 43
0.0
 10
126.0277347775
 20
156.8683712614
 10
126.0912411879
 20
156.852306696
 10
126.9626246467
 20
156.7043686556
 10
127.8571967747
 20
156.6847718262
 10
128.7657774614
 20
156.7937175416
 10
129.6790436924
 20
157.0300882354
 10
130.5876243792
 20
157.3914584916
 10
131.4821965072
 20
157.8741199288
 10
132.3535799659
 20
158.4731192386
 10
133.1928323796
 20
159.1823106163
 10
133.9913439373
 20
159.9944162884
 10
134.7409203698
 20
160.9011037631
 10
135.4338685599
 20
161.8930691602
 10
136.0630788613
 20
162.9601322824
 10
136.6220949037
 20
164.0913446418
 10
137.1051794471
 20
165.2750982616
 10
137.5073776028
 20
166.4992463916
 10
137.8245589796
 20
167.7512273147
 10
138.0534716848
 20
169.0181941454
 10
138.1917660315
 20
170.2871463457
 10
138.2380221977
 20
171.5450622641
  0
LINE
  5
135
330
1F
100
AcDbEntity
  8
0
  6
Continuous
 62
     7
370
    25
100
AcDbLine
 10
138.2380221977
 20
171.5450622641
 30
0.0
 11
135.9045698324
 21
172.1490041771
 31
0.0
  0
LWPOLYLINE
  5
136
330
1F
100
AcDbEntity
  8
0
  6
Continuous
 62
     7
370
    25
100
AcDbPolyline
 90
       19
 70
   128
 43
0.0
 10
129.4898026962
 20
156.9707190793
 10
129.5942448917
 20
156.9664765135
 10
130.464170333
 20
157.003415175
 10
131.343732256
 20
157.1680940539
 10
132.2232948376
 20
157.4587100995
 10
133.0932202788
 20
157.872077982
 10
133.9439781236
 20
158.4036691809
 10
134.7662466744
 20
159.0476598237
 10
135.5510183595
 20
159.7969930406
 10
136.2896932462
 20
160.6434607417
 10
136.9741791394
 20
161.5777870975
 10
137.5969765344
 20
162.5897368871
 10
138.1512629101
 20
163.6682223261
 10
138.6309638518
 20
164.8014271758
 10
139.0308254916
 20
165.9769365918
 10
139.3464645572
 20
167.1818699475
 10
139.574425007
 20
168.403027057
 10
139.7122070061
 20
169.627028027
 10
139.7583038045
 20
170.8404630247
  0
LINE
  5
137
330
1F
100
AcDbEntity
  8
0
  6
Continuous
 62
     7
370
    25
100
AcDbLine
 10
139.7583038045
 20
170.8404630247
 30
0.0
 11
138.2351720171
 21
171.2346785395
 31
0.0
  0
LWPOLYLINE
  5
138
330
1F
100
AcDbEntity
  8
0
  6
Continuous
 62
     7
370
    25
100
AcDbPolyline
 90
       22
 70
   128
 43
0.0
 10
140.3593442061
 20
170.9960237275
 10
140.3130880398
 20
169.7381078091
 10
140.1747936932
 20
168.4691556088
 10
139.945880988
 20
167.2021887782
 10
139.6286996112
 20
165.9502078551
 10
139.2265014555
 20
164.726059725
 10
138.743416912
 20
163.5423061052
 10
138.1844008697
 20
162.4110937459
 10
137.5551905683
 20
161.3440306236
 10
136.8622423781
 20
160.3520652265
 10
136.1126659457
 20
159.4453777518
 10
135.314154388
 20
158.6332720797
 10
134.4749019743
 20
157.9240807021
 10
133.6035185155
 20
157.3250813923
 10
132.7089463875
 20
156.842419955
 10
131.8003657007
 20
156.4810496989
 10
130.8870994698
 20
156.244679005
 10
129.978518783
 20
156.1357332897
 10
129.083946655
 20
156.1553301191
 10
128.2125631962
 20
156.3032681594
 10
127.3733097947
 20
156.5780302648
 10
127.1137803676
 20
156.6919273855
  0
ARC
  5
139
330
1F
100
AcDbEntity
  8
0
  6
Continuous
 62
     7
370
    25
100
AcDbCircle
 10
126.0514201759
 20
170.0547395381
 30
0.0
 40
16.64479260711199
100
AcDbArc
 50
308.6559468731
 51
1.1613032178
  0
SPLINE
  5
13A
330
1F
100
AcDbEntity
  8
0
  6
Continuous
 62
     7
370
    25
100
AcDbSpline
210
0.0
220
0.0
230
1.0
 70
     8
 71
     3
 72
    18
 73
    14
 74
     0
 42
0.000000001
 43
0.00000001
 40
0.0
 40
0.0
 40
0.0
 40
0.0
 40
0.0780528631100747
 40
0.1561176184410899
 40
0.2341805664632849
 40
0.3122272350996624
 40
0.3896255610132336
 40
0.4670058567661343
 40
0.5007339138450867
 40
0.6476585207120593
 40
0.7943967769059644
 40
0.9460347732633333
 40
1.0
 40
1.0
 40
1.0
 40
1.0
 10
130.9059009154923
 20
155.6221186138314
 30
0.0
 10
130.8406598212175
 20
155.6467772205898
 30
0.0
 10
130.7101676924625
 20
155.6960981911193
 30
0.0
 10
130.6728824060299
 20
155.7592074611356
 30
0.0
 10
130.7566457431941
 20
155.8266933807761
 30
0.0
 10
130.966337525016
 20
155.9049336944985
 30
0.0
 10
131.2984761163843
 20
156.0023699105334
 30
0.0
 10
131.6572656745199
 20
156.0983446456684
 30
0.0
 10
132.2270064198216
 20
156.2467756719081
 30
0.0
 10
133.1089791469558
 20
156.4707977001569
 30
0.0
 10
134.4974881722918
 20
156.7900820975012
 30
0.0
 10
135.6471214069507
 20
156.9915321055673
 30
0.0
 10
136.2818617303635
 20
157.0431033764732
 30
0.0
 10
136.4484637172214
 20
157.0566394255957
 30
0.0
  0
LINE
  5
13B
330
1F
100
AcDbEntity
  8
0
  6
Continuous
 62
     7
370
    25
100
AcDbLine
 10
130.482506517
 20
155.7153914937
 30
0.0
 11
130.9059009155
 21
155.6221186138
 31
0.0
  0
LINE
  5
13C
330
1F
100
AcDbEntity
  8
0
  6
Continuous
 62
     7
370
    25
100
AcDbLine
 10
142.6927939372
 20
170.3920824963
 30
0.0
 11
140.3593442061
 21
170.9960237275
 31
0.0
  0
LINE
  5
13D
330
1F
100
AcDbEntity
  8
0
  6
Continuous
 62
     7
370
    25
100
AcDbLine
 10
139.7583038045
 20
170.8404630247
 30
0.0
 11
140.3593442061
 21
170.9960237275
 31
0.0
  0
ARC
  5
13E
330
1F
100
AcDbEntity
  8
0
  6
Continuous
 62
     7
370
    25
100
AcDbCircle
 10
128.3186713254
 20
169.4882458603
 30
0.0
 40
15.89565027099992
100
AcDbArc
 50
311.7813042759
 51
0.7181713076
  0
LINE
  5
13F
330
1F
100
AcDbEntity
  8
0
  6
Continuous
 62
     7
370
    25
100
AcDbLine
 10
138.2026682358
 20
157.8179752657
 30
0.0
 11
138.9097711816
 21
157.6349635565
 31
0.0
  0
SPLINE
  5
140
330
1F
100
AcDbEntity
  8
0
  6
Continuous
 62
     7
370
    25
100
AcDbSpline
210
0.0
220
0.0
230
1.0
 70
     8
 71
     3
 72
     9
 73
     5
 74
     0
 42
0.000000001
 43
0.00000001
 40
0.0
 40
0.0
 40
0.0
 40
0.0
 40
0.2993093609964914
 40
1.0
 40
1.0
 40
1.0
 40
1.0
 10
137.4470299011993
 20
157.913302986507
 30
0.0
 10
137.5325659533203
 20
157.9143789849175
 30
0.0
 10
137.8183440253331
 20
157.917973922299
 30
0.0
 10
138.0443252835692
 20
157.8591750706507
 30
0.0
 10
138.2026682358054
 20
157.8179752657167
 30
0.0
  0
LINE
  5
141
330
1F
100
AcDbEntity
  8
0
  6
Continuous
 62
     7
370
    25
100
AcDbLine
 10
144.2130729098
 20
169.6874839388
 30
0.0
 11
142.6899437565
 21
170.0816987718
 31
0.0
  0
ARC
  5
142
330
1F
100
AcDbEntity
  8
0
  6
Continuous
 62
     7
370
    25
100
AcDbCircle
 10
127.9830057455
 20
169.5610554004
 30
0.0
 40
16.83346963119116
100
AcDbArc
 50
310.4744972939
 51
0.9598466322
  0
LINE
  5
143
330
1F
100
AcDbEntity
  8
0
  6
Continuous
 62
     7
370
    25
100
AcDbLine
 10
138.9097711816
 20
156.7559198319
 30
0.0
 11
138.9097711816
 21
157.6349635565
 31
0.0
  0
LINE
  5
144
330
1F
100
AcDbEntity
  8
0
  6
Continuous
 62
     7
370
    25
100
AcDbLine
 10
144.8141133114
 20
169.8430446416
 30
0.0
 11
144.2130729098
 21
169.6874839388
 31
0.0
  0
ARC
  5
145
330
1F
100
AcDbEntity
  8
0
  6
Continuous
 62
     7
370
    25
100
AcDbCircle
 10
128.902249585
 20
169.3231375877
 30
0.0
 40
16.83346963119111
100
AcDbArc
 50
310.4744972939
 51
0.9598466322
  0
LINE
  5
146
330
1F
100
AcDbEntity
  8
0
  6
Continuous
 62
     7
370
    25
100
AcDbLine
 10
138.9097711816
 20
156.7559198319
 30
0.0
 11
139.8290150211
 21
156.5180020191
 31
0.0
  0
LINE
  5
147
330
1F
100
AcDbEntity
  8
0
  6
Continuous
 62
     7
370
    25
100
AcDbLine
 10
145.7333571508
 20
169.6051268288
 30
0.0
 11
144.8141133114
 21
169.8430446416
 31
0.0
  0
LINE
  5
148
330
1F
100
AcDbEntity
  8
0
  6
Continuous
 62
     7
370
    25
100
AcDbLine
 10
97.0490530155
 20
181.894430531
 30
0.0
 11
96.3773007388
 21
181.7205682482
 31
0.0
  0
ARC
  5
149
330
1F
100
AcDbEntity
  8
0
  6
Continuous
 62
     7
370
    25
100
AcDbCircle
 10
82.5396668819
 20
181.7311113103
 30
0.0
 40
13.8376378733546
100
AcDbArc
 50
359.956345655
 51
5.8877126205
  0
LINE
  5
14A
330
1F
100
AcDbEntity
  8
0
  6
Continuous
 62
     7
370
    25
100
AcDbLine
 10
96.3043089827
 20
183.1505653436
 30
0.0
 11
95.7409043997
 21
183.0047455075
 31
0.0
  0
LINE
  5
14B
330
1F
100
AcDbEntity
  8
0
  6
Continuous
 62
     7
370
    25
100
AcDbLine
 10
95.7409043997
 20
183.0047455075
 30
0.0
 11
95.7409057168
 21
184.9599736255
 31
0.0
  0
LWPOLYLINE
  5
14C
330
1F
100
AcDbEntity
  8
0
  6
Continuous
 62
     7
370
    25
100
AcDbPolyline
 90
       15
 70
   128
 43
0.0
 10
86.2156362938
 20
188.8325516535
 10
86.9596394641
 20
189.3125665624
 10
87.7917670847
 20
189.7209644477
 10
88.6344814669
 20
190.0036879254
 10
89.4771951906
 20
190.1571853407
 10
90.3093228112
 20
190.1795284077
 10
91.1204119105
 20
190.0704362328
 10
91.9002721706
 20
189.8312799339
 10
92.6391084007
 20
189.4650621962
 10
93.3276377572
 20
188.9763846392
 10
93.9572115752
 20
188.3713862419
 10
94.5199233693
 20
187.6576664933
 10
95.0087003714
 20
186.8441907882
 10
95.417406264
 20
185.9411784799
 10
95.7409057168
 20
184.9599736255
  0
LWPOLYLINE
  5
14D
330
1F
100
AcDbEntity
  8
0
  6
Continuous
 62
     7
370
    25
100
AcDbPolyline
 90
       21
 70
   128
 43
0.0
 10
85.0036470301
 20
189.1462369894
 10
85.2119673777
 20
189.331531071
 10
86.0342362579
 20
189.975521799
 10
86.8849941027
 20
190.5071129979
 10
87.7549195439
 20
190.9204808804
 10
88.6344814669
 20
191.2110967555
 10
89.5140440485
 20
191.3757758049
 10
90.3839694897
 20
191.4127144664
 10
91.2347273345
 20
191.3215079335
 10
92.0569958854
 20
191.1031548131
 10
92.8417675705
 20
190.7600493124
 10
93.5804424571
 20
190.295947869
 10
94.2649283503
 20
189.7159374837
 10
94.8877257453
 20
189.0263713482
 10
95.442012121
 20
188.2348056502
 10
95.9217130628
 20
187.3499122798
 10
96.3215747026
 20
186.3813864794
 10
96.6372137682
 20
185.3398399268
 10
96.8651742179
 20
184.2366838292
 10
97.002956217
 20
183.08400407
 10
97.0490530155
 20
181.894430531
  0
ARC
  5
14E
330
1F
100
AcDbEntity
  8
0
  6
Continuous
 62
     7
370
    25
100
AcDbCircle
 10
97.2780662975
 20
179.3826913639
 30
0.0
 40
11.30665722751158
100
AcDbArc
 50
357.6106800493
 51
35.9868740205
  0
LINE
  5
14F
330
1F
100
AcDbEntity
  8
0
  6
Continuous
 62
     7
370
    25
100
AcDbLine
 10
96.3319617193
 20
182.8517686164
 30
0.0
 11
95.7409043997
 21
183.0047455075
 31
0.0
  0
ELLIPSE
  5
150
330
1F
100
AcDbEntity
  8
0
  6
Continuous
 62
     7
370
    25
100
AcDbEllipse
 10
89.6215996019
 20
179.4610942977
 30
0.0
 11
2.552560413370458
 21
10.33994837169277
 31
0.0
210
0.0
220
0.0
230
1.0
 40
0.6852254854
 41
0.0579722966697174
 42
0.6379946959750448
  0
ELLIPSE
  5
151
330
1F
100
AcDbEntity
  8
0
  6
Continuous
 62
     7
370
    25
100
AcDbEllipse
 10
89.6215996019
 20
179.4610942977
 30
0.0
 11
2.169077158779587
 21
8.786528898011227
 31
0.0
210
0.0
220
0.0
230
1.0
 40
0.6852254854
 41
0.223502314762892
 42
0.4241616195027532
  0
ELLIPSE
  5
152
330
1F
100
AcDbEntity
  8
0
  6
Continuous
 62
     7
370
    25
100
AcDbEllipse
 10
90.4757908929
 20
179.2400133234
 30
0.0
 11
2.364845714444883
 21
8.735870160762545
 31
0.0
210
0.0
220
0.0
230
1.0
 40
0.6807089529
 41
0.389997928368183
 42
0.4394225507451834
  0
LWPOLYLINE
  5
153
330
1F
100
AcDbEntity
  8
0
  6
Continuous
 62
     7
370
    25
100
AcDbPolyline
 90
       13
 70
   128
 43
0.0
 10
111.5093864926
 20
178.4629422342
 10
111.4631303264
 20
179.6969141991
 10
111.3248359797
 20
180.8942799778
 10
111.0959232746
 20
182.0427528729
 10
110.7787418977
 20
183.1305486339
 10
110.376543742
 20
184.1465036788
 10
109.8934591986
 20
185.0801943381
 10
109.3344431563
 20
185.9220387009
 10
108.7052328548
 20
186.6633986044
 10
108.0122846647
 20
187.2966676237
 10
107.2627082323
 20
187.8153457855
 10
106.4641966746
 20
188.2141114598
 10
105.6884503419
 20
188.4728091702
  0
LWPOLYLINE
  5
154
330
1F
100
AcDbEntity
  8
0
  6
Continuous
 62
     7
370
    25
100
AcDbPolyline
 90
       15
 70
   128
 43
0.0
 10
102.0280255247
 20
189.2652545263
 10
102.4201084368
 20
189.2407537742
 10
103.2914918956
 20
189.0928157338
 10
104.1307443093
 20
188.8180533728
 10
104.929255867
 20
188.4192876984
 10
105.6788322994
 20
187.9006095366
 10
106.3717804896
 20
187.2673405173
 10
107.000990791
 20
186.5259806139
 10
107.5600068333
 20
185.6841362511
 10
108.0430913768
 20
184.7504455917
 10
108.4452895325
 20
183.7344905469
 10
108.7624709093
 20
182.6466947859
 10
108.9913836145
 20
181.4982218908
 10
109.1296779611
 20
180.300856112
 10
109.1759341274
 20
179.0668841471
  0
LWPOLYLINE
  5
155
330
1F
100
AcDbEntity
  8
0
  6
Continuous
 62
     7
370
    25
100
AcDbPolyline
 90
       12
 70
   128
 43
0.0
 10
113.0296667824
 20
177.7583433357
 10
112.9835699839
 20
178.9479168747
 10
112.8457879848
 20
180.1005966339
 10
112.6178275351
 20
181.2037527315
 10
112.3021884695
 20
182.2452992841
 10
111.9023268297
 20
183.2138250845
 10
111.4226258879
 20
184.0987184549
 10
110.8683395122
 20
184.8902841529
 10
110.2455421172
 20
185.5798502884
 10
109.561056224
 20
186.1598606736
 10
108.8223813374
 20
186.6239621171
 10
108.6661548237
 20
186.7037253415
  0
LWPOLYLINE
  5
156
330
1F
100
AcDbEntity
  8
0
  6
Continuous
 62
     7
370
    25
100
AcDbPolyline
 90
       15
 70
   128
 43
0.0
 10
106.7237270895
 20
188.1002146423
 10
106.8748814933
 20
188.0877736656
 10
107.7462649521
 20
187.9398356252
 10
108.5855173658
 20
187.6650732641
 10
109.3840289235
 20
187.2663075898
 10
110.1336053559
 20
186.747629428
 10
110.8265535461
 20
186.1143604087
 10
111.4557638475
 20
185.3730005052
 10
112.0147798898
 20
184.5311561424
 10
112.4978644333
 20
183.5974654831
 10
112.900062589
 20
182.5815104383
 10
113.2172439658
 20
181.4937146773
 10
113.446156671
 20
180.3452417821
 10
113.5844510177
 20
179.1478760034
 10
113.6307071839
 20
177.9139040385
  0
LWPOLYLINE
  5
157
330
1F
100
AcDbEntity
  8
0
  6
Continuous
 62
     7
370
    25
100
AcDbPolyline
 90
       13
 70
   128
 43
0.0
 10
115.9641595492
 20
177.3099621255
 10
115.9179033829
 20
178.5439340904
 10
115.7796090363
 20
179.7412998692
 10
115.5506963311
 20
180.8897727643
 10
115.2335149543
 20
181.9775685253
 10
114.8313167986
 20
182.9935235701
 10
114.3482322551
 20
183.9272142294
 10
113.7892162128
 20
184.7690585922
 10
113.1600059114
 20
185.5104184957
 10
112.4670577212
 20
186.143687515
 10
111.7174812888
 20
186.6623656768
 10
110.9189697311
 20
187.0611313512
 10
110.1432233985
 20
187.3198290616
  0
LWPOLYLINE
  5
158
330
1F
100
AcDbEntity
  8
0
  6
Continuous
 62
     7
370
    25
100
AcDbPolyline
 90
       12
 70
   128
 43
0.0
 10
117.4844385218
 20
176.6053635679
 10
117.4383417233
 20
177.794937107
 10
117.3005597243
 20
178.9476168662
 10
117.0725992745
 20
180.0507729638
 10
116.7569602089
 20
181.0923195163
 10
116.3570985691
 20
182.0608453167
 10
115.8773976273
 20
182.9457386871
 10
115.3231112517
 20
183.7373043851
 10
114.7003138567
 20
184.4268705206
 10
114.0158279634
 20
185.0068809059
 10
113.2771530768
 20
185.4709823494
 10
113.1209265632
 20
185.5507455738
  0
LWPOLYLINE
  5
159
330
1F
100
AcDbEntity
  8
0
  6
Continuous
 62
     7
370
    25
100
AcDbPolyline
 90
       13
 70
   128
 43
0.0
 10
120.4189326057
 20
176.1569820169
 10
120.3726764395
 20
177.3909539818
 10
120.2343820928
 20
178.5883197605
 10
120.0054693877
 20
179.7367926557
 10
119.6882880108
 20
180.8245884166
 10
119.2860898551
 20
181.8405434615
 10
118.8030053117
 20
182.7742341208
 10
118.2439892693
 20
183.6160784836
 10
117.6147789679
 20
184.3574383871
 10
116.9218307778
 20
184.9907074064
 10
116.1722543453
 20
185.5093855682
 10
115.3737427876
 20
185.9081512425
 10
114.597996455
 20
186.1668489529
  0
LWPOLYLINE
  5
15A
330
1F
100
AcDbEntity
  8
0
  6
Continuous
 62
     7
370
    25
100
AcDbPolyline
 90
       15
 70
   128
 43
0.0
 10
111.178498829
 20
186.9472348745
 10
111.3296532328
 20
186.9347938978
 10
112.2010366916
 20
186.7868558574
 10
113.0402891053
 20
186.5120934964
 10
113.838800663
 20
186.113327822
 10
114.5883770954
 20
185.5946496603
 10
115.2813252856
 20
184.961380641
 10
115.910535587
 20
184.2200207375
 10
116.4695516293
 20
183.3781763747
 10
116.9526361728
 20
182.4444857153
 10
117.3548343285
 20
181.4285306705
 10
117.6720157053
 20
180.3407349095
 10
117.9009284104
 20
179.1922620144
 10
118.0392227571
 20
177.9948962356
 10
118.0854789234
 20
176.7609242707
  0
LWPOLYLINE
  5
15B
330
1F
100
AcDbEntity
  8
0
  6
Continuous
 62
     7
370
    25
100
AcDbPolyline
 90
       12
 70
   128
 43
0.0
 10
121.9392115784
 20
175.4523834593
 10
121.8931147799
 20
176.6419569983
 10
121.7553327808
 20
177.7946367575
 10
121.527372331
 20
178.8977928551
 10
121.2117332655
 20
179.9393394077
 10
120.8118716257
 20
180.9078652081
 10
120.3321706839
 20
181.7927585785
 10
119.7778843082
 20
182.5843242765
 10
119.1550869132
 20
183.273890412
 10
118.47060102
 20
183.8539007973
 10
117.7319261334
 20
184.3180022407
 10
117.5756996197
 20
184.3977654651
  0
LWPOLYLINE
  5
15C
330
1F
100
AcDbEntity
  8
0
  6
Continuous
 62
     7
370
    25
100
AcDbPolyline
 90
       13
 70
   128
 43
0.0
 10
124.8737043452
 20
175.0040022491
 10
124.8274481789
 20
176.237974214
 10
124.6891538323
 20
177.4353399928
 10
124.4602411271
 20
178.5838128879
 10
124.1430597503
 20
179.6716086489
 10
123.7408615946
 20
180.6875636937
 10
123.2577770511
 20
181.621254353
 10
122.6987610088
 20
182.4630987158
 10
122.0695507074
 20
183.2044586193
 10
121.3766025172
 20
183.8377276386
 10
120.6270260848
 20
184.3564058004
 10
119.8285145271
 20
184.7551714748
 10
119.0527681945
 20
185.0138691852
  0
LWPOLYLINE
  5
15D
330
1F
100
AcDbEntity
  8
0
  6
Continuous
 62
     7
370
    25
100
AcDbPolyline
 90
       15
 70
   128
 43
0.0
 10
115.6332718855
 20
185.7942547659
 10
115.7844262893
 20
185.7818137892
 10
116.6558097481
 20
185.6338757488
 10
117.4950621618
 20
185.3591133877
 10
118.2935737195
 20
184.9603477134
 10
119.0431501519
 20
184.4416695516
 10
119.7360983421
 20
183.8084005323
 10
120.3653086435
 20
183.0670406288
 10
120.9243246858
 20
182.225196266
 10
121.4074092293
 20
181.2915056067
 10
121.809607385
 20
180.2755505619
 10
122.1267887618
 20
179.1877548009
 10
122.355701467
 20
178.0392819057
 10
122.4939958137
 20
176.841916127
 10
122.5402519799
 20
175.6079441621
  0
LWPOLYLINE
  5
15E
330
1F
100
AcDbEntity
  8
0
  6
Continuous
 62
     7
370
    25
100
AcDbPolyline
 90
       12
 70
   128
 43
0.0
 10
126.3939833178
 20
174.2994036916
 10
126.3478865193
 20
175.4889772306
 10
126.2101045203
 20
176.6416569898
 10
125.9821440705
 20
177.7448130874
 10
125.6665050049
 20
178.7863596399
 10
125.2666433651
 20
179.7548854403
 10
124.7869424233
 20
180.6397788107
 10
124.2326560477
 20
181.4313445087
 10
123.6098586527
 20
182.1209106442
 10
122.9253727594
 20
182.7009210295
 10
122.1866978728
 20
183.165022473
 10
122.0304713592
 20
183.2447856974
  0
LWPOLYLINE
  5
15F
330
1F
100
AcDbEntity
  8
0
  6
Continuous
 62
     7
370
    25
100
AcDbPolyline
 90
       13
 70
   128
 43
0.0
 10
129.3284760846
 20
173.8510224814
 10
129.2822199184
 20
175.0849944463
 10
129.1439255717
 20
176.282360225
 10
128.9150128666
 20
177.4308331201
 10
128.5978314897
 20
178.5186288811
 10
128.195633334
 20
179.534583926
 10
127.7125487906
 20
180.4682745853
 10
127.1535327483
 20
181.3101189481
 10
126.5243224468
 20
182.0514788516
 10
125.8313742567
 20
182.6847478709
 10
125.0817978243
 20
183.2034260327
 10
124.2832862665
 20
183.602191707
 10
123.5075399339
 20
183.8608894174
  0
LWPOLYLINE
  5
160
330
1F
100
AcDbEntity
  8
0
  6
Continuous
 62
     7
370
    25
100
AcDbPolyline
 90
       15
 70
   128
 43
0.0
 10
120.088043625
 20
184.6412749982
 10
120.2391980288
 20
184.6288340214
 10
121.1105814876
 20
184.480895981
 10
121.9498339013
 20
184.20613362
 10
122.748345459
 20
183.8073679456
 10
123.4979218914
 20
183.2886897839
 10
124.1908700816
 20
182.6554207646
 10
124.820080383
 20
181.9140608611
 10
125.3790964253
 20
181.0722164983
 10
125.8621809687
 20
180.1385258389
 10
126.2643791245
 20
179.1225707941
 10
126.5815605013
 20
178.0347750331
 10
126.8104732064
 20
176.886302138
 10
126.9487675531
 20
175.6889363592
 10
126.9950237194
 20
174.4549643943
  0
LWPOLYLINE
  5
161
330
1F
100
AcDbEntity
  8
0
  6
Continuous
 62
     7
370
    25
100
AcDbPolyline
 90
       12
 70
   128
 43
0.0
 10
130.8487576914
 20
173.146423242
 10
130.802660893
 20
174.3359967811
 10
130.6648788939
 20
175.4886765402
 10
130.4369184441
 20
176.5918326378
 10
130.1212793785
 20
177.6333791904
 10
129.7214177387
 20
178.6019049908
 10
129.241716797
 20
179.4867983612
 10
128.6874304213
 20
180.2783640592
 10
128.0646330263
 20
180.9679301947
 10
127.3801471331
 20
181.54794058
 10
126.6414722464
 20
182.0120420234
 10
126.4852457328
 20
182.0918052479
  0
LWPOLYLINE
  5
162
330
1F
100
AcDbEntity
  8
0
  6
Continuous
 62
     7
370
    25
100
AcDbPolyline
 90
       15
 70
   128
 43
0.0
 10
124.5428179986
 20
183.4882945486
 10
124.6939724024
 20
183.4758535719
 10
125.5653558612
 20
183.3279155315
 10
126.4046082749
 20
183.0531531704
 10
127.2031198326
 20
182.6543874961
 10
127.952696265
 20
182.1357093343
 10
128.6456444552
 20
181.502440315
 10
129.2748547566
 20
180.7610804115
 10
129.8338707989
 20
179.9192360487
 10
130.3169553424
 20
178.9855453894
 10
130.7191534981
 20
177.9695903446
 10
131.0363348749
 20
176.8817945836
 10
131.2652475801
 20
175.7333216885
 10
131.4035419268
 20
174.5359559097
 10
131.449798093
 20
173.3019839448
  0
LWPOLYLINE
  5
163
330
1F
100
AcDbEntity
  8
0
  6
Continuous
 62
     7
370
    25
100
AcDbPolyline
 90
       13
 70
   128
 43
0.0
 10
133.7832504583
 20
172.6980420318
 10
133.736994292
 20
173.9320139967
 10
133.5986999453
 20
175.1293797755
 10
133.3697872402
 20
176.2778526706
 10
133.0526058634
 20
177.3656484316
 10
132.6504077077
 20
178.3816034764
 10
132.1673231642
 20
179.3152941358
 10
131.6083071219
 20
180.1571384986
 10
130.9790968205
 20
180.8984984021
 10
130.2861486303
 20
181.5317674214
 10
129.5365721979
 20
182.0504455831
 10
128.7380606402
 20
182.4492112575
 10
127.9623143076
 20
182.7079089679
  0
LWPOLYLINE
  5
164
330
1F
100
AcDbEntity
  8
0
  6
Continuous
 62
     7
370
    25
100
AcDbPolyline
 90
       12
 70
   128
 43
0.0
 10
135.3035294309
 20
171.9934434743
 10
135.2574326324
 20
173.1830170133
 10
135.1196506334
 20
174.3356967725
 10
134.8916901836
 20
175.4388528701
 10
134.576051118
 20
176.4803994226
 10
134.1761894782
 20
177.448925223
 10
133.6964885364
 20
178.3338185934
 10
133.1422021608
 20
179.1253842915
 10
132.5194047658
 20
179.814950427
 10
131.8349188725
 20
180.3949608122
 10
131.0962439859
 20
180.8590622557
 10
130.9400174723
 20
180.9388254801
  0
LWPOLYLINE
  5
165
330
1F
100
AcDbEntity
  8
0
  6
Continuous
 62
     7
370
    25
100
AcDbPolyline
 90
       15
 70
   128
 43
0.0
 10
128.9975897381
 20
182.3353147809
 10
129.1487441419
 20
182.3228738041
 10
130.0201276007
 20
182.1749357637
 10
130.8593800144
 20
181.9001734027
 10
131.6578915721
 20
181.5014077284
 10
132.4074680045
 20
180.9827295666
 10
133.1004161946
 20
180.3494605473
 10
133.7296264961
 20
179.6081006438
 10
134.2886425384
 20
178.766256281
 10
134.7717270818
 20
177.8325656216
 10
135.1739252376
 20
176.8166105768
 10
135.4911066144
 20
175.7288148158
 10
135.7200193195
 20
174.5803419207
 10
135.8583136662
 20
173.3829761419
 10
135.9045698324
 20
172.1490041771
  0
LWPOLYLINE
  5
166
330
1F
100
AcDbEntity
  8
0
  6
Continuous
 62
     7
370
    25
100
AcDbPolyline
 90
       13
 70
   128
 43
0.0
 10
138.2380221977
 20
171.5450622641
 10
138.1917660315
 20
172.779034229
 10
138.0534716848
 20
173.9764000077
 10
137.8245589796
 20
175.1248729029
 10
137.5073776028
 20
176.2126686638
 10
137.1051794471
 20
177.2286237087
 10
136.6220949037
 20
178.162314368
 10
136.0630788613
 20
179.0041587308
 10
135.4338685599
 20
179.7455186343
 10
134.7409203698
 20
180.3787876536
 10
133.9913439373
 20
180.8974658154
 10
133.1928323796
 20
181.2962314897
 10
132.417086047
 20
181.5549292001
  0
LWPOLYLINE
  5
167
330
1F
100
AcDbEntity
  8
0
  6
Continuous
 62
     7
370
    25
100
AcDbPolyline
 90
       12
 70
   128
 43
0.0
 10
139.7583038045
 20
170.8404630247
 10
139.7122070061
 20
172.0300365638
 10
139.574425007
 20
173.1827163229
 10
139.3464645572
 20
174.2858724206
 10
139.0308254916
 20
175.3274189731
 10
138.6309638518
 20
176.2959447735
 10
138.1512629101
 20
177.1808381439
 10
137.5969765344
 20
177.9724038419
 10
136.9741791394
 20
178.6619699774
 10
136.2896932462
 20
179.2419803627
 10
135.5510183595
 20
179.7060818062
 10
135.3947918459
 20
179.7858450306
  0
LWPOLYLINE
  5
168
330
1F
100
AcDbEntity
  8
0
  6
Continuous
 62
     7
370
    25
100
AcDbPolyline
 90
       15
 70
   128
 43
0.0
 10
133.4523641117
 20
181.1823343313
 10
133.6035185155
 20
181.1698933546
 10
134.4749019743
 20
181.0219553142
 10
135.314154388
 20
180.7471929532
 10
136.1126659457
 20
180.3484272788
 10
136.8622423781
 20
179.829749117
 10
137.5551905683
 20
179.1964800977
 10
138.1844008697
 20
178.4551201942
 10
138.743416912
 20
177.6132758314
 10
139.2265014555
 20
176.6795851721
 10
139.6286996112
 20
175.6636301273
 10
139.945880988
 20
174.5758343663
 10
140.1747936932
 20
173.4273614712
 10
140.3130880398
 20
172.2299956924
 10
140.3593442061
 20
170.9960237275
  0
LWPOLYLINE
  5
169
330
1F
100
AcDbEntity
  8
0
  6
Continuous
 62
     7
370
    25
100
AcDbPolyline
 90
       13
 70
   128
 43
0.0
 10
142.6927939372
 20
170.3920824963
 10
142.6409361913
 20
171.6976771173
 10
142.4859622294
 20
172.9614094883
 10
142.2296514385
 20
174.1687409715
 10
141.8749554152
 20
175.3057831111
 10
141.4259545013
 20
176.3594565176
 10
140.8878116858
 20
177.3176378275
 10
140.2667186039
 20
178.1693060778
 10
139.5698204638
 20
178.9046627122
 10
138.8051343862
 20
179.5152480829
 10
137.9814585258
 20
179.9940402732
 10
137.1082653867
 20
180.3355286895
 10
136.8718577865
 20
180.4019494324
  0
ELLIPSE
  5
16A
330
1F
100
AcDbEntity
  8
0
  6
Continuous
 62
     7
370
    25
100
AcDbEllipse
 10
136.7177428057
 20
167.2717154856
 30
0.0
 11
3.139371691108208
 21
12.35753136607445
 31
0.0
210
0.0
220
0.0
230
1.0
 40
0.6839088507
 41
3.785239257583791
 42
5.071543695790798
  0
LWPOLYLINE
  5
16B
330
1F
100
AcDbEntity
  8
0
  6
Continuous
 62
     7
370
    25
100
AcDbPolyline
 90
       13
 70
   128
 43
0.0
 10
138.1407762473
 20
180.0085190015
 10
139.0739404006
 20
179.8314026415
 10
139.9682293544
 20
179.5080404303
 10
140.8130273714
 20
179.0422707004
 10
141.5983100871
 20
178.4396213403
 10
142.3147551453
 20
177.7072457711
 10
142.9538594194
 20
176.853836339
 10
143.5080377937
 20
175.8895216909
 10
143.9707127258
 20
174.8257473696
 10
144.3363932715
 20
173.6751392891
 10
144.6007383053
 20
172.4513532234
 10
144.7606105213
 20
171.1689146001
 10
144.8141133114
 20
169.8430446416
  0
LWPOLYLINE
  5
16C
330
1F
100
AcDbEntity
  8
0
  6
Continuous
 62
     7
370
    25
100
AcDbPolyline
 90
       29
 70
   128
 43
0.0
 10
141.3266321601
 20
179.2489689828
 10
141.7418833265
 20
179.1252037626
 10
142.5572285989
 20
178.780920047
 10
143.3273832301
 20
178.3153675514
 10
144.0444828816
 20
177.7332991302
 10
144.7012032213
 20
177.0406599204
 10
145.2908376319
 20
176.2445215432
 10
145.8073670168
 20
175.3530160596
 10
146.2455151172
 20
174.3752459352
 10
146.6008077818
 20
173.3211972772
 10
146.8696164303
 20
172.2016336869
 10
147.0491949322
 20
171.0279875093
 10
147.1377125337
 20
169.8122448862
 10
147.1342630776
 20
168.5668205136
 10
147.0388821252
 20
167.3044326448
 10
146.8525430054
 20
166.037972752
 10
146.5771502289
 20
164.7803738313
 10
146.2155157807
 20
163.5444793362
 10
145.7713314613
 20
162.3429088398
 10
145.2491333253
 20
161.1879336836
 10
144.6542555833
 20
160.0913476499
 10
143.9927713326
 20
159.0643499682
 10
143.27143724
 20
158.1174279956
 10
142.4976184672
 20
157.2602514252
 10
141.6792182068
 20
156.5015739855
 10
140.8245933886
 20
155.8491432546
 10
139.9424710445
 20
155.3096214404
 10
139.0418600634
 20
154.8885193607
 10
138.1319563607
 20
154.590135916
  0
SPLINE
  5
16D
330
1F
100
AcDbEntity
  8
0
  6
Continuous
 62
     7
370
    25
100
AcDbSpline
210
0.0
220
0.0
230
1.0
 70
     8
 71
     3
 72
     9
 73
     5
 74
     0
 42
0.000000001
 43
0.00000001
 40
0.0
 40
0.0
 40
0.0
 40
0.0
 40
0.1747696396606374
 40
1.0
 40
1.0
 40
1.0
 40
1.0
 10
139.3659699869997
 20
155.7154252481443
 30
0.0
 10
139.369371372097
 20
155.737946490808
 30
0.0
 10
139.3888334772076
 20
155.8668089334353
 30
0.0
 10
139.328306906501
 20
155.9936333428837
 30
0.0
 10
139.2783585427467
 20
156.0982926959927
 30
0.0
  0
LINE
  5
16E
330
1F
100
AcDbEntity
  8
0
  6
Continuous
 62
     7
370
    25
100
AcDbLine
 10
139.2783585427
 20
156.098292696
 30
0.0
 11
139.2778369755
 21
156.6606574559
 31
0.0
  0
LWPOLYLINE
  5
16F
330
1F
100
AcDbEntity
  8
0
  6
Continuous
 62
     7
370
    25
100
AcDbPolyline
 90
       11
 70
   128
 43
0.0
 10
144.2130729098
 20
169.6874839388
 10
144.1645961315
 20
170.9069915201
 10
144.0197242423
 20
172.0873542541
 10
143.780127311
 20
173.2149724921
 10
143.4485646392
 20
174.2768528013
 10
143.0288584192
 20
175.2607611612
 10
142.5258423677
 20
176.1553602376
 10
141.9453143105
 20
176.9503426192
 10
141.2939611085
 20
177.6365481246
 10
140.5792901692
 20
178.2060706688
 10
139.8495609512
 20
178.6328659446
  0
LWPOLYLINE
  5
170
330
1F
100
AcDbEntity
  8
0
  6
Continuous
 62
     7
370
    25
100
AcDbPolyline
 90
       36
 70
   128
 43
0.0
 10
138.1319563607
 20
154.590135916
 10
137.5470614949
 20
154.4637533273
 10
136.8843773761
 20
154.3664315872
 10
136.1652013338
 20
154.3012993634
 10
135.4126476217
 20
154.2704502177
 10
134.6509035917
 20
154.2748755369
 10
133.9044539286
 20
154.3144328299
 10
133.1972943479
 20
154.3878494775
 10
132.5521466109
 20
154.49276773
 10
131.9897489425
 20
154.6258146737
 10
131.5281744383
 20
154.7827148948
 10
131.1822630695
 20
154.9584243629
 10
130.9631320552
 20
155.1472955059
 10
130.8778228826
 20
155.3432585624
 10
130.9290780602
 20
155.5400146941
 10
131.1152476048
 20
155.73124086
 10
131.4303539078
 20
155.9107893204
 10
131.8642616402
 20
156.0728911472
 10
132.4030307316
 20
156.212334849
 10
133.0293440957
 20
156.3246384339
 10
133.7230660757
 20
156.4061939464
 10
134.4619069155
 20
156.4543780849
 10
135.2221142319
 20
156.4676439011
 10
135.9792573407
 20
156.4455642625
 10
136.7089997296
 20
156.3888490678
 10
137.3878886531
 20
156.2993205324
 10
137.9941045559
 20
156.17985626
 10
138.508158472
 20
156.0342970325
 10
138.9135314708
 20
155.8673205112
 10
139.197191615
 20
155.6842941438
 10
139.3500292586
 20
155.4910987548
 10
139.3671277082
 20
155.2939449776
 10
139.2479351036
 20
155.099169574
 10
138.9962835151
 20
154.9130331175
 10
138.6202611865
 20
154.7415178466
 10
138.1319563607
 20
154.590135916
  0
LINE
  5
171
330
1F
100
AcDbEntity
  8
0
  6
Continuous
 62
     7
370
    25
100
AcDbLine
 10
138.1407762473
 20
180.0085190015
 30
0.0
 11
138.1407762473
 21
179.9141575625
 31
0.0
  0
LINE
  5
172
330
1F
100
AcDbEntity
  8
0
  6
Continuous
 62
     7
370
    25
100
AcDbLine
 10
138.1319563607
 20
154.590135916
 30
0.0
 11
137.6948362483
 21
154.4914851808
 31
0.0
  0
ARC
  5
173
330
1F
100
AcDbEntity
  8
0
  6
Continuous
 62
     7
370
    25
100
AcDbCircle
 10
100.7718544175
 20
160.1616360279
 30
0.0
 40
3.008813749155885
100
AcDbArc
 50
320.8980274178
 51
61.1537197092
  0
LWPOLYLINE
  5
174
330
1F
100
AcDbEntity
  8
0
  6
Continuous
 62
     7
370
    25
100
AcDbPolyline
 90
       14
 70
   128
 43
0.0
 10
101.4624711233
 20
158.2185798149
 10
101.1050753968
 20
158.5111239356
 10
100.7646286303
 20
158.9264651686
 10
100.4886020047
 20
159.4235644198
 10
100.2918766502
 20
159.9756216659
 10
100.1850577675
 20
160.5528738371
 10
100.1739036699
 20
161.1242017246
 10
100.2590165963
 20
161.658807673
 10
100.43580715
 20
162.127865634
 10
100.6947448749
 20
162.5060935635
 10
101.0218706031
 20
162.7730997395
 10
101.3995485126
 20
162.9144871219
 10
101.8074180536
 20
162.9226361042
 10
102.2234907543
 20
162.7971079254
  0
LINE
  5
175
330
1F
100
AcDbEntity
  8
0
  6
Continuous
 62
     7
370
    25
100
AcDbLine
 10
103.4752686187
 20
160.3101081084
 30
0.0
 11
103.5190203402
 21
160.2889234751
 31
0.0
  0
SPLINE
  5
176
330
1F
100
AcDbEntity
  8
0
  6
Continuous
 62
     7
370
    25
100
AcDbSpline
210
0.0
220
0.0
230
1.0
 70
     8
 71
     3
 72
    11
 73
     7
 74
     0
 42
0.000000001
 43
0.00000001
 40
0.0
 40
0.0
 40
0.0
 40
0.0
 40
0.2455294480879273
 40
0.499999978542916
 40
0.7544711343450907
 40
1.0
 40
1.0
 40
1.0
 40
1.0
 10
102.620772875284
 20
162.1078057709346
 30
0.0
 10
102.7307251680507
 20
162.0019205635506
 30
0.0
 10
102.9546337234287
 20
161.7862942839646
 30
0.0
 10
103.2179282947204
 20
161.3368029573217
 30
0.0
 10
103.4080925665501
 20
160.8322776743437
 30
0.0
 10
103.4531420920535
 20
160.4820511531499
 30
0.0
 10
103.4752640088944
 20
160.3100697195885
 30
0.0
  0
LINE
  5
177
330
1F
100
AcDbEntity
  8
0
  6
Continuous
 62
     7
370
    25
100
AcDbLine
 10
102.6144080426
 20
162.163412388
 30
0.0
 11
102.6204021147
 21
162.1075827132
 31
0.0
  0
LINE
  5
178
330
1F
100
AcDbEntity
  8
0
  6
Continuous
 62
     7
370
    25
100
AcDbLine
 10
102.2773139262
 20
162.3281232217
 30
0.0
 11
102.6141176245
 21
162.1600339169
 31
0.0
  0
LINE
  5
179
330
1F
100
AcDbEntity
  8
0
  6
Continuous
 62
     7
370
    25
100
AcDbLine
 10
101.9162040087
 20
162.4825467567
 30
0.0
 11
102.2773139262
 21
162.3281232217
 31
0.0
  0
LINE
  5
17A
330
1F
100
AcDbEntity
  8
0
  6
Continuous
 62
     7
370
    25
100
AcDbLine
 10
101.9212678867
 20
162.4301115714
 30
0.0
 11
101.9266379879
 21
162.4896260644
 31
0.0
  0
SPLINE
  5
17B
330
1F
100
AcDbEntity
  8
0
  6
Continuous
 62
     7
370
    25
100
AcDbSpline
210
0.0
220
0.0
230
1.0
 70
     8
 71
     3
 72
    11
 73
     7
 74
     0
 42
0.000000001
 43
0.00000001
 40
0.0
 40
0.0
 40
0.0
 40
0.0
 40
0.245529269926939
 40
0.5000001939535857
 40
0.7544708771570113
 40
1.0
 40
1.0
 40
1.0
 40
1.0
 10
100.7671623803089
 20
161.5615531635808
 30
0.0
 10
100.8238431163636
 20
161.6970807072
 30
0.0
 10
100.9392687803962
 20
161.973071419492
 30
0.0
 10
101.2184329067315
 20
162.2604859526349
 30
0.0
 10
101.5517413549741
 20
162.433988165365
 30
0.0
 10
101.799589566208
 20
162.4313783007555
 30
0.0
 10
101.9212975212243
 20
162.4300967047217
 30
0.0
  0
LINE
  5
17C
330
1F
100
AcDbEntity
  8
0
  6
Continuous
 62
     7
370
    25
100
AcDbLine
 10
100.7214037444
 20
161.5817323923
 30
0.0
 11
100.7671623803
 21
161.5615531636
 31
0.0
  0
LINE
  5
17D
330
1F
100
AcDbEntity
  8
0
  6
Continuous
 62
     7
370
    25
100
AcDbLine
 10
100.672566413
 20
161.1362480116
 30
0.0
 11
100.7214037444
 21
161.5817323923
 31
0.0
  0
LINE
  5
17E
330
1F
100
AcDbEntity
  8
0
  6
Continuous
 62
     7
370
    25
100
AcDbLine
 10
100.6096740954
 20
160.650100616
 30
0.0
 11
100.6704195579
 21
161.1177178201
 31
0.0
  0
LINE
  5
17F
330
1F
100
AcDbEntity
  8
0
  6
Continuous
 62
     7
370
    25
100
AcDbLine
 10
100.6637527826
 20
160.6327764023
 30
0.0
 11
100.6173184801
 21
160.6532672438
 31
0.0
  0
SPLINE
  5
180
330
1F
100
AcDbEntity
  8
0
  6
Continuous
 62
     7
370
    25
100
AcDbSpline
210
0.0
220
0.0
230
1.0
 70
     8
 71
     3
 72
    11
 73
     7
 74
     0
 42
0.000000001
 43
0.00000001
 40
0.0
 40
0.0
 40
0.0
 40
0.0
 40
0.2455290843829298
 40
0.4999995868785014
 40
0.7544704562142389
 40
1.0
 40
1.0
 40
1.0
 40
1.0
 10
101.5182478674592
 20
158.8350789101489
 30
0.0
 10
101.4082957224204
 20
158.9409641372333
 30
0.0
 10
101.1843873115942
 20
159.1565906074408
 30
0.0
 10
100.9210923801169
 20
159.6060814399678
 30
0.0
 10
100.7309283282704
 20
160.1106076237277
 30
0.0
 10
100.6858789509604
 20
160.4608346524042
 30
0.0
 10
100.663757063121
 20
160.6328166754501
 30
0.0
  0
LINE
  5
181
330
1F
100
AcDbEntity
  8
0
  6
Continuous
 62
     7
370
    25
100
AcDbLine
 10
101.5102969303
 20
158.7757672697
 30
0.0
 11
101.5182478675
 21
158.8350789101
 31
0.0
  0
LINE
  5
182
330
1F
100
AcDbEntity
  8
0
  6
Continuous
 62
     7
370
    25
100
AcDbLine
 10
101.8610084301
 20
158.6145808741
 30
0.0
 11
101.5007500106
 21
158.7766014495
 31
0.0
  0
LINE
  5
183
330
1F
100
AcDbEntity
  8
0
  6
Continuous
 62
     7
370
    25
100
AcDbLine
 10
102.1986639556
 20
158.4540867253
 30
0.0
 11
101.8610084301
 21
158.6145808741
 31
0.0
  0
LINE
  5
184
330
1F
100
AcDbEntity
  8
0
  6
Continuous
 62
     7
370
    25
100
AcDbLine
 10
102.217752856
 20
158.5127731097
 30
0.0
 11
102.2097011616
 21
158.4525645693
 31
0.0
  0
SPLINE
  5
185
330
1F
100
AcDbEntity
  8
0
  6
Continuous
 62
     7
370
    25
100
AcDbSpline
210
0.0
220
0.0
230
1.0
 70
     8
 71
     3
 72
    11
 73
     7
 74
     0
 42
0.000000001
 43
0.00000001
 40
0.0
 40
0.0
 40
0.0
 40
0.0
 40
0.245529241614846
 40
0.4999997959853593
 40
0.7544707944025775
 40
1.0
 40
1.0
 40
1.0
 40
1.0
 10
103.3718580331619
 20
159.3813316027246
 30
0.0
 10
103.3151775362268
 20
159.2458038091871
 30
0.0
 10
103.1997524377027
 20
158.9698127758039
 30
0.0
 10
102.9205866875559
 20
158.6824015436209
 30
0.0
 10
102.5872797757359
 20
158.5088958462819
 30
0.0
 10
102.3394312668492
 20
158.5115061602533
 30
0.0
 10
102.2177232215188
 20
158.5127879763618
 30
0.0
  0
LINE
  5
186
330
1F
100
AcDbEntity
  8
0
  6
Continuous
 62
     7
370
    25
100
AcDbLine
 10
103.4149354051
 20
159.3604582414
 30
0.0
 11
103.3718580332
 21
159.3813316027
 31
0.0
  0
LINE
  5
187
330
1F
100
AcDbEntity
  8
0
  6
Continuous
 62
     7
370
    25
100
AcDbLine
 10
103.4660457029
 20
159.8065310795
 30
0.0
 11
103.4149354051
 21
159.3604582414
 31
0.0
  0
LINE
  5
188
330
1F
100
AcDbEntity
  8
0
  6
Continuous
 62
     7
370
    25
100
AcDbLine
 10
103.5051935397
 20
160.2865329512
 30
0.0
 11
103.4678790908
 21
159.824981939
 31
0.0
  0
LINE
  5
189
330
1F
100
AcDbEntity
  8
0
  6
Continuous
 62
     7
370
    25
100
AcDbLine
 10
101.1082350933
 20
160.4273758458
 30
0.0
 11
100.6637527826
 21
160.6327764023
 31
0.0
  0
SPLINE
  5
18A
330
1F
100
AcDbEntity
  8
0
  6
Continuous
 62
     7
370
    25
100
AcDbSpline
210
0.0
220
0.0
230
1.0
 70
     8
 71
     3
 72
    11
 73
     7
 74
     0
 42
0.000000001
 43
0.00000001
 40
0.0
 40
0.0
 40
0.0
 40
0.0
 40
0.2499994667028837
 40
0.5000001603608838
 40
0.7499994711246414
 40
0.9999999999999999
 40
0.9999999999999999
 40
0.9999999999999999
 40
0.9999999999999999
 10
101.1082324591608
 20
160.4273751640264
 30
0.0
 10
101.1802999349369
 20
160.3823303270591
 30
0.0
 10
101.324435240184
 20
160.2922404320521
 30
0.0
 10
101.4901289707988
 20
160.0350070482791
 30
0.0
 10
101.5919967985103
 20
159.7296934585291
 30
0.0
 10
101.586995477421
 20
159.5272573353096
 30
0.0
 10
101.5844948107842
 20
159.4260390271099
 30
0.0
  0
LINE
  5
18B
330
1F
100
AcDbEntity
  8
0
  6
Continuous
 62
     7
370
    25
100
AcDbLine
 10
101.5184477357
 20
158.8368724543
 30
0.0
 11
101.5844961279
 21
159.426039368
 31
0.0
  0
LINE
  5
18C
330
1F
100
AcDbEntity
  8
0
  6
Continuous
 62
     7
370
    25
100
AcDbLine
 10
100.7669058772
 20
161.5614275936
 30
0.0
 11
100.7097698972
 21
161.578721331
 31
0.0
  0
SPLINE
  5
18D
330
1F
100
AcDbEntity
  8
0
  6
Continuous
 62
     7
370
    25
100
AcDbSpline
210
0.0
220
0.0
230
1.0
 70
     8
 71
     3
 72
     9
 73
     5
 74
     0
 42
0.000000001
 43
0.00000001
 40
0.0
 40
0.0
 40
0.0
 40
0.0
 40
0.5000540601976335
 40
1.0
 40
1.0
 40
1.0
 40
1.0
 10
100.6636296347587
 20
160.632765495136
 30
0.0
 10
100.6588910828543
 20
160.7977730656423
 30
0.0
 10
100.6494150036029
 20
161.1277525291447
 30
0.0
 10
100.7288165662403
 20
161.4165463361201
 30
0.0
 10
100.7685130550948
 20
161.5609276273576
 30
0.0
  0
SPLINE
  5
18E
330
1F
100
AcDbEntity
  8
0
  6
Continuous
 62
     7
370
    25
100
AcDbSpline
210
0.0
220
0.0
230
1.0
 70
     8
 71
     3
 72
     9
 73
     5
 74
     0
 42
0.000000001
 43
0.00000001
 40
0.0
 40
0.0
 40
0.0
 40
0.0
 40
0.5000004065483128
 40
1.0
 40
1.0
 40
1.0
 40
1.0
 10
102.2176534158009
 20
158.5136923559236
 30
0.0
 10
102.0978108732774
 20
158.5380613033111
 30
0.0
 10
101.8581259831173
 20
158.5867991584574
 30
0.0
 10
101.6316733177784
 20
158.7535136483953
 30
0.0
 10
101.5184470771728
 20
158.8368708255867
 30
0.0
  0
LINE
  5
18F
330
1F
100
AcDbEntity
  8
0
  6
Continuous
 62
     7
370
    25
100
AcDbLine
 10
102.1980673143
 20
158.4495535081
 30
0.0
 11
102.2175414632
 21
158.5128102305
 31
0.0
  0
LINE
  5
190
330
1F
100
AcDbEntity
  8
0
  6
Continuous
 62
     7
370
    25
100
AcDbLine
 10
101.8551200543
 20
161.8400564128
 30
0.0
 11
101.9212678867
 21
162.4301115714
 31
0.0
  0
SPLINE
  5
191
330
1F
100
AcDbEntity
  8
0
  6
Continuous
 62
     7
370
    25
100
AcDbSpline
210
0.0
220
0.0
230
1.0
 70
     8
 71
     3
 72
    11
 73
     7
 74
     0
 42
0.000000001
 43
0.00000001
 40
0.0
 40
0.0
 40
0.0
 40
0.0
 40
0.249999628134226
 40
0.4999994289186415
 40
0.7499997085255202
 40
1.0
 40
1.0
 40
1.0
 40
1.0
 10
101.8551174201669
 20
161.8400557310296
 30
0.0
 10
101.8357963958446
 20
161.7466106088144
 30
0.0
 10
101.7971543338571
 20
161.5597202998505
 30
0.0
 10
101.6402412153004
 20
161.3739897146389
 30
0.0
 10
101.4360367905839
 20
161.2876879932072
 30
0.0
 10
101.2868955764032
 20
161.3331204229946
 30
0.0
 10
101.2123249675429
 20
161.3558366384275
 30
0.0
  0
LINE
  5
192
330
1F
100
AcDbEntity
  8
0
  6
Continuous
 62
     7
370
    25
100
AcDbLine
 10
100.7685143722
 20
161.5609279682
 30
0.0
 11
101.2123276017
 21
161.3558373202
 31
0.0
  0
LINE
  5
193
330
1F
100
AcDbEntity
  8
0
  6
Continuous
 62
     7
370
    25
100
AcDbLine
 10
101.1403095036
 20
161.1508195084
 30
0.0
 11
101.1496884945
 21
161.2344862674
 31
0.0
  0
SPLINE
  5
194
330
1F
100
AcDbEntity
  8
0
  6
Continuous
 62
     7
370
    25
100
AcDbSpline
210
0.0
220
0.0
230
1.0
 70
     8
 71
     3
 72
    11
 73
     7
 74
     0
 42
0.000000001
 43
0.00000001
 40
0.0
 40
0.0
 40
0.0
 40
0.0
 40
0.2499995625196663
 40
0.5000001267711085
 40
0.749999934506389
 40
0.9999999999999999
 40
0.9999999999999999
 40
0.9999999999999999
 40
0.9999999999999999
 10
101.1403095036001
 20
161.1508195084174
 30
0.0
 10
101.1378088202553
 20
161.049602536154
 30
0.0
 10
101.1328074435456
 20
160.8471681860574
 30
0.0
 10
101.2346723685995
 20
160.5418562262788
 30
0.0
 10
101.400365175254
 20
160.2846254112604
 30
0.0
 10
101.5444983273211
 20
160.1945331261272
 30
0.0
 10
101.6165649405062
 20
160.1494869603385
 30
0.0
  0
LINE
  5
195
330
1F
100
AcDbEntity
  8
0
  6
Continuous
 62
     7
370
    25
100
AcDbLine
 10
102.0630805074
 20
159.9431463477
 30
0.0
 11
101.6165649405
 21
160.1494869603
 31
0.0
  0
LINE
  5
196
330
1F
100
AcDbEntity
  8
0
  6
Continuous
 62
     7
370
    25
100
AcDbLine
 10
102.0631101419
 20
159.5393385763
 30
0.0
 11
102.0630805074
 21
159.9431463477
 31
0.0
  0
LINE
  5
197
330
1F
100
AcDbEntity
  8
0
  6
Continuous
 62
     7
370
    25
100
AcDbLine
 10
102.054951434
 20
159.4665648579
 30
0.0
 11
102.0631101419
 21
159.5393385763
 31
0.0
  0
LINE
  5
198
330
1F
100
AcDbEntity
  8
0
  6
Continuous
 62
     7
370
    25
100
AcDbLine
 10
102.2839006884
 20
159.1028282683
 30
0.0
 11
102.217752856
 21
158.5127731097
 31
0.0
  0
SPLINE
  5
199
330
1F
100
AcDbEntity
  8
0
  6
Continuous
 62
     7
370
    25
100
AcDbSpline
210
0.0
220
0.0
230
1.0
 70
     8
 71
     3
 72
    11
 73
     7
 74
     0
 42
0.000000001
 43
0.00000001
 40
0.0
 40
0.0
 40
0.0
 40
0.0
 40
0.2499996586149043
 40
0.4999997404670253
 40
0.7500000505546618
 40
1.0
 40
1.0
 40
1.0
 40
1.0
 10
102.2838980542202
 20
159.102827586503
 30
0.0
 10
102.3032190609496
 20
159.1962727365072
 30
0.0
 10
102.3418611071178
 20
159.3831631947137
 30
0.0
 10
102.4987745915867
 20
159.5688933777315
 30
0.0
 10
102.7029788915596
 20
159.655195237685
 30
0.0
 10
102.8521200042737
 20
159.6097628543752
 30
0.0
 10
102.9266905068442
 20
159.5870466791051
 30
0.0
  0
LINE
  5
19A
330
1F
100
AcDbEntity
  8
0
  6
Continuous
 62
     7
370
    25
100
AcDbLine
 10
103.3705060413
 20
159.3819561163
 30
0.0
 11
102.9266918239
 21
159.58704702
 31
0.0
  0
LINE
  5
19B
330
1F
100
AcDbEntity
  8
0
  6
Continuous
 62
     7
370
    25
100
AcDbLine
 10
101.9213646928
 20
162.4291934426
 30
0.0
 11
102.2774851478
 21
162.3266360373
 31
0.0
  0
ARC
  5
19C
330
1F
100
AcDbEntity
  8
0
  6
Continuous
 62
     7
370
    25
100
AcDbCircle
 10
101.6177533245
 20
160.9236258443
 30
0.0
 40
1.550380094209865
100
AcDbArc
 50
49.6977041907
 51
64.8158560686
  0
LINE
  5
19D
330
1F
100
AcDbEntity
  8
0
  6
Continuous
 62
     7
370
    25
100
AcDbLine
 10
101.8631681268
 20
161.9118474146
 30
0.0
 11
102.6205700436
 21
162.1060116302
 31
0.0
  0
LINE
  5
19E
330
1F
100
AcDbEntity
  8
0
  6
Continuous
 62
     7
370
    25
100
AcDbLine
 10
103.0307853201
 20
160.5155089205
 30
0.0
 11
103.4752686187
 21
160.3101081084
 31
0.0
  0
SPLINE
  5
19F
330
1F
100
AcDbEntity
  8
0
  6
Continuous
 62
     7
370
    25
100
AcDbSpline
210
0.0
220
0.0
230
1.0
 70
     8
 71
     3
 72
    11
 73
     7
 74
     0
 42
0.000000001
 43
0.00000001
 40
0.0
 40
0.0
 40
0.0
 40
0.0
 40
0.2499998606166317
 40
0.4999995174908131
 40
0.7499992293387521
 40
1.0
 40
1.0
 40
1.0
 40
1.0
 10
103.030782685954
 20
160.5155082387281
 30
0.0
 10
102.9587153980758
 20
160.5605538359004
 30
0.0
 10
102.8145808810522
 20
160.6506449935341
 30
0.0
 10
102.6488864775704
 20
160.9078764203549
 30
0.0
 10
102.5470186510948
 20
161.2131898543857
 30
0.0
 10
102.5520199892365
 20
161.4156260021824
 30
0.0
 10
102.5545206636029
 20
161.5168442904227
 30
0.0
  0
LINE
  5
1A0
330
1F
100
AcDbEntity
  8
0
  6
Continuous
 62
     7
370
    25
100
AcDbLine
 10
102.6205700436
 20
162.1060116302
 30
0.0
 11
102.5545219807
 21
161.5168446313
 31
0.0
  0
LINE
  5
1A1
330
1F
100
AcDbEntity
  8
0
  6
Continuous
 62
     7
370
    25
100
AcDbLine
 10
102.5545206636
 20
161.5168442904
 30
0.0
 11
101.1403095036
 21
161.1508195084
 31
0.0
  0
LINE
  5
1A2
330
1F
100
AcDbEntity
  8
0
  6
Continuous
 62
     7
370
    25
100
AcDbLine
 10
101.6165649405
 20
160.1494869603
 30
0.0
 11
103.030782686
 21
160.5155082387
 31
0.0
  0
LINE
  5
1A3
330
1F
100
AcDbEntity
  8
0
  6
Continuous
 62
     7
370
    25
100
AcDbLine
 10
103.5073864929
 20
160.2859124139
 30
0.0
 11
103.4750387867
 21
160.3100294568
 31
0.0
  0
LINE
  5
1A4
330
1F
100
AcDbEntity
  8
0
  6
Continuous
 62
     7
370
    25
100
AcDbLine
 10
103.4033015578
 20
159.3574471802
 30
0.0
 11
103.4658086268
 21
159.806509585
 31
0.0
  0
SPLINE
  5
1A5
330
1F
100
AcDbEntity
  8
0
  6
Continuous
 62
     7
370
    25
100
AcDbSpline
210
0.0
220
0.0
230
1.0
 70
     8
 71
     3
 72
     9
 73
     5
 74
     0
 42
0.000000001
 43
0.00000001
 40
0.0
 40
0.0
 40
0.0
 40
0.0
 40
0.5000002998740563
 40
1.0
 40
1.0
 40
1.0
 40
1.0
 10
103.4746133669205
 20
160.3101438791406
 30
0.0
 10
103.479480244436
 20
160.1451761147381
 30
0.0
 10
103.4892139936291
 20
159.8152407838113
 30
0.0
 10
103.410075781943
 20
159.5263829679656
 30
0.0
 10
103.3705066998316
 20
159.3819541466637
 30
0.0
  0
LINE
  5
1A6
330
1F
100
AcDbEntity
  8
0
  6
Continuous
 62
     7
370
    25
100
AcDbLine
 10
102.0630805074
 20
159.9431463477
 30
0.0
 11
103.4746350989
 21
160.3103964081
 31
0.0
  0
SPLINE
  5
1A7
330
1F
100
AcDbEntity
  8
0
  6
Continuous
 62
     7
370
    25
100
AcDbSpline
210
0.0
220
0.0
230
1.0
 70
     8
 71
     3
 72
    20
 73
    16
 74
     0
 42
0.000000001
 43
0.00000001
 40
0.0
 40
0.0
 40
0.0
 40
0.0
 40
0.080668149274381
 40
0.1219216239867062
 40
0.1330322876553146
 40
0.1364633357342531
 40
0.1377780846436165
 40
0.1389375083780276
 40
0.1401220561471629
 40
0.1414320160349958
 40
0.1448044934611733
 40
0.1557323717311814
 40
0.1966427785052711
 40
0.3576992551970554
 40
1.0
 40
1.0
 40
1.0
 40
1.0
 10
102.6467366510557
 20
159.5828573144456
 30
0.0
 10
102.6692130559896
 20
159.5912733677721
 30
0.0
 10
102.7031838339927
 20
159.6039933681483
 30
0.0
 10
102.7403221174579
 20
159.6224777290782
 30
0.0
 10
102.7556828667921
 20
159.6333121374606
 30
0.0
 10
102.7596025495758
 20
159.6378221918571
 30
0.0
 10
102.7606808890092
 20
159.6398883325009
 30
0.0
 10
102.761061293622
 20
159.6412675944016
 30
0.0
 10
102.7610550548839
 20
159.6425653533514
 30
0.0
 10
102.7604965656085
 20
159.644269705748
 30
0.0
 10
102.757563332563
 20
159.6471468885008
 30
0.0
 10
102.7440284193386
 20
159.6507433077334
 30
0.0
 10
102.6878889422353
 20
159.650334645254
 30
0.0
 10
102.4589569691267
 20
159.6190515447856
 30
0.0
 10
102.2389834936269
 20
159.5747547675462
 30
0.0
 10
102.0631101419346
 20
159.5393385762779
 30
0.0
  0
LINE
  5
1A8
330
1F
100
AcDbEntity
  8
0
  6
Continuous
 62
     7
370
    25
100
AcDbLine
 10
82.6240740764
 20
167.9792699754
 30
0.0
 11
82.6240740764
 21
158.1837836393
 31
0.0
  0
ARC
  5
1A9
330
1F
100
AcDbEntity
  8
0
  6
Continuous
 62
     7
370
    25
100
AcDbCircle
 10
79.7416291533
 20
168.0857746836
 30
0.0
 40
2.884411896307651
100
AcDbArc
 50
357.8839160324
 51
36.290293278
  0
ARC
  5
1AA
330
1F
100
AcDbEntity
  8
0
  6
Continuous
 62
     7
370
    25
100
AcDbCircle
 10
90.0257317151
 20
176.0388738561
 30
0.0
 40
10.11729555222627
100
AcDbArc
 50
195.1540405837
 51
218.1226641202
  0
LWPOLYLINE
  5
1AB
330
1F
100
AcDbEntity
  8
0
  6
Continuous
 62
     7
370
    25
100
AcDbPolyline
 90
       29
 70
   128
 43
0.0
 10
84.3790531257
 20
189.3078941074
 10
84.6588311501
 20
189.5793948251
 10
85.4979274887
 20
190.2963191521
 10
86.3701328111
 20
190.9015665153
 10
87.2662400063
 20
191.3887462722
 10
88.1767910582
 20
191.7527162405
 10
89.0921725342
 20
191.9896344
 10
90.0027229275
 20
192.0970001688
 10
90.8988307813
 20
192.0736797995
 10
91.7710361037
 20
191.9199191336
 10
92.6101324423
 20
191.6373430329
 10
93.4072623736
 20
191.2289324154
 10
94.1540110159
 20
190.6989989811
 10
94.8424969085
 20
190.0531367661
 10
95.4654523542
 20
189.2981628734
 10
96.0162998104
 20
188.4420477354
 10
96.4892269634
 20
187.4938279431
 10
96.8792407286
 20
186.4635122721
 10
97.1822225688
 20
185.361977029
 10
97.3949772259
 20
184.2008500235
 10
97.515256429
 20
182.9923875004
 10
97.5417918214
 20
181.7493460374
 10
97.4743028631
 20
180.4848469531
 10
97.3135020994
 20
179.212238234
 10
97.0610859407
 20
177.9449530502
 10
96.7197214925
 20
176.6963692708
 10
96.293009676
 20
175.4796663311
 10
95.7854549357
 20
174.3076871757
 10
95.2024151897
 20
173.1928034116
  0
ARC
  5
1AC
330
1F
100
AcDbEntity
  8
0
  6
Continuous
 62
     7
370
    25
100
AcDbCircle
 10
98.9442742873
 20
171.0753912837
 30
0.0
 40
4.299412009299431
100
AcDbArc
 50
150.4957071864
 51
179.798844262
  0
LINE
  5
1AD
330
1F
100
AcDbEntity
  8
0
  6
Continuous
 62
     7
370
    25
100
AcDbLine
 10
94.6448887751
 20
161.294999421
 30
0.0
 11
94.6448887751
 21
171.090485757
 31
0.0
  0
LINE
  5
1AE
330
1F
100
AcDbEntity
  8
0
  6
Continuous
 62
     7
370
    25
100
AcDbLine
 10
94.6448887751
 20
161.294999421
 30
0.0
 11
93.9377831951
 21
161.11198703
 31
0.0
  0
LINE
  5
1AF
330
1F
100
AcDbEntity
  8
0
  6
Continuous
 62
     7
370
    25
100
AcDbLine
 10
93.9377831951
 20
170.907473366
 30
0.0
 11
93.9377831951
 21
161.11198703
 31
0.0
  0
ARC
  5
1B0
330
1F
100
AcDbEntity
  8
0
  6
Continuous
 62
     7
370
    25
100
AcDbCircle
 10
99.670260685
 20
170.8873584221
 30
0.0
 40
5.732512780894415
100
AcDbArc
 50
150.4956295543
 51
179.7989531291
  0
ARC
  5
1B1
330
1F
100
AcDbEntity
  8
0
  6
Continuous
 62
     7
370
    25
100
AcDbCircle
 10
89.5509160033
 20
176.1111669111
 30
0.0
 40
8.89225733339913
100
AcDbArc
 50
199.3791944635
 51
218.4590895781
  0
LWPOLYLINE
  5
1B2
330
1F
100
AcDbEntity
  8
0
  6
Continuous
 62
     7
370
    25
100
AcDbPolyline
 90
       27
 70
   128
 43
0.0
 10
85.2812686505
 20
189.074383284
 10
85.6188072844
 20
189.356046837
 10
86.4551779074
 20
189.9545590359
 10
87.3167404919
 20
190.4347249083
 10
88.1935352109
 20
190.790991722
 10
89.0754277229
 20
191.0192422999
 10
89.9522231005
 20
191.1168380005
 10
90.813785685
 20
191.0826497389
 10
91.650156308
 20
190.9170748319
 10
92.4516662188
 20
190.6220251037
 10
93.2090510135
 20
190.2009122927
 10
93.9135553427
 20
189.6586040848
 10
94.5570363036
 20
189.00136991
 10
95.1320536603
 20
188.2368062381
 10
95.6319613818
 20
187.3737514204
 10
96.0509800813
 20
186.4221825436
 10
96.3842668226
 20
185.3930990093
 10
96.6279691203
 20
184.2983970734
 10
96.7792697211
 20
183.1507309804
 10
96.8364182135
 20
181.9633668514
 10
96.798756053
 20
180.7500309034
 10
96.6667165621
 20
179.5247482824
 10
96.4418275639
 20
178.3016833094
 10
96.1266889921
 20
177.0949743875
 10
95.724942598
 20
175.9185700973
 10
95.2412324372
 20
174.7860691887
 10
94.6811508699
 20
173.7105633449
  0
ARC
  5
1B3
330
1F
100
AcDbEntity
  8
0
  6
Continuous
 62
     7
370
    25
100
AcDbCircle
 10
79.4879192165
 20
168.3042883754
 30
0.0
 40
3.84588428274193
100
AcDbArc
 50
357.8839257668
 51
36.2902848262
  0
LINE
  5
1B4
330
1F
100
AcDbEntity
  8
0
  6
Continuous
 62
     7
370
    25
100
AcDbLine
 10
83.3311808912
 20
159.3205455042
 30
0.0
 11
83.3311808912
 21
168.162282686
 31
0.0
  0
LINE
  5
1B5
330
1F
100
AcDbEntity
  8
0
  6
Continuous
 62
     7
370
    25
100
AcDbLine
 10
105.2441389235
 20
158.1833373135
 30
0.0
 11
105.2514902558
 21
158.549808954
 31
0.0
  0
ARC
  5
1B6
330
1F
100
AcDbEntity
  8
0
  6
Continuous
 62
     7
370
    25
100
AcDbCircle
 10
104.4653933038
 20
161.2780812567
 30
0.0
 40
9.820519101514368
100
AcDbArc
 50
179.9012944346
 51
214.429014726
  0
LINE
  5
1B7
330
1F
100
AcDbEntity
  8
0
  6
Continuous
 62
     7
370
    25
100
AcDbLine
 10
105.2514902558
 20
168.34529529
 30
0.0
 11
94.6448887751
 21
171.090485757
 31
0.0
  0
LINE
  5
1B8
330
1F
100
AcDbEntity
  8
0
  6
Continuous
 62
     7
370
    25
100
AcDbLine
 10
105.2514902558
 20
158.549808954
 30
0.0
 11
105.2514902558
 21
168.34529529
 31
0.0
  0
ARC
  5
1B9
330
1F
100
AcDbEntity
  8
0
  6
Continuous
 62
     7
370
    25
100
AcDbCircle
 10
103.8321437302
 20
161.1178819072
 30
0.0
 40
9.894362291176298
100
AcDbArc
 50
180.0341357626
 51
214.296173398
  0
LWPOLYLINE
  5
1BA
330
1F
100
AcDbEntity
  8
0
  6
Continuous
 62
     7
370
    25
100
AcDbPolyline
 90
       20
 70
   128
 43
0.0
 10
105.8090166705
 20
170.4476129446
 10
106.3920564164
 20
171.5624967087
 10
106.8996111567
 20
172.734475864
 10
107.3263229732
 20
173.9511788038
 10
107.6676874214
 20
175.1997625831
 10
107.9201035801
 20
176.467047767
 10
108.0809043439
 20
177.739656486
 10
108.1483933021
 20
179.0041555704
 10
108.1218579097
 20
180.2471970334
 10
108.0015787066
 20
181.4556595564
 10
107.7888240495
 20
182.616786562
 10
107.4858422094
 20
183.718321805
 10
107.0958284441
 20
184.7486374761
 10
106.6229012912
 20
185.6968572683
 10
106.0720538349
 20
186.5529724063
 10
105.4490983892
 20
187.307946299
 10
104.7606124967
 20
187.9538085141
 10
104.0138638544
 20
188.4837419484
 10
103.216733923
 20
188.8921525659
 10
102.3981742949
 20
189.1694531027
  0
LINE
  5
1BB
330
1F
100
AcDbEntity
  8
0
  6
Continuous
 62
     7
370
    25
100
AcDbLine
 10
95.2024151897
 20
173.1928034116
 30
0.0
 11
105.8090166705
 21
170.4476129446
 31
0.0
  0
ARC
  5
1BC
330
1F
100
AcDbEntity
  8
0
  6
Continuous
 62
     7
370
    25
100
AcDbCircle
 10
109.550875768
 20
168.3302008166
 30
0.0
 40
4.299412009299347
100
AcDbArc
 50
150.4957071864
 51
179.798844262
  0
LINE
  5
1BD
330
1F
100
AcDbEntity
  8
0
  6
Continuous
 62
     7
370
    25
100
AcDbLine
 10
93.919289125
 20
165.8534091534
 30
0.0
 11
93.8967119144
 21
166.0624999302
 31
0.0
  0
LINE
  5
1BE
330
1F
100
AcDbEntity
  8
0
  6
Continuous
 62
     7
370
    25
100
AcDbLine
 10
78.2046570397
 20
190.2857003959
 30
0.0
 11
78.2046570397
 21
190.6720705199
 31
0.0
  0
LINE
  5
1BF
330
1F
100
AcDbEntity
  8
0
  6
Continuous
 62
     7
370
    25
100
AcDbLine
 10
76.7904432456
 20
189.9196749321
 30
0.0
 11
78.2046570397
 21
190.2857003959
 31
0.0
  0
LINE
  5
1C0
330
1F
100
AcDbEntity
  8
0
  6
Continuous
 62
     7
370
    25
100
AcDbLine
 10
76.7904432456
 20
189.9196749321
 30
0.0
 11
76.7904432456
 21
179.4876757376
 31
0.0
  0
LINE
  5
1C1
330
1F
100
AcDbEntity
  8
0
  6
Continuous
 62
     7
370
    25
100
AcDbLine
 10
78.2046570397
 20
179.8537012014
 30
0.0
 11
76.7904432456
 21
179.4876757376
 31
0.0
  0
LINE
  5
1C2
330
1F
100
AcDbEntity
  8
0
  6
Continuous
 62
     7
370
    25
100
AcDbLine
 10
78.2046570397
 20
179.4673310774
 30
0.0
 11
78.2046570397
 21
179.8537012014
 31
0.0
  0
LINE
  5
1C3
330
1F
100
AcDbEntity
  8
0
  6
Continuous
 62
     7
370
    25
100
AcDbLine
 10
76.7904432456
 20
179.1013056137
 30
0.0
 11
78.2046570397
 21
179.4673310774
 31
0.0
  0
LINE
  5
1C4
330
1F
100
AcDbEntity
  8
0
  6
Continuous
 62
     7
370
    25
100
AcDbLine
 10
76.7904432456
 20
178.135379629
 30
0.0
 11
76.7904432456
 21
179.1013056137
 31
0.0
  0
LINE
  5
1C5
330
1F
100
AcDbEntity
  8
0
  6
Continuous
 62
     7
370
    25
100
AcDbLine
 10
76.7904432456
 20
178.135379629
 30
0.0
 11
69.3658221432
 21
176.2137462851
 31
0.0
  0
LINE
  5
1C6
330
1F
100
AcDbEntity
  8
0
  6
Continuous
 62
     7
370
    25
100
AcDbLine
 10
69.3658221432
 20
176.2137462851
 30
0.0
 11
69.3658221432
 21
177.1796722697
 31
0.0
  0
LINE
  5
1C7
330
1F
100
AcDbEntity
  8
0
  6
Continuous
 62
     7
370
    25
100
AcDbLine
 10
67.951608349
 20
176.8136468059
 30
0.0
 11
69.3658221432
 21
177.1796722697
 31
0.0
  0
LINE
  5
1C8
330
1F
100
AcDbEntity
  8
0
  6
Continuous
 62
     7
370
    25
100
AcDbLine
 10
67.951608349
 20
177.2000169299
 30
0.0
 11
67.951608349
 21
176.8136468059
 31
0.0
  0
LINE
  5
1C9
330
1F
100
AcDbEntity
  8
0
  6
Continuous
 62
     7
370
    25
100
AcDbLine
 10
69.3658221432
 20
177.5660423937
 30
0.0
 11
67.951608349
 21
177.2000169299
 31
0.0
  0
LINE
  5
1CA
330
1F
100
AcDbEntity
  8
0
  6
Continuous
 62
     7
370
    25
100
AcDbLine
 10
69.3658221432
 20
177.5660423937
 30
0.0
 11
69.3658221432
 21
187.9980415882
 31
0.0
  0
LINE
  5
1CB
330
1F
100
AcDbEntity
  8
0
  6
Continuous
 62
     7
370
    25
100
AcDbLine
 10
67.951608349
 20
187.6320161244
 30
0.0
 11
69.3658221432
 21
187.9980415882
 31
0.0
  0
LINE
  5
1CC
330
1F
100
AcDbEntity
  8
0
  6
Continuous
 62
     7
370
    25
100
AcDbLine
 10
67.951608349
 20
188.0183862484
 30
0.0
 11
67.951608349
 21
187.6320161244
 31
0.0
  0
LINE
  5
1CD
330
1F
100
AcDbEntity
  8
0
  6
Continuous
 62
     7
370
    25
100
AcDbLine
 10
69.3658221432
 20
188.3844117121
 30
0.0
 11
67.951608349
 21
188.0183862484
 31
0.0
  0
LINE
  5
1CE
330
1F
100
AcDbEntity
  8
0
  6
Continuous
 62
     7
370
    25
100
AcDbLine
 10
69.3658221432
 20
189.3503376968
 30
0.0
 11
69.3658221432
 21
188.3844117121
 31
0.0
  0
LINE
  5
1CF
330
1F
100
AcDbEntity
  8
0
  6
Continuous
 62
     7
370
    25
100
AcDbLine
 10
69.3658221432
 20
189.3503376968
 30
0.0
 11
76.7904432456
 21
191.2719710407
 31
0.0
  0
LINE
  5
1D0
330
1F
100
AcDbEntity
  8
0
  6
Continuous
 62
     7
370
    25
100
AcDbLine
 10
76.7904432456
 20
190.3060450561
 30
0.0
 11
76.7904432456
 21
191.2719710407
 31
0.0
  0
LINE
  5
1D1
330
1F
100
AcDbEntity
  8
0
  6
Continuous
 62
     7
370
    25
100
AcDbLine
 10
78.2046570397
 20
190.6720705199
 30
0.0
 11
76.7904432456
 21
190.3060450561
 31
0.0
  0
LINE
  5
1D2
330
1F
100
AcDbEntity
  8
0
  6
Continuous
 62
     7
370
    25
100
AcDbLine
 10
78.2046570397
 20
179.4673310774
 30
0.0
 11
93.7610061416
 21
175.4410516576
 31
0.0
  0
LINE
  5
1D3
330
1F
100
AcDbEntity
  8
0
  6
Continuous
 62
     7
370
    25
100
AcDbLine
 10
92.3467923474
 20
175.0750261938
 30
0.0
 11
93.7610061416
 21
175.4410516576
 31
0.0
  0
LINE
  5
1D4
330
1F
100
AcDbEntity
  8
0
  6
Continuous
 62
     7
370
    25
100
AcDbLine
 10
92.3467923474
 20
175.0750261938
 30
0.0
 11
76.7904432456
 21
179.1013056137
 31
0.0
  0
LINE
  5
1D5
330
1F
100
AcDbEntity
  8
0
  6
Continuous
 62
     7
370
    25
100
AcDbLine
 10
93.7610061416
 20
175.8274217816
 30
0.0
 11
78.2046570397
 21
179.8537012014
 31
0.0
  0
LINE
  5
1D6
330
1F
100
AcDbEntity
  8
0
  6
Continuous
 62
     7
370
    25
100
AcDbLine
 10
93.7610061416
 20
175.4410516576
 30
0.0
 11
93.7610061416
 21
175.8274217816
 31
0.0
  0
LINE
  5
1D7
330
1F
100
AcDbEntity
  8
0
  6
Continuous
 62
     7
370
    25
100
AcDbLine
 10
92.3467923474
 20
174.1091002092
 30
0.0
 11
92.3467923474
 21
175.0750261938
 31
0.0
  0
LINE
  5
1D8
330
1F
100
AcDbEntity
  8
0
  6
Continuous
 62
     7
370
    25
100
AcDbLine
 10
92.3467923474
 20
174.1091002092
 30
0.0
 11
76.7904432456
 21
178.135379629
 31
0.0
  0
LINE
  5
1D9
330
1F
100
AcDbEntity
  8
0
  6
Continuous
 62
     7
370
    25
100
AcDbLine
 10
90.4022487096
 20
173.6058152817
 30
0.0
 11
92.3467923474
 21
174.1091002092
 31
0.0
  0
LINE
  5
1DA
330
1F
100
AcDbEntity
  8
0
  6
Continuous
 62
     7
370
    25
100
AcDbLine
 10
89.9072739805
 20
173.7339241685
 30
0.0
 11
90.4022487096
 21
173.6058152817
 31
0.0
  0
LINE
  5
1DB
330
1F
100
AcDbEntity
  8
0
  6
Continuous
 62
     7
370
    25
100
AcDbLine
 10
90.6143808776
 20
173.9169369004
 30
0.0
 11
89.9072739805
 21
173.7339241685
 31
0.0
  0
LINE
  5
1DC
330
1F
100
AcDbEntity
  8
0
  6
Continuous
 62
     7
370
    25
100
AcDbLine
 10
89.5537206966
 20
174.1914559556
 30
0.0
 11
90.6143808776
 21
173.9169369004
 31
0.0
  0
LINE
  5
1DD
330
1F
100
AcDbEntity
  8
0
  6
Continuous
 62
     7
370
    25
100
AcDbLine
 10
84.6039730755
 20
172.9103670028
 30
0.0
 11
89.5537206966
 21
174.1914559556
 31
0.0
  0
LINE
  5
1DE
330
1F
100
AcDbEntity
  8
0
  6
Continuous
 62
     7
370
    25
100
AcDbLine
 10
85.6646332565
 20
172.6358479476
 30
0.0
 11
84.6039730755
 21
172.9103670028
 31
0.0
  0
LINE
  5
1DF
330
1F
100
AcDbEntity
  8
0
  6
Continuous
 62
     7
370
    25
100
AcDbLine
 10
86.3717401536
 20
172.8188606795
 30
0.0
 11
85.6646332565
 21
172.6358479476
 31
0.0
  0
LINE
  5
1E0
330
1F
100
AcDbEntity
  8
0
  6
Continuous
 62
     7
370
    25
100
AcDbLine
 10
86.8667148827
 20
172.6907517927
 30
0.0
 11
86.3717401536
 21
172.8188606795
 31
0.0
  0
LINE
  5
1E1
330
1F
100
AcDbEntity
  8
0
  6
Continuous
 62
     7
370
    25
100
AcDbLine
 10
84.922171245
 20
172.1874668653
 30
0.0
 11
86.8667148827
 21
172.6907517927
 31
0.0
  0
LINE
  5
1E2
330
1F
100
AcDbEntity
  8
0
  6
Continuous
 62
     7
370
    25
100
AcDbLine
 10
69.3658221432
 20
176.2137462851
 30
0.0
 11
74.2920188956
 21
174.9387527456
 31
0.0
  0
LINE
  5
1E3
330
1F
100
AcDbEntity
  8
0
  6
Continuous
 62
     7
370
    25
100
AcDbLine
 10
77.6029613864
 20
174.0818177718
 30
0.0
 11
84.922171245
 21
172.1874668653
 31
0.0
  0
LINE
  5
1E4
330
1F
100
AcDbEntity
  8
0
  6
Continuous
 62
     7
370
    25
100
AcDbLine
 10
92.3467923474
 20
185.8933955123
 30
0.0
 11
76.7904432456
 21
189.9196749321
 31
0.0
  0
LINE
  5
1E5
330
1F
100
AcDbEntity
  8
0
  6
Continuous
 62
     7
370
    25
100
AcDbLine
 10
92.3467923474
 20
176.1934472771
 30
0.0
 11
92.3467923474
 21
185.8933955123
 31
0.0
  0
LINE
  5
1E6
330
1F
100
AcDbEntity
  8
0
  6
Continuous
 62
     7
370
    25
100
AcDbLine
 10
78.2046570397
 20
190.2857003959
 30
0.0
 11
93.7610061416
 21
186.2594209761
 31
0.0
  0
LINE
  5
1E7
330
1F
100
AcDbEntity
  8
0
  6
Continuous
 62
     7
370
    25
100
AcDbLine
 10
92.3467923474
 20
185.8933955123
 30
0.0
 11
93.7610061416
 21
186.2594209761
 31
0.0
  0
LINE
  5
1E8
330
1F
100
AcDbEntity
  8
0
  6
Continuous
 62
     7
370
    25
100
AcDbLine
 10
93.7610061416
 20
186.6457911001
 30
0.0
 11
78.2046570397
 21
190.6720705199
 31
0.0
  0
LINE
  5
1E9
330
1F
100
AcDbEntity
  8
0
  6
Continuous
 62
     7
370
    25
100
AcDbLine
 10
93.7610061416
 20
186.2594209761
 30
0.0
 11
93.7610061416
 21
186.6457911001
 31
0.0
  0
LINE
  5
1EA
330
1F
100
AcDbEntity
  8
0
  6
Continuous
 62
     7
370
    25
100
AcDbLine
 10
76.7904432456
 20
191.2719710407
 30
0.0
 11
92.3467923474
 21
187.2456916209
 31
0.0
  0
LINE
  5
1EB
330
1F
100
AcDbEntity
  8
0
  6
Continuous
 62
     7
370
    25
100
AcDbLine
 10
92.3467923474
 20
187.0118165956
 30
0.0
 11
92.3467923474
 21
187.2456916209
 31
0.0
  0
LINE
  5
1EC
330
1F
100
AcDbEntity
  8
0
  6
Continuous
 62
     7
370
    25
100
AcDbLine
 10
69.3658221432
 20
176.4476213421
 30
0.0
 11
67.951608349
 21
176.8136468059
 31
0.0
  0
LINE
  5
1ED
330
1F
100
AcDbEntity
  8
0
  6
Continuous
 62
     7
370
    25
100
AcDbLine
 10
69.3658221432
 20
187.2659906606
 30
0.0
 11
67.951608349
 21
187.6320161244
 31
0.0
  0
LINE
  5
1EE
330
1F
100
AcDbEntity
  8
0
  6
Continuous
 62
     7
370
    25
100
AcDbLine
 10
90.4022487097
 20
189.8754158024
 30
0.0
 11
90.4022487096
 21
187.7489765375
 31
0.0
  0
ARC
  5
1EF
330
1F
100
AcDbEntity
  8
0
  6
Continuous
 62
     7
370
    25
100
AcDbCircle
 10
89.2375536385
 20
183.4806445047
 30
0.0
 40
6.499970350542728
100
AcDbArc
 50
5.6853871301
 51
79.677726991
  0
LINE
  5
1F0
330
1F
100
AcDbEntity
  8
0
  6
Continuous
 62
     7
370
    25
100
AcDbLine
 10
95.7055497793
 20
184.1245703391
 30
0.0
 11
95.7055497793
 21
178.9688422736
 31
0.0
  0
LWPOLYLINE
  5
1F1
330
1F
100
AcDbEntity
  8
0
  6
Continuous
 62
     7
370
    25
100
AcDbPolyline
 90
       22
 70
   128
 43
0.0
 10
95.7055497793
 20
178.9688422736
 10
95.4452192327
 20
177.8202379737
 10
95.0966068436
 20
176.6962141074
 10
94.6642328615
 20
175.6113404222
 10
94.1537001829
 20
174.5796788358
 10
93.5716284974
 20
173.6146026667
 10
92.9255594566
 20
172.7286200594
 10
92.2238704051
 20
171.9332158189
 10
91.4756558428
 20
171.2386997359
 10
90.6906128373
 20
170.6540748263
 10
89.8789185357
 20
170.1869183683
 10
89.0510938448
 20
169.8432854491
 10
88.217869089
 20
169.6276310134
 10
87.3900443982
 20
169.5427503407
 10
86.5783504258
 20
169.5897429957
 10
85.7933077496
 20
169.7679998285
 10
85.045092858
 20
170.0752114692
 10
84.3434034773
 20
170.5073946439
 10
83.6973354243
 20
171.0589475624
 10
83.1152627509
 20
171.7227210002
 10
82.6047306486
 20
172.490111575
 10
82.4157266461
 20
172.8361823715
  0
LINE
  5
1F2
330
1F
100
AcDbEntity
  8
0
  6
Continuous
 62
     7
370
    25
100
AcDbLine
 10
86.5345298864
 20
188.7500155926
 30
0.0
 11
86.8667148827
 21
188.9603523133
 31
0.0
  0
LINE
  5
1F3
330
1F
100
AcDbEntity
  8
0
  6
Continuous
 62
     7
370
    25
100
AcDbLine
 10
86.8667148827
 20
188.6640395471
 30
0.0
 11
86.8667148827
 21
188.9603523133
 31
0.0
  0
LINE
  5
1F4
330
1F
100
AcDbEntity
  8
0
  6
Continuous
 62
     7
370
    25
100
AcDbLine
 10
86.8667148827
 20
172.6907517927
 30
0.0
 11
86.8667148827
 21
173.496007668
 31
0.0
  0
LINE
  5
1F5
330
1F
100
AcDbEntity
  8
0
  6
Continuous
 62
     7
370
    25
100
AcDbLine
 10
95.7409056834
 20
178.9596914922
 30
0.0
 11
95.7055497793
 21
178.9688422736
 31
0.0
  0
LWPOLYLINE
  5
1F6
330
1F
100
AcDbEntity
  8
0
  6
Continuous
 62
     7
370
    25
100
AcDbPolyline
 90
        3
 70
   128
 43
0.0
 10
86.9250400295
 20
169.4679749873
 10
87.4622338825
 20
169.3609771235
 10
88.0759917663
 20
169.3132496426
  0
LINE
  5
1F7
330
1F
100
AcDbEntity
  8
0
  6
Continuous
 62
     7
370
    25
100
AcDbLine
 10
95.7055497793
 20
184.1245703391
 30
0.0
 11
95.7409053027
 21
184.1154196563
 31
0.0
  0
LWPOLYLINE
  5
1F8
330
1F
100
AcDbEntity
  8
0
  6
Continuous
 62
     7
370
    25
100
AcDbPolyline
 90
        4
 70
   128
 43
0.0
 10
93.1931874994
 20
189.0845767281
 10
92.903474014
 20
189.2275744557
 10
92.1129828699
 20
189.5073169566
 10
92.111690147
 20
189.5076516692
  0
LINE
  5
1F9
330
1F
100
AcDbEntity
  8
0
  6
Continuous
 62
     7
370
    25
100
AcDbLine
 10
89.9072739805
 20
174.0999496481
 30
0.0
 11
89.9072739805
 21
173.7339241685
 31
0.0
  0
LINE
  5
1FA
330
1F
100
AcDbEntity
  8
0
  6
Continuous
 62
     7
370
    25
100
AcDbLine
 10
85.6646332565
 20
172.6358479476
 30
0.0
 11
85.6646332565
 21
173.184886167
 31
0.0
  0
LINE
  5
1FB
330
1F
100
AcDbEntity
  8
0
  6
Continuous
 62
     7
370
    25
100
AcDbLine
 10
86.3717401536
 20
172.8188606795
 30
0.0
 11
86.3717401536
 21
173.3678988989
 31
0.0
  0
LINE
  5
1FC
330
1F
100
AcDbEntity
  8
0
  6
Continuous
 62
     7
370
    25
100
AcDbLine
 10
86.8667148827
 20
188.9603523133
 30
0.0
 11
87.7505983395
 21
188.7315864411
 31
0.0
  0
LINE
  5
1FD
330
1F
100
AcDbEntity
  8
0
  6
Continuous
 62
     7
370
    25
100
AcDbLine
 10
87.7505983395
 20
188.4352736748
 30
0.0
 11
87.7505983395
 21
188.7315864411
 31
0.0
  0
LWPOLYLINE
  5
1FE
330
1F
100
AcDbEntity
  8
0
  6
Continuous
 62
     8
370
    25
100
AcDbPolyline
 90
       12
 70
   128
 43
0.0
 10
78.7179286049
 20
175.8759352732
 10
78.2494492615
 20
175.9726297798
 10
77.7095843521
 20
176.0399188002
 10
77.1254020314
 20
176.0744287392
 10
76.5261956763
 20
176.0744289096
 10
75.9420126971
 20
176.0399191411
 10
75.402147129
 20
175.9726296094
 10
74.9336684442
 20
175.8759352732
 10
74.560070218
 20
175.7546840673
 10
74.3000840902
 20
175.614956747
 10
74.1667485837
 20
175.4637590661
 10
74.1507024882
 20
175.3694964525
  0
LWPOLYLINE
  5
1FF
330
1F
100
AcDbEntity
  8
0
  6
Continuous
 62
     8
370
    25
100
AcDbPolyline
 90
        5
 70
   128
 43
0.0
 10
79.500806316
 20
175.3685838961
 10
79.4848484655
 20
175.4637590661
 10
79.3515123004
 20
175.6149565765
 10
79.0915261726
 20
175.7546842378
 10
78.7179286049
 20
175.8759352732
  0
LWPOLYLINE
  5
200
330
1F
100
AcDbEntity
  8
0
  6
Continuous
 62
     8
370
    25
100
AcDbPolyline
 90
       15
 70
   128
 43
0.0
 10
78.2114644143
 20
174.9017349378
 10
77.8056126537
 20
174.9823368169
 10
77.3329871141
 20
175.0330053451
 10
76.8257985246
 20
175.0502873299
 10
76.3186092765
 20
175.0330051747
 10
75.8459843955
 20
174.9823368169
 10
75.4401326348
 20
174.9017349378
 10
75.1287108882
 20
174.7966927727
 10
74.9329433867
 20
174.6743684523
 10
74.8661709249
 20
174.5430983858
 10
74.9329433867
 20
174.4118283194
 10
75.1287115468
 20
174.2895038285
 10
75.4401326348
 20
174.184461493
 10
75.845985054
 20
174.1038597843
 10
76.0526178814
 20
174.0770564646
  0
LWPOLYLINE
  5
201
330
1F
100
AcDbEntity
  8
0
  6
Continuous
 62
     8
370
    25
100
AcDbPolyline
 90
        9
 70
   128
 43
0.0
 10
77.5989785092
 20
174.0770562941
 10
77.8056119951
 20
174.1038597843
 10
78.2114637558
 20
174.1844616634
 10
78.5228855023
 20
174.2895038285
 10
78.7186530039
 20
174.4118281489
 10
78.7854261242
 20
174.5430983858
 10
78.7186530039
 20
174.6743686227
 10
78.5228861609
 20
174.7966927727
 10
78.2114644143
 20
174.9017349378
  0
ARC
  5
202
330
1F
100
AcDbEntity
  8
0
  6
Continuous
 62
     8
370
    25
100
AcDbCircle
 10
84.6581766842
 20
143.9909588069
 30
0.0
 40
2.016737084808351
100
AcDbArc
 50
81.7911967545
 51
91.1887494367
  0
LINE
  5
203
330
1F
100
AcDbEntity
  8
0
  6
Continuous
 62
     8
370
    25
100
AcDbLine
 10
89.6573844101
 20
120.9280639365
 30
0.0
 11
112.6695917676
 21
126.8840614704
 31
0.0
  0
LINE
  5
204
330
1F
100
AcDbEntity
  8
0
  6
Continuous
 62
     8
370
    25
100
AcDbLine
 10
54.9675854619
 20
136.6953741908
 30
0.0
 11
73.624554855
 21
125.0376711437
 31
0.0
  0
LINE
  5
205
330
1F
100
AcDbEntity
  8
0
  6
Continuous
 62
     8
370
    25
100
AcDbLine
 10
102.3019933756
 20
157.3621996178
 30
0.0
 11
102.0356168965
 21
157.5286439267
 31
0.0
  0
LINE
  5
206
330
1F
100
AcDbEntity
  8
0
  6
Continuous
 62
     8
370
    25
100
AcDbLine
 10
93.93778266
 20
164.5700033433
 30
0.0
 11
91.3025331762
 21
163.8879505883
 31
0.0
  0
SPLINE
  5
207
330
1F
100
AcDbEntity
  8
0
  6
Continuous
 62
     8
370
    25
100
AcDbSpline
210
0.0
220
0.0
230
1.0
 70
     8
 71
     3
 72
    10
 73
     6
 74
     0
 42
0.000000001
 43
0.00000001
 40
0.0
 40
0.0
 40
0.0
 40
0.0
 40
0.3658923459147257
 40
0.728001601518531
 40
1.0
 40
1.0
 40
1.0
 40
1.0
 10
105.3631570138659
 20
164.325101246393
 30
0.0
 10
105.5088141820931
 20
164.4478617961099
 30
0.0
 10
105.7986225175939
 20
164.6921136308231
 30
0.0
 10
105.8781740854314
 20
165.1165130942782
 30
0.0
 10
105.7041129678737
 20
165.3529998232334
 30
0.0
 10
105.6294500223809
 20
165.4544400299926
 30
0.0
  0
LWPOLYLINE
  5
208
330
1F
100
AcDbEntity
  8
0
  6
Continuous
 62
     8
370
    25
100
AcDbPolyline
 90
       11
 70
   128
 43
0.0
 10
108.63636688
 20
154.6729486746
 10
108.6369892046
 20
154.9187827449
 10
108.5198295268
 20
155.2546633007
 10
108.273070924
 20
155.5973857433
 10
107.9051170827
 20
155.9352821874
 10
107.4284958243
 20
156.2568432974
 10
106.8594396124
 20
156.5511209201
 10
106.217327107
 20
156.8080920442
 10
105.5240256077
 20
157.0190069001
 10
104.8031416303
 20
157.1766812947
 10
104.5673334702
 20
157.2154615773
  0
LWPOLYLINE
  5
209
330
1F
100
AcDbEntity
  8
0
  6
Continuous
 62
     8
370
    25
100
AcDbPolyline
 90
       12
 70
   128
 43
0.0
 10
108.7217544195
 20
155.0836434716
 10
108.7289430913
 20
155.3457926636
 10
108.6160112693
 20
155.6812623006
 10
108.3732832882
 20
156.0239482092
 10
108.0090255279
 20
156.3621772676
 10
107.5356429914
 20
156.6844333893
 10
106.9692532262
 20
156.9797433753
 10
106.3291479645
 20
157.2380477012
 10
105.637121572
 20
157.4505526179
 10
104.9167426982
 20
157.610020744
 10
104.1925411381
 20
157.7110228689
 10
103.7214231715
 20
157.7440247784
  0
LWPOLYLINE
  5
20A
330
1F
100
AcDbEntity
  8
0
  6
Continuous
 62
     8
370
    25
100
AcDbPolyline
 90
       26
 70
   128
 43
0.0
 10
100.6897247902
 20
158.018579732
 10
100.6149151219
 20
158.099552918
 10
100.2534759321
 20
158.5787970459
 10
99.9562718322
 20
159.1329112591
 10
99.735470749
 20
159.7392054045
 10
99.600112523
 20
160.372860881
 10
99.5557381477
 20
161.0079333849
 10
99.6041648767
 20
161.6184258525
 10
99.7434095031
 20
162.179342843
 10
99.967771995
 20
162.6677196122
 10
100.268066315
 20
163.0635645131
 10
100.6319987542
 20
163.3506696608
 10
101.0446697433
 20
163.5172816873
 10
101.489184652
 20
163.5565787651
 10
101.9473449321
 20
163.4669523152
 10
102.4003929313
 20
163.2520715177
 10
102.8297817312
 20
162.9207344396
 10
103.2179318155
 20
162.4865066708
 10
103.5489511881
 20
161.967162514
 10
103.8092896371
 20
161.3839668994
 10
103.9882879613
 20
160.7607937735
 10
104.0786172188
 20
160.1231596022
 10
104.0765809991
 20
159.4971645863
 10
103.9822616205
 20
158.9084400868
 10
103.7995201294
 20
158.3810871105
 10
103.7629498358
 20
158.304736851
  0
LWPOLYLINE
  5
20B
330
1F
100
AcDbEntity
  8
0
  6
Continuous
 62
     8
370
    25
100
AcDbPolyline
 90
       14
 70
   128
 43
0.0
 10
99.3042574516
 20
157.6599939104
 10
99.2485686231
 20
157.7371121586
 10
98.8828824798
 20
158.3405083944
 10
98.5918565152
 20
159.0077067324
 10
98.3854013302
 20
159.7159895381
 10
98.270547546
 20
160.441234554
 10
98.2512065877
 20
161.1587450621
 10
98.3280366706
 20
161.8440888011
 10
98.4984218911
 20
162.4739256023
 10
98.7565594844
 20
163.026807029
 10
99.0936595277
 20
163.4839073324
 10
99.4982416146
 20
163.8296573406
 10
99.9565289938
 20
164.052286554
 10
100.0399056676
 20
164.0776188254
  0
LWPOLYLINE
  5
20C
330
1F
100
AcDbEntity
  8
0
  6
Continuous
 62
     8
370
    25
100
AcDbPolyline
 90
       14
 70
   128
 43
0.0
 10
98.9549601762
 20
157.5695891232
 10
98.8865617679
 20
157.6647734937
 10
98.5230794439
 20
158.2705355962
 10
98.2346148881
 20
158.9394081238
 10
98.0309919384
 20
159.6486095375
 10
97.9191445746
 20
160.3739904165
 10
97.9028814887
 20
161.0908482468
 10
97.9827565167
 20
161.7747723849
 10
98.1560497051
 20
162.4024711822
 10
98.4168595074
 20
162.9525703467
 10
98.756304957
 20
163.4063360618
 10
99.1628257989
 20
163.7483151786
 10
99.6225790982
 20
163.9668640767
 10
99.7237559008
 20
163.9961192342
  0
LINE
  5
20D
330
1F
100
AcDbEntity
  8
0
  6
Continuous
 62
     8
370
    25
100
AcDbLine
 10
101.2123276017
 20
161.3558373202
 30
0.0
 11
100.694424493
 21
161.2217941322
 31
0.0
  0
LINE
  5
20E
330
1F
100
AcDbEntity
  8
0
  6
Continuous
 62
     8
370
    25
100
AcDbLine
 10
101.5262811226
 20
158.9067471228
 30
0.0
 11
102.2838980542
 21
159.1028275865
 31
0.0
  0
LINE
  5
20F
330
1F
100
AcDbEntity
  8
0
  6
Continuous
 62
     8
370
    25
100
AcDbLine
 10
83.122958502
 20
158.31290443
 30
0.0
 11
82.6240740764
 21
158.1837836393
 31
0.0
  0
LINE
  5
210
330
1F
100
AcDbEntity
  8
0
  6
Continuous
 62
     8
370
    25
100
AcDbLine
 10
93.0856356568
 20
165.637644018
 30
0.0
 11
83.3311808912
 21
168.162282686
 31
0.0
  0
MTEXT
  5
212
330
1F
100
AcDbEntity
  8
0
  6
Continuous
 62
     7
370
     0
100
AcDbMText
 10
150.9962913513
 20
118.5718716638
 30
0.0
 40
3.5
 41
0.0
 71
     1
 72
     1
  1
HCE-016K
  7
SLDTEXTSTYLE0
 73
     1
 44
1.0
  0
ENDSEC
  0
SECTION
  2
OBJECTS
  0
DICTIONARY
  5
C
330
0
100
AcDbDictionary
281
     1
  3
ACAD_GROUP
350
D
  3
ACAD_LAYOUT
350
1A
  3
ACAD_MLINESTYLE
350
17
  3
ACAD_PLOTSETTINGS
350
19
  3
ACAD_PLOTSTYLENAME
350
E
  3
ACAD_SCALELIST
350
47
  0
DICTIONARY
  5
D
102
{ACAD_REACTORS
330
C
102
}
330
C
100
AcDbDictionary
281
     1
  0
DICTIONARY
  5
1A
102
{ACAD_REACTORS
330
C
102
}
330
C
100
AcDbDictionary
281
     1
  3
Layout1
350
1E
  3
Layout2
350
26
  3
Model
350
22
  0
DICTIONARY
  5
17
102
{ACAD_REACTORS
330
C
102
}
330
C
100
AcDbDictionary
281
     1
  3
Standard
350
18
  0
DICTIONARY
  5
19
102
{ACAD_REACTORS
330
C
102
}
330
C
100
AcDbDictionary
281
     1
  0
ACDBDICTIONARYWDFLT
  5
E
102
{ACAD_REACTORS
330
C
102
}
330
C
100
AcDbDictionary
281
     1
  3
Normal
350
F
100
AcDbDictionaryWithDefault
340
F
  0
DICTIONARY
  5
47
102
{ACAD_REACTORS
330
C
102
}
330
C
100
AcDbDictionary
281
     1
  3
A0
350
48
  3
A1
350
49
  3
A2
350
4A
  3
A3
350
4B
  3
A4
350
4C
  3
A5
350
4D
  3
A6
350
4E
  3
A7
350
4F
  3
A8
350
50
  3
A9
350
51
  3
B0
350
52
  3
B1
350
53
  3
B2
350
54
  3
B3
350
55
  3
B4
350
56
  3
B5
350
57
  3
B6
350
58
  3
B7
350
59
  3
B8
350
5A
  3
B9
350
5B
  3
C0
350
5C
  3
C1
350
5D
  3
C2
350
5E
  3
C3
350
5F
  3
C4
350
60
  3
C5
350
61
  3
C6
350
62
  3
C7
350
63
  3
C8
350
64
  3
C9
350
65
  3
D0
350
66
  3
D1
350
67
  3
D2
350
68
  0
LAYOUT
  5
1E
102
{ACAD_REACTORS
330
1A
102
}
330
1A
100
AcDbPlotSettings
  1

  2
none_device
  4

  6

 40
0.0
 41
0.0
 42
0.0
 43
0.0
 44
0.0
 45
0.0
 46
0.0
 47
0.0
 48
0.0
 49
0.0
140
0.0
141
0.0
142
1.0
143
1.0
 70
   688
 72
     1
 73
     0
 74
     5
  7

 75
    16
147
1.0
148
0.0
149
0.0
100
AcDbLayout
  1
Layout1
 70
     1
 71
     1
 10
0.0
 20
0.0
 11
420.0
 21
297.0
 12
0.0
 22
0.0
 32
0.0
 14
1.0000000000E+20
 24
1.0000000000E+20
 34
1.0000000000E+20
 15
-1.0000000000E+20
 25
-1.0000000000E+20
 35
-1.0000000000E+20
146
0.0
 13
0.0
 23
0.0
 33
0.0
 16
1.0
 26
0.0
 36
0.0
 17
0.0
 27
1.0
 37
0.0
 76
     0
330
1B
  0
LAYOUT
  5
26
102
{ACAD_REACTORS
330
1A
102
}
330
1A
100
AcDbPlotSettings
  1

  2
none_device
  4

  6

 40
0.0
 41
0.0
 42
0.0
 43
0.0
 44
0.0
 45
0.0
 46
0.0
 47
0.0
 48
0.0
 49
0.0
140
0.0
141
0.0
142
1.0
143
1.0
 70
   688
 72
     1
 73
     0
 74
     5
  7

 75
    16
147
1.0
148
0.0
149
0.0
100
AcDbLayout
  1
Layout2
 70
     1
 71
     2
 10
0.0
 20
0.0
 11
0.0
 21
0.0
 12
0.0
 22
0.0
 32
0.0
 14
0.0
 24
0.0
 34
0.0
 15
0.0
 25
0.0
 35
0.0
146
0.0
 13
0.0
 23
0.0
 33
0.0
 16
1.0
 26
0.0
 36
0.0
 17
0.0
 27
1.0
 37
0.0
 76
     0
330
23
  0
LAYOUT
  5
22
102
{ACAD_REACTORS
330
1A
102
}
330
1A
100
AcDbPlotSettings
  1

  2
none_device
  4
Letter_(8.50_x_11.00_Inches)
  6

 40
6.35
 41
6.35
 42
6.35000508
 43
6.35000508
 44
215.9
 45
279.4
 46
0.0
 47
0.0
 48
0.0
 49
0.0
140
0.0
141
0.0
142
1.0
143
1.0
 70
  1712
 72
     1
 73
     0
 74
     0
  7

 75
     0
147
1.0
148
0.0
149
0.0
100
AcDbLayout
  1
Model
 70
     1
 71
     0
 10
0.0
 20
0.0
 11
210.0
 21
297.0
 12
0.0
 22
0.0
 32
0.0
 14
0.0
 24
0.0
 34
0.0
 15
210.0
 25
297.0
 35
0.0
146
0.0
 13
0.0
 23
0.0
 33
0.0
 16
1.0
 26
0.0
 36
0.0
 17
0.0
 27
1.0
 37
0.0
 76
     0
330
1F
331
29
  0
MLINESTYLE
  5
18
102
{ACAD_REACTORS
330
17
102
}
330
17
100
AcDbMlineStyle
  2
Standard
 70
     0
  3

 62
   256
 51
90.0
 52
90.0
 71
     2
 49
0.5
 62
   256
  6
BYLAYER
 49
-0.5
 62
   256
  6
BYLAYER
  0
ACDBPLACEHOLDER
  5
F
102
{ACAD_REACTORS
330
E
102
}
330
E
  0
SCALE
  5
48
102
{ACAD_REACTORS
330
47
102
}
330
47
100
AcDbScale
 70
     0
300
1:1
140
1.0
141
1.0
290
     1
  0
SCALE
  5
49
102
{ACAD_REACTORS
330
47
102
}
330
47
100
AcDbScale
 70
     0
300
1:2
140
1.0
141
2.0
290
     0
  0
SCALE
  5
4A
102
{ACAD_REACTORS
330
47
102
}
330
47
100
AcDbScale
 70
     0
300
1:4
140
1.0
141
4.0
290
     0
  0
SCALE
  5
4B
102
{ACAD_REACTORS
330
47
102
}
330
47
100
AcDbScale
 70
     0
300
1:5
140
1.0
141
5.0
290
     0
  0
SCALE
  5
4C
102
{ACAD_REACTORS
330
47
102
}
330
47
100
AcDbScale
 70
     0
300
1:8
140
1.0
141
8.0
290
     0
  0
SCALE
  5
4D
102
{ACAD_REACTORS
330
47
102
}
330
47
100
AcDbScale
 70
     0
300
1:10
140
1.0
141
10.0
290
     0
  0
SCALE
  5
4E
102
{ACAD_REACTORS
330
47
102
}
330
47
100
AcDbScale
 70
     0
300
1:16
140
1.0
141
16.0
290
     0
  0
SCALE
  5
4F
102
{ACAD_REACTORS
330
47
102
}
330
47
100
AcDbScale
 70
     0
300
1:20
140
1.0
141
20.0
290
     0
  0
SCALE
  5
50
102
{ACAD_REACTORS
330
47
102
}
330
47
100
AcDbScale
 70
     0
300
1:30
140
1.0
141
30.0
290
     0
  0
SCALE
  5
51
102
{ACAD_REACTORS
330
47
102
}
330
47
100
AcDbScale
 70
     0
300
1:40
140
1.0
141
40.0
290
     0
  0
SCALE
  5
52
102
{ACAD_REACTORS
330
47
102
}
330
47
100
AcDbScale
 70
     0
300
1:50
140
1.0
141
50.0
290
     0
  0
SCALE
  5
53
102
{ACAD_REACTORS
330
47
102
}
330
47
100
AcDbScale
 70
     0
300
1:100
140
1.0
141
100.0
290
     0
  0
SCALE
  5
54
102
{ACAD_REACTORS
330
47
102
}
330
47
100
AcDbScale
 70
     0
300
2:1
140
2.0
141
1.0
290
     0
  0
SCALE
  5
55
102
{ACAD_REACTORS
330
47
102
}
330
47
100
AcDbScale
 70
     0
300
4:1
140
4.0
141
1.0
290
     0
  0
SCALE
  5
56
102
{ACAD_REACTORS
330
47
102
}
330
47
100
AcDbScale
 70
     0
300
8:1
140
8.0
141
1.0
290
     0
  0
SCALE
  5
57
102
{ACAD_REACTORS
330
47
102
}
330
47
100
AcDbScale
 70
     0
300
10:1
140
10.0
141
1.0
290
     0
  0
SCALE
  5
58
102
{ACAD_REACTORS
330
47
102
}
330
47
100
AcDbScale
 70
     0
300
100:1
140
100.0
141
1.0
290
     0
  0
SCALE
  5
59
102
{ACAD_REACTORS
330
47
102
}
330
47
100
AcDbScale
 70
     0
300
1/128" = 1'-0"
140
0.0078125
141
12.0
290
     0
  0
SCALE
  5
5A
102
{ACAD_REACTORS
330
47
102
}
330
47
100
AcDbScale
 70
     0
300
1/64" = 1'-0"
140
0.015625
141
12.0
290
     0
  0
SCALE
  5
5B
102
{ACAD_REACTORS
330
47
102
}
330
47
100
AcDbScale
 70
     0
300
1/32" = 1'-0"
140
0.03125
141
12.0
290
     0
  0
SCALE
  5
5C
102
{ACAD_REACTORS
330
47
102
}
330
47
100
AcDbScale
 70
     0
300
1/16" = 1'-0"
140
0.0625
141
12.0
290
     0
  0
SCALE
  5
5D
102
{ACAD_REACTORS
330
47
102
}
330
47
100
AcDbScale
 70
     0
300
3/32" = 1'-0"
140
0.09375
141
12.0
290
     0
  0
SCALE
  5
5E
102
{ACAD_REACTORS
330
47
102
}
330
47
100
AcDbScale
 70
     0
300
1/8" = 1'-0"
140
0.125
141
12.0
290
     0
  0
SCALE
  5
5F
102
{ACAD_REACTORS
330
47
102
}
330
47
100
AcDbScale
 70
     0
300
3/16" = 1'-0"
140
0.1875
141
12.0
290
     0
  0
SCALE
  5
60
102
{ACAD_REACTORS
330
47
102
}
330
47
100
AcDbScale
 70
     0
300
1/4" = 1'-0"
140
0.25
141
12.0
290
     0
  0
SCALE
  5
61
102
{ACAD_REACTORS
330
47
102
}
330
47
100
AcDbScale
 70
     0
300
3/8" = 1'-0"
140
0.375
141
12.0
290
     0
  0
SCALE
  5
62
102
{ACAD_REACTORS
330
47
102
}
330
47
100
AcDbScale
 70
     0
300
1/2" = 1'-0"
140
0.5
141
12.0
290
     0
  0
SCALE
  5
63
102
{ACAD_REACTORS
330
47
102
}
330
47
100
AcDbScale
 70
     0
300
3/4" = 1'-0"
140
0.75
141
12.0
290
     0
  0
SCALE
  5
64
102
{ACAD_REACTORS
330
47
102
}
330
47
100
AcDbScale
 70
     0
300
1" = 1'-0"
140
1.0
141
12.0
290
     0
  0
SCALE
  5
65
102
{ACAD_REACTORS
330
47
102
}
330
47
100
AcDbScale
 70
     0
300
1-1/2" = 1'-0"
140
1.5
141
12.0
290
     0
  0
SCALE
  5
66
102
{ACAD_REACTORS
330
47
102
}
330
47
100
AcDbScale
 70
     0
300
3" = 1'-0"
140
3.0
141
12.0
290
     0
  0
SCALE
  5
67
102
{ACAD_REACTORS
330
47
102
}
330
47
100
AcDbScale
 70
     0
300
6" = 1'-0"
140
6.0
141
12.0
290
     0
  0
SCALE
  5
68
102
{ACAD_REACTORS
330
47
102
}
330
47
100
AcDbScale
 70
     0
300
1'-0" = 1'-0"
140
12.0
141
12.0
290
     0
  0
ENDSEC
  0
EOF
