  0
SECTION
  2
HEADER
  9
$ACADVER
  1
AC1021
  9
$ACADMAINTVER
 70
    25
  9
$DWGCODEPAGE
  3
ANSI_932
  9
$INSBASE
 10
0.0
 20
0.0
 30
0.0
  9
$EXTMIN
 10
1.000000000000000E+20
 20
1.000000000000000E+20
 30
1.000000000000000E+20
  9
$EXTMAX
 10
-1.000000000000000E+20
 20
-1.000000000000000E+20
 30
-1.000000000000000E+20
  9
$LIMMIN
 10
0.0
 20
0.0
  9
$LIMMAX
 10
12.0
 20
9.0
  9
$ORTHOMODE
 70
     0
  9
$REGENMODE
 70
     1
  9
$FILLMODE
 70
     1
  9
$QTEXTMODE
 70
     0
  9
$MIRRTEXT
 70
     1
  9
$LTSCALE
 40
1.0
  9
$ATTMODE
 70
     1
  9
$TEXTSIZE
 40
0.2
  9
$TRACEWID
 40
0.05
  9
$TEXTSTYLE
  7
Standard
  9
$CLAYER
  8
0
  9
$CELTYPE
  6
ByLayer
  9
$CECOLOR
 62
   256
  9
$CELTSCALE
 40
1.0
  9
$DISPSILH
 70
     0
  9
$DIMSCALE
 40
1.0
  9
$DIMASZ
 40
0.18
  9
$DIMEXO
 40
0.0625
  9
$DIMDLI
 40
0.38
  9
$DIMRND
 40
0.0
  9
$DIMDLE
 40
0.0
  9
$DIMEXE
 40
0.18
  9
$DIMTP
 40
0.0
  9
$DIMTM
 40
0.0
  9
$DIMTXT
 40
0.18
  9
$DIMCEN
 40
0.09
  9
$DIMTSZ
 40
0.0
  9
$DIMTOL
 70
     0
  9
$DIMLIM
 70
     0
  9
$DIMTIH
 70
     1
  9
$DIMTOH
 70
     1
  9
$DIMSE1
 70
     0
  9
$DIMSE2
 70
     0
  9
$DIMTAD
 70
     0
  9
$DIMZIN
 70
     0
  9
$DIMBLK
  1

  9
$DIMASO
 70
     1
  9
$DIMSHO
 70
     1
  9
$DIMPOST
  1

  9
$DIMAPOST
  1

  9
$DIMALT
 70
     0
  9
$DIMALTD
 70
     2
  9
$DIMALTF
 40
25.4
  9
$DIMLFAC
 40
1.0
  9
$DIMTOFL
 70
     0
  9
$DIMTVP
 40
0.0
  9
$DIMTIX
 70
     0
  9
$DIMSOXD
 70
     0
  9
$DIMSAH
 70
     0
  9
$DIMBLK1
  1

  9
$DIMBLK2
  1

  9
$DIMSTYLE
  2
Standard
  9
$DIMCLRD
 70
     0
  9
$DIMCLRE
 70
     0
  9
$DIMCLRT
 70
     0
  9
$DIMTFAC
 40
1.0
  9
$DIMGAP
 40
0.09
  9
$DIMJUST
 70
     0
  9
$DIMSD1
 70
     0
  9
$DIMSD2
 70
     0
  9
$DIMTOLJ
 70
     1
  9
$DIMTZIN
 70
     0
  9
$DIMALTZ
 70
     0
  9
$DIMALTTZ
 70
     0
  9
$DIMUPT
 70
     0
  9
$DIMDEC
 70
     4
  9
$DIMTDEC
 70
     4
  9
$DIMALTU
 70
     2
  9
$DIMALTTD
 70
     2
  9
$DIMTXSTY
  7
Standard
  9
$DIMAUNIT
 70
     0
  9
$DIMADEC
 70
     0
  9
$DIMALTRND
 40
0.0
  9
$DIMAZIN
 70
     0
  9
$DIMDSEP
 70
    46
  9
$DIMATFIT
 70
     3
  9
$DIMFRAC
 70
     0
  9
$DIMLDRBLK
  1

  9
$DIMLUNIT
 70
     2
  9
$DIMLWD
 70
    -2
  9
$DIMLWE
 70
    -2
  9
$DIMTMOVE
 70
     0
  9
$DIMFXL
 40
1.0
  9
$DIMFXLON
 70
     0
  9
$DIMJOGANG
 40
0.7853981633974483
  9
$DIMTFILL
 70
     0
  9
$DIMTFILLCLR
 70
     0
  9
$DIMARCSYM
 70
     0
  9
$DIMLTYPE
  6

  9
$DIMLTEX1
  6

  9
$DIMLTEX2
  6

  9
$LUNITS
 70
     2
  9
$LUPREC
 70
     4
  9
$SKETCHINC
 40
0.1
  9
$FILLETRAD
 40
0.5
  9
$AUNITS
 70
     0
  9
$AUPREC
 70
     0
  9
$MENU
  1
.
  9
$ELEVATION
 40
0.0
  9
$PELEVATION
 40
0.0
  9
$THICKNESS
 40
0.0
  9
$LIMCHECK
 70
     0
  9
$CHAMFERA
 40
0.5
  9
$CHAMFERB
 40
0.5
  9
$CHAMFERC
 40
1.0
  9
$CHAMFERD
 40
0.0
  9
$SKPOLY
 70
     0
  9
$TDCREATE
 40
2458520.621866435
  9
$TDUCREATE
 40
2458520.246866435
  9
$TDUPDATE
 40
2458520.621866528
  9
$TDUUPDATE
 40
2458520.246866528
  9
$TDINDWG
 40
0.0000000116
  9
$TDUSRTIMER
 40
0.0000000116
  9
$USRTIMER
 70
     1
  9
$ANGBASE
 50
0.0
  9
$ANGDIR
 70
     0
  9
$PDMODE
 70
     0
  9
$PDSIZE
 40
0.0
  9
$PLINEWID
 40
0.0
  9
$SPLFRAME
 70
     0
  9
$SPLINETYPE
 70
     6
  9
$SPLINESEGS
 70
     8
  9
$HANDSEED
  5
1B0
  9
$SURFTAB1
 70
     6
  9
$SURFTAB2
 70
     6
  9
$SURFTYPE
 70
     6
  9
$SURFU
 70
     6
  9
$SURFV
 70
     6
  9
$UCSBASE
  2

  9
$UCSNAME
  2

  9
$UCSORG
 10
0.0
 20
0.0
 30
0.0
  9
$UCSXDIR
 10
1.0
 20
0.0
 30
0.0
  9
$UCSYDIR
 10
0.0
 20
1.0
 30
0.0
  9
$UCSORTHOREF
  2

  9
$UCSORTHOVIEW
 70
     0
  9
$UCSORGTOP
 10
0.0
 20
0.0
 30
0.0
  9
$UCSORGBOTTOM
 10
0.0
 20
0.0
 30
0.0
  9
$UCSORGLEFT
 10
0.0
 20
0.0
 30
0.0
  9
$UCSORGRIGHT
 10
0.0
 20
0.0
 30
0.0
  9
$UCSORGFRONT
 10
0.0
 20
0.0
 30
0.0
  9
$UCSORGBACK
 10
0.0
 20
0.0
 30
0.0
  9
$PUCSBASE
  2

  9
$PUCSNAME
  2

  9
$PUCSORG
 10
0.0
 20
0.0
 30
0.0
  9
$PUCSXDIR
 10
1.0
 20
0.0
 30
0.0
  9
$PUCSYDIR
 10
0.0
 20
1.0
 30
0.0
  9
$PUCSORTHOREF
  2

  9
$PUCSORTHOVIEW
 70
     0
  9
$PUCSORGTOP
 10
0.0
 20
0.0
 30
0.0
  9
$PUCSORGBOTTOM
 10
0.0
 20
0.0
 30
0.0
  9
$PUCSORGLEFT
 10
0.0
 20
0.0
 30
0.0
  9
$PUCSORGRIGHT
 10
0.0
 20
0.0
 30
0.0
  9
$PUCSORGFRONT
 10
0.0
 20
0.0
 30
0.0
  9
$PUCSORGBACK
 10
0.0
 20
0.0
 30
0.0
  9
$USERI1
 70
     0
  9
$USERI2
 70
     0
  9
$USERI3
 70
     0
  9
$USERI4
 70
     0
  9
$USERI5
 70
     0
  9
$USERR1
 40
0.0
  9
$USERR2
 40
0.0
  9
$USERR3
 40
0.0
  9
$USERR4
 40
0.0
  9
$USERR5
 40
0.0
  9
$WORLDVIEW
 70
     1
  9
$SHADEDGE
 70
     3
  9
$SHADEDIF
 70
    70
  9
$TILEMODE
 70
     1
  9
$MAXACTVP
 70
    64
  9
$PINSBASE
 10
0.0
 20
0.0
 30
0.0
  9
$PLIMCHECK
 70
     0
  9
$PEXTMIN
 10
1.000000000000000E+20
 20
1.000000000000000E+20
 30
1.000000000000000E+20
  9
$PEXTMAX
 10
-1.000000000000000E+20
 20
-1.000000000000000E+20
 30
-1.000000000000000E+20
  9
$PLIMMIN
 10
0.0
 20
0.0
  9
$PLIMMAX
 10
12.0
 20
9.0
  9
$UNITMODE
 70
     0
  9
$VISRETAIN
 70
     1
  9
$PLINEGEN
 70
     0
  9
$PSLTSCALE
 70
     1
  9
$TREEDEPTH
 70
  3020
  9
$CMLSTYLE
  2
Standard
  9
$CMLJUST
 70
     0
  9
$CMLSCALE
 40
1.0
  9
$PROXYGRAPHICS
 70
     1
  9
$MEASUREMENT
 70
     0
  9
$CELWEIGHT
370
    -1
  9
$ENDCAPS
280
     0
  9
$JOINSTYLE
280
     0
  9
$LWDISPLAY
290
     1
  9
$INSUNITS
 70
     1
  9
$HYPERLINKBASE
  1

  9
$STYLESHEET
  1

  9
$XEDIT
290
     1
  9
$CEPSNTYPE
380
     0
  9
$PSTYLEMODE
290
     1
  9
$FINGERPRINTGUID
  2
{2227BADC-FB3B-44E0-A692-A8EFF5A4672C}
  9
$VERSIONGUID
  2
{FAEB1C32-E019-11D5-929B-00C0DF256EC4}
  9
$EXTNAMES
290
     1
  9
$PSVPSCALE
 40
0.0
  9
$OLESTARTUP
290
     0
  9
$SORTENTS
280
   127
  9
$INDEXCTL
280
     0
  9
$HIDETEXT
280
     1
  9
$XCLIPFRAME
290
     0
  9
$HALOGAP
280
     0
  9
$OBSCOLOR
 70
   257
  9
$OBSLTYPE
280
     0
  9
$INTERSECTIONDISPLAY
280
     0
  9
$INTERSECTIONCOLOR
 70
   257
  9
$DIMASSOC
280
     2
  9
$PROJECTNAME
  1

  9
$CAMERADISPLAY
290
     0
  9
$LENSLENGTH
 40
50.0
  9
$CAMERAHEIGHT
 40
0.0
  9
$STEPSPERSEC
 40
2.0
  9
$STEPSIZE
 40
6.0
  9
$3DDWFPREC
 40
2.0
  9
$PSOLWIDTH
 40
0.25
  9
$PSOLHEIGHT
 40
4.0
  9
$LOFTANG1
 40
1.570796326794897
  9
$LOFTANG2
 40
1.570796326794897
  9
$LOFTMAG1
 40
0.0
  9
$LOFTMAG2
 40
0.0
  9
$LOFTPARAM
 70
     7
  9
$LOFTNORMALS
280
     1
  9
$LATITUDE
 40
37.795
  9
$LONGITUDE
 40
-122.394
  9
$NORTHDIRECTION
 40
0.0
  9
$TIMEZONE
 70
 -8000
  9
$LIGHTGLYPHDISPLAY
280
     1
  9
$TILEMODELIGHTSYNCH
280
     1
  9
$CMATERIAL
347
3C
  9
$SOLIDHIST
280
     1
  9
$SHOWHIST
280
     1
  9
$DWFFRAME
280
     2
  9
$DGNFRAME
280
     2
  9
$REALWORLDSCALE
290
     1
  9
$INTERFERECOLOR
 62
   256
  9
$CSHADOW
280
     0
  9
$SHADOWPLANELOCATION
 40
0.0
  0
ENDSEC
  0
SECTION
  2
CLASSES
  0
CLASS
  1
ACDBDICTIONARYWDFLT
  2
AcDbDictionaryWithDefault
  3
ObjectDBX Classes
 90
        0
 91
        4
280
     0
281
     0
  0
CLASS
  1
VISUALSTYLE
  2
AcDbVisualStyle
  3
ObjectDBX Classes
 90
     4095
 91
        4
280
     0
281
     0
  0
CLASS
  1
MATERIAL
  2
AcDbMaterial
  3
ObjectDBX Classes
 90
     1153
 91
        4
280
     0
281
     0
  0
CLASS
  1
SUN
  2
AcDbSun
  3
SCENEOE
 90
     1024
 91
        4
280
     0
281
     0
  0
ENDSEC
  0
SECTION
  2
TABLES
  0
TABLE
  2
VPORT
  5
8
330
0
100
AcDbSymbolTable
 70
     1
  0
VPORT
  5
29
330
8
100
AcDbSymbolTableRecord
100
AcDbViewportTableRecord
  2
*Active
 70
     0
 10
0.0
 20
0.0
 11
1.0
 21
1.0
 12
0.0
 22
0.0
 13
0.0
 23
0.0
 14
0.5
 24
0.5
 15
0.5
 25
0.5
 16
0.0
 26
0.0
 36
1.0
 17
148.3916656437123
 27
104.8915941359208
 37
0.0
 40
297.0000052006764
 41
0.7070706878738762
 42
50.0
 43
0.0
 44
0.0
 50
0.0
 51
0.0
 71
     0
 72
   100
 73
     1
 74
     3
 75
     0
 76
     0
 77
     0
 78
     0
281
     0
 65
     1
110
0.0
120
0.0
130
0.0
111
1.0
121
0.0
131
0.0
112
0.0
122
1.0
132
0.0
 79
     0
146
0.0
 60
     3
 61
     5
292
     1
282
     1
141
0.0
142
0.0
 63
   250
361
3F
  0
ENDTAB
  0
TABLE
  2
LTYPE
  5
5
330
0
100
AcDbSymbolTable
 70
     1
  0
LTYPE
  5
14
330
5
100
AcDbSymbolTableRecord
100
AcDbLinetypeTableRecord
  2
ByBlock
 70
     0
  3

 72
    65
 73
     0
 40
0.0
  0
LTYPE
  5
15
330
5
100
AcDbSymbolTableRecord
100
AcDbLinetypeTableRecord
  2
ByLayer
 70
     0
  3

 72
    65
 73
     0
 40
0.0
  0
LTYPE
  5
16
330
5
100
AcDbSymbolTableRecord
100
AcDbLinetypeTableRecord
  2
Continuous
 70
     0
  3
Solid line
 72
    65
 73
     0
 40
0.0
  0
ENDTAB
  0
TABLE
  2
LAYER
  5
2
330
0
100
AcDbSymbolTable
 70
     2
  0
LAYER
  5
10
330
2
100
AcDbSymbolTableRecord
100
AcDbLayerTableRecord
  2
0
 70
     0
 62
     7
  6
Continuous
370
    -3
390
F
347
3E
  0
LAYER
  5
40
330
2
100
AcDbSymbolTableRecord
100
AcDbLayerTableRecord
  2
_U+30EC_U+30A4_U+30E4_U+30FC 1
 70
     0
 62
     7
  6
Continuous
370
    -3
390
F
347
3E
  0
ENDTAB
  0
TABLE
  2
STYLE
  5
3
330
0
100
AcDbSymbolTable
 70
     1
  0
STYLE
  5
11
330
3
100
AcDbSymbolTableRecord
100
AcDbTextStyleTableRecord
  2
Standard
 70
     0
 40
0.0
 41
1.0
 50
0.0
 71
     0
 42
0.2
  3
txt
  4

  0
ENDTAB
  0
TABLE
  2
VIEW
  5
6
330
0
100
AcDbSymbolTable
 70
     0
  0
ENDTAB
  0
TABLE
  2
UCS
  5
7
330
0
100
AcDbSymbolTable
 70
     0
  0
ENDTAB
  0
TABLE
  2
APPID
  5
9
330
0
100
AcDbSymbolTable
 70
     1
  0
APPID
  5
12
330
9
100
AcDbSymbolTableRecord
100
AcDbRegAppTableRecord
  2
ACAD
 70
     0
  0
ENDTAB
  0
TABLE
  2
DIMSTYLE
  5
A
330
0
100
AcDbSymbolTable
 70
     1
100
AcDbDimStyleTable
  0
DIMSTYLE
105
27
330
A
100
AcDbSymbolTableRecord
100
AcDbDimStyleTableRecord
  2
Standard
 70
     0
178
     0
340
11
  0
ENDTAB
  0
TABLE
  2
BLOCK_RECORD
  5
1
330
0
100
AcDbSymbolTable
 70
     6
  0
BLOCK_RECORD
  5
1F
330
1
100
AcDbSymbolTableRecord
100
AcDbBlockTableRecord
  2
*Model_Space
340
22
 70
     0
280
     1
281
     0
  0
BLOCK_RECORD
  5
1B
330
1
100
AcDbSymbolTableRecord
100
AcDbBlockTableRecord
  2
*Paper_Space
340
1E
 70
     0
280
     1
281
     0
  0
BLOCK_RECORD
  5
23
330
1
100
AcDbSymbolTableRecord
100
AcDbBlockTableRecord
  2
*Paper_Space0
340
26
 70
     0
280
     1
281
     0
  0
BLOCK_RECORD
  5
41
330
1
100
AcDbSymbolTableRecord
100
AcDbBlockTableRecord
  2
block 2
340
0
102
{BLKREFS
331
42
102
}
 70
     0
280
     1
281
     0
  0
BLOCK_RECORD
  5
115
330
1
100
AcDbSymbolTableRecord
100
AcDbBlockTableRecord
  2
block 3
340
0
102
{BLKREFS
331
116
102
}
 70
     0
280
     1
281
     0
  0
BLOCK_RECORD
  5
134
330
1
100
AcDbSymbolTableRecord
100
AcDbBlockTableRecord
  2
block 4
340
0
102
{BLKREFS
331
135
102
}
 70
     0
280
     1
281
     0
  0
BLOCK_RECORD
  5
153
330
1
100
AcDbSymbolTableRecord
100
AcDbBlockTableRecord
  2
block 5
340
0
102
{BLKREFS
331
154
102
}
 70
     0
280
     1
281
     0
  0
BLOCK_RECORD
  5
171
330
1
100
AcDbSymbolTableRecord
100
AcDbBlockTableRecord
  2
block 6
340
0
102
{BLKREFS
331
172
102
}
 70
     0
280
     1
281
     0
  0
ENDTAB
  0
ENDSEC
  0
SECTION
  2
BLOCKS
  0
BLOCK
  5
20
330
1F
100
AcDbEntity
  8
0
100
AcDbBlockBegin
  2
*Model_Space
 70
     0
 10
0.0
 20
0.0
 30
0.0
  3
*Model_Space
  1

  0
ENDBLK
  5
21
330
1F
100
AcDbEntity
  8
0
100
AcDbBlockEnd
  0
BLOCK
  5
1C
330
1B
100
AcDbEntity
 67
     1
  8
0
100
AcDbBlockBegin
  2
*Paper_Space
 70
     0
 10
0.0
 20
0.0
 30
0.0
  3
*Paper_Space
  1

  0
ENDBLK
  5
1D
330
1B
100
AcDbEntity
 67
     1
  8
0
100
AcDbBlockEnd
  0
BLOCK
  5
24
330
23
100
AcDbEntity
  8
0
100
AcDbBlockBegin
  2
*Paper_Space0
 70
     0
 10
0.0
 20
0.0
 30
0.0
  3
*Paper_Space0
  1

  0
ENDBLK
  5
25
330
23
100
AcDbEntity
  8
0
100
AcDbBlockEnd
  0
BLOCK
  5
43
330
41
100
AcDbEntity
  8
0
100
AcDbBlockBegin
  2
block 2
 70
     0
 10
0.0
 20
0.0
 30
0.0
  3
block 2
  1

  0
POLYLINE
  5
45
330
41
100
AcDbEntity
  8
_U+30EC_U+30A4_U+30E4_U+30FC 1
370
     0
100
AcDb2dPolyline
 66
     1
 10
0.0
 20
0.0
 30
0.0
  0
VERTEX
  5
46
330
45
100
AcDbEntity
  8
_U+30EC_U+30A4_U+30E4_U+30FC 1
370
     0
100
AcDbVertex
100
AcDb2dVertex
 10
169.1686577268051
 20
56.37726573082512
 30
0.0
  0
VERTEX
  5
47
330
45
100
AcDbEntity
  8
_U+30EC_U+30A4_U+30E4_U+30FC 1
370
     0
100
AcDbVertex
100
AcDb2dVertex
 10
168.7962429048495
 20
56.37726573082512
 30
0.0
  0
VERTEX
  5
48
330
45
100
AcDbEntity
  8
_U+30EC_U+30A4_U+30E4_U+30FC 1
370
     0
100
AcDbVertex
100
AcDb2dVertex
 10
168.7962429048495
 20
58.01127451947912
 30
0.0
  0
VERTEX
  5
49
330
45
100
AcDbEntity
  8
_U+30EC_U+30A4_U+30E4_U+30FC 1
370
     0
100
AcDbVertex
100
AcDb2dVertex
 10
167.161889606647
 20
58.01127451947912
 30
0.0
  0
VERTEX
  5
4A
330
45
100
AcDbEntity
  8
_U+30EC_U+30A4_U+30E4_U+30FC 1
370
     0
100
AcDbVertex
100
AcDb2dVertex
 10
167.161889606647
 20
56.37726573082512
 30
0.0
  0
VERTEX
  5
4B
330
45
100
AcDbEntity
  8
_U+30EC_U+30A4_U+30E4_U+30FC 1
370
     0
100
AcDbVertex
100
AcDb2dVertex
 10
166.7894747846915
 20
56.37726573082512
 30
0.0
  0
VERTEX
  5
4C
330
45
100
AcDbEntity
  8
_U+30EC_U+30A4_U+30E4_U+30FC 1
370
     0
100
AcDbVertex
100
AcDb2dVertex
 10
166.7894747846915
 20
59.79376692354738
 30
0.0
  0
VERTEX
  5
4D
330
45
100
AcDbEntity
  8
_U+30EC_U+30A4_U+30E4_U+30FC 1
370
     0
100
AcDbVertex
100
AcDb2dVertex
 10
167.161889606647
 20
59.79376692354738
 30
0.0
  0
VERTEX
  5
4E
330
45
100
AcDbEntity
  8
_U+30EC_U+30A4_U+30E4_U+30FC 1
370
     0
100
AcDbVertex
100
AcDb2dVertex
 10
167.161889606647
 20
58.33476898554407
 30
0.0
  0
VERTEX
  5
4F
330
45
100
AcDbEntity
  8
_U+30EC_U+30A4_U+30E4_U+30FC 1
370
     0
100
AcDbVertex
100
AcDb2dVertex
 10
168.7962429048495
 20
58.33476898554407
 30
0.0
  0
VERTEX
  5
50
330
45
100
AcDbEntity
  8
_U+30EC_U+30A4_U+30E4_U+30FC 1
370
     0
100
AcDbVertex
100
AcDb2dVertex
 10
168.7962429048495
 20
59.79376692354738
 30
0.0
  0
VERTEX
  5
51
330
45
100
AcDbEntity
  8
_U+30EC_U+30A4_U+30E4_U+30FC 1
370
     0
100
AcDbVertex
100
AcDb2dVertex
 10
169.1686577268051
 20
59.79376692354738
 30
0.0
  0
VERTEX
  5
52
330
45
100
AcDbEntity
  8
_U+30EC_U+30A4_U+30E4_U+30FC 1
370
     0
100
AcDbVertex
100
AcDb2dVertex
 10
169.1686577268051
 20
56.37726573082512
 30
0.0
  0
SEQEND
  5
53
330
45
100
AcDbEntity
  8
_U+30EC_U+30A4_U+30E4_U+30FC 1
370
     0
  0
HATCH
  5
54
330
41
100
AcDbEntity
  8
_U+30EC_U+30A4_U+30E4_U+30FC 1
 62
     7
100
AcDbHatch
 10
0.0
 20
0.0
 30
0.0
210
0.0
220
0.0
230
1.0
  2
SOLID
 70
     1
 71
     0
 91
        1
 92
        1
 93
       12
 72
     1
 10
169.1686577268051
 20
56.37726573082512
 11
168.7962429048495
 21
56.37726573082512
 72
     1
 10
168.7962429048495
 20
56.37726573082512
 11
168.7962429048495
 21
58.01127451947912
 72
     1
 10
168.7962429048495
 20
58.01127451947912
 11
167.161889606647
 21
58.01127451947912
 72
     1
 10
167.161889606647
 20
58.01127451947912
 11
167.161889606647
 21
56.37726573082512
 72
     1
 10
167.161889606647
 20
56.37726573082512
 11
166.7894747846915
 21
56.37726573082512
 72
     1
 10
166.7894747846915
 20
56.37726573082512
 11
166.7894747846915
 21
59.79376692354738
 72
     1
 10
166.7894747846915
 20
59.79376692354738
 11
167.161889606647
 21
59.79376692354738
 72
     1
 10
167.161889606647
 20
59.79376692354738
 11
167.161889606647
 21
58.33476898554407
 72
     1
 10
167.161889606647
 20
58.33476898554407
 11
168.7962429048495
 21
58.33476898554407
 72
     1
 10
168.7962429048495
 20
58.33476898554407
 11
168.7962429048495
 21
59.79376692354738
 72
     1
 10
168.7962429048495
 20
59.79376692354738
 11
169.1686577268051
 21
59.79376692354738
 72
     1
 10
169.1686577268051
 20
59.79376692354738
 11
169.1686577268051
 21
56.37726573082512
 97
        0
 75
     2
 76
     1
 98
        0
  0
SPLINE
  5
55
330
41
100
AcDbEntity
  8
_U+30EC_U+30A4_U+30E4_U+30FC 1
370
     0
100
AcDbSpline
210
0.0
220
0.0
230
1.0
 70
    11
 71
     3
 72
    23
 73
    19
 74
     0
 42
0.0000000001
 43
0.0000000001
 12
1.0
 22
0.0
 32
0.0
 13
1.0
 23
0.0
 33
0.0
 40
0.0
 40
0.0
 40
0.0
 40
0.0
 40
1.0
 40
1.0
 40
1.0
 40
2.0
 40
2.0
 40
2.0
 40
3.0
 40
3.0
 40
3.0
 40
4.0
 40
4.0
 40
4.0
 40
5.0
 40
5.0
 40
5.0
 40
6.0
 40
6.0
 40
6.0
 40
6.0
 10
169.9307128481423
 20
59.75311479682144
 30
0.0
 10
170.1818603090171
 20
59.79376692354738
 30
0.0
 10
170.4736598966177
 20
59.82511729246315
 30
0.0
 10
170.7926757385518
 20
59.82511729246315
 30
0.0
 10
172.166235308521
 20
59.82511729246315
 30
0.0
 10
172.5613877606791
 20
59.01241926749272
 30
0.0
 10
172.5613877606791
 20
58.17319400728586
 30
0.0
 10
172.5613877606791
 20
57.62990244926196
 30
0.0
 10
172.4177272789442
 20
57.1672261255929
 30
0.0
 10
172.0945773224277
 20
56.830640296684
 30
0.0
 10
171.7938204865654
 20
56.52092621256003
 30
0.0
 10
171.2953151698498
 20
56.35039398604017
 30
0.0
 10
170.671408377471
 20
56.35039398604017
 30
0.0
 10
170.388566038132
 20
56.35039398604017
 30
0.0
 10
170.1460313159704
 20
56.35935123430182
 30
0.0
 10
169.9307128481423
 20
56.38622297908677
 30
0.0
 10
169.9307128481423
 20
56.38622297908677
 30
0.0
 10
169.9307128481423
 20
59.75311479682144
 30
0.0
 10
169.9307128481423
 20
59.75311479682144
 30
0.0
  0
SPLINE
  5
56
330
41
100
AcDbEntity
  8
_U+30EC_U+30A4_U+30E4_U+30FC 1
370
     0
100
AcDbSpline
210
0.0
220
0.0
230
1.0
 70
    11
 71
     3
 72
    20
 73
    16
 74
     0
 42
0.0000000001
 43
0.0000000001
 12
1.0
 22
0.0
 32
0.0
 13
1.0
 23
0.0
 33
0.0
 40
0.0
 40
0.0
 40
0.0
 40
0.0
 40
1.0
 40
1.0
 40
1.0
 40
2.0
 40
2.0
 40
2.0
 40
3.0
 40
3.0
 40
3.0
 40
4.0
 40
4.0
 40
4.0
 40
5.0
 40
5.0
 40
5.0
 40
5.0
 10
170.3031276700978
 20
56.67354394255661
 30
0.0
 10
170.415437782917
 20
56.6556294460333
 30
0.0
 10
170.5770127611752
 20
56.65115082190248
 30
0.0
 10
170.7385877394334
 20
56.65115082190248
 30
0.0
 10
171.663595877223
 20
56.65115082190248
 30
0.0
 10
172.1707139326518
 20
57.17652788340308
 30
0.0
 10
172.1707139326518
 20
58.15493500121404
 30
0.0
 10
172.1707139326518
 20
59.04411414595702
 30
0.0
 10
171.6949462461388
 20
59.52436045660085
 30
0.0
 10
170.8061116109443
 20
59.52436045660085
 30
0.0
 10
170.5904486335677
 20
59.52436045660085
 30
0.0
 10
170.4199164070478
 20
59.50196733594672
 30
0.0
 10
170.3031276700978
 20
59.47957421529259
 30
0.0
 10
170.3031276700978
 20
59.47957421529259
 30
0.0
 10
170.3031276700978
 20
56.67354394255661
 30
0.0
 10
170.3031276700978
 20
56.67354394255661
 30
0.0
  0
HATCH
  5
57
330
41
100
AcDbEntity
  8
_U+30EC_U+30A4_U+30E4_U+30FC 1
 62
     7
100
AcDbHatch
 10
0.0
 20
0.0
 30
0.0
210
0.0
220
0.0
230
1.0
  2
SOLID
 70
     1
 71
     0
 91
        2
 92
        1
 93
        1
 72
     4
 94
        3
 73
     0
 74
     1
 95
       23
 96
       19
 40
0.0
 40
0.0
 40
0.0
 40
0.0
 40
1.0
 40
1.0
 40
1.0
 40
2.0
 40
2.0
 40
2.0
 40
3.0
 40
3.0
 40
3.0
 40
4.0
 40
4.0
 40
4.0
 40
5.0
 40
5.0
 40
5.0
 40
6.0
 40
6.0
 40
6.0
 40
6.0
 10
169.9307128481423
 20
59.75311479682144
 10
170.1818603090171
 20
59.79376692354738
 10
170.4736598966177
 20
59.82511729246315
 10
170.7926757385518
 20
59.82511729246315
 10
172.166235308521
 20
59.82511729246315
 10
172.5613877606791
 20
59.01241926749272
 10
172.5613877606791
 20
58.17319400728586
 10
172.5613877606791
 20
57.62990244926196
 10
172.4177272789442
 20
57.1672261255929
 10
172.0945773224277
 20
56.830640296684
 10
171.7938204865654
 20
56.52092621256003
 10
171.2953151698498
 20
56.35039398604017
 10
170.671408377471
 20
56.35039398604017
 10
170.388566038132
 20
56.35039398604017
 10
170.1460313159704
 20
56.35935123430182
 10
169.9307128481423
 20
56.38622297908677
 10
169.9307128481423
 20
56.38622297908677
 10
169.9307128481423
 20
59.75311479682144
 10
169.9307128481423
 20
59.75311479682144
 97
        0
 92
        1
 93
        1
 72
     4
 94
        3
 73
     0
 74
     1
 95
       20
 96
       16
 40
0.0
 40
0.0
 40
0.0
 40
0.0
 40
1.0
 40
1.0
 40
1.0
 40
2.0
 40
2.0
 40
2.0
 40
3.0
 40
3.0
 40
3.0
 40
4.0
 40
4.0
 40
4.0
 40
5.0
 40
5.0
 40
5.0
 40
5.0
 10
170.3031276700978
 20
56.67354394255661
 10
170.415437782917
 20
56.6556294460333
 10
170.5770127611752
 20
56.65115082190248
 10
170.7385877394334
 20
56.65115082190248
 10
171.663595877223
 20
56.65115082190248
 10
172.1707139326518
 20
57.17652788340308
 10
172.1707139326518
 20
58.15493500121404
 10
172.1707139326518
 20
59.04411414595702
 10
171.6949462461388
 20
59.52436045660085
 10
170.8061116109443
 20
59.52436045660085
 10
170.5904486335677
 20
59.52436045660085
 10
170.4199164070478
 20
59.50196733594672
 10
170.3031276700978
 20
59.47957421529259
 10
170.3031276700978
 20
59.47957421529259
 10
170.3031276700978
 20
56.67354394255661
 10
170.3031276700978
 20
56.67354394255661
 97
        0
 75
     2
 76
     1
 98
        0
  0
SPLINE
  5
58
330
41
100
AcDbEntity
  8
_U+30EC_U+30A4_U+30E4_U+30FC 1
370
     0
100
AcDbSpline
210
0.0
220
0.0
230
1.0
 70
    11
 71
     3
 72
    35
 73
    31
 74
     0
 42
0.0000000001
 43
0.0000000001
 12
1.0
 22
0.0
 32
0.0
 13
1.0
 23
0.0
 33
0.0
 40
0.0
 40
0.0
 40
0.0
 40
0.0
 40
1.0
 40
1.0
 40
1.0
 40
2.0
 40
2.0
 40
2.0
 40
3.0
 40
3.0
 40
3.0
 40
4.0
 40
4.0
 40
4.0
 40
5.0
 40
5.0
 40
5.0
 40
6.0
 40
6.0
 40
6.0
 40
7.0
 40
7.0
 40
7.0
 40
8.0
 40
8.0
 40
8.0
 40
9.0
 40
9.0
 40
9.0
 40
10.0
 40
10.0
 40
10.0
 40
10.0
 10
174.4410318574314
 20
58.20902300033246
 30
0.0
 10
174.7641818139479
 20
58.13254188055991
 30
0.0
 10
175.1458983937135
 20
57.86313541361337
 30
0.0
 10
175.1458983937135
 20
57.34706010992295
 30
0.0
 10
175.1458983937135
 20
57.04182464992981
 30
0.0
 10
175.0291096567636
 20
56.82616167255317
 30
0.0
 10
174.8720133026362
 20
56.67354394255661
 30
0.0
 10
174.642914452867
 20
56.44926822646684
 30
0.0
 10
174.2749782550424
 20
56.35039398604017
 30
0.0
 10
173.7585584418034
 20
56.35039398604017
 30
0.0
 10
173.4757161024644
 20
56.35039398604017
 30
0.0
 10
173.2648762587671
 20
56.37278710669429
 30
0.0
 10
173.125694401163
 20
56.38622297908677
 30
0.0
 10
173.125694401163
 20
56.38622297908677
 30
0.0
 10
173.125694401163
 20
59.74863617269061
 30
0.0
 10
173.125694401163
 20
59.74863617269061
 30
0.0
 10
173.3141411242062
 20
59.78928829941655
 30
0.0
 10
173.5835475911527
 20
59.82063866833233
 30
0.0
 10
173.8619113063609
 20
59.82063866833233
 30
0.0
 10
174.283935503304
 20
59.82063866833233
 30
0.0
 10
174.5622992185122
 20
59.73967892442896
 30
0.0
 10
174.7641818139479
 20
59.56914669790909
 30
0.0
 10
174.9257567922061
 20
59.429964840305
 30
0.0
 10
175.0201524085019
 20
59.23256086900018
 30
0.0
 10
175.0201524085019
 20
58.97659027444612
 30
0.0
 10
175.0201524085019
 20
58.64000444553721
 30
0.0
 10
174.7910535587328
 20
58.34820485793655
 30
0.0
 10
174.4410318574314
 20
58.22245887272493
 30
0.0
 10
174.4410318574314
 20
58.22245887272493
 30
0.0
 10
174.4410318574314
 20
58.20902300033246
 30
0.0
 10
174.4410318574314
 20
58.20902300033246
 30
0.0
  0
SPLINE
  5
59
330
41
100
AcDbEntity
  8
_U+30EC_U+30A4_U+30E4_U+30FC 1
370
     0
100
AcDbSpline
210
0.0
220
0.0
230
1.0
 70
    11
 71
     3
 72
    23
 73
    19
 74
     0
 42
0.0000000001
 43
0.0000000001
 12
1.0
 22
0.0
 32
0.0
 13
1.0
 23
0.0
 33
0.0
 40
0.0
 40
0.0
 40
0.0
 40
0.0
 40
1.0
 40
1.0
 40
1.0
 40
2.0
 40
2.0
 40
2.0
 40
3.0
 40
3.0
 40
3.0
 40
4.0
 40
4.0
 40
4.0
 40
5.0
 40
5.0
 40
5.0
 40
6.0
 40
6.0
 40
6.0
 40
6.0
 10
173.8977402994075
 20
58.33476898554407
 30
0.0
 10
174.3511148652664
 20
58.33476898554407
 30
0.0
 10
174.642914452867
 20
58.59487369468044
 30
0.0
 10
174.642914452867
 20
58.94523990553034
 30
0.0
 10
174.642914452867
 20
58.94523990553034
 30
0.0
 10
174.642914452867
 20
58.94971852966117
 30
0.0
 10
174.642914452867
 20
58.94971852966117
 30
0.0
 10
174.642914452867
 20
59.35382823008098
 30
0.0
 10
174.3466362411356
 20
59.52883908073167
 30
0.0
 10
173.8798258028842
 20
59.52883908073167
 30
0.0
 10
173.6824218315794
 20
59.52883908073167
 30
0.0
 10
173.5656330946294
 20
59.51540320833919
 30
0.0
 10
173.4981092231185
 20
59.4974887118159
 30
0.0
 10
173.4981092231185
 20
59.4974887118159
 30
0.0
 10
173.4981092231185
 20
58.33476898554407
 30
0.0
 10
173.4981092231185
 20
58.33476898554407
 30
0.0
 10
173.4981092231185
 20
58.33476898554407
 30
0.0
 10
173.8977402994075
 20
58.33476898554407
 30
0.0
 10
173.8977402994075
 20
58.33476898554407
 30
0.0
  0
SPLINE
  5
5A
330
41
100
AcDbEntity
  8
_U+30EC_U+30A4_U+30E4_U+30FC 1
370
     0
100
AcDbSpline
210
0.0
220
0.0
230
1.0
 70
    11
 71
     3
 72
    20
 73
    16
 74
     0
 42
0.0000000001
 43
0.0000000001
 12
1.0
 22
0.0
 32
0.0
 13
1.0
 23
0.0
 33
0.0
 40
0.0
 40
0.0
 40
0.0
 40
0.0
 40
1.0
 40
1.0
 40
1.0
 40
2.0
 40
2.0
 40
2.0
 40
3.0
 40
3.0
 40
3.0
 40
4.0
 40
4.0
 40
4.0
 40
5.0
 40
5.0
 40
5.0
 40
5.0
 10
173.4981092231185
 20
56.66906531842578
 30
0.0
 10
173.5835475911527
 20
56.65115082190248
 30
0.0
 10
173.7048149522335
 20
56.64667219777166
 30
0.0
 10
173.8619113063609
 20
56.64667219777166
 30
0.0
 10
174.3332003687431
 20
56.64667219777166
 30
0.0
 10
174.7552245656862
 20
56.830640296684
 30
0.0
 10
174.7552245656862
 20
57.34706010992295
 30
0.0
 10
174.7552245656862
 20
57.85865678948254
 30
0.0
 10
174.310807248089
 20
58.04744802207424
 30
0.0
 10
173.8574326822301
 20
58.04744802207424
 30
0.0
 10
173.8574326822301
 20
58.04744802207424
 30
0.0
 10
173.4981092231185
 20
58.04744802207424
 30
0.0
 10
173.4981092231185
 20
58.04744802207424
 30
0.0
 10
173.4981092231185
 20
58.04744802207424
 30
0.0
 10
173.4981092231185
 20
56.66906531842578
 30
0.0
 10
173.4981092231185
 20
56.66906531842578
 30
0.0
  0
HATCH
  5
5B
330
41
100
AcDbEntity
  8
_U+30EC_U+30A4_U+30E4_U+30FC 1
 62
     7
100
AcDbHatch
 10
0.0
 20
0.0
 30
0.0
210
0.0
220
0.0
230
1.0
  2
SOLID
 70
     1
 71
     0
 91
        3
 92
        1
 93
        1
 72
     4
 94
        3
 73
     0
 74
     1
 95
       35
 96
       31
 40
0.0
 40
0.0
 40
0.0
 40
0.0
 40
1.0
 40
1.0
 40
1.0
 40
2.0
 40
2.0
 40
2.0
 40
3.0
 40
3.0
 40
3.0
 40
4.0
 40
4.0
 40
4.0
 40
5.0
 40
5.0
 40
5.0
 40
6.0
 40
6.0
 40
6.0
 40
7.0
 40
7.0
 40
7.0
 40
8.0
 40
8.0
 40
8.0
 40
9.0
 40
9.0
 40
9.0
 40
10.0
 40
10.0
 40
10.0
 40
10.0
 10
174.4410318574314
 20
58.20902300033246
 10
174.7641818139479
 20
58.13254188055991
 10
175.1458983937135
 20
57.86313541361337
 10
175.1458983937135
 20
57.34706010992295
 10
175.1458983937135
 20
57.04182464992981
 10
175.0291096567636
 20
56.82616167255317
 10
174.8720133026362
 20
56.67354394255661
 10
174.642914452867
 20
56.44926822646684
 10
174.2749782550424
 20
56.35039398604017
 10
173.7585584418034
 20
56.35039398604017
 10
173.4757161024644
 20
56.35039398604017
 10
173.2648762587671
 20
56.37278710669429
 10
173.125694401163
 20
56.38622297908677
 10
173.125694401163
 20
56.38622297908677
 10
173.125694401163
 20
59.74863617269061
 10
173.125694401163
 20
59.74863617269061
 10
173.3141411242062
 20
59.78928829941655
 10
173.5835475911527
 20
59.82063866833233
 10
173.8619113063609
 20
59.82063866833233
 10
174.283935503304
 20
59.82063866833233
 10
174.5622992185122
 20
59.73967892442896
 10
174.7641818139479
 20
59.56914669790909
 10
174.9257567922061
 20
59.429964840305
 10
175.0201524085019
 20
59.23256086900018
 10
175.0201524085019
 20
58.97659027444612
 10
175.0201524085019
 20
58.64000444553721
 10
174.7910535587328
 20
58.34820485793655
 10
174.4410318574314
 20
58.22245887272493
 10
174.4410318574314
 20
58.22245887272493
 10
174.4410318574314
 20
58.20902300033246
 10
174.4410318574314
 20
58.20902300033246
 97
        0
 92
        1
 93
        1
 72
     4
 94
        3
 73
     0
 74
     1
 95
       23
 96
       19
 40
0.0
 40
0.0
 40
0.0
 40
0.0
 40
1.0
 40
1.0
 40
1.0
 40
2.0
 40
2.0
 40
2.0
 40
3.0
 40
3.0
 40
3.0
 40
4.0
 40
4.0
 40
4.0
 40
5.0
 40
5.0
 40
5.0
 40
6.0
 40
6.0
 40
6.0
 40
6.0
 10
173.8977402994075
 20
58.33476898554407
 10
174.3511148652664
 20
58.33476898554407
 10
174.642914452867
 20
58.59487369468044
 10
174.642914452867
 20
58.94523990553034
 10
174.642914452867
 20
58.94523990553034
 10
174.642914452867
 20
58.94971852966117
 10
174.642914452867
 20
58.94971852966117
 10
174.642914452867
 20
59.35382823008098
 10
174.3466362411356
 20
59.52883908073167
 10
173.8798258028842
 20
59.52883908073167
 10
173.6824218315794
 20
59.52883908073167
 10
173.5656330946294
 20
59.51540320833919
 10
173.4981092231185
 20
59.4974887118159
 10
173.4981092231185
 20
59.4974887118159
 10
173.4981092231185
 20
58.33476898554407
 10
173.4981092231185
 20
58.33476898554407
 10
173.4981092231185
 20
58.33476898554407
 10
173.8977402994075
 20
58.33476898554407
 10
173.8977402994075
 20
58.33476898554407
 97
        0
 92
        1
 93
        1
 72
     4
 94
        3
 73
     0
 74
     1
 95
       20
 96
       16
 40
0.0
 40
0.0
 40
0.0
 40
0.0
 40
1.0
 40
1.0
 40
1.0
 40
2.0
 40
2.0
 40
2.0
 40
3.0
 40
3.0
 40
3.0
 40
4.0
 40
4.0
 40
4.0
 40
5.0
 40
5.0
 40
5.0
 40
5.0
 10
173.4981092231185
 20
56.66906531842578
 10
173.5835475911527
 20
56.65115082190248
 10
173.7048149522335
 20
56.64667219777166
 10
173.8619113063609
 20
56.64667219777166
 10
174.3332003687431
 20
56.64667219777166
 10
174.7552245656862
 20
56.830640296684
 10
174.7552245656862
 20
57.34706010992295
 10
174.7552245656862
 20
57.85865678948254
 10
174.310807248089
 20
58.04744802207424
 10
173.8574326822301
 20
58.04744802207424
 10
173.8574326822301
 20
58.04744802207424
 10
173.4981092231185
 20
58.04744802207424
 10
173.4981092231185
 20
58.04744802207424
 10
173.4981092231185
 20
58.04744802207424
 10
173.4981092231185
 20
56.66906531842578
 10
173.4981092231185
 20
56.66906531842578
 97
        0
 75
     2
 76
     1
 98
        0
  0
POLYLINE
  5
5C
330
41
100
AcDbEntity
  8
_U+30EC_U+30A4_U+30E4_U+30FC 1
370
     0
100
AcDb2dPolyline
 66
     1
 10
0.0
 20
0.0
 30
0.0
  0
VERTEX
  5
5D
330
5C
100
AcDbEntity
  8
_U+30EC_U+30A4_U+30E4_U+30FC 1
370
     0
100
AcDbVertex
100
AcDb2dVertex
 10
175.4990206809516
 20
57.89035166794685
 30
0.0
  0
VERTEX
  5
5E
330
5C
100
AcDbEntity
  8
_U+30EC_U+30A4_U+30E4_U+30FC 1
370
     0
100
AcDbVertex
100
AcDb2dVertex
 10
176.7247856546035
 20
57.89035166794685
 30
0.0
  0
VERTEX
  5
5F
330
5C
100
AcDbEntity
  8
_U+30EC_U+30A4_U+30E4_U+30FC 1
370
     0
100
AcDbVertex
100
AcDb2dVertex
 10
176.7247856546035
 20
57.60303070447701
 30
0.0
  0
VERTEX
  5
60
330
5C
100
AcDbEntity
  8
_U+30EC_U+30A4_U+30E4_U+30FC 1
370
     0
100
AcDbVertex
100
AcDb2dVertex
 10
175.4990206809516
 20
57.60303070447701
 30
0.0
  0
VERTEX
  5
61
330
5C
100
AcDbEntity
  8
_U+30EC_U+30A4_U+30E4_U+30FC 1
370
     0
100
AcDbVertex
100
AcDb2dVertex
 10
175.4990206809516
 20
57.89035166794685
 30
0.0
  0
SEQEND
  5
62
330
5C
100
AcDbEntity
  8
_U+30EC_U+30A4_U+30E4_U+30FC 1
370
     0
  0
HATCH
  5
63
330
41
100
AcDbEntity
  8
_U+30EC_U+30A4_U+30E4_U+30FC 1
 62
     7
100
AcDbHatch
 10
0.0
 20
0.0
 30
0.0
210
0.0
220
0.0
230
1.0
  2
SOLID
 70
     1
 71
     0
 91
        1
 92
        1
 93
        4
 72
     1
 10
175.4990206809516
 20
57.89035166794685
 11
176.7247856546035
 21
57.89035166794685
 72
     1
 10
176.7247856546035
 20
57.89035166794685
 11
176.7247856546035
 21
57.60303070447701
 72
     1
 10
176.7247856546035
 20
57.60303070447701
 11
175.4990206809516
 21
57.60303070447701
 72
     1
 10
175.4990206809516
 20
57.60303070447701
 11
175.4990206809516
 21
57.89035166794685
 97
        0
 75
     2
 76
     1
 98
        0
  0
SPLINE
  5
64
330
41
100
AcDbEntity
  8
_U+30EC_U+30A4_U+30E4_U+30FC 1
370
     0
100
AcDbSpline
210
0.0
220
0.0
230
1.0
 70
    11
 71
     3
 72
    17
 73
    13
 74
     0
 42
0.0000000001
 43
0.0000000001
 12
1.0
 22
0.0
 32
0.0
 13
1.0
 23
0.0
 33
0.0
 40
0.0
 40
0.0
 40
0.0
 40
0.0
 40
1.0
 40
1.0
 40
1.0
 40
2.0
 40
2.0
 40
2.0
 40
3.0
 40
3.0
 40
3.0
 40
4.0
 40
4.0
 40
4.0
 40
4.0
 10
177.055859330736
 20
58.04744802207424
 30
0.0
 10
177.055859330736
 20
59.22360362073853
 30
0.0
 10
177.5137125207257
 20
59.79376692354738
 30
0.0
 10
178.1424424467838
 20
59.79376692354738
 30
0.0
 10
178.7797851115551
 20
59.79376692354738
 30
0.0
 10
179.1704589395824
 20
59.19225325182276
 30
0.0
 10
179.1704589395824
 20
58.09223426338249
 30
0.0
 10
179.1704589395824
 20
56.92503591297984
 30
0.0
 10
178.7618706150318
 20
56.32352224125522
 30
0.0
 10
178.0928330717962
 20
56.32352224125522
 30
0.0
 10
177.48236215181
 20
56.32352224125522
 30
0.0
 10
177.055859330736
 20
56.92503591297984
 30
0.0
 10
177.055859330736
 20
58.04744802207424
 30
0.0
  0
SPLINE
  5
65
330
41
100
AcDbEntity
  8
_U+30EC_U+30A4_U+30E4_U+30FC 1
370
     0
100
AcDbSpline
210
0.0
220
0.0
230
1.0
 70
    11
 71
     3
 72
    17
 73
    13
 74
     0
 42
0.0000000001
 43
0.0000000001
 12
1.0
 22
0.0
 32
0.0
 13
1.0
 23
0.0
 33
0.0
 40
0.0
 40
0.0
 40
0.0
 40
0.0
 40
1.0
 40
1.0
 40
1.0
 40
2.0
 40
2.0
 40
2.0
 40
3.0
 40
3.0
 40
3.0
 40
4.0
 40
4.0
 40
4.0
 40
4.0
 10
178.7932209839475
 20
58.07431976685919
 30
0.0
 10
178.7932209839475
 20
58.91388953661458
 30
0.0
 10
178.5913383885119
 20
59.49301008768507
 30
0.0
 10
178.1200493261297
 20
59.49301008768507
 30
0.0
 10
177.7204182498407
 20
59.49301008768507
 30
0.0
 10
177.4375759105017
 20
58.95867577792282
 30
0.0
 10
177.4375759105017
 20
58.07431976685919
 30
0.0
 10
177.4375759105017
 20
57.18996375579555
 30
0.0
 10
177.6845892567941
 20
56.62875770124835
 30
0.0
 10
178.1066134537373
 20
56.62875770124835
 30
0.0
 10
178.6047742609044
 20
56.62875770124835
 30
0.0
 10
178.7932209839475
 20
57.27505761428122
 30
0.0
 10
178.7932209839475
 20
58.07431976685919
 30
0.0
  0
HATCH
  5
66
330
41
100
AcDbEntity
  8
_U+30EC_U+30A4_U+30E4_U+30FC 1
 62
     7
100
AcDbHatch
 10
0.0
 20
0.0
 30
0.0
210
0.0
220
0.0
230
1.0
  2
SOLID
 70
     1
 71
     0
 91
        2
 92
        1
 93
        1
 72
     4
 94
        3
 73
     0
 74
     1
 95
       17
 96
       13
 40
0.0
 40
0.0
 40
0.0
 40
0.0
 40
1.0
 40
1.0
 40
1.0
 40
2.0
 40
2.0
 40
2.0
 40
3.0
 40
3.0
 40
3.0
 40
4.0
 40
4.0
 40
4.0
 40
4.0
 10
177.055859330736
 20
58.04744802207424
 10
177.055859330736
 20
59.22360362073853
 10
177.5137125207257
 20
59.79376692354738
 10
178.1424424467838
 20
59.79376692354738
 10
178.7797851115551
 20
59.79376692354738
 10
179.1704589395824
 20
59.19225325182276
 10
179.1704589395824
 20
58.09223426338249
 10
179.1704589395824
 20
56.92503591297984
 10
178.7618706150318
 20
56.32352224125522
 10
178.0928330717962
 20
56.32352224125522
 10
177.48236215181
 20
56.32352224125522
 10
177.055859330736
 20
56.92503591297984
 10
177.055859330736
 20
58.04744802207424
 97
        0
 92
        1
 93
        1
 72
     4
 94
        3
 73
     0
 74
     1
 95
       17
 96
       13
 40
0.0
 40
0.0
 40
0.0
 40
0.0
 40
1.0
 40
1.0
 40
1.0
 40
2.0
 40
2.0
 40
2.0
 40
3.0
 40
3.0
 40
3.0
 40
4.0
 40
4.0
 40
4.0
 40
4.0
 10
178.7932209839475
 20
58.07431976685919
 10
178.7932209839475
 20
58.91388953661458
 10
178.5913383885119
 20
59.49301008768507
 10
178.1200493261297
 20
59.49301008768507
 10
177.7204182498407
 20
59.49301008768507
 10
177.4375759105017
 20
58.95867577792282
 10
177.4375759105017
 20
58.07431976685919
 10
177.4375759105017
 20
57.18996375579555
 10
177.6845892567941
 20
56.62875770124835
 10
178.1066134537373
 20
56.62875770124835
 10
178.6047742609044
 20
56.62875770124835
 10
178.7932209839475
 20
57.27505761428122
 10
178.7932209839475
 20
58.07431976685919
 97
        0
 75
     2
 76
     1
 98
        0
  0
SPLINE
  5
67
330
41
100
AcDbEntity
  8
_U+30EC_U+30A4_U+30E4_U+30FC 1
370
     0
100
AcDbSpline
210
0.0
220
0.0
230
1.0
 70
    11
 71
     3
 72
    17
 73
    13
 74
     0
 42
0.0000000001
 43
0.0000000001
 12
1.0
 22
0.0
 32
0.0
 13
1.0
 23
0.0
 33
0.0
 40
0.0
 40
0.0
 40
0.0
 40
0.0
 40
1.0
 40
1.0
 40
1.0
 40
2.0
 40
2.0
 40
2.0
 40
3.0
 40
3.0
 40
3.0
 40
4.0
 40
4.0
 40
4.0
 40
4.0
 10
179.5284043604998
 20
58.04744802207424
 30
0.0
 10
179.5284043604998
 20
59.22360362073853
 30
0.0
 10
179.9862575504896
 20
59.79376692354738
 30
0.0
 10
180.6149874765476
 20
59.79376692354738
 30
0.0
 10
181.2523301413189
 20
59.79376692354738
 30
0.0
 10
181.6430039693462
 20
59.19225325182276
 30
0.0
 10
181.6430039693462
 20
58.09223426338249
 30
0.0
 10
181.6430039693462
 20
56.92503591297984
 30
0.0
 10
181.2344156447956
 20
56.32352224125522
 30
0.0
 10
180.56537810156
 20
56.32352224125522
 30
0.0
 10
179.9549071815738
 20
56.32352224125522
 30
0.0
 10
179.5284043604998
 20
56.92503591297984
 30
0.0
 10
179.5284043604998
 20
58.04744802207424
 30
0.0
  0
SPLINE
  5
68
330
41
100
AcDbEntity
  8
_U+30EC_U+30A4_U+30E4_U+30FC 1
370
     0
100
AcDbSpline
210
0.0
220
0.0
230
1.0
 70
    11
 71
     3
 72
    17
 73
    13
 74
     0
 42
0.0000000001
 43
0.0000000001
 12
1.0
 22
0.0
 32
0.0
 13
1.0
 23
0.0
 33
0.0
 40
0.0
 40
0.0
 40
0.0
 40
0.0
 40
1.0
 40
1.0
 40
1.0
 40
2.0
 40
2.0
 40
2.0
 40
3.0
 40
3.0
 40
3.0
 40
4.0
 40
4.0
 40
4.0
 40
4.0
 10
181.2657660137114
 20
58.07431976685919
 30
0.0
 10
181.2657660137114
 20
58.91388953661458
 30
0.0
 10
181.0638834182757
 20
59.49301008768507
 30
0.0
 10
180.5925943558935
 20
59.49301008768507
 30
0.0
 10
180.1929632796046
 20
59.49301008768507
 30
0.0
 10
179.9101209402655
 20
58.95867577792282
 30
0.0
 10
179.9101209402655
 20
58.07431976685919
 30
0.0
 10
179.9101209402655
 20
57.18996375579555
 30
0.0
 10
180.1571342865579
 20
56.62875770124835
 30
0.0
 10
180.5791584835011
 20
56.62875770124835
 30
0.0
 10
181.0773192906682
 20
56.62875770124835
 30
0.0
 10
181.2657660137114
 20
57.27505761428122
 30
0.0
 10
181.2657660137114
 20
58.07431976685919
 30
0.0
  0
HATCH
  5
69
330
41
100
AcDbEntity
  8
_U+30EC_U+30A4_U+30E4_U+30FC 1
 62
     7
100
AcDbHatch
 10
0.0
 20
0.0
 30
0.0
210
0.0
220
0.0
230
1.0
  2
SOLID
 70
     1
 71
     0
 91
        2
 92
        1
 93
        1
 72
     4
 94
        3
 73
     0
 74
     1
 95
       17
 96
       13
 40
0.0
 40
0.0
 40
0.0
 40
0.0
 40
1.0
 40
1.0
 40
1.0
 40
2.0
 40
2.0
 40
2.0
 40
3.0
 40
3.0
 40
3.0
 40
4.0
 40
4.0
 40
4.0
 40
4.0
 10
179.5284043604998
 20
58.04744802207424
 10
179.5284043604998
 20
59.22360362073853
 10
179.9862575504896
 20
59.79376692354738
 10
180.6149874765476
 20
59.79376692354738
 10
181.2523301413189
 20
59.79376692354738
 10
181.6430039693462
 20
59.19225325182276
 10
181.6430039693462
 20
58.09223426338249
 10
181.6430039693462
 20
56.92503591297984
 10
181.2344156447956
 20
56.32352224125522
 10
180.56537810156
 20
56.32352224125522
 10
179.9549071815738
 20
56.32352224125522
 10
179.5284043604998
 20
56.92503591297984
 10
179.5284043604998
 20
58.04744802207424
 97
        0
 92
        1
 93
        1
 72
     4
 94
        3
 73
     0
 74
     1
 95
       17
 96
       13
 40
0.0
 40
0.0
 40
0.0
 40
0.0
 40
1.0
 40
1.0
 40
1.0
 40
2.0
 40
2.0
 40
2.0
 40
3.0
 40
3.0
 40
3.0
 40
4.0
 40
4.0
 40
4.0
 40
4.0
 10
181.2657660137114
 20
58.07431976685919
 10
181.2657660137114
 20
58.91388953661458
 10
181.0638834182757
 20
59.49301008768507
 10
180.5925943558935
 20
59.49301008768507
 10
180.1929632796046
 20
59.49301008768507
 10
179.9101209402655
 20
58.95867577792282
 10
179.9101209402655
 20
58.07431976685919
 10
179.9101209402655
 20
57.18996375579555
 10
180.1571342865579
 20
56.62875770124835
 10
180.5791584835011
 20
56.62875770124835
 10
181.0773192906682
 20
56.62875770124835
 10
181.2657660137114
 20
57.27505761428122
 10
181.2657660137114
 20
58.07431976685919
 97
        0
 75
     2
 76
     1
 98
        0
  0
POLYLINE
  5
6A
330
41
100
AcDbEntity
  8
_U+30EC_U+30A4_U+30E4_U+30FC 1
370
     0
100
AcDb2dPolyline
 66
     1
 10
0.0
 20
0.0
 30
0.0
  0
VERTEX
  5
6B
330
6A
100
AcDbEntity
  8
_U+30EC_U+30A4_U+30E4_U+30FC 1
370
     0
100
AcDbVertex
100
AcDb2dVertex
 10
182.9886582658848
 20
56.37726573082512
 30
0.0
  0
VERTEX
  5
6C
330
6A
100
AcDbEntity
  8
_U+30EC_U+30A4_U+30E4_U+30FC 1
370
     0
100
AcDbVertex
100
AcDb2dVertex
 10
182.9886582658848
 20
59.38965722312758
 30
0.0
  0
VERTEX
  5
6D
330
6A
100
AcDbEntity
  8
_U+30EC_U+30A4_U+30E4_U+30FC 1
370
     0
100
AcDbVertex
100
AcDb2dVertex
 10
182.9797010176231
 20
59.38965722312758
 30
0.0
  0
VERTEX
  5
6E
330
6A
100
AcDbEntity
  8
_U+30EC_U+30A4_U+30E4_U+30FC 1
370
     0
100
AcDbVertex
100
AcDb2dVertex
 10
182.4274522113376
 20
59.07098589074197
 30
0.0
  0
VERTEX
  5
6F
330
6A
100
AcDbEntity
  8
_U+30EC_U+30A4_U+30E4_U+30FC 1
370
     0
100
AcDbVertex
100
AcDb2dVertex
 10
182.3378797287211
 20
59.34934960595015
 30
0.0
  0
VERTEX
  5
70
330
6A
100
AcDbEntity
  8
_U+30EC_U+30A4_U+30E4_U+30FC 1
370
     0
100
AcDbVertex
100
AcDb2dVertex
 10
183.033444507193
 20
59.73967892442896
 30
0.0
  0
VERTEX
  5
71
330
6A
100
AcDbEntity
  8
_U+30EC_U+30A4_U+30E4_U+30FC 1
370
     0
100
AcDbVertex
100
AcDb2dVertex
 10
183.3524603491272
 20
59.73967892442896
 30
0.0
  0
VERTEX
  5
72
330
6A
100
AcDbEntity
  8
_U+30EC_U+30A4_U+30E4_U+30FC 1
370
     0
100
AcDbVertex
100
AcDb2dVertex
 10
183.3524603491272
 20
56.37726573082512
 30
0.0
  0
VERTEX
  5
73
330
6A
100
AcDbEntity
  8
_U+30EC_U+30A4_U+30E4_U+30FC 1
370
     0
100
AcDbVertex
100
AcDb2dVertex
 10
182.9886582658848
 20
56.37726573082512
 30
0.0
  0
SEQEND
  5
74
330
6A
100
AcDbEntity
  8
_U+30EC_U+30A4_U+30E4_U+30FC 1
370
     0
  0
HATCH
  5
75
330
41
100
AcDbEntity
  8
_U+30EC_U+30A4_U+30E4_U+30FC 1
 62
     7
100
AcDbHatch
 10
0.0
 20
0.0
 30
0.0
210
0.0
220
0.0
230
1.0
  2
SOLID
 70
     1
 71
     0
 91
        1
 92
        1
 93
        8
 72
     1
 10
182.9886582658848
 20
56.37726573082512
 11
182.9886582658848
 21
59.38965722312758
 72
     1
 10
182.9886582658848
 20
59.38965722312758
 11
182.9797010176231
 21
59.38965722312758
 72
     1
 10
182.9797010176231
 20
59.38965722312758
 11
182.4274522113376
 21
59.07098589074197
 72
     1
 10
182.4274522113376
 20
59.07098589074197
 11
182.3378797287211
 21
59.34934960595015
 72
     1
 10
182.3378797287211
 20
59.34934960595015
 11
183.033444507193
 21
59.73967892442896
 72
     1
 10
183.033444507193
 20
59.73967892442896
 11
183.3524603491272
 21
59.73967892442896
 72
     1
 10
183.3524603491272
 20
59.73967892442896
 11
183.3524603491272
 21
56.37726573082512
 72
     1
 10
183.3524603491272
 20
56.37726573082512
 11
182.9886582658848
 21
56.37726573082512
 97
        0
 75
     2
 76
     1
 98
        0
  0
POLYLINE
  5
76
330
41
100
AcDbEntity
  8
_U+30EC_U+30A4_U+30E4_U+30FC 1
370
     0
100
AcDb2dPolyline
 66
     1
 10
0.0
 20
0.0
 30
0.0
  0
VERTEX
  5
77
330
76
100
AcDbEntity
  8
_U+30EC_U+30A4_U+30E4_U+30FC 1
370
     0
100
AcDbVertex
100
AcDb2dVertex
 10
187.0549044671252
 20
56.37726573082512
 30
0.0
  0
VERTEX
  5
78
330
76
100
AcDbEntity
  8
_U+30EC_U+30A4_U+30E4_U+30FC 1
370
     0
100
AcDbVertex
100
AcDb2dVertex
 10
186.6824896451697
 20
56.37726573082512
 30
0.0
  0
VERTEX
  5
79
330
76
100
AcDbEntity
  8
_U+30EC_U+30A4_U+30E4_U+30FC 1
370
     0
100
AcDbVertex
100
AcDb2dVertex
 10
186.6824896451697
 20
58.01127451947912
 30
0.0
  0
VERTEX
  5
7A
330
76
100
AcDbEntity
  8
_U+30EC_U+30A4_U+30E4_U+30FC 1
370
     0
100
AcDbVertex
100
AcDb2dVertex
 10
185.0481363469671
 20
58.01127451947912
 30
0.0
  0
VERTEX
  5
7B
330
76
100
AcDbEntity
  8
_U+30EC_U+30A4_U+30E4_U+30FC 1
370
     0
100
AcDbVertex
100
AcDb2dVertex
 10
185.0481363469671
 20
56.37726573082512
 30
0.0
  0
VERTEX
  5
7C
330
76
100
AcDbEntity
  8
_U+30EC_U+30A4_U+30E4_U+30FC 1
370
     0
100
AcDbVertex
100
AcDb2dVertex
 10
184.6757215250116
 20
56.37726573082512
 30
0.0
  0
VERTEX
  5
7D
330
76
100
AcDbEntity
  8
_U+30EC_U+30A4_U+30E4_U+30FC 1
370
     0
100
AcDbVertex
100
AcDb2dVertex
 10
184.6757215250116
 20
59.79376692354738
 30
0.0
  0
VERTEX
  5
7E
330
76
100
AcDbEntity
  8
_U+30EC_U+30A4_U+30E4_U+30FC 1
370
     0
100
AcDbVertex
100
AcDb2dVertex
 10
185.0481363469671
 20
59.79376692354738
 30
0.0
  0
VERTEX
  5
7F
330
76
100
AcDbEntity
  8
_U+30EC_U+30A4_U+30E4_U+30FC 1
370
     0
100
AcDbVertex
100
AcDb2dVertex
 10
185.0481363469671
 20
58.33476898554407
 30
0.0
  0
VERTEX
  5
80
330
76
100
AcDbEntity
  8
_U+30EC_U+30A4_U+30E4_U+30FC 1
370
     0
100
AcDbVertex
100
AcDb2dVertex
 10
186.6824896451697
 20
58.33476898554407
 30
0.0
  0
VERTEX
  5
81
330
76
100
AcDbEntity
  8
_U+30EC_U+30A4_U+30E4_U+30FC 1
370
     0
100
AcDbVertex
100
AcDb2dVertex
 10
186.6824896451697
 20
59.79376692354738
 30
0.0
  0
VERTEX
  5
82
330
76
100
AcDbEntity
  8
_U+30EC_U+30A4_U+30E4_U+30FC 1
370
     0
100
AcDbVertex
100
AcDb2dVertex
 10
187.0549044671252
 20
59.79376692354738
 30
0.0
  0
VERTEX
  5
83
330
76
100
AcDbEntity
  8
_U+30EC_U+30A4_U+30E4_U+30FC 1
370
     0
100
AcDbVertex
100
AcDb2dVertex
 10
187.0549044671252
 20
56.37726573082512
 30
0.0
  0
SEQEND
  5
84
330
76
100
AcDbEntity
  8
_U+30EC_U+30A4_U+30E4_U+30FC 1
370
     0
  0
HATCH
  5
85
330
41
100
AcDbEntity
  8
_U+30EC_U+30A4_U+30E4_U+30FC 1
 62
     7
100
AcDbHatch
 10
0.0
 20
0.0
 30
0.0
210
0.0
220
0.0
230
1.0
  2
SOLID
 70
     1
 71
     0
 91
        1
 92
        1
 93
       12
 72
     1
 10
187.0549044671252
 20
56.37726573082512
 11
186.6824896451697
 21
56.37726573082512
 72
     1
 10
186.6824896451697
 20
56.37726573082512
 11
186.6824896451697
 21
58.01127451947912
 72
     1
 10
186.6824896451697
 20
58.01127451947912
 11
185.0481363469671
 21
58.01127451947912
 72
     1
 10
185.0481363469671
 20
58.01127451947912
 11
185.0481363469671
 21
56.37726573082512
 72
     1
 10
185.0481363469671
 20
56.37726573082512
 11
184.6757215250116
 21
56.37726573082512
 72
     1
 10
184.6757215250116
 20
56.37726573082512
 11
184.6757215250116
 21
59.79376692354738
 72
     1
 10
184.6757215250116
 20
59.79376692354738
 11
185.0481363469671
 21
59.79376692354738
 72
     1
 10
185.0481363469671
 20
59.79376692354738
 11
185.0481363469671
 21
58.33476898554407
 72
     1
 10
185.0481363469671
 20
58.33476898554407
 11
186.6824896451697
 21
58.33476898554407
 72
     1
 10
186.6824896451697
 20
58.33476898554407
 11
186.6824896451697
 21
59.79376692354738
 72
     1
 10
186.6824896451697
 20
59.79376692354738
 11
187.0549044671252
 21
59.79376692354738
 72
     1
 10
187.0549044671252
 20
59.79376692354738
 11
187.0549044671252
 21
56.37726573082512
 97
        0
 75
     2
 76
     1
 98
        0
  0
POLYLINE
  5
86
330
41
100
AcDbEntity
  8
_U+30EC_U+30A4_U+30E4_U+30FC 1
370
     0
100
AcDb2dPolyline
 66
     1
 10
0.0
 20
0.0
 30
0.0
  0
VERTEX
  5
87
330
86
100
AcDbEntity
  8
_U+30EC_U+30A4_U+30E4_U+30FC 1
370
     0
100
AcDbVertex
100
AcDb2dVertex
 10
169.1686577268051
 20
50.99258148737962
 30
0.0
  0
VERTEX
  5
88
330
86
100
AcDbEntity
  8
_U+30EC_U+30A4_U+30E4_U+30FC 1
370
     0
100
AcDbVertex
100
AcDb2dVertex
 10
168.7962429048495
 20
50.99258148737962
 30
0.0
  0
VERTEX
  5
89
330
86
100
AcDbEntity
  8
_U+30EC_U+30A4_U+30E4_U+30FC 1
370
     0
100
AcDbVertex
100
AcDb2dVertex
 10
168.7962429048495
 20
52.62659027603362
 30
0.0
  0
VERTEX
  5
8A
330
86
100
AcDbEntity
  8
_U+30EC_U+30A4_U+30E4_U+30FC 1
370
     0
100
AcDbVertex
100
AcDb2dVertex
 10
167.161889606647
 20
52.62659027603362
 30
0.0
  0
VERTEX
  5
8B
330
86
100
AcDbEntity
  8
_U+30EC_U+30A4_U+30E4_U+30FC 1
370
     0
100
AcDbVertex
100
AcDb2dVertex
 10
167.161889606647
 20
50.99258148737962
 30
0.0
  0
VERTEX
  5
8C
330
86
100
AcDbEntity
  8
_U+30EC_U+30A4_U+30E4_U+30FC 1
370
     0
100
AcDbVertex
100
AcDb2dVertex
 10
166.7894747846915
 20
50.99258148737962
 30
0.0
  0
VERTEX
  5
8D
330
86
100
AcDbEntity
  8
_U+30EC_U+30A4_U+30E4_U+30FC 1
370
     0
100
AcDbVertex
100
AcDb2dVertex
 10
166.7894747846915
 20
54.40908268010188
 30
0.0
  0
VERTEX
  5
8E
330
86
100
AcDbEntity
  8
_U+30EC_U+30A4_U+30E4_U+30FC 1
370
     0
100
AcDbVertex
100
AcDb2dVertex
 10
167.161889606647
 20
54.40908268010188
 30
0.0
  0
VERTEX
  5
8F
330
86
100
AcDbEntity
  8
_U+30EC_U+30A4_U+30E4_U+30FC 1
370
     0
100
AcDbVertex
100
AcDb2dVertex
 10
167.161889606647
 20
52.95008474209858
 30
0.0
  0
VERTEX
  5
90
330
86
100
AcDbEntity
  8
_U+30EC_U+30A4_U+30E4_U+30FC 1
370
     0
100
AcDbVertex
100
AcDb2dVertex
 10
168.7962429048495
 20
52.95008474209858
 30
0.0
  0
VERTEX
  5
91
330
86
100
AcDbEntity
  8
_U+30EC_U+30A4_U+30E4_U+30FC 1
370
     0
100
AcDbVertex
100
AcDb2dVertex
 10
168.7962429048495
 20
54.40908268010188
 30
0.0
  0
VERTEX
  5
92
330
86
100
AcDbEntity
  8
_U+30EC_U+30A4_U+30E4_U+30FC 1
370
     0
100
AcDbVertex
100
AcDb2dVertex
 10
169.1686577268051
 20
54.40908268010188
 30
0.0
  0
VERTEX
  5
93
330
86
100
AcDbEntity
  8
_U+30EC_U+30A4_U+30E4_U+30FC 1
370
     0
100
AcDbVertex
100
AcDb2dVertex
 10
169.1686577268051
 20
50.99258148737962
 30
0.0
  0
SEQEND
  5
94
330
86
100
AcDbEntity
  8
_U+30EC_U+30A4_U+30E4_U+30FC 1
370
     0
  0
HATCH
  5
95
330
41
100
AcDbEntity
  8
_U+30EC_U+30A4_U+30E4_U+30FC 1
 62
     7
100
AcDbHatch
 10
0.0
 20
0.0
 30
0.0
210
0.0
220
0.0
230
1.0
  2
SOLID
 70
     1
 71
     0
 91
        1
 92
        1
 93
       12
 72
     1
 10
169.1686577268051
 20
50.99258148737962
 11
168.7962429048495
 21
50.99258148737962
 72
     1
 10
168.7962429048495
 20
50.99258148737962
 11
168.7962429048495
 21
52.62659027603362
 72
     1
 10
168.7962429048495
 20
52.62659027603362
 11
167.161889606647
 21
52.62659027603362
 72
     1
 10
167.161889606647
 20
52.62659027603362
 11
167.161889606647
 21
50.99258148737962
 72
     1
 10
167.161889606647
 20
50.99258148737962
 11
166.7894747846915
 21
50.99258148737962
 72
     1
 10
166.7894747846915
 20
50.99258148737962
 11
166.7894747846915
 21
54.40908268010188
 72
     1
 10
166.7894747846915
 20
54.40908268010188
 11
167.161889606647
 21
54.40908268010188
 72
     1
 10
167.161889606647
 20
54.40908268010188
 11
167.161889606647
 21
52.95008474209858
 72
     1
 10
167.161889606647
 20
52.95008474209858
 11
168.7962429048495
 21
52.95008474209858
 72
     1
 10
168.7962429048495
 20
52.95008474209858
 11
168.7962429048495
 21
54.40908268010188
 72
     1
 10
168.7962429048495
 20
54.40908268010188
 11
169.1686577268051
 21
54.40908268010188
 72
     1
 10
169.1686577268051
 20
54.40908268010188
 11
169.1686577268051
 21
50.99258148737962
 97
        0
 75
     2
 76
     1
 98
        0
  0
SPLINE
  5
96
330
41
100
AcDbEntity
  8
_U+30EC_U+30A4_U+30E4_U+30FC 1
370
     0
100
AcDbSpline
210
0.0
220
0.0
230
1.0
 70
    11
 71
     3
 72
    23
 73
    19
 74
     0
 42
0.0000000001
 43
0.0000000001
 12
1.0
 22
0.0
 32
0.0
 13
1.0
 23
0.0
 33
0.0
 40
0.0
 40
0.0
 40
0.0
 40
0.0
 40
1.0
 40
1.0
 40
1.0
 40
2.0
 40
2.0
 40
2.0
 40
3.0
 40
3.0
 40
3.0
 40
4.0
 40
4.0
 40
4.0
 40
5.0
 40
5.0
 40
5.0
 40
6.0
 40
6.0
 40
6.0
 40
6.0
 10
169.9307128481423
 20
54.36843055337594
 30
0.0
 10
170.1818603090171
 20
54.40908268010188
 30
0.0
 10
170.4736598966177
 20
54.44043304901766
 30
0.0
 10
170.7926757385518
 20
54.44043304901766
 30
0.0
 10
172.166235308521
 20
54.44043304901766
 30
0.0
 10
172.5613877606791
 20
53.62773502404722
 30
0.0
 10
172.5613877606791
 20
52.78850976384036
 30
0.0
 10
172.5613877606791
 20
52.24521820581646
 30
0.0
 10
172.4177272789442
 20
51.78254188214741
 30
0.0
 10
172.0945773224277
 20
51.4459560532385
 30
0.0
 10
171.7938204865654
 20
51.13624196911454
 30
0.0
 10
171.2953151698498
 20
50.96570974259468
 30
0.0
 10
170.671408377471
 20
50.96570974259468
 30
0.0
 10
170.388566038132
 20
50.96570974259468
 30
0.0
 10
170.1460313159704
 20
50.97466699085632
 30
0.0
 10
169.9307128481423
 20
51.00153873564127
 30
0.0
 10
169.9307128481423
 20
51.00153873564127
 30
0.0
 10
169.9307128481423
 20
54.36843055337594
 30
0.0
 10
169.9307128481423
 20
54.36843055337594
 30
0.0
  0
SPLINE
  5
97
330
41
100
AcDbEntity
  8
_U+30EC_U+30A4_U+30E4_U+30FC 1
370
     0
100
AcDbSpline
210
0.0
220
0.0
230
1.0
 70
    11
 71
     3
 72
    20
 73
    16
 74
     0
 42
0.0000000001
 43
0.0000000001
 12
1.0
 22
0.0
 32
0.0
 13
1.0
 23
0.0
 33
0.0
 40
0.0
 40
0.0
 40
0.0
 40
0.0
 40
1.0
 40
1.0
 40
1.0
 40
2.0
 40
2.0
 40
2.0
 40
3.0
 40
3.0
 40
3.0
 40
4.0
 40
4.0
 40
4.0
 40
5.0
 40
5.0
 40
5.0
 40
5.0
 10
170.3031276700978
 20
51.28885969911111
 30
0.0
 10
170.415437782917
 20
51.27094520258781
 30
0.0
 10
170.5770127611752
 20
51.26646657845698
 30
0.0
 10
170.7385877394334
 20
51.26646657845698
 30
0.0
 10
171.663595877223
 20
51.26646657845698
 30
0.0
 10
172.1707139326518
 20
51.79184363995758
 30
0.0
 10
172.1707139326518
 20
52.77025075776854
 30
0.0
 10
172.1707139326518
 20
53.65942990251152
 30
0.0
 10
171.6949462461388
 20
54.13967621315535
 30
0.0
 10
170.8061116109443
 20
54.13967621315535
 30
0.0
 10
170.5904486335677
 20
54.13967621315535
 30
0.0
 10
170.4199164070478
 20
54.11728309250122
 30
0.0
 10
170.3031276700978
 20
54.0948899718471
 30
0.0
 10
170.3031276700978
 20
54.0948899718471
 30
0.0
 10
170.3031276700978
 20
51.28885969911111
 30
0.0
 10
170.3031276700978
 20
51.28885969911111
 30
0.0
  0
HATCH
  5
98
330
41
100
AcDbEntity
  8
_U+30EC_U+30A4_U+30E4_U+30FC 1
 62
     7
100
AcDbHatch
 10
0.0
 20
0.0
 30
0.0
210
0.0
220
0.0
230
1.0
  2
SOLID
 70
     1
 71
     0
 91
        2
 92
        1
 93
        1
 72
     4
 94
        3
 73
     0
 74
     1
 95
       23
 96
       19
 40
0.0
 40
0.0
 40
0.0
 40
0.0
 40
1.0
 40
1.0
 40
1.0
 40
2.0
 40
2.0
 40
2.0
 40
3.0
 40
3.0
 40
3.0
 40
4.0
 40
4.0
 40
4.0
 40
5.0
 40
5.0
 40
5.0
 40
6.0
 40
6.0
 40
6.0
 40
6.0
 10
169.9307128481423
 20
54.36843055337594
 10
170.1818603090171
 20
54.40908268010188
 10
170.4736598966177
 20
54.44043304901766
 10
170.7926757385518
 20
54.44043304901766
 10
172.166235308521
 20
54.44043304901766
 10
172.5613877606791
 20
53.62773502404722
 10
172.5613877606791
 20
52.78850976384036
 10
172.5613877606791
 20
52.24521820581646
 10
172.4177272789442
 20
51.78254188214741
 10
172.0945773224277
 20
51.4459560532385
 10
171.7938204865654
 20
51.13624196911454
 10
171.2953151698498
 20
50.96570974259468
 10
170.671408377471
 20
50.96570974259468
 10
170.388566038132
 20
50.96570974259468
 10
170.1460313159704
 20
50.97466699085632
 10
169.9307128481423
 20
51.00153873564127
 10
169.9307128481423
 20
51.00153873564127
 10
169.9307128481423
 20
54.36843055337594
 10
169.9307128481423
 20
54.36843055337594
 97
        0
 92
        1
 93
        1
 72
     4
 94
        3
 73
     0
 74
     1
 95
       20
 96
       16
 40
0.0
 40
0.0
 40
0.0
 40
0.0
 40
1.0
 40
1.0
 40
1.0
 40
2.0
 40
2.0
 40
2.0
 40
3.0
 40
3.0
 40
3.0
 40
4.0
 40
4.0
 40
4.0
 40
5.0
 40
5.0
 40
5.0
 40
5.0
 10
170.3031276700978
 20
51.28885969911111
 10
170.415437782917
 20
51.27094520258781
 10
170.5770127611752
 20
51.26646657845698
 10
170.7385877394334
 20
51.26646657845698
 10
171.663595877223
 20
51.26646657845698
 10
172.1707139326518
 20
51.79184363995758
 10
172.1707139326518
 20
52.77025075776854
 10
172.1707139326518
 20
53.65942990251152
 10
171.6949462461388
 20
54.13967621315535
 10
170.8061116109443
 20
54.13967621315535
 10
170.5904486335677
 20
54.13967621315535
 10
170.4199164070478
 20
54.11728309250122
 10
170.3031276700978
 20
54.0948899718471
 10
170.3031276700978
 20
54.0948899718471
 10
170.3031276700978
 20
51.28885969911111
 10
170.3031276700978
 20
51.28885969911111
 97
        0
 75
     2
 76
     1
 98
        0
  0
SPLINE
  5
99
330
41
100
AcDbEntity
  8
_U+30EC_U+30A4_U+30E4_U+30FC 1
370
     0
100
AcDbSpline
210
0.0
220
0.0
230
1.0
 70
    11
 71
     3
 72
    35
 73
    31
 74
     0
 42
0.0000000001
 43
0.0000000001
 12
1.0
 22
0.0
 32
0.0
 13
1.0
 23
0.0
 33
0.0
 40
0.0
 40
0.0
 40
0.0
 40
0.0
 40
1.0
 40
1.0
 40
1.0
 40
2.0
 40
2.0
 40
2.0
 40
3.0
 40
3.0
 40
3.0
 40
4.0
 40
4.0
 40
4.0
 40
5.0
 40
5.0
 40
5.0
 40
6.0
 40
6.0
 40
6.0
 40
7.0
 40
7.0
 40
7.0
 40
8.0
 40
8.0
 40
8.0
 40
9.0
 40
9.0
 40
9.0
 40
10.0
 40
10.0
 40
10.0
 40
10.0
 10
174.4410318574314
 20
52.82433875688696
 30
0.0
 10
174.7641818139479
 20
52.74785763711441
 30
0.0
 10
175.1458983937135
 20
52.47845117016788
 30
0.0
 10
175.1458983937135
 20
51.96237586647745
 30
0.0
 10
175.1458983937135
 20
51.65714040648432
 30
0.0
 10
175.0291096567636
 20
51.44147742910768
 30
0.0
 10
174.8720133026362
 20
51.28885969911111
 30
0.0
 10
174.642914452867
 20
51.06458398302134
 30
0.0
 10
174.2749782550424
 20
50.96570974259468
 30
0.0
 10
173.7585584418034
 20
50.96570974259468
 30
0.0
 10
173.4757161024644
 20
50.96570974259468
 30
0.0
 10
173.2648762587671
 20
50.9881028632488
 30
0.0
 10
173.125694401163
 20
51.00153873564127
 30
0.0
 10
173.125694401163
 20
51.00153873564127
 30
0.0
 10
173.125694401163
 20
54.36395192924511
 30
0.0
 10
173.125694401163
 20
54.36395192924511
 30
0.0
 10
173.3141411242062
 20
54.40460405597106
 30
0.0
 10
173.5835475911527
 20
54.43595442488683
 30
0.0
 10
173.8619113063609
 20
54.43595442488683
 30
0.0
 10
174.283935503304
 20
54.43595442488683
 30
0.0
 10
174.5622992185122
 20
54.35499468098346
 30
0.0
 10
174.7641818139479
 20
54.1844624544636
 30
0.0
 10
174.9257567922061
 20
54.04528059685951
 30
0.0
 10
175.0201524085019
 20
53.84787662555469
 30
0.0
 10
175.0201524085019
 20
53.59190603100063
 30
0.0
 10
175.0201524085019
 20
53.25532020209172
 30
0.0
 10
174.7910535587328
 20
52.96352061449105
 30
0.0
 10
174.4410318574314
 20
52.83777462927944
 30
0.0
 10
174.4410318574314
 20
52.83777462927944
 30
0.0
 10
174.4410318574314
 20
52.82433875688696
 30
0.0
 10
174.4410318574314
 20
52.82433875688696
 30
0.0
  0
SPLINE
  5
9A
330
41
100
AcDbEntity
  8
_U+30EC_U+30A4_U+30E4_U+30FC 1
370
     0
100
AcDbSpline
210
0.0
220
0.0
230
1.0
 70
    11
 71
     3
 72
    23
 73
    19
 74
     0
 42
0.0000000001
 43
0.0000000001
 12
1.0
 22
0.0
 32
0.0
 13
1.0
 23
0.0
 33
0.0
 40
0.0
 40
0.0
 40
0.0
 40
0.0
 40
1.0
 40
1.0
 40
1.0
 40
2.0
 40
2.0
 40
2.0
 40
3.0
 40
3.0
 40
3.0
 40
4.0
 40
4.0
 40
4.0
 40
5.0
 40
5.0
 40
5.0
 40
6.0
 40
6.0
 40
6.0
 40
6.0
 10
173.8977402994075
 20
52.95008474209858
 30
0.0
 10
174.3511148652664
 20
52.95008474209858
 30
0.0
 10
174.642914452867
 20
53.21018945123494
 30
0.0
 10
174.642914452867
 20
53.56055566208485
 30
0.0
 10
174.642914452867
 20
53.56055566208485
 30
0.0
 10
174.642914452867
 20
53.56503428621568
 30
0.0
 10
174.642914452867
 20
53.56503428621568
 30
0.0
 10
174.642914452867
 20
53.96914398663548
 30
0.0
 10
174.3466362411356
 20
54.14415483728617
 30
0.0
 10
173.8798258028842
 20
54.14415483728617
 30
0.0
 10
173.6824218315794
 20
54.14415483728617
 30
0.0
 10
173.5656330946294
 20
54.1307189648937
 30
0.0
 10
173.4981092231185
 20
54.1128044683704
 30
0.0
 10
173.4981092231185
 20
54.1128044683704
 30
0.0
 10
173.4981092231185
 20
52.95008474209858
 30
0.0
 10
173.4981092231185
 20
52.95008474209858
 30
0.0
 10
173.4981092231185
 20
52.95008474209858
 30
0.0
 10
173.8977402994075
 20
52.95008474209858
 30
0.0
 10
173.8977402994075
 20
52.95008474209858
 30
0.0
  0
SPLINE
  5
9B
330
41
100
AcDbEntity
  8
_U+30EC_U+30A4_U+30E4_U+30FC 1
370
     0
100
AcDbSpline
210
0.0
220
0.0
230
1.0
 70
    11
 71
     3
 72
    20
 73
    16
 74
     0
 42
0.0000000001
 43
0.0000000001
 12
1.0
 22
0.0
 32
0.0
 13
1.0
 23
0.0
 33
0.0
 40
0.0
 40
0.0
 40
0.0
 40
0.0
 40
1.0
 40
1.0
 40
1.0
 40
2.0
 40
2.0
 40
2.0
 40
3.0
 40
3.0
 40
3.0
 40
4.0
 40
4.0
 40
4.0
 40
5.0
 40
5.0
 40
5.0
 40
5.0
 10
173.4981092231185
 20
51.28438107498028
 30
0.0
 10
173.5835475911527
 20
51.26646657845698
 30
0.0
 10
173.7048149522335
 20
51.26198795432616
 30
0.0
 10
173.8619113063609
 20
51.26198795432616
 30
0.0
 10
174.3332003687431
 20
51.26198795432616
 30
0.0
 10
174.7552245656862
 20
51.4459560532385
 30
0.0
 10
174.7552245656862
 20
51.96237586647745
 30
0.0
 10
174.7552245656862
 20
52.47397254603705
 30
0.0
 10
174.310807248089
 20
52.66276377862874
 30
0.0
 10
173.8574326822301
 20
52.66276377862874
 30
0.0
 10
173.8574326822301
 20
52.66276377862874
 30
0.0
 10
173.4981092231185
 20
52.66276377862874
 30
0.0
 10
173.4981092231185
 20
52.66276377862874
 30
0.0
 10
173.4981092231185
 20
52.66276377862874
 30
0.0
 10
173.4981092231185
 20
51.28438107498028
 30
0.0
 10
173.4981092231185
 20
51.28438107498028
 30
0.0
  0
HATCH
  5
9C
330
41
100
AcDbEntity
  8
_U+30EC_U+30A4_U+30E4_U+30FC 1
 62
     7
100
AcDbHatch
 10
0.0
 20
0.0
 30
0.0
210
0.0
220
0.0
230
1.0
  2
SOLID
 70
     1
 71
     0
 91
        3
 92
        1
 93
        1
 72
     4
 94
        3
 73
     0
 74
     1
 95
       35
 96
       31
 40
0.0
 40
0.0
 40
0.0
 40
0.0
 40
1.0
 40
1.0
 40
1.0
 40
2.0
 40
2.0
 40
2.0
 40
3.0
 40
3.0
 40
3.0
 40
4.0
 40
4.0
 40
4.0
 40
5.0
 40
5.0
 40
5.0
 40
6.0
 40
6.0
 40
6.0
 40
7.0
 40
7.0
 40
7.0
 40
8.0
 40
8.0
 40
8.0
 40
9.0
 40
9.0
 40
9.0
 40
10.0
 40
10.0
 40
10.0
 40
10.0
 10
174.4410318574314
 20
52.82433875688696
 10
174.7641818139479
 20
52.74785763711441
 10
175.1458983937135
 20
52.47845117016788
 10
175.1458983937135
 20
51.96237586647745
 10
175.1458983937135
 20
51.65714040648432
 10
175.0291096567636
 20
51.44147742910768
 10
174.8720133026362
 20
51.28885969911111
 10
174.642914452867
 20
51.06458398302134
 10
174.2749782550424
 20
50.96570974259468
 10
173.7585584418034
 20
50.96570974259468
 10
173.4757161024644
 20
50.96570974259468
 10
173.2648762587671
 20
50.9881028632488
 10
173.125694401163
 20
51.00153873564127
 10
173.125694401163
 20
51.00153873564127
 10
173.125694401163
 20
54.36395192924511
 10
173.125694401163
 20
54.36395192924511
 10
173.3141411242062
 20
54.40460405597106
 10
173.5835475911527
 20
54.43595442488683
 10
173.8619113063609
 20
54.43595442488683
 10
174.283935503304
 20
54.43595442488683
 10
174.5622992185122
 20
54.35499468098346
 10
174.7641818139479
 20
54.1844624544636
 10
174.9257567922061
 20
54.04528059685951
 10
175.0201524085019
 20
53.84787662555469
 10
175.0201524085019
 20
53.59190603100063
 10
175.0201524085019
 20
53.25532020209172
 10
174.7910535587328
 20
52.96352061449105
 10
174.4410318574314
 20
52.83777462927944
 10
174.4410318574314
 20
52.83777462927944
 10
174.4410318574314
 20
52.82433875688696
 10
174.4410318574314
 20
52.82433875688696
 97
        0
 92
        1
 93
        1
 72
     4
 94
        3
 73
     0
 74
     1
 95
       23
 96
       19
 40
0.0
 40
0.0
 40
0.0
 40
0.0
 40
1.0
 40
1.0
 40
1.0
 40
2.0
 40
2.0
 40
2.0
 40
3.0
 40
3.0
 40
3.0
 40
4.0
 40
4.0
 40
4.0
 40
5.0
 40
5.0
 40
5.0
 40
6.0
 40
6.0
 40
6.0
 40
6.0
 10
173.8977402994075
 20
52.95008474209858
 10
174.3511148652664
 20
52.95008474209858
 10
174.642914452867
 20
53.21018945123494
 10
174.642914452867
 20
53.56055566208485
 10
174.642914452867
 20
53.56055566208485
 10
174.642914452867
 20
53.56503428621568
 10
174.642914452867
 20
53.56503428621568
 10
174.642914452867
 20
53.96914398663548
 10
174.3466362411356
 20
54.14415483728617
 10
173.8798258028842
 20
54.14415483728617
 10
173.6824218315794
 20
54.14415483728617
 10
173.5656330946294
 20
54.1307189648937
 10
173.4981092231185
 20
54.1128044683704
 10
173.4981092231185
 20
54.1128044683704
 10
173.4981092231185
 20
52.95008474209858
 10
173.4981092231185
 20
52.95008474209858
 10
173.4981092231185
 20
52.95008474209858
 10
173.8977402994075
 20
52.95008474209858
 10
173.8977402994075
 20
52.95008474209858
 97
        0
 92
        1
 93
        1
 72
     4
 94
        3
 73
     0
 74
     1
 95
       20
 96
       16
 40
0.0
 40
0.0
 40
0.0
 40
0.0
 40
1.0
 40
1.0
 40
1.0
 40
2.0
 40
2.0
 40
2.0
 40
3.0
 40
3.0
 40
3.0
 40
4.0
 40
4.0
 40
4.0
 40
5.0
 40
5.0
 40
5.0
 40
5.0
 10
173.4981092231185
 20
51.28438107498028
 10
173.5835475911527
 20
51.26646657845698
 10
173.7048149522335
 20
51.26198795432616
 10
173.8619113063609
 20
51.26198795432616
 10
174.3332003687431
 20
51.26198795432616
 10
174.7552245656862
 20
51.4459560532385
 10
174.7552245656862
 20
51.96237586647745
 10
174.7552245656862
 20
52.47397254603705
 10
174.310807248089
 20
52.66276377862874
 10
173.8574326822301
 20
52.66276377862874
 10
173.8574326822301
 20
52.66276377862874
 10
173.4981092231185
 20
52.66276377862874
 10
173.4981092231185
 20
52.66276377862874
 10
173.4981092231185
 20
52.66276377862874
 10
173.4981092231185
 20
51.28438107498028
 10
173.4981092231185
 20
51.28438107498028
 97
        0
 75
     2
 76
     1
 98
        0
  0
POLYLINE
  5
9D
330
41
100
AcDbEntity
  8
_U+30EC_U+30A4_U+30E4_U+30FC 1
370
     0
100
AcDb2dPolyline
 66
     1
 10
0.0
 20
0.0
 30
0.0
  0
VERTEX
  5
9E
330
9D
100
AcDbEntity
  8
_U+30EC_U+30A4_U+30E4_U+30FC 1
370
     0
100
AcDbVertex
100
AcDb2dVertex
 10
175.4990206809516
 20
52.50566742450135
 30
0.0
  0
VERTEX
  5
9F
330
9D
100
AcDbEntity
  8
_U+30EC_U+30A4_U+30E4_U+30FC 1
370
     0
100
AcDbVertex
100
AcDb2dVertex
 10
176.7247856546035
 20
52.50566742450135
 30
0.0
  0
VERTEX
  5
A0
330
9D
100
AcDbEntity
  8
_U+30EC_U+30A4_U+30E4_U+30FC 1
370
     0
100
AcDbVertex
100
AcDb2dVertex
 10
176.7247856546035
 20
52.21834646103152
 30
0.0
  0
VERTEX
  5
A1
330
9D
100
AcDbEntity
  8
_U+30EC_U+30A4_U+30E4_U+30FC 1
370
     0
100
AcDbVertex
100
AcDb2dVertex
 10
175.4990206809516
 20
52.21834646103152
 30
0.0
  0
VERTEX
  5
A2
330
9D
100
AcDbEntity
  8
_U+30EC_U+30A4_U+30E4_U+30FC 1
370
     0
100
AcDbVertex
100
AcDb2dVertex
 10
175.4990206809516
 20
52.50566742450135
 30
0.0
  0
SEQEND
  5
A3
330
9D
100
AcDbEntity
  8
_U+30EC_U+30A4_U+30E4_U+30FC 1
370
     0
  0
HATCH
  5
A4
330
41
100
AcDbEntity
  8
_U+30EC_U+30A4_U+30E4_U+30FC 1
 62
     7
100
AcDbHatch
 10
0.0
 20
0.0
 30
0.0
210
0.0
220
0.0
230
1.0
  2
SOLID
 70
     1
 71
     0
 91
        1
 92
        1
 93
        4
 72
     1
 10
175.4990206809516
 20
52.50566742450135
 11
176.7247856546035
 21
52.50566742450135
 72
     1
 10
176.7247856546035
 20
52.50566742450135
 11
176.7247856546035
 21
52.21834646103152
 72
     1
 10
176.7247856546035
 20
52.21834646103152
 11
175.4990206809516
 21
52.21834646103152
 72
     1
 10
175.4990206809516
 20
52.21834646103152
 11
175.4990206809516
 21
52.50566742450135
 97
        0
 75
     2
 76
     1
 98
        0
  0
SPLINE
  5
A5
330
41
100
AcDbEntity
  8
_U+30EC_U+30A4_U+30E4_U+30FC 1
370
     0
100
AcDbSpline
210
0.0
220
0.0
230
1.0
 70
    11
 71
     3
 72
    17
 73
    13
 74
     0
 42
0.0000000001
 43
0.0000000001
 12
1.0
 22
0.0
 32
0.0
 13
1.0
 23
0.0
 33
0.0
 40
0.0
 40
0.0
 40
0.0
 40
0.0
 40
1.0
 40
1.0
 40
1.0
 40
2.0
 40
2.0
 40
2.0
 40
3.0
 40
3.0
 40
3.0
 40
4.0
 40
4.0
 40
4.0
 40
4.0
 10
177.055859330736
 20
52.66276377862874
 30
0.0
 10
177.055859330736
 20
53.83891937729304
 30
0.0
 10
177.5137125207257
 20
54.40908268010188
 30
0.0
 10
178.1424424467838
 20
54.40908268010188
 30
0.0
 10
178.7797851115551
 20
54.40908268010188
 30
0.0
 10
179.1704589395824
 20
53.80756900837726
 30
0.0
 10
179.1704589395824
 20
52.70755001993699
 30
0.0
 10
179.1704589395824
 20
51.54035166953435
 30
0.0
 10
178.7618706150318
 20
50.93883799780972
 30
0.0
 10
178.0928330717962
 20
50.93883799780972
 30
0.0
 10
177.48236215181
 20
50.93883799780972
 30
0.0
 10
177.055859330736
 20
51.54035166953435
 30
0.0
 10
177.055859330736
 20
52.66276377862874
 30
0.0
  0
SPLINE
  5
A6
330
41
100
AcDbEntity
  8
_U+30EC_U+30A4_U+30E4_U+30FC 1
370
     0
100
AcDbSpline
210
0.0
220
0.0
230
1.0
 70
    11
 71
     3
 72
    17
 73
    13
 74
     0
 42
0.0000000001
 43
0.0000000001
 12
1.0
 22
0.0
 32
0.0
 13
1.0
 23
0.0
 33
0.0
 40
0.0
 40
0.0
 40
0.0
 40
0.0
 40
1.0
 40
1.0
 40
1.0
 40
2.0
 40
2.0
 40
2.0
 40
3.0
 40
3.0
 40
3.0
 40
4.0
 40
4.0
 40
4.0
 40
4.0
 10
178.7932209839475
 20
52.68963552341369
 30
0.0
 10
178.7932209839475
 20
53.52920529316908
 30
0.0
 10
178.5913383885119
 20
54.10832584423957
 30
0.0
 10
178.1200493261297
 20
54.10832584423957
 30
0.0
 10
177.7204182498407
 20
54.10832584423957
 30
0.0
 10
177.4375759105017
 20
53.57399153447732
 30
0.0
 10
177.4375759105017
 20
52.68963552341369
 30
0.0
 10
177.4375759105017
 20
51.80527951235006
 30
0.0
 10
177.6845892567941
 20
51.24407345780286
 30
0.0
 10
178.1066134537373
 20
51.24407345780286
 30
0.0
 10
178.6047742609044
 20
51.24407345780286
 30
0.0
 10
178.7932209839475
 20
51.89037337083573
 30
0.0
 10
178.7932209839475
 20
52.68963552341369
 30
0.0
  0
HATCH
  5
A7
330
41
100
AcDbEntity
  8
_U+30EC_U+30A4_U+30E4_U+30FC 1
 62
     7
100
AcDbHatch
 10
0.0
 20
0.0
 30
0.0
210
0.0
220
0.0
230
1.0
  2
SOLID
 70
     1
 71
     0
 91
        2
 92
        1
 93
        1
 72
     4
 94
        3
 73
     0
 74
     1
 95
       17
 96
       13
 40
0.0
 40
0.0
 40
0.0
 40
0.0
 40
1.0
 40
1.0
 40
1.0
 40
2.0
 40
2.0
 40
2.0
 40
3.0
 40
3.0
 40
3.0
 40
4.0
 40
4.0
 40
4.0
 40
4.0
 10
177.055859330736
 20
52.66276377862874
 10
177.055859330736
 20
53.83891937729304
 10
177.5137125207257
 20
54.40908268010188
 10
178.1424424467838
 20
54.40908268010188
 10
178.7797851115551
 20
54.40908268010188
 10
179.1704589395824
 20
53.80756900837726
 10
179.1704589395824
 20
52.70755001993699
 10
179.1704589395824
 20
51.54035166953435
 10
178.7618706150318
 20
50.93883799780972
 10
178.0928330717962
 20
50.93883799780972
 10
177.48236215181
 20
50.93883799780972
 10
177.055859330736
 20
51.54035166953435
 10
177.055859330736
 20
52.66276377862874
 97
        0
 92
        1
 93
        1
 72
     4
 94
        3
 73
     0
 74
     1
 95
       17
 96
       13
 40
0.0
 40
0.0
 40
0.0
 40
0.0
 40
1.0
 40
1.0
 40
1.0
 40
2.0
 40
2.0
 40
2.0
 40
3.0
 40
3.0
 40
3.0
 40
4.0
 40
4.0
 40
4.0
 40
4.0
 10
178.7932209839475
 20
52.68963552341369
 10
178.7932209839475
 20
53.52920529316908
 10
178.5913383885119
 20
54.10832584423957
 10
178.1200493261297
 20
54.10832584423957
 10
177.7204182498407
 20
54.10832584423957
 10
177.4375759105017
 20
53.57399153447732
 10
177.4375759105017
 20
52.68963552341369
 10
177.4375759105017
 20
51.80527951235006
 10
177.6845892567941
 20
51.24407345780286
 10
178.1066134537373
 20
51.24407345780286
 10
178.6047742609044
 20
51.24407345780286
 10
178.7932209839475
 20
51.89037337083573
 10
178.7932209839475
 20
52.68963552341369
 97
        0
 75
     2
 76
     1
 98
        0
  0
SPLINE
  5
A8
330
41
100
AcDbEntity
  8
_U+30EC_U+30A4_U+30E4_U+30FC 1
370
     0
100
AcDbSpline
210
0.0
220
0.0
230
1.0
 70
    11
 71
     3
 72
    17
 73
    13
 74
     0
 42
0.0000000001
 43
0.0000000001
 12
1.0
 22
0.0
 32
0.0
 13
1.0
 23
0.0
 33
0.0
 40
0.0
 40
0.0
 40
0.0
 40
0.0
 40
1.0
 40
1.0
 40
1.0
 40
2.0
 40
2.0
 40
2.0
 40
3.0
 40
3.0
 40
3.0
 40
4.0
 40
4.0
 40
4.0
 40
4.0
 10
179.5284043604998
 20
52.66276377862874
 30
0.0
 10
179.5284043604998
 20
53.83891937729304
 30
0.0
 10
179.9862575504896
 20
54.40908268010188
 30
0.0
 10
180.6149874765476
 20
54.40908268010188
 30
0.0
 10
181.2523301413189
 20
54.40908268010188
 30
0.0
 10
181.6430039693462
 20
53.80756900837726
 30
0.0
 10
181.6430039693462
 20
52.70755001993699
 30
0.0
 10
181.6430039693462
 20
51.54035166953435
 30
0.0
 10
181.2344156447956
 20
50.93883799780972
 30
0.0
 10
180.56537810156
 20
50.93883799780972
 30
0.0
 10
179.9549071815738
 20
50.93883799780972
 30
0.0
 10
179.5284043604998
 20
51.54035166953435
 30
0.0
 10
179.5284043604998
 20
52.66276377862874
 30
0.0
  0
SPLINE
  5
A9
330
41
100
AcDbEntity
  8
_U+30EC_U+30A4_U+30E4_U+30FC 1
370
     0
100
AcDbSpline
210
0.0
220
0.0
230
1.0
 70
    11
 71
     3
 72
    17
 73
    13
 74
     0
 42
0.0000000001
 43
0.0000000001
 12
1.0
 22
0.0
 32
0.0
 13
1.0
 23
0.0
 33
0.0
 40
0.0
 40
0.0
 40
0.0
 40
0.0
 40
1.0
 40
1.0
 40
1.0
 40
2.0
 40
2.0
 40
2.0
 40
3.0
 40
3.0
 40
3.0
 40
4.0
 40
4.0
 40
4.0
 40
4.0
 10
181.2657660137114
 20
52.68963552341369
 30
0.0
 10
181.2657660137114
 20
53.52920529316908
 30
0.0
 10
181.0638834182757
 20
54.10832584423957
 30
0.0
 10
180.5925943558935
 20
54.10832584423957
 30
0.0
 10
180.1929632796046
 20
54.10832584423957
 30
0.0
 10
179.9101209402655
 20
53.57399153447732
 30
0.0
 10
179.9101209402655
 20
52.68963552341369
 30
0.0
 10
179.9101209402655
 20
51.80527951235006
 30
0.0
 10
180.1571342865579
 20
51.24407345780286
 30
0.0
 10
180.5791584835011
 20
51.24407345780286
 30
0.0
 10
181.0773192906682
 20
51.24407345780286
 30
0.0
 10
181.2657660137114
 20
51.89037337083573
 30
0.0
 10
181.2657660137114
 20
52.68963552341369
 30
0.0
  0
HATCH
  5
AA
330
41
100
AcDbEntity
  8
_U+30EC_U+30A4_U+30E4_U+30FC 1
 62
     7
100
AcDbHatch
 10
0.0
 20
0.0
 30
0.0
210
0.0
220
0.0
230
1.0
  2
SOLID
 70
     1
 71
     0
 91
        2
 92
        1
 93
        1
 72
     4
 94
        3
 73
     0
 74
     1
 95
       17
 96
       13
 40
0.0
 40
0.0
 40
0.0
 40
0.0
 40
1.0
 40
1.0
 40
1.0
 40
2.0
 40
2.0
 40
2.0
 40
3.0
 40
3.0
 40
3.0
 40
4.0
 40
4.0
 40
4.0
 40
4.0
 10
179.5284043604998
 20
52.66276377862874
 10
179.5284043604998
 20
53.83891937729304
 10
179.9862575504896
 20
54.40908268010188
 10
180.6149874765476
 20
54.40908268010188
 10
181.2523301413189
 20
54.40908268010188
 10
181.6430039693462
 20
53.80756900837726
 10
181.6430039693462
 20
52.70755001993699
 10
181.6430039693462
 20
51.54035166953435
 10
181.2344156447956
 20
50.93883799780972
 10
180.56537810156
 20
50.93883799780972
 10
179.9549071815738
 20
50.93883799780972
 10
179.5284043604998
 20
51.54035166953435
 10
179.5284043604998
 20
52.66276377862874
 97
        0
 92
        1
 93
        1
 72
     4
 94
        3
 73
     0
 74
     1
 95
       17
 96
       13
 40
0.0
 40
0.0
 40
0.0
 40
0.0
 40
1.0
 40
1.0
 40
1.0
 40
2.0
 40
2.0
 40
2.0
 40
3.0
 40
3.0
 40
3.0
 40
4.0
 40
4.0
 40
4.0
 40
4.0
 10
181.2657660137114
 20
52.68963552341369
 10
181.2657660137114
 20
53.52920529316908
 10
181.0638834182757
 20
54.10832584423957
 10
180.5925943558935
 20
54.10832584423957
 10
180.1929632796046
 20
54.10832584423957
 10
179.9101209402655
 20
53.57399153447732
 10
179.9101209402655
 20
52.68963552341369
 10
179.9101209402655
 20
51.80527951235006
 10
180.1571342865579
 20
51.24407345780286
 10
180.5791584835011
 20
51.24407345780286
 10
181.0773192906682
 20
51.24407345780286
 10
181.2657660137114
 20
51.89037337083573
 10
181.2657660137114
 20
52.68963552341369
 97
        0
 75
     2
 76
     1
 98
        0
  0
POLYLINE
  5
AB
330
41
100
AcDbEntity
  8
_U+30EC_U+30A4_U+30E4_U+30FC 1
370
     0
100
AcDb2dPolyline
 66
     1
 10
0.0
 20
0.0
 30
0.0
  0
VERTEX
  5
AC
330
AB
100
AcDbEntity
  8
_U+30EC_U+30A4_U+30E4_U+30FC 1
370
     0
100
AcDbVertex
100
AcDb2dVertex
 10
182.9886582658848
 20
50.99258148737962
 30
0.0
  0
VERTEX
  5
AD
330
AB
100
AcDbEntity
  8
_U+30EC_U+30A4_U+30E4_U+30FC 1
370
     0
100
AcDbVertex
100
AcDb2dVertex
 10
182.9886582658848
 20
54.00497297968208
 30
0.0
  0
VERTEX
  5
AE
330
AB
100
AcDbEntity
  8
_U+30EC_U+30A4_U+30E4_U+30FC 1
370
     0
100
AcDbVertex
100
AcDb2dVertex
 10
182.9797010176231
 20
54.00497297968208
 30
0.0
  0
VERTEX
  5
AF
330
AB
100
AcDbEntity
  8
_U+30EC_U+30A4_U+30E4_U+30FC 1
370
     0
100
AcDbVertex
100
AcDb2dVertex
 10
182.4274522113376
 20
53.68630164729647
 30
0.0
  0
VERTEX
  5
B0
330
AB
100
AcDbEntity
  8
_U+30EC_U+30A4_U+30E4_U+30FC 1
370
     0
100
AcDbVertex
100
AcDb2dVertex
 10
182.3378797287211
 20
53.96466536250465
 30
0.0
  0
VERTEX
  5
B1
330
AB
100
AcDbEntity
  8
_U+30EC_U+30A4_U+30E4_U+30FC 1
370
     0
100
AcDbVertex
100
AcDb2dVertex
 10
183.033444507193
 20
54.35499468098346
 30
0.0
  0
VERTEX
  5
B2
330
AB
100
AcDbEntity
  8
_U+30EC_U+30A4_U+30E4_U+30FC 1
370
     0
100
AcDbVertex
100
AcDb2dVertex
 10
183.3524603491272
 20
54.35499468098346
 30
0.0
  0
VERTEX
  5
B3
330
AB
100
AcDbEntity
  8
_U+30EC_U+30A4_U+30E4_U+30FC 1
370
     0
100
AcDbVertex
100
AcDb2dVertex
 10
183.3524603491272
 20
50.99258148737962
 30
0.0
  0
VERTEX
  5
B4
330
AB
100
AcDbEntity
  8
_U+30EC_U+30A4_U+30E4_U+30FC 1
370
     0
100
AcDbVertex
100
AcDb2dVertex
 10
182.9886582658848
 20
50.99258148737962
 30
0.0
  0
SEQEND
  5
B5
330
AB
100
AcDbEntity
  8
_U+30EC_U+30A4_U+30E4_U+30FC 1
370
     0
  0
HATCH
  5
B6
330
41
100
AcDbEntity
  8
_U+30EC_U+30A4_U+30E4_U+30FC 1
 62
     7
100
AcDbHatch
 10
0.0
 20
0.0
 30
0.0
210
0.0
220
0.0
230
1.0
  2
SOLID
 70
     1
 71
     0
 91
        1
 92
        1
 93
        8
 72
     1
 10
182.9886582658848
 20
50.99258148737962
 11
182.9886582658848
 21
54.00497297968208
 72
     1
 10
182.9886582658848
 20
54.00497297968208
 11
182.9797010176231
 21
54.00497297968208
 72
     1
 10
182.9797010176231
 20
54.00497297968208
 11
182.4274522113376
 21
53.68630164729647
 72
     1
 10
182.4274522113376
 20
53.68630164729647
 11
182.3378797287211
 21
53.96466536250465
 72
     1
 10
182.3378797287211
 20
53.96466536250465
 11
183.033444507193
 21
54.35499468098346
 72
     1
 10
183.033444507193
 20
54.35499468098346
 11
183.3524603491272
 21
54.35499468098346
 72
     1
 10
183.3524603491272
 20
54.35499468098346
 11
183.3524603491272
 21
50.99258148737962
 72
     1
 10
183.3524603491272
 20
50.99258148737962
 11
182.9886582658848
 21
50.99258148737962
 97
        0
 75
     2
 76
     1
 98
        0
  0
SPLINE
  5
B7
330
41
100
AcDbEntity
  8
_U+30EC_U+30A4_U+30E4_U+30FC 1
370
     0
100
AcDbSpline
210
0.0
220
0.0
230
1.0
 70
    11
 71
     3
 72
    47
 73
    43
 74
     0
 42
0.0000000001
 43
0.0000000001
 12
1.0
 22
0.0
 32
0.0
 13
1.0
 23
0.0
 33
0.0
 40
0.0
 40
0.0
 40
0.0
 40
0.0
 40
1.0
 40
1.0
 40
1.0
 40
2.0
 40
2.0
 40
2.0
 40
3.0
 40
3.0
 40
3.0
 40
4.0
 40
4.0
 40
4.0
 40
5.0
 40
5.0
 40
5.0
 40
6.0
 40
6.0
 40
6.0
 40
7.0
 40
7.0
 40
7.0
 40
8.0
 40
8.0
 40
8.0
 40
9.0
 40
9.0
 40
9.0
 40
10.0
 40
10.0
 40
10.0
 40
11.0
 40
11.0
 40
11.0
 40
12.0
 40
12.0
 40
12.0
 40
13.0
 40
13.0
 40
13.0
 40
14.0
 40
14.0
 40
14.0
 40
14.0
 10
186.9246798577827
 20
50.99258148737962
 30
0.0
 10
186.9246798577827
 20
50.99258148737962
 30
0.0
 10
186.4847411643163
 20
50.99258148737962
 30
0.0
 10
186.4847411643163
 20
50.99258148737962
 30
0.0
 10
186.4847411643163
 20
50.99258148737962
 30
0.0
 10
185.3668076793527
 20
52.70755001993699
 30
0.0
 10
185.3668076793527
 20
52.70755001993699
 30
0.0
 10
185.3668076793527
 20
52.70755001993699
 30
0.0
 10
185.0481363469671
 20
52.33479068843296
 30
0.0
 10
185.0481363469671
 20
52.33479068843296
 30
0.0
 10
185.0481363469671
 20
52.33479068843296
 30
0.0
 10
185.0481363469671
 20
50.99258148737962
 30
0.0
 10
185.0481363469671
 20
50.99258148737962
 30
0.0
 10
185.0481363469671
 20
50.99258148737962
 30
0.0
 10
184.6757215250116
 20
50.99258148737962
 30
0.0
 10
184.6757215250116
 20
50.99258148737962
 30
0.0
 10
184.6757215250116
 20
50.99258148737962
 30
0.0
 10
184.6757215250116
 20
54.41356130423271
 30
0.0
 10
184.6757215250116
 20
54.41356130423271
 30
0.0
 10
184.6757215250116
 20
54.41356130423271
 30
0.0
 10
185.0481363469671
 20
54.41356130423271
 30
0.0
 10
185.0481363469671
 20
54.41356130423271
 30
0.0
 10
185.0481363469671
 20
54.41356130423271
 30
0.0
 10
185.0481363469671
 20
52.74337901298359
 30
0.0
 10
185.0481363469671
 20
52.74337901298359
 30
0.0
 10
185.0481363469671
 20
52.74337901298359
 30
0.0
 10
185.0660508434904
 20
52.74337901298359
 30
0.0
 10
185.0660508434904
 20
52.74337901298359
 30
0.0
 10
185.1514892115246
 20
52.87360362232603
 30
0.0
 10
185.2458848278205
 20
52.99934960753765
 30
0.0
 10
185.3309786863061
 20
53.1116597203568
 30
0.0
 10
185.3309786863061
 20
53.1116597203568
 30
0.0
 10
186.3724310514972
 20
54.41356130423271
 30
0.0
 10
186.3724310514972
 20
54.41356130423271
 30
0.0
 10
186.3724310514972
 20
54.41356130423271
 30
0.0
 10
186.8306287510354
 20
54.41356130423271
 30
0.0
 10
186.8306287510354
 20
54.41356130423271
 30
0.0
 10
186.8306287510354
 20
54.41356130423271
 30
0.0
 10
185.6272568980376
 20
52.95904199036023
 30
0.0
 10
185.6272568980376
 20
52.95904199036023
 30
0.0
 10
185.6272568980376
 20
52.95904199036023
 30
0.0
 10
186.9246798577827
 20
50.99258148737962
 30
0.0
 10
186.9246798577827
 20
50.99258148737962
 30
0.0
  0
HATCH
  5
B8
330
41
100
AcDbEntity
  8
_U+30EC_U+30A4_U+30E4_U+30FC 1
 62
     7
100
AcDbHatch
 10
0.0
 20
0.0
 30
0.0
210
0.0
220
0.0
230
1.0
  2
SOLID
 70
     1
 71
     0
 91
        1
 92
        1
 93
        1
 72
     4
 94
        3
 73
     0
 74
     1
 95
       47
 96
       43
 40
0.0
 40
0.0
 40
0.0
 40
0.0
 40
1.0
 40
1.0
 40
1.0
 40
2.0
 40
2.0
 40
2.0
 40
3.0
 40
3.0
 40
3.0
 40
4.0
 40
4.0
 40
4.0
 40
5.0
 40
5.0
 40
5.0
 40
6.0
 40
6.0
 40
6.0
 40
7.0
 40
7.0
 40
7.0
 40
8.0
 40
8.0
 40
8.0
 40
9.0
 40
9.0
 40
9.0
 40
10.0
 40
10.0
 40
10.0
 40
11.0
 40
11.0
 40
11.0
 40
12.0
 40
12.0
 40
12.0
 40
13.0
 40
13.0
 40
13.0
 40
14.0
 40
14.0
 40
14.0
 40
14.0
 10
186.9246798577827
 20
50.99258148737962
 10
186.9246798577827
 20
50.99258148737962
 10
186.4847411643163
 20
50.99258148737962
 10
186.4847411643163
 20
50.99258148737962
 10
186.4847411643163
 20
50.99258148737962
 10
185.3668076793527
 20
52.70755001993699
 10
185.3668076793527
 20
52.70755001993699
 10
185.3668076793527
 20
52.70755001993699
 10
185.0481363469671
 20
52.33479068843296
 10
185.0481363469671
 20
52.33479068843296
 10
185.0481363469671
 20
52.33479068843296
 10
185.0481363469671
 20
50.99258148737962
 10
185.0481363469671
 20
50.99258148737962
 10
185.0481363469671
 20
50.99258148737962
 10
184.6757215250116
 20
50.99258148737962
 10
184.6757215250116
 20
50.99258148737962
 10
184.6757215250116
 20
50.99258148737962
 10
184.6757215250116
 20
54.41356130423271
 10
184.6757215250116
 20
54.41356130423271
 10
184.6757215250116
 20
54.41356130423271
 10
185.0481363469671
 20
54.41356130423271
 10
185.0481363469671
 20
54.41356130423271
 10
185.0481363469671
 20
54.41356130423271
 10
185.0481363469671
 20
52.74337901298359
 10
185.0481363469671
 20
52.74337901298359
 10
185.0481363469671
 20
52.74337901298359
 10
185.0660508434904
 20
52.74337901298359
 10
185.0660508434904
 20
52.74337901298359
 10
185.1514892115246
 20
52.87360362232603
 10
185.2458848278205
 20
52.99934960753765
 10
185.3309786863061
 20
53.1116597203568
 10
185.3309786863061
 20
53.1116597203568
 10
186.3724310514972
 20
54.41356130423271
 10
186.3724310514972
 20
54.41356130423271
 10
186.3724310514972
 20
54.41356130423271
 10
186.8306287510354
 20
54.41356130423271
 10
186.8306287510354
 20
54.41356130423271
 10
186.8306287510354
 20
54.41356130423271
 10
185.6272568980376
 20
52.95904199036023
 10
185.6272568980376
 20
52.95904199036023
 10
185.6272568980376
 20
52.95904199036023
 10
186.9246798577827
 20
50.99258148737962
 10
186.9246798577827
 20
50.99258148737962
 97
        0
 75
     2
 76
     1
 98
        0
  0
POLYLINE
  5
B9
330
41
100
AcDbEntity
  8
_U+30EC_U+30A4_U+30E4_U+30FC 1
370
     0
100
AcDb2dPolyline
 66
     1
 10
0.0
 20
0.0
 30
0.0
  0
VERTEX
  5
BA
330
B9
100
AcDbEntity
  8
_U+30EC_U+30A4_U+30E4_U+30FC 1
370
     0
100
AcDbVertex
100
AcDb2dVertex
 10
169.1686577268051
 20
45.6075527343856
 30
0.0
  0
VERTEX
  5
BB
330
B9
100
AcDbEntity
  8
_U+30EC_U+30A4_U+30E4_U+30FC 1
370
     0
100
AcDbVertex
100
AcDb2dVertex
 10
168.7962429048495
 20
45.6075527343856
 30
0.0
  0
VERTEX
  5
BC
330
B9
100
AcDbEntity
  8
_U+30EC_U+30A4_U+30E4_U+30FC 1
370
     0
100
AcDbVertex
100
AcDb2dVertex
 10
168.7962429048495
 20
47.2415615230396
 30
0.0
  0
VERTEX
  5
BD
330
B9
100
AcDbEntity
  8
_U+30EC_U+30A4_U+30E4_U+30FC 1
370
     0
100
AcDbVertex
100
AcDb2dVertex
 10
167.161889606647
 20
47.2415615230396
 30
0.0
  0
VERTEX
  5
BE
330
B9
100
AcDbEntity
  8
_U+30EC_U+30A4_U+30E4_U+30FC 1
370
     0
100
AcDbVertex
100
AcDb2dVertex
 10
167.161889606647
 20
45.6075527343856
 30
0.0
  0
VERTEX
  5
BF
330
B9
100
AcDbEntity
  8
_U+30EC_U+30A4_U+30E4_U+30FC 1
370
     0
100
AcDbVertex
100
AcDb2dVertex
 10
166.7894747846915
 20
45.6075527343856
 30
0.0
  0
VERTEX
  5
C0
330
B9
100
AcDbEntity
  8
_U+30EC_U+30A4_U+30E4_U+30FC 1
370
     0
100
AcDbVertex
100
AcDb2dVertex
 10
166.7894747846915
 20
49.02405392710786
 30
0.0
  0
VERTEX
  5
C1
330
B9
100
AcDbEntity
  8
_U+30EC_U+30A4_U+30E4_U+30FC 1
370
     0
100
AcDbVertex
100
AcDb2dVertex
 10
167.161889606647
 20
49.02405392710786
 30
0.0
  0
VERTEX
  5
C2
330
B9
100
AcDbEntity
  8
_U+30EC_U+30A4_U+30E4_U+30FC 1
370
     0
100
AcDbVertex
100
AcDb2dVertex
 10
167.161889606647
 20
47.56505598910456
 30
0.0
  0
VERTEX
  5
C3
330
B9
100
AcDbEntity
  8
_U+30EC_U+30A4_U+30E4_U+30FC 1
370
     0
100
AcDbVertex
100
AcDb2dVertex
 10
168.7962429048495
 20
47.56505598910456
 30
0.0
  0
VERTEX
  5
C4
330
B9
100
AcDbEntity
  8
_U+30EC_U+30A4_U+30E4_U+30FC 1
370
     0
100
AcDbVertex
100
AcDb2dVertex
 10
168.7962429048495
 20
49.02405392710786
 30
0.0
  0
VERTEX
  5
C5
330
B9
100
AcDbEntity
  8
_U+30EC_U+30A4_U+30E4_U+30FC 1
370
     0
100
AcDbVertex
100
AcDb2dVertex
 10
169.1686577268051
 20
49.02405392710786
 30
0.0
  0
VERTEX
  5
C6
330
B9
100
AcDbEntity
  8
_U+30EC_U+30A4_U+30E4_U+30FC 1
370
     0
100
AcDbVertex
100
AcDb2dVertex
 10
169.1686577268051
 20
45.6075527343856
 30
0.0
  0
SEQEND
  5
C7
330
B9
100
AcDbEntity
  8
_U+30EC_U+30A4_U+30E4_U+30FC 1
370
     0
  0
HATCH
  5
C8
330
41
100
AcDbEntity
  8
_U+30EC_U+30A4_U+30E4_U+30FC 1
 62
     7
100
AcDbHatch
 10
0.0
 20
0.0
 30
0.0
210
0.0
220
0.0
230
1.0
  2
SOLID
 70
     1
 71
     0
 91
        1
 92
        1
 93
       12
 72
     1
 10
169.1686577268051
 20
45.6075527343856
 11
168.7962429048495
 21
45.6075527343856
 72
     1
 10
168.7962429048495
 20
45.6075527343856
 11
168.7962429048495
 21
47.2415615230396
 72
     1
 10
168.7962429048495
 20
47.2415615230396
 11
167.161889606647
 21
47.2415615230396
 72
     1
 10
167.161889606647
 20
47.2415615230396
 11
167.161889606647
 21
45.6075527343856
 72
     1
 10
167.161889606647
 20
45.6075527343856
 11
166.7894747846915
 21
45.6075527343856
 72
     1
 10
166.7894747846915
 20
45.6075527343856
 11
166.7894747846915
 21
49.02405392710786
 72
     1
 10
166.7894747846915
 20
49.02405392710786
 11
167.161889606647
 21
49.02405392710786
 72
     1
 10
167.161889606647
 20
49.02405392710786
 11
167.161889606647
 21
47.56505598910456
 72
     1
 10
167.161889606647
 20
47.56505598910456
 11
168.7962429048495
 21
47.56505598910456
 72
     1
 10
168.7962429048495
 20
47.56505598910456
 11
168.7962429048495
 21
49.02405392710786
 72
     1
 10
168.7962429048495
 20
49.02405392710786
 11
169.1686577268051
 21
49.02405392710786
 72
     1
 10
169.1686577268051
 20
49.02405392710786
 11
169.1686577268051
 21
45.6075527343856
 97
        0
 75
     2
 76
     1
 98
        0
  0
SPLINE
  5
C9
330
41
100
AcDbEntity
  8
_U+30EC_U+30A4_U+30E4_U+30FC 1
370
     0
100
AcDbSpline
210
0.0
220
0.0
230
1.0
 70
    11
 71
     3
 72
    23
 73
    19
 74
     0
 42
0.0000000001
 43
0.0000000001
 12
1.0
 22
0.0
 32
0.0
 13
1.0
 23
0.0
 33
0.0
 40
0.0
 40
0.0
 40
0.0
 40
0.0
 40
1.0
 40
1.0
 40
1.0
 40
2.0
 40
2.0
 40
2.0
 40
3.0
 40
3.0
 40
3.0
 40
4.0
 40
4.0
 40
4.0
 40
5.0
 40
5.0
 40
5.0
 40
6.0
 40
6.0
 40
6.0
 40
6.0
 10
169.9307128481423
 20
48.98374630993044
 30
0.0
 10
170.1818603090171
 20
49.02405392710786
 30
0.0
 10
170.4736598966177
 20
49.05540429602364
 30
0.0
 10
170.7926757385518
 20
49.05540429602364
 30
0.0
 10
172.166235308521
 20
49.05540429602364
 30
0.0
 10
172.5613877606791
 20
48.2427062710532
 30
0.0
 10
172.5613877606791
 20
47.40313650129782
 30
0.0
 10
172.5613877606791
 20
46.86018945282244
 30
0.0
 10
172.4177272789442
 20
46.39785763870191
 30
0.0
 10
172.0945773224277
 20
46.06092730024448
 30
0.0
 10
171.7938204865654
 20
45.75121321612052
 30
0.0
 10
171.2953151698498
 20
45.58068098960065
 30
0.0
 10
170.671408377471
 20
45.58068098960065
 30
0.0
 10
170.388566038132
 20
45.58068098960065
 30
0.0
 10
170.1460313159704
 20
45.5896382378623
 30
0.0
 10
169.9307128481423
 20
45.61650998264725
 30
0.0
 10
169.9307128481423
 20
45.61650998264725
 30
0.0
 10
169.9307128481423
 20
48.98374630993044
 30
0.0
 10
169.9307128481423
 20
48.98374630993044
 30
0.0
  0
SPLINE
  5
CA
330
41
100
AcDbEntity
  8
_U+30EC_U+30A4_U+30E4_U+30FC 1
370
     0
100
AcDbSpline
210
0.0
220
0.0
230
1.0
 70
    11
 71
     3
 72
    20
 73
    16
 74
     0
 42
0.0000000001
 43
0.0000000001
 12
1.0
 22
0.0
 32
0.0
 13
1.0
 23
0.0
 33
0.0
 40
0.0
 40
0.0
 40
0.0
 40
0.0
 40
1.0
 40
1.0
 40
1.0
 40
2.0
 40
2.0
 40
2.0
 40
3.0
 40
3.0
 40
3.0
 40
4.0
 40
4.0
 40
4.0
 40
5.0
 40
5.0
 40
5.0
 40
5.0
 10
170.3031276700978
 20
45.90383094611709
 30
0.0
 10
170.415437782917
 20
45.88591644959379
 30
0.0
 10
170.5770127611752
 20
45.88143782546296
 30
0.0
 10
170.7385877394334
 20
45.88143782546296
 30
0.0
 10
171.663595877223
 20
45.88143782546296
 30
0.0
 10
172.1707139326518
 20
46.40681488696357
 30
0.0
 10
172.1707139326518
 20
47.38522200477452
 30
0.0
 10
172.1707139326518
 20
48.2744011495175
 30
0.0
 10
171.6949462461388
 20
48.75464746016133
 30
0.0
 10
170.8061116109443
 20
48.75464746016133
 30
0.0
 10
170.5904486335677
 20
48.75464746016133
 30
0.0
 10
170.4199164070478
 20
48.7322543395072
 30
0.0
 10
170.3031276700978
 20
48.70986121885308
 30
0.0
 10
170.3031276700978
 20
48.70986121885308
 30
0.0
 10
170.3031276700978
 20
45.90383094611709
 30
0.0
 10
170.3031276700978
 20
45.90383094611709
 30
0.0
  0
HATCH
  5
CB
330
41
100
AcDbEntity
  8
_U+30EC_U+30A4_U+30E4_U+30FC 1
 62
     7
100
AcDbHatch
 10
0.0
 20
0.0
 30
0.0
210
0.0
220
0.0
230
1.0
  2
SOLID
 70
     1
 71
     0
 91
        2
 92
        1
 93
        1
 72
     4
 94
        3
 73
     0
 74
     1
 95
       23
 96
       19
 40
0.0
 40
0.0
 40
0.0
 40
0.0
 40
1.0
 40
1.0
 40
1.0
 40
2.0
 40
2.0
 40
2.0
 40
3.0
 40
3.0
 40
3.0
 40
4.0
 40
4.0
 40
4.0
 40
5.0
 40
5.0
 40
5.0
 40
6.0
 40
6.0
 40
6.0
 40
6.0
 10
169.9307128481423
 20
48.98374630993044
 10
170.1818603090171
 20
49.02405392710786
 10
170.4736598966177
 20
49.05540429602364
 10
170.7926757385518
 20
49.05540429602364
 10
172.166235308521
 20
49.05540429602364
 10
172.5613877606791
 20
48.2427062710532
 10
172.5613877606791
 20
47.40313650129782
 10
172.5613877606791
 20
46.86018945282244
 10
172.4177272789442
 20
46.39785763870191
 10
172.0945773224277
 20
46.06092730024448
 10
171.7938204865654
 20
45.75121321612052
 10
171.2953151698498
 20
45.58068098960065
 10
170.671408377471
 20
45.58068098960065
 10
170.388566038132
 20
45.58068098960065
 10
170.1460313159704
 20
45.5896382378623
 10
169.9307128481423
 20
45.61650998264725
 10
169.9307128481423
 20
45.61650998264725
 10
169.9307128481423
 20
48.98374630993044
 10
169.9307128481423
 20
48.98374630993044
 97
        0
 92
        1
 93
        1
 72
     4
 94
        3
 73
     0
 74
     1
 95
       20
 96
       16
 40
0.0
 40
0.0
 40
0.0
 40
0.0
 40
1.0
 40
1.0
 40
1.0
 40
2.0
 40
2.0
 40
2.0
 40
3.0
 40
3.0
 40
3.0
 40
4.0
 40
4.0
 40
4.0
 40
5.0
 40
5.0
 40
5.0
 40
5.0
 10
170.3031276700978
 20
45.90383094611709
 10
170.415437782917
 20
45.88591644959379
 10
170.5770127611752
 20
45.88143782546296
 10
170.7385877394334
 20
45.88143782546296
 10
171.663595877223
 20
45.88143782546296
 10
172.1707139326518
 20
46.40681488696357
 10
172.1707139326518
 20
47.38522200477452
 10
172.1707139326518
 20
48.2744011495175
 10
171.6949462461388
 20
48.75464746016133
 10
170.8061116109443
 20
48.75464746016133
 10
170.5904486335677
 20
48.75464746016133
 10
170.4199164070478
 20
48.7322543395072
 10
170.3031276700978
 20
48.70986121885308
 10
170.3031276700978
 20
48.70986121885308
 10
170.3031276700978
 20
45.90383094611709
 10
170.3031276700978
 20
45.90383094611709
 97
        0
 75
     2
 76
     1
 98
        0
  0
SPLINE
  5
CC
330
41
100
AcDbEntity
  8
_U+30EC_U+30A4_U+30E4_U+30FC 1
370
     0
100
AcDbSpline
210
0.0
220
0.0
230
1.0
 70
    11
 71
     3
 72
    35
 73
    31
 74
     0
 42
0.0000000001
 43
0.0000000001
 12
1.0
 22
0.0
 32
0.0
 13
1.0
 23
0.0
 33
0.0
 40
0.0
 40
0.0
 40
0.0
 40
0.0
 40
1.0
 40
1.0
 40
1.0
 40
2.0
 40
2.0
 40
2.0
 40
3.0
 40
3.0
 40
3.0
 40
4.0
 40
4.0
 40
4.0
 40
5.0
 40
5.0
 40
5.0
 40
6.0
 40
6.0
 40
6.0
 40
7.0
 40
7.0
 40
7.0
 40
8.0
 40
8.0
 40
8.0
 40
9.0
 40
9.0
 40
9.0
 40
10.0
 40
10.0
 40
10.0
 40
10.0
 10
174.4410318574314
 20
47.43931000389294
 30
0.0
 10
174.7641818139479
 20
47.36282888412039
 30
0.0
 10
175.1458983937135
 20
47.09342241717385
 30
0.0
 10
175.1458983937135
 20
46.57734711348343
 30
0.0
 10
175.1458983937135
 20
46.27211165349029
 30
0.0
 10
175.0291096567636
 20
46.05644867611365
 30
0.0
 10
174.8720133026362
 20
45.90383094611709
 30
0.0
 10
174.642914452867
 20
45.6792107204788
 30
0.0
 10
174.2749782550424
 20
45.58068098960065
 30
0.0
 10
173.7585584418034
 20
45.58068098960065
 30
0.0
 10
173.4757161024644
 20
45.58068098960065
 30
0.0
 10
173.2648762587671
 20
45.60307411025477
 30
0.0
 10
173.125694401163
 20
45.61650998264725
 30
0.0
 10
173.125694401163
 20
45.61650998264725
 30
0.0
 10
173.125694401163
 20
48.97892317625109
 30
0.0
 10
173.125694401163
 20
48.97892317625109
 30
0.0
 10
173.3141411242062
 20
49.01957530297704
 30
0.0
 10
173.5835475911527
 20
49.05092567189281
 30
0.0
 10
173.8619113063609
 20
49.05092567189281
 30
0.0
 10
174.283935503304
 20
49.05092567189281
 30
0.0
 10
174.5622992185122
 20
48.96996592798944
 30
0.0
 10
174.7641818139479
 20
48.79943370146957
 30
0.0
 10
174.9257567922061
 20
48.66025184386548
 30
0.0
 10
175.0201524085019
 20
48.46284787256067
 30
0.0
 10
175.0201524085019
 20
48.2068772780066
 30
0.0
 10
175.0201524085019
 20
47.87029144909769
 30
0.0
 10
174.7910535587328
 20
47.57849186149704
 30
0.0
 10
174.4410318574314
 20
47.45274587628541
 30
0.0
 10
174.4410318574314
 20
47.45274587628541
 30
0.0
 10
174.4410318574314
 20
47.43931000389294
 30
0.0
 10
174.4410318574314
 20
47.43931000389294
 30
0.0
  0
SPLINE
  5
CD
330
41
100
AcDbEntity
  8
_U+30EC_U+30A4_U+30E4_U+30FC 1
370
     0
100
AcDbSpline
210
0.0
220
0.0
230
1.0
 70
    11
 71
     3
 72
    23
 73
    19
 74
     0
 42
0.0000000001
 43
0.0000000001
 12
1.0
 22
0.0
 32
0.0
 13
1.0
 23
0.0
 33
0.0
 40
0.0
 40
0.0
 40
0.0
 40
0.0
 40
1.0
 40
1.0
 40
1.0
 40
2.0
 40
2.0
 40
2.0
 40
3.0
 40
3.0
 40
3.0
 40
4.0
 40
4.0
 40
4.0
 40
5.0
 40
5.0
 40
5.0
 40
6.0
 40
6.0
 40
6.0
 40
6.0
 10
173.8977402994075
 20
47.56505598910456
 30
0.0
 10
174.3511148652664
 20
47.56505598910456
 30
0.0
 10
174.642914452867
 20
47.82516069824092
 30
0.0
 10
174.642914452867
 20
48.17552690909083
 30
0.0
 10
174.642914452867
 20
48.17552690909083
 30
0.0
 10
174.642914452867
 20
48.18000553322165
 30
0.0
 10
174.642914452867
 20
48.18000553322165
 30
0.0
 10
174.642914452867
 20
48.58411523364146
 30
0.0
 10
174.3466362411356
 20
48.75912608429215
 30
0.0
 10
173.8798258028842
 20
48.75912608429215
 30
0.0
 10
173.6824218315794
 20
48.75912608429215
 30
0.0
 10
173.5656330946294
 20
48.74569021189968
 30
0.0
 10
173.4981092231185
 20
48.72777571537638
 30
0.0
 10
173.4981092231185
 20
48.72777571537638
 30
0.0
 10
173.4981092231185
 20
47.56505598910456
 30
0.0
 10
173.4981092231185
 20
47.56505598910456
 30
0.0
 10
173.4981092231185
 20
47.56505598910456
 30
0.0
 10
173.8977402994075
 20
47.56505598910456
 30
0.0
 10
173.8977402994075
 20
47.56505598910456
 30
0.0
  0
SPLINE
  5
CE
330
41
100
AcDbEntity
  8
_U+30EC_U+30A4_U+30E4_U+30FC 1
370
     0
100
AcDbSpline
210
0.0
220
0.0
230
1.0
 70
    11
 71
     3
 72
    20
 73
    16
 74
     0
 42
0.0000000001
 43
0.0000000001
 12
1.0
 22
0.0
 32
0.0
 13
1.0
 23
0.0
 33
0.0
 40
0.0
 40
0.0
 40
0.0
 40
0.0
 40
1.0
 40
1.0
 40
1.0
 40
2.0
 40
2.0
 40
2.0
 40
3.0
 40
3.0
 40
3.0
 40
4.0
 40
4.0
 40
4.0
 40
5.0
 40
5.0
 40
5.0
 40
5.0
 10
173.4981092231185
 20
45.89935232198626
 30
0.0
 10
173.5835475911527
 20
45.88143782546296
 30
0.0
 10
173.7048149522335
 20
45.87695920133213
 30
0.0
 10
173.8619113063609
 20
45.87695920133213
 30
0.0
 10
174.3332003687431
 20
45.87695920133213
 30
0.0
 10
174.7552245656862
 20
46.06092730024448
 30
0.0
 10
174.7552245656862
 20
46.57734711348343
 30
0.0
 10
174.7552245656862
 20
47.08894379304303
 30
0.0
 10
174.310807248089
 20
47.27773502563472
 30
0.0
 10
173.8574326822301
 20
47.27773502563472
 30
0.0
 10
173.8574326822301
 20
47.27773502563472
 30
0.0
 10
173.4981092231185
 20
47.27773502563472
 30
0.0
 10
173.4981092231185
 20
47.27773502563472
 30
0.0
 10
173.4981092231185
 20
47.27773502563472
 30
0.0
 10
173.4981092231185
 20
45.89935232198626
 30
0.0
 10
173.4981092231185
 20
45.89935232198626
 30
0.0
  0
HATCH
  5
CF
330
41
100
AcDbEntity
  8
_U+30EC_U+30A4_U+30E4_U+30FC 1
 62
     7
100
AcDbHatch
 10
0.0
 20
0.0
 30
0.0
210
0.0
220
0.0
230
1.0
  2
SOLID
 70
     1
 71
     0
 91
        3
 92
        1
 93
        1
 72
     4
 94
        3
 73
     0
 74
     1
 95
       35
 96
       31
 40
0.0
 40
0.0
 40
0.0
 40
0.0
 40
1.0
 40
1.0
 40
1.0
 40
2.0
 40
2.0
 40
2.0
 40
3.0
 40
3.0
 40
3.0
 40
4.0
 40
4.0
 40
4.0
 40
5.0
 40
5.0
 40
5.0
 40
6.0
 40
6.0
 40
6.0
 40
7.0
 40
7.0
 40
7.0
 40
8.0
 40
8.0
 40
8.0
 40
9.0
 40
9.0
 40
9.0
 40
10.0
 40
10.0
 40
10.0
 40
10.0
 10
174.4410318574314
 20
47.43931000389294
 10
174.7641818139479
 20
47.36282888412039
 10
175.1458983937135
 20
47.09342241717385
 10
175.1458983937135
 20
46.57734711348343
 10
175.1458983937135
 20
46.27211165349029
 10
175.0291096567636
 20
46.05644867611365
 10
174.8720133026362
 20
45.90383094611709
 10
174.642914452867
 20
45.6792107204788
 10
174.2749782550424
 20
45.58068098960065
 10
173.7585584418034
 20
45.58068098960065
 10
173.4757161024644
 20
45.58068098960065
 10
173.2648762587671
 20
45.60307411025477
 10
173.125694401163
 20
45.61650998264725
 10
173.125694401163
 20
45.61650998264725
 10
173.125694401163
 20
48.97892317625109
 10
173.125694401163
 20
48.97892317625109
 10
173.3141411242062
 20
49.01957530297704
 10
173.5835475911527
 20
49.05092567189281
 10
173.8619113063609
 20
49.05092567189281
 10
174.283935503304
 20
49.05092567189281
 10
174.5622992185122
 20
48.96996592798944
 10
174.7641818139479
 20
48.79943370146957
 10
174.9257567922061
 20
48.66025184386548
 10
175.0201524085019
 20
48.46284787256067
 10
175.0201524085019
 20
48.2068772780066
 10
175.0201524085019
 20
47.87029144909769
 10
174.7910535587328
 20
47.57849186149704
 10
174.4410318574314
 20
47.45274587628541
 10
174.4410318574314
 20
47.45274587628541
 10
174.4410318574314
 20
47.43931000389294
 10
174.4410318574314
 20
47.43931000389294
 97
        0
 92
        1
 93
        1
 72
     4
 94
        3
 73
     0
 74
     1
 95
       23
 96
       19
 40
0.0
 40
0.0
 40
0.0
 40
0.0
 40
1.0
 40
1.0
 40
1.0
 40
2.0
 40
2.0
 40
2.0
 40
3.0
 40
3.0
 40
3.0
 40
4.0
 40
4.0
 40
4.0
 40
5.0
 40
5.0
 40
5.0
 40
6.0
 40
6.0
 40
6.0
 40
6.0
 10
173.8977402994075
 20
47.56505598910456
 10
174.3511148652664
 20
47.56505598910456
 10
174.642914452867
 20
47.82516069824092
 10
174.642914452867
 20
48.17552690909083
 10
174.642914452867
 20
48.17552690909083
 10
174.642914452867
 20
48.18000553322165
 10
174.642914452867
 20
48.18000553322165
 10
174.642914452867
 20
48.58411523364146
 10
174.3466362411356
 20
48.75912608429215
 10
173.8798258028842
 20
48.75912608429215
 10
173.6824218315794
 20
48.75912608429215
 10
173.5656330946294
 20
48.74569021189968
 10
173.4981092231185
 20
48.72777571537638
 10
173.4981092231185
 20
48.72777571537638
 10
173.4981092231185
 20
47.56505598910456
 10
173.4981092231185
 20
47.56505598910456
 10
173.4981092231185
 20
47.56505598910456
 10
173.8977402994075
 20
47.56505598910456
 10
173.8977402994075
 20
47.56505598910456
 97
        0
 92
        1
 93
        1
 72
     4
 94
        3
 73
     0
 74
     1
 95
       20
 96
       16
 40
0.0
 40
0.0
 40
0.0
 40
0.0
 40
1.0
 40
1.0
 40
1.0
 40
2.0
 40
2.0
 40
2.0
 40
3.0
 40
3.0
 40
3.0
 40
4.0
 40
4.0
 40
4.0
 40
5.0
 40
5.0
 40
5.0
 40
5.0
 10
173.4981092231185
 20
45.89935232198626
 10
173.5835475911527
 20
45.88143782546296
 10
173.7048149522335
 20
45.87695920133213
 10
173.8619113063609
 20
45.87695920133213
 10
174.3332003687431
 20
45.87695920133213
 10
174.7552245656862
 20
46.06092730024448
 10
174.7552245656862
 20
46.57734711348343
 10
174.7552245656862
 20
47.08894379304303
 10
174.310807248089
 20
47.27773502563472
 10
173.8574326822301
 20
47.27773502563472
 10
173.8574326822301
 20
47.27773502563472
 10
173.4981092231185
 20
47.27773502563472
 10
173.4981092231185
 20
47.27773502563472
 10
173.4981092231185
 20
47.27773502563472
 10
173.4981092231185
 20
45.89935232198626
 10
173.4981092231185
 20
45.89935232198626
 97
        0
 75
     2
 76
     1
 98
        0
  0
POLYLINE
  5
D0
330
41
100
AcDbEntity
  8
_U+30EC_U+30A4_U+30E4_U+30FC 1
370
     0
100
AcDb2dPolyline
 66
     1
 10
0.0
 20
0.0
 30
0.0
  0
VERTEX
  5
D1
330
D0
100
AcDbEntity
  8
_U+30EC_U+30A4_U+30E4_U+30FC 1
370
     0
100
AcDbVertex
100
AcDb2dVertex
 10
175.4990206809516
 20
47.12063867150733
 30
0.0
  0
VERTEX
  5
D2
330
D0
100
AcDbEntity
  8
_U+30EC_U+30A4_U+30E4_U+30FC 1
370
     0
100
AcDbVertex
100
AcDb2dVertex
 10
176.7247856546035
 20
47.12063867150733
 30
0.0
  0
VERTEX
  5
D3
330
D0
100
AcDbEntity
  8
_U+30EC_U+30A4_U+30E4_U+30FC 1
370
     0
100
AcDbVertex
100
AcDb2dVertex
 10
176.7247856546035
 20
46.83331770803749
 30
0.0
  0
VERTEX
  5
D4
330
D0
100
AcDbEntity
  8
_U+30EC_U+30A4_U+30E4_U+30FC 1
370
     0
100
AcDbVertex
100
AcDb2dVertex
 10
175.4990206809516
 20
46.83331770803749
 30
0.0
  0
VERTEX
  5
D5
330
D0
100
AcDbEntity
  8
_U+30EC_U+30A4_U+30E4_U+30FC 1
370
     0
100
AcDbVertex
100
AcDb2dVertex
 10
175.4990206809516
 20
47.12063867150733
 30
0.0
  0
SEQEND
  5
D6
330
D0
100
AcDbEntity
  8
_U+30EC_U+30A4_U+30E4_U+30FC 1
370
     0
  0
HATCH
  5
D7
330
41
100
AcDbEntity
  8
_U+30EC_U+30A4_U+30E4_U+30FC 1
 62
     7
100
AcDbHatch
 10
0.0
 20
0.0
 30
0.0
210
0.0
220
0.0
230
1.0
  2
SOLID
 70
     1
 71
     0
 91
        1
 92
        1
 93
        4
 72
     1
 10
175.4990206809516
 20
47.12063867150733
 11
176.7247856546035
 21
47.12063867150733
 72
     1
 10
176.7247856546035
 20
47.12063867150733
 11
176.7247856546035
 21
46.83331770803749
 72
     1
 10
176.7247856546035
 20
46.83331770803749
 11
175.4990206809516
 21
46.83331770803749
 72
     1
 10
175.4990206809516
 20
46.83331770803749
 11
175.4990206809516
 21
47.12063867150733
 97
        0
 75
     2
 76
     1
 98
        0
  0
SPLINE
  5
D8
330
41
100
AcDbEntity
  8
_U+30EC_U+30A4_U+30E4_U+30FC 1
370
     0
100
AcDbSpline
210
0.0
220
0.0
230
1.0
 70
    11
 71
     3
 72
    17
 73
    13
 74
     0
 42
0.0000000001
 43
0.0000000001
 12
1.0
 22
0.0
 32
0.0
 13
1.0
 23
0.0
 33
0.0
 40
0.0
 40
0.0
 40
0.0
 40
0.0
 40
1.0
 40
1.0
 40
1.0
 40
2.0
 40
2.0
 40
2.0
 40
3.0
 40
3.0
 40
3.0
 40
4.0
 40
4.0
 40
4.0
 40
4.0
 10
177.055859330736
 20
47.27773502563472
 30
0.0
 10
177.055859330736
 20
48.45389062429901
 30
0.0
 10
177.5137125207257
 20
49.02405392710786
 30
0.0
 10
178.1424424467838
 20
49.02405392710786
 30
0.0
 10
178.7797851115551
 20
49.02405392710786
 30
0.0
 10
179.1704589395824
 20
48.42254025538324
 30
0.0
 10
179.1704589395824
 20
47.32252126694297
 30
0.0
 10
179.1704589395824
 20
46.15532291654033
 30
0.0
 10
178.7618706150318
 20
45.5538092448157
 30
0.0
 10
178.0928330717962
 20
45.5538092448157
 30
0.0
 10
177.48236215181
 20
45.5538092448157
 30
0.0
 10
177.055859330736
 20
46.15532291654033
 30
0.0
 10
177.055859330736
 20
47.27773502563472
 30
0.0
  0
SPLINE
  5
D9
330
41
100
AcDbEntity
  8
_U+30EC_U+30A4_U+30E4_U+30FC 1
370
     0
100
AcDbSpline
210
0.0
220
0.0
230
1.0
 70
    11
 71
     3
 72
    17
 73
    13
 74
     0
 42
0.0000000001
 43
0.0000000001
 12
1.0
 22
0.0
 32
0.0
 13
1.0
 23
0.0
 33
0.0
 40
0.0
 40
0.0
 40
0.0
 40
0.0
 40
1.0
 40
1.0
 40
1.0
 40
2.0
 40
2.0
 40
2.0
 40
3.0
 40
3.0
 40
3.0
 40
4.0
 40
4.0
 40
4.0
 40
4.0
 10
178.7932209839475
 20
47.30460677041967
 30
0.0
 10
178.7932209839475
 20
48.14417654017505
 30
0.0
 10
178.5913383885119
 20
48.72329709124556
 30
0.0
 10
178.1200493261297
 20
48.72329709124556
 30
0.0
 10
177.7204182498407
 20
48.72329709124556
 30
0.0
 10
177.4375759105017
 20
48.1889627814833
 30
0.0
 10
177.4375759105017
 20
47.30460677041967
 30
0.0
 10
177.4375759105017
 20
46.42025075935604
 30
0.0
 10
177.6845892567941
 20
45.85904470480884
 30
0.0
 10
178.1066134537373
 20
45.85904470480884
 30
0.0
 10
178.6047742609044
 20
45.85904470480884
 30
0.0
 10
178.7932209839475
 20
46.50534461784171
 30
0.0
 10
178.7932209839475
 20
47.30460677041967
 30
0.0
  0
HATCH
  5
DA
330
41
100
AcDbEntity
  8
_U+30EC_U+30A4_U+30E4_U+30FC 1
 62
     7
100
AcDbHatch
 10
0.0
 20
0.0
 30
0.0
210
0.0
220
0.0
230
1.0
  2
SOLID
 70
     1
 71
     0
 91
        2
 92
        1
 93
        1
 72
     4
 94
        3
 73
     0
 74
     1
 95
       17
 96
       13
 40
0.0
 40
0.0
 40
0.0
 40
0.0
 40
1.0
 40
1.0
 40
1.0
 40
2.0
 40
2.0
 40
2.0
 40
3.0
 40
3.0
 40
3.0
 40
4.0
 40
4.0
 40
4.0
 40
4.0
 10
177.055859330736
 20
47.27773502563472
 10
177.055859330736
 20
48.45389062429901
 10
177.5137125207257
 20
49.02405392710786
 10
178.1424424467838
 20
49.02405392710786
 10
178.7797851115551
 20
49.02405392710786
 10
179.1704589395824
 20
48.42254025538324
 10
179.1704589395824
 20
47.32252126694297
 10
179.1704589395824
 20
46.15532291654033
 10
178.7618706150318
 20
45.5538092448157
 10
178.0928330717962
 20
45.5538092448157
 10
177.48236215181
 20
45.5538092448157
 10
177.055859330736
 20
46.15532291654033
 10
177.055859330736
 20
47.27773502563472
 97
        0
 92
        1
 93
        1
 72
     4
 94
        3
 73
     0
 74
     1
 95
       17
 96
       13
 40
0.0
 40
0.0
 40
0.0
 40
0.0
 40
1.0
 40
1.0
 40
1.0
 40
2.0
 40
2.0
 40
2.0
 40
3.0
 40
3.0
 40
3.0
 40
4.0
 40
4.0
 40
4.0
 40
4.0
 10
178.7932209839475
 20
47.30460677041967
 10
178.7932209839475
 20
48.14417654017505
 10
178.5913383885119
 20
48.72329709124556
 10
178.1200493261297
 20
48.72329709124556
 10
177.7204182498407
 20
48.72329709124556
 10
177.4375759105017
 20
48.1889627814833
 10
177.4375759105017
 20
47.30460677041967
 10
177.4375759105017
 20
46.42025075935604
 10
177.6845892567941
 20
45.85904470480884
 10
178.1066134537373
 20
45.85904470480884
 10
178.6047742609044
 20
45.85904470480884
 10
178.7932209839475
 20
46.50534461784171
 10
178.7932209839475
 20
47.30460677041967
 97
        0
 75
     2
 76
     1
 98
        0
  0
SPLINE
  5
DB
330
41
100
AcDbEntity
  8
_U+30EC_U+30A4_U+30E4_U+30FC 1
370
     0
100
AcDbSpline
210
0.0
220
0.0
230
1.0
 70
    11
 71
     3
 72
    17
 73
    13
 74
     0
 42
0.0000000001
 43
0.0000000001
 12
1.0
 22
0.0
 32
0.0
 13
1.0
 23
0.0
 33
0.0
 40
0.0
 40
0.0
 40
0.0
 40
0.0
 40
1.0
 40
1.0
 40
1.0
 40
2.0
 40
2.0
 40
2.0
 40
3.0
 40
3.0
 40
3.0
 40
4.0
 40
4.0
 40
4.0
 40
4.0
 10
179.5284043604998
 20
47.27773502563472
 30
0.0
 10
179.5284043604998
 20
48.45389062429901
 30
0.0
 10
179.9862575504896
 20
49.02405392710786
 30
0.0
 10
180.6149874765476
 20
49.02405392710786
 30
0.0
 10
181.2523301413189
 20
49.02405392710786
 30
0.0
 10
181.6430039693462
 20
48.42254025538324
 30
0.0
 10
181.6430039693462
 20
47.32252126694297
 30
0.0
 10
181.6430039693462
 20
46.15532291654033
 30
0.0
 10
181.2344156447956
 20
45.5538092448157
 30
0.0
 10
180.56537810156
 20
45.5538092448157
 30
0.0
 10
179.9549071815738
 20
45.5538092448157
 30
0.0
 10
179.5284043604998
 20
46.15532291654033
 30
0.0
 10
179.5284043604998
 20
47.27773502563472
 30
0.0
  0
SPLINE
  5
DC
330
41
100
AcDbEntity
  8
_U+30EC_U+30A4_U+30E4_U+30FC 1
370
     0
100
AcDbSpline
210
0.0
220
0.0
230
1.0
 70
    11
 71
     3
 72
    17
 73
    13
 74
     0
 42
0.0000000001
 43
0.0000000001
 12
1.0
 22
0.0
 32
0.0
 13
1.0
 23
0.0
 33
0.0
 40
0.0
 40
0.0
 40
0.0
 40
0.0
 40
1.0
 40
1.0
 40
1.0
 40
2.0
 40
2.0
 40
2.0
 40
3.0
 40
3.0
 40
3.0
 40
4.0
 40
4.0
 40
4.0
 40
4.0
 10
181.2657660137114
 20
47.30460677041967
 30
0.0
 10
181.2657660137114
 20
48.14417654017505
 30
0.0
 10
181.0638834182757
 20
48.72329709124556
 30
0.0
 10
180.5925943558935
 20
48.72329709124556
 30
0.0
 10
180.1929632796046
 20
48.72329709124556
 30
0.0
 10
179.9101209402655
 20
48.1889627814833
 30
0.0
 10
179.9101209402655
 20
47.30460677041967
 30
0.0
 10
179.9101209402655
 20
46.42025075935604
 30
0.0
 10
180.1571342865579
 20
45.85904470480884
 30
0.0
 10
180.5791584835011
 20
45.85904470480884
 30
0.0
 10
181.0773192906682
 20
45.85904470480884
 30
0.0
 10
181.2657660137114
 20
46.50534461784171
 30
0.0
 10
181.2657660137114
 20
47.30460677041967
 30
0.0
  0
HATCH
  5
DD
330
41
100
AcDbEntity
  8
_U+30EC_U+30A4_U+30E4_U+30FC 1
 62
     7
100
AcDbHatch
 10
0.0
 20
0.0
 30
0.0
210
0.0
220
0.0
230
1.0
  2
SOLID
 70
     1
 71
     0
 91
        2
 92
        1
 93
        1
 72
     4
 94
        3
 73
     0
 74
     1
 95
       17
 96
       13
 40
0.0
 40
0.0
 40
0.0
 40
0.0
 40
1.0
 40
1.0
 40
1.0
 40
2.0
 40
2.0
 40
2.0
 40
3.0
 40
3.0
 40
3.0
 40
4.0
 40
4.0
 40
4.0
 40
4.0
 10
179.5284043604998
 20
47.27773502563472
 10
179.5284043604998
 20
48.45389062429901
 10
179.9862575504896
 20
49.02405392710786
 10
180.6149874765476
 20
49.02405392710786
 10
181.2523301413189
 20
49.02405392710786
 10
181.6430039693462
 20
48.42254025538324
 10
181.6430039693462
 20
47.32252126694297
 10
181.6430039693462
 20
46.15532291654033
 10
181.2344156447956
 20
45.5538092448157
 10
180.56537810156
 20
45.5538092448157
 10
179.9549071815738
 20
45.5538092448157
 10
179.5284043604998
 20
46.15532291654033
 10
179.5284043604998
 20
47.27773502563472
 97
        0
 92
        1
 93
        1
 72
     4
 94
        3
 73
     0
 74
     1
 95
       17
 96
       13
 40
0.0
 40
0.0
 40
0.0
 40
0.0
 40
1.0
 40
1.0
 40
1.0
 40
2.0
 40
2.0
 40
2.0
 40
3.0
 40
3.0
 40
3.0
 40
4.0
 40
4.0
 40
4.0
 40
4.0
 10
181.2657660137114
 20
47.30460677041967
 10
181.2657660137114
 20
48.14417654017505
 10
181.0638834182757
 20
48.72329709124556
 10
180.5925943558935
 20
48.72329709124556
 10
180.1929632796046
 20
48.72329709124556
 10
179.9101209402655
 20
48.1889627814833
 10
179.9101209402655
 20
47.30460677041967
 10
179.9101209402655
 20
46.42025075935604
 10
180.1571342865579
 20
45.85904470480884
 10
180.5791584835011
 20
45.85904470480884
 10
181.0773192906682
 20
45.85904470480884
 10
181.2657660137114
 20
46.50534461784171
 10
181.2657660137114
 20
47.30460677041967
 97
        0
 75
     2
 76
     1
 98
        0
  0
POLYLINE
  5
DE
330
41
100
AcDbEntity
  8
_U+30EC_U+30A4_U+30E4_U+30FC 1
370
     0
100
AcDb2dPolyline
 66
     1
 10
0.0
 20
0.0
 30
0.0
  0
VERTEX
  5
DF
330
DE
100
AcDbEntity
  8
_U+30EC_U+30A4_U+30E4_U+30FC 1
370
     0
100
AcDbVertex
100
AcDb2dVertex
 10
182.9886582658848
 20
45.6075527343856
 30
0.0
  0
VERTEX
  5
E0
330
DE
100
AcDbEntity
  8
_U+30EC_U+30A4_U+30E4_U+30FC 1
370
     0
100
AcDbVertex
100
AcDb2dVertex
 10
182.9886582658848
 20
48.61994422668806
 30
0.0
  0
VERTEX
  5
E1
330
DE
100
AcDbEntity
  8
_U+30EC_U+30A4_U+30E4_U+30FC 1
370
     0
100
AcDbVertex
100
AcDb2dVertex
 10
182.9797010176231
 20
48.61994422668806
 30
0.0
  0
VERTEX
  5
E2
330
DE
100
AcDbEntity
  8
_U+30EC_U+30A4_U+30E4_U+30FC 1
370
     0
100
AcDbVertex
100
AcDb2dVertex
 10
182.4274522113376
 20
48.30127289430245
 30
0.0
  0
VERTEX
  5
E3
330
DE
100
AcDbEntity
  8
_U+30EC_U+30A4_U+30E4_U+30FC 1
370
     0
100
AcDbVertex
100
AcDb2dVertex
 10
182.3378797287211
 20
48.57963660951064
 30
0.0
  0
VERTEX
  5
E4
330
DE
100
AcDbEntity
  8
_U+30EC_U+30A4_U+30E4_U+30FC 1
370
     0
100
AcDbVertex
100
AcDb2dVertex
 10
183.033444507193
 20
48.96996592798944
 30
0.0
  0
VERTEX
  5
E5
330
DE
100
AcDbEntity
  8
_U+30EC_U+30A4_U+30E4_U+30FC 1
370
     0
100
AcDbVertex
100
AcDb2dVertex
 10
183.3524603491272
 20
48.96996592798944
 30
0.0
  0
VERTEX
  5
E6
330
DE
100
AcDbEntity
  8
_U+30EC_U+30A4_U+30E4_U+30FC 1
370
     0
100
AcDbVertex
100
AcDb2dVertex
 10
183.3524603491272
 20
45.6075527343856
 30
0.0
  0
VERTEX
  5
E7
330
DE
100
AcDbEntity
  8
_U+30EC_U+30A4_U+30E4_U+30FC 1
370
     0
100
AcDbVertex
100
AcDb2dVertex
 10
182.9886582658848
 20
45.6075527343856
 30
0.0
  0
SEQEND
  5
E8
330
DE
100
AcDbEntity
  8
_U+30EC_U+30A4_U+30E4_U+30FC 1
370
     0
  0
HATCH
  5
E9
330
41
100
AcDbEntity
  8
_U+30EC_U+30A4_U+30E4_U+30FC 1
 62
     7
100
AcDbHatch
 10
0.0
 20
0.0
 30
0.0
210
0.0
220
0.0
230
1.0
  2
SOLID
 70
     1
 71
     0
 91
        1
 92
        1
 93
        8
 72
     1
 10
182.9886582658848
 20
45.6075527343856
 11
182.9886582658848
 21
48.61994422668806
 72
     1
 10
182.9886582658848
 20
48.61994422668806
 11
182.9797010176231
 21
48.61994422668806
 72
     1
 10
182.9797010176231
 20
48.61994422668806
 11
182.4274522113376
 21
48.30127289430245
 72
     1
 10
182.4274522113376
 20
48.30127289430245
 11
182.3378797287211
 21
48.57963660951064
 72
     1
 10
182.3378797287211
 20
48.57963660951064
 11
183.033444507193
 21
48.96996592798944
 72
     1
 10
183.033444507193
 20
48.96996592798944
 11
183.3524603491272
 21
48.96996592798944
 72
     1
 10
183.3524603491272
 20
48.96996592798944
 11
183.3524603491272
 21
45.6075527343856
 72
     1
 10
183.3524603491272
 20
45.6075527343856
 11
182.9886582658848
 21
45.6075527343856
 97
        0
 75
     2
 76
     1
 98
        0
  0
SPLINE
  5
EA
330
41
100
AcDbEntity
  8
_U+30EC_U+30A4_U+30E4_U+30FC 1
370
     0
100
AcDbSpline
210
0.0
220
0.0
230
1.0
 70
    11
 71
     3
 72
    35
 73
    31
 74
     0
 42
0.0000000001
 43
0.0000000001
 12
1.0
 22
0.0
 32
0.0
 13
1.0
 23
0.0
 33
0.0
 40
0.0
 40
0.0
 40
0.0
 40
0.0
 40
1.0
 40
1.0
 40
1.0
 40
2.0
 40
2.0
 40
2.0
 40
3.0
 40
3.0
 40
3.0
 40
4.0
 40
4.0
 40
4.0
 40
5.0
 40
5.0
 40
5.0
 40
6.0
 40
6.0
 40
6.0
 40
7.0
 40
7.0
 40
7.0
 40
8.0
 40
8.0
 40
8.0
 40
9.0
 40
9.0
 40
9.0
 40
10.0
 40
10.0
 40
10.0
 40
10.0
 10
186.9202012336519
 20
45.71090559894309
 30
0.0
 10
186.7631048795245
 20
45.63442447917055
 30
0.0
 10
186.4578694195314
 20
45.55828786894653
 30
0.0
 10
186.067195591504
 20
45.55828786894653
 30
0.0
 10
185.1873182045712
 20
45.55828786894653
 30
0.0
 10
184.4779730441583
 20
46.12845117175537
 30
0.0
 10
184.4779730441583
 20
47.28669227389637
 30
0.0
 10
184.4779730441583
 20
48.39084537691895
 30
0.0
 10
185.1649250839171
 20
49.07779741667776
 30
0.0
 10
186.1660698319307
 20
49.07779741667776
 30
0.0
 10
186.5746581564813
 20
49.07779741667776
 30
0.0
 10
186.8127142545121
 20
48.99270355819209
 30
0.0
 10
186.9202012336519
 20
48.93861555907367
 30
0.0
 10
186.9202012336519
 20
48.93861555907367
 30
0.0
 10
186.8216715027738
 20
48.62442285081888
 30
0.0
 10
186.8216715027738
 20
48.62442285081888
 30
0.0
 10
186.6645751486464
 20
48.70090397059143
 30
0.0
 10
186.4444335471389
 20
48.76360470842297
 30
0.0
 10
186.1750270801924
 20
48.76360470842297
 30
0.0
 10
185.398502557817
 20
48.76360470842297
 30
0.0
 10
184.8686468721856
 20
48.2427062710532
 30
0.0
 10
184.8686468721856
 20
47.30012814628885
 30
0.0
 10
184.8686468721856
 20
46.40233626283274
 30
0.0
 10
185.3533718069603
 20
45.87248057720132
 30
0.0
 10
186.1526339595382
 20
45.87248057720132
 30
0.0
 10
186.4130831782231
 20
45.87248057720132
 30
0.0
 10
186.6690537727772
 20
45.93070269090204
 30
0.0
 10
186.839585999297
 20
46.01166243480541
 30
0.0
 10
186.839585999297
 20
46.01166243480541
 30
0.0
 10
186.9202012336519
 20
45.71090559894309
 30
0.0
 10
186.9202012336519
 20
45.71090559894309
 30
0.0
  0
HATCH
  5
EB
330
41
100
AcDbEntity
  8
_U+30EC_U+30A4_U+30E4_U+30FC 1
 62
     7
100
AcDbHatch
 10
0.0
 20
0.0
 30
0.0
210
0.0
220
0.0
230
1.0
  2
SOLID
 70
     1
 71
     0
 91
        1
 92
        1
 93
        1
 72
     4
 94
        3
 73
     0
 74
     1
 95
       35
 96
       31
 40
0.0
 40
0.0
 40
0.0
 40
0.0
 40
1.0
 40
1.0
 40
1.0
 40
2.0
 40
2.0
 40
2.0
 40
3.0
 40
3.0
 40
3.0
 40
4.0
 40
4.0
 40
4.0
 40
5.0
 40
5.0
 40
5.0
 40
6.0
 40
6.0
 40
6.0
 40
7.0
 40
7.0
 40
7.0
 40
8.0
 40
8.0
 40
8.0
 40
9.0
 40
9.0
 40
9.0
 40
10.0
 40
10.0
 40
10.0
 40
10.0
 10
186.9202012336519
 20
45.71090559894309
 10
186.7631048795245
 20
45.63442447917055
 10
186.4578694195314
 20
45.55828786894653
 10
186.067195591504
 20
45.55828786894653
 10
185.1873182045712
 20
45.55828786894653
 10
184.4779730441583
 20
46.12845117175537
 10
184.4779730441583
 20
47.28669227389637
 10
184.4779730441583
 20
48.39084537691895
 10
185.1649250839171
 20
49.07779741667776
 10
186.1660698319307
 20
49.07779741667776
 10
186.5746581564813
 20
49.07779741667776
 10
186.8127142545121
 20
48.99270355819209
 10
186.9202012336519
 20
48.93861555907367
 10
186.9202012336519
 20
48.93861555907367
 10
186.8216715027738
 20
48.62442285081888
 10
186.8216715027738
 20
48.62442285081888
 10
186.6645751486464
 20
48.70090397059143
 10
186.4444335471389
 20
48.76360470842297
 10
186.1750270801924
 20
48.76360470842297
 10
185.398502557817
 20
48.76360470842297
 10
184.8686468721856
 20
48.2427062710532
 10
184.8686468721856
 20
47.30012814628885
 10
184.8686468721856
 20
46.40233626283274
 10
185.3533718069603
 20
45.87248057720132
 10
186.1526339595382
 20
45.87248057720132
 10
186.4130831782231
 20
45.87248057720132
 10
186.6690537727772
 20
45.93070269090204
 10
186.839585999297
 20
46.01166243480541
 10
186.839585999297
 20
46.01166243480541
 10
186.9202012336519
 20
45.71090559894309
 10
186.9202012336519
 20
45.71090559894309
 97
        0
 75
     2
 76
     1
 98
        0
  0
ENDBLK
  5
44
330
41
100
AcDbEntity
  8
0
100
AcDbBlockEnd
  0
BLOCK
  5
117
330
115
100
AcDbEntity
  8
0
100
AcDbBlockBegin
  2
block 3
 70
     0
 10
0.0
 20
0.0
 30
0.0
  3
block 3
  1

  0
POLYLINE
  5
119
330
115
100
AcDbEntity
  8
_U+30EC_U+30A4_U+30E4_U+30FC 1
 62
     7
370
     5
100
AcDb2dPolyline
 66
     1
 10
0.0
 20
0.0
 30
0.0
  0
VERTEX
  5
11A
330
119
100
AcDbEntity
  8
_U+30EC_U+30A4_U+30E4_U+30FC 1
 62
     7
370
     5
100
AcDbVertex
100
AcDb2dVertex
 10
194.3715943545351
 20
158.0413693267856
 30
0.0
  0
VERTEX
  5
11B
330
119
100
AcDbEntity
  8
_U+30EC_U+30A4_U+30E4_U+30FC 1
 62
     7
370
     5
100
AcDbVertex
100
AcDb2dVertex
 10
179.5931691760086
 20
156.0368154890372
 30
0.0
  0
SEQEND
  5
11C
330
119
100
AcDbEntity
  8
_U+30EC_U+30A4_U+30E4_U+30FC 1
 62
     7
370
     5
  0
POLYLINE
  5
11D
330
115
100
AcDbEntity
  8
_U+30EC_U+30A4_U+30E4_U+30FC 1
 62
     7
370
     5
100
AcDb2dPolyline
 66
     1
 10
0.0
 20
0.0
 30
0.0
  0
VERTEX
  5
11E
330
11D
100
AcDbEntity
  8
_U+30EC_U+30A4_U+30E4_U+30FC 1
 62
     7
370
     5
100
AcDbVertex
100
AcDb2dVertex
 10
195.0172129491751
 20
155.1560705115068
 30
0.0
  0
VERTEX
  5
11F
330
11D
100
AcDbEntity
  8
_U+30EC_U+30A4_U+30E4_U+30FC 1
 62
     7
370
     5
100
AcDbVertex
100
AcDb2dVertex
 10
179.4078197362928
 20
153.0304786212908
 30
0.0
  0
SEQEND
  5
120
330
11D
100
AcDbEntity
  8
_U+30EC_U+30A4_U+30E4_U+30FC 1
 62
     7
370
     5
  0
SPLINE
  5
121
330
115
100
AcDbEntity
  8
_U+30EC_U+30A4_U+30E4_U+30FC 1
 62
     7
370
     5
100
AcDbSpline
210
0.0
220
0.0
230
1.0
 70
     8
 71
     3
 72
    14
 73
    10
 74
     0
 42
0.0000000001
 43
0.0000000001
 12
1.0
 22
0.0
 32
0.0
 13
1.0
 23
0.0
 33
0.0
 40
0.0
 40
0.0
 40
0.0
 40
0.0
 40
1.0
 40
1.0
 40
1.0
 40
2.0
 40
2.0
 40
2.0
 40
3.0
 40
3.0
 40
3.0
 40
3.0
 10
194.3240751890807
 20
158.0351604380551
 30
0.0
 10
194.3653854658046
 20
158.0470523156507
 30
0.0
 10
194.4074365758429
 20
158.0553040486523
 30
0.0
 10
194.4505107414107
 20
158.0609837707296
 30
0.0
 10
195.0389087819549
 20
158.131609880039
 30
0.0
 10
195.595627378863
 20
157.5254318399483
 30
0.0
 10
195.6941582096826
 20
156.7084338052361
 30
0.0
 10
195.7792834852886
 20
155.9925418790556
 30
0.0
 10
195.4853894359719
 20
155.3521091176166
 30
0.0
 10
195.0172129491751
 20
155.1560705115068
 30
0.0
  0
SPLINE
  5
122
330
115
100
AcDbEntity
  8
_U+30EC_U+30A4_U+30E4_U+30FC 1
 62
     7
370
     5
100
AcDbSpline
210
0.0
220
0.0
230
1.0
 70
     8
 71
     3
 72
    14
 73
    10
 74
     0
 42
0.0000000001
 43
0.0000000001
 12
1.0
 22
0.0
 32
0.0
 13
1.0
 23
0.0
 33
0.0
 40
0.0
 40
0.0
 40
0.0
 40
0.0
 40
1.0
 40
1.0
 40
1.0
 40
2.0
 40
2.0
 40
2.0
 40
3.0
 40
3.0
 40
3.0
 40
3.0
 10
193.4900027103597
 20
157.920613496533
 30
0.0
 10
193.5313533253498
 20
157.9331723851015
 30
0.0
 10
193.5737168748906
 20
157.9414273848909
 30
0.0
 10
193.6167910404584
 20
157.9464368292076
 30
0.0
 10
194.2051890810027
 20
158.0180859940466
 30
0.0
 10
194.7622604556795
 20
157.4114140650793
 30
0.0
 10
194.8597682309696
 20
156.5940632525984
 30
0.0
 10
194.9455637843363
 20
155.8785273161929
 30
0.0
 10
194.6516999029446
 20
155.2385884274639
 30
0.0
 10
194.1834932482228
 20
155.0416999588691
 30
0.0
  0
SPLINE
  5
123
330
115
100
AcDbEntity
  8
_U+30EC_U+30A4_U+30E4_U+30FC 1
 62
     7
370
     5
100
AcDbSpline
210
0.0
220
0.0
230
1.0
 70
     8
 71
     3
 72
    14
 73
    10
 74
     0
 42
0.0000000001
 43
0.0000000001
 12
1.0
 22
0.0
 32
0.0
 13
1.0
 23
0.0
 33
0.0
 40
0.0
 40
0.0
 40
0.0
 40
0.0
 40
1.0
 40
1.0
 40
1.0
 40
2.0
 40
2.0
 40
2.0
 40
3.0
 40
3.0
 40
3.0
 40
3.0
 10
192.6404432875893
 20
157.7957301663857
 30
0.0
 10
192.6821416198588
 20
157.8082890549542
 30
0.0
 10
192.7241574521203
 20
157.8165440547436
 30
0.0
 10
192.7672366588737
 20
157.8215534990603
 30
0.0
 10
193.3556296582323
 20
157.893202663899
 30
0.0
 10
193.9123835329172
 20
157.2865307349321
 30
0.0
 10
194.0102088081993
 20
156.4690035335667
 30
0.0
 10
194.096004361566
 20
155.7536439828907
 30
0.0
 10
193.8021404801742
 20
155.1137050941616
 30
0.0
 10
193.3339338254524
 20
154.9166402398374
 30
0.0
  0
SPLINE
  5
124
330
115
100
AcDbEntity
  8
_U+30EC_U+30A4_U+30E4_U+30FC 1
 62
     7
370
     5
100
AcDbSpline
210
0.0
220
0.0
230
1.0
 70
     8
 71
     3
 72
    14
 73
    10
 74
     0
 42
0.0000000001
 43
0.0000000001
 12
1.0
 22
0.0
 32
0.0
 13
1.0
 23
0.0
 33
0.0
 40
0.0
 40
0.0
 40
0.0
 40
0.0
 40
1.0
 40
1.0
 40
1.0
 40
2.0
 40
2.0
 40
2.0
 40
3.0
 40
3.0
 40
3.0
 40
3.0
 10
191.7006080337887
 20
157.6675660029888
 30
0.0
 10
191.7423063660582
 20
157.679457871298
 30
0.0
 10
191.7843221983197
 20
157.6877096135863
 30
0.0
 10
191.8273963638874
 20
157.6933893356633
 30
0.0
 10
192.4158296822086
 20
157.7638390560882
 30
0.0
 10
192.9725533254892
 20
157.1578726826588
 30
0.0
 10
193.0703735543987
 20
156.3408393701698
 30
0.0
 10
193.1561691077654
 20
155.6248063328817
 30
0.0
 10
192.8619524486048
 20
154.9843382936659
 30
0.0
 10
192.3941338494288
 20
154.7884760764405
 30
0.0
  0
SPLINE
  5
125
330
115
100
AcDbEntity
  8
_U+30EC_U+30A4_U+30E4_U+30FC 1
 62
     7
370
     5
100
AcDbSpline
210
0.0
220
0.0
230
1.0
 70
     8
 71
     3
 72
    14
 73
    10
 74
     0
 42
0.0000000001
 43
0.0000000001
 12
1.0
 22
0.0
 32
0.0
 13
1.0
 23
0.0
 33
0.0
 40
0.0
 40
0.0
 40
0.0
 40
0.0
 40
1.0
 40
1.0
 40
1.0
 40
2.0
 40
2.0
 40
2.0
 40
3.0
 40
3.0
 40
3.0
 40
3.0
 10
190.9054822207407
 20
157.5597218390735
 30
0.0
 10
190.9471805530103
 20
157.5723160054188
 30
0.0
 10
190.9891963852717
 20
157.5805710052082
 30
0.0
 10
191.0322755481965
 20
157.5855804495249
 30
0.0
 10
191.6207088813826
 20
157.6567004477104
 30
0.0
 10
192.1774224660686
 20
157.0505576853967
 30
0.0
 10
192.2752477413507
 20
156.2332068729157
 30
0.0
 10
192.3610432947174
 20
155.5169621689664
 30
0.0
 10
192.0671794133256
 20
154.8770232964037
 30
0.0
 10
191.5989727586039
 20
154.680667190302
 30
0.0
  0
SPLINE
  5
126
330
115
100
AcDbEntity
  8
_U+30EC_U+30A4_U+30E4_U+30FC 1
 62
     7
370
     5
100
AcDbSpline
210
0.0
220
0.0
230
1.0
 70
     8
 71
     3
 72
    14
 73
    10
 74
     0
 42
0.0000000001
 43
0.0000000001
 12
1.0
 22
0.0
 32
0.0
 13
1.0
 23
0.0
 33
0.0
 40
0.0
 40
0.0
 40
0.0
 40
0.0
 40
1.0
 40
1.0
 40
1.0
 40
2.0
 40
2.0
 40
2.0
 40
3.0
 40
3.0
 40
3.0
 40
3.0
 10
190.0559227979704
 20
157.4348385089262
 30
0.0
 10
190.0976211302399
 20
157.4474326752719
 30
0.0
 10
190.1396369625013
 20
157.4556876750609
 30
0.0
 10
190.1827111280691
 20
157.4606971193776
 30
0.0
 10
190.7711444463902
 20
157.5316439824462
 30
0.0
 10
191.3278630432982
 20
156.9256743552494
 30
0.0
 10
191.4256883185803
 20
156.108147153884
 30
0.0
 10
191.5111310941782
 20
155.3920788388191
 30
0.0
 10
191.2176199905552
 20
154.7523163551408
 30
0.0
 10
190.7490958358416
 20
154.5557838601547
 30
0.0
  0
SPLINE
  5
127
330
115
100
AcDbEntity
  8
_U+30EC_U+30A4_U+30E4_U+30FC 1
 62
     7
370
     5
100
AcDbSpline
210
0.0
220
0.0
230
1.0
 70
     8
 71
     3
 72
    14
 73
    10
 74
     0
 42
0.0000000001
 43
0.0000000001
 12
1.0
 22
0.0
 32
0.0
 13
1.0
 23
0.0
 33
0.0
 40
0.0
 40
0.0
 40
0.0
 40
0.0
 40
1.0
 40
1.0
 40
1.0
 40
2.0
 40
2.0
 40
2.0
 40
3.0
 40
3.0
 40
3.0
 40
3.0
 10
189.1161228219467
 20
157.3060040677686
 30
0.0
 10
189.1574330986705
 20
157.3180690674608
 30
0.0
 10
189.1994842087088
 20
157.3263273158307
 30
0.0
 10
189.2428758742685
 20
157.3320037893275
 30
0.0
 10
189.8313091925896
 20
157.4029826764055
 30
0.0
 10
190.3880277894977
 20
156.7963107474386
 30
0.0
 10
190.4858883425566
 20
155.9794538238339
 30
0.0
 10
190.5716486181464
 20
155.2639146754222
 30
0.0
 10
190.2774672367627
 20
154.6234819139832
 30
0.0
 10
189.809260582041
 20
154.4269141412203
 30
0.0
  0
SPLINE
  5
128
330
115
100
AcDbEntity
  8
_U+30EC_U+30A4_U+30E4_U+30FC 1
 62
     7
370
     5
100
AcDbSpline
210
0.0
220
0.0
230
1.0
 70
     8
 71
     3
 72
    14
 73
    10
 74
     0
 42
0.0000000001
 43
0.0000000001
 12
1.0
 22
0.0
 32
0.0
 13
1.0
 23
0.0
 33
0.0
 40
0.0
 40
0.0
 40
0.0
 40
0.0
 40
1.0
 40
1.0
 40
1.0
 40
2.0
 40
2.0
 40
2.0
 40
3.0
 40
3.0
 40
3.0
 40
3.0
 10
188.3171870089959
 20
157.2119535146124
 30
0.0
 10
188.3585325634966
 20
157.2238421254202
 30
0.0
 10
188.4009061044096
 20
157.23209712521
 30
0.0
 10
188.4439753390946
 20
157.2377800936309
 30
0.0
 10
189.0324086574157
 20
157.308755734365
 30
0.0
 10
189.5891272543238
 20
156.7020838053981
 30
0.0
 10
189.6869525296058
 20
155.8852300939687
 30
0.0
 10
189.7727480829725
 20
155.1696877333817
 30
0.0
 10
189.4788842015807
 20
154.5292549719427
 30
0.0
 10
189.010677546859
 20
154.3328635880642
 30
0.0
  0
SPLINE
  5
129
330
115
100
AcDbEntity
  8
_U+30EC_U+30A4_U+30E4_U+30FC 1
 62
     7
370
     5
100
AcDbSpline
210
0.0
220
0.0
230
1.0
 70
     8
 71
     3
 72
    14
 73
    10
 74
     0
 42
0.0000000001
 43
0.0000000001
 12
1.0
 22
0.0
 32
0.0
 13
1.0
 23
0.0
 33
0.0
 40
0.0
 40
0.0
 40
0.0
 40
0.0
 40
1.0
 40
1.0
 40
1.0
 40
2.0
 40
2.0
 40
2.0
 40
3.0
 40
3.0
 40
3.0
 40
3.0
 10
187.4672748084567
 20
157.0868937955808
 30
0.0
 10
187.5089731407263
 20
157.0989587952729
 30
0.0
 10
187.5509889729877
 20
157.1072137950624
 30
0.0
 10
187.5940631385554
 20
157.1127171282553
 30
0.0
 10
188.1824964568766
 20
157.1838724042177
 30
0.0
 10
188.7392199932142
 20
156.5772004752508
 30
0.0
 10
188.8373931068354
 20
155.7603467606669
 30
0.0
 10
188.9228358824334
 20
155.0448044032344
 30
0.0
 10
188.6289720010416
 20
154.404195252911
 30
0.0
 10
188.1608006240967
 20
154.2079802579169
 30
0.0
  0
SPLINE
  5
12A
330
115
100
AcDbEntity
  8
_U+30EC_U+30A4_U+30E4_U+30FC 1
 62
     7
370
     5
100
AcDbSpline
210
0.0
220
0.0
230
1.0
 70
     8
 71
     3
 72
    14
 73
    10
 74
     0
 42
0.0000000001
 43
0.0000000001
 12
1.0
 22
0.0
 32
0.0
 13
1.0
 23
0.0
 33
0.0
 40
0.0
 40
0.0
 40
0.0
 40
0.0
 40
1.0
 40
1.0
 40
1.0
 40
2.0
 40
2.0
 40
2.0
 40
3.0
 40
3.0
 40
3.0
 40
3.0
 10
186.527474832433
 20
156.9580593544232
 30
0.0
 10
186.5691378869257
 20
156.9706182429916
 30
0.0
 10
186.611188996964
 20
156.978873242781
 30
0.0
 10
186.6542278847548
 20
156.9838826870977
 30
0.0
 10
187.242661203076
 20
157.0551790741677
 30
0.0
 10
187.799379799984
 20
156.4490363118539
 30
0.0
 10
187.8972403530429
 20
155.6315091104885
 30
0.0
 10
187.9830006286328
 20
154.9152644065392
 30
0.0
 10
187.689136747241
 20
154.2755050943711
 30
0.0
 10
187.2209653702962
 20
154.0789694278749
 30
0.0
  0
SPLINE
  5
12B
330
115
100
AcDbEntity
  8
_U+30EC_U+30A4_U+30E4_U+30FC 1
 62
     7
370
     5
100
AcDbSpline
210
0.0
220
0.0
230
1.0
 70
     8
 71
     3
 72
    14
 73
    10
 74
     0
 42
0.0000000001
 43
0.0000000001
 12
1.0
 22
0.0
 32
0.0
 13
1.0
 23
0.0
 33
0.0
 40
0.0
 40
0.0
 40
0.0
 40
0.0
 40
1.0
 40
1.0
 40
1.0
 40
2.0
 40
2.0
 40
2.0
 40
3.0
 40
3.0
 40
3.0
 40
3.0
 10
185.7326665193769
 20
156.8503915793922
 30
0.0
 10
185.7740120738777
 20
156.8629504679607
 30
0.0
 10
185.8163806839079
 20
156.8712439826112
 30
0.0
 10
185.8591020717068
 20
156.8762149120667
 30
0.0
 10
186.4478881677968
 20
156.9478640769055
 30
0.0
 10
187.0046116603147
 20
156.3411921479388
 30
0.0
 10
187.1024673177637
 20
155.5236649465732
 30
0.0
 10
187.1882275933536
 20
154.8083021870458
 30
0.0
 10
186.8943637119618
 20
154.1683633144831
 30
0.0
 10
186.4258395572482
 20
153.9713016528439
 30
0.0
  0
SPLINE
  5
12C
330
115
100
AcDbEntity
  8
_U+30EC_U+30A4_U+30E4_U+30FC 1
 62
     7
370
     5
100
AcDbSpline
210
0.0
220
0.0
230
1.0
 70
     8
 71
     3
 72
    14
 73
    10
 74
     0
 42
0.0000000001
 43
0.0000000001
 12
1.0
 22
0.0
 32
0.0
 13
1.0
 23
0.0
 33
0.0
 40
0.0
 40
0.0
 40
0.0
 40
0.0
 40
1.0
 40
1.0
 40
1.0
 40
2.0
 40
2.0
 40
2.0
 40
3.0
 40
3.0
 40
3.0
 40
3.0
 10
184.8827895966147
 20
156.7253318603605
 30
0.0
 10
184.9244526511073
 20
156.7378939826446
 30
0.0
 10
184.9665037611456
 20
156.7461810264953
 30
0.0
 10
185.0095426489365
 20
156.7511551930351
 30
0.0
 10
185.5979759672576
 20
156.8228396356507
 30
0.0
 10
186.1546945641657
 20
156.2161356494416
 30
0.0
 10
186.2528726172165
 20
155.3987816164259
 30
0.0
 10
186.3383153928145
 20
154.6832424680141
 30
0.0
 10
186.0444515114226
 20
154.0433035954514
 30
0.0
 10
185.5762801344778
 20
153.8464183226966
 30
0.0
  0
SPLINE
  5
12D
330
115
100
AcDbEntity
  8
_U+30EC_U+30A4_U+30E4_U+30FC 1
 62
     7
370
     5
100
AcDbSpline
210
0.0
220
0.0
230
1.0
 70
     8
 71
     3
 72
    14
 73
    10
 74
     0
 42
0.0000000001
 43
0.0000000001
 12
1.0
 22
0.0
 32
0.0
 13
1.0
 23
0.0
 33
0.0
 40
0.0
 40
0.0
 40
0.0
 40
0.0
 40
1.0
 40
1.0
 40
1.0
 40
2.0
 40
2.0
 40
2.0
 40
3.0
 40
3.0
 40
3.0
 40
3.0
 10
183.9429543428141
 20
156.5971676969636
 30
0.0
 10
183.9846526750836
 20
156.6092326966558
 30
0.0
 10
184.026668507345
 20
156.6174876964452
 30
0.0
 10
184.0697426729128
 20
156.6229910296381
 30
0.0
 10
184.658140713457
 20
156.6936171389474
 30
0.0
 10
185.214894588142
 20
156.0874743766336
 30
0.0
 10
185.312719863424
 20
155.2706174530289
 30
0.0
 10
185.3985154167907
 20
154.5545844157409
 30
0.0
 10
185.1046515353989
 20
153.9141163765251
 30
0.0
 10
184.6364448806772
 20
153.7181162056216
 30
0.0
  0
SPLINE
  5
12E
330
115
100
AcDbEntity
  8
_U+30EC_U+30A4_U+30E4_U+30FC 1
 62
     7
370
     5
100
AcDbSpline
210
0.0
220
0.0
230
1.0
 70
     8
 71
     3
 72
    14
 73
    10
 74
     0
 42
0.0000000001
 43
0.0000000001
 12
1.0
 22
0.0
 32
0.0
 13
1.0
 23
0.0
 33
0.0
 40
0.0
 40
0.0
 40
0.0
 40
0.0
 40
1.0
 40
1.0
 40
1.0
 40
2.0
 40
2.0
 40
2.0
 40
3.0
 40
3.0
 40
3.0
 40
3.0
 10
183.1202765860245
 20
156.4998363105578
 30
0.0
 10
183.1612693627565
 20
156.5120776991347
 30
0.0
 10
183.2036379727867
 20
156.5201563100395
 30
0.0
 10
183.2470296383464
 20
156.5258745382533
 30
0.0
 10
183.8351101788987
 20
156.5963210303185
 30
0.0
 10
184.3921815535756
 20
155.9901429902279
 30
0.0
 10
184.4900421066345
 20
155.1734977332844
 30
0.0
 10
184.5754848822324
 20
154.4572530293352
 30
0.0
 10
184.2816210008406
 20
153.8168202678962
 30
0.0
 10
183.8134143461189
 20
153.6209580506708
 30
0.0
  0
SPLINE
  5
12F
330
115
100
AcDbEntity
  8
_U+30EC_U+30A4_U+30E4_U+30FC 1
 62
     7
370
     5
100
AcDbSpline
210
0.0
220
0.0
230
1.0
 70
     8
 71
     3
 72
    14
 73
    10
 74
     0
 42
0.0000000001
 43
0.0000000001
 12
1.0
 22
0.0
 32
0.0
 13
1.0
 23
0.0
 33
0.0
 40
0.0
 40
0.0
 40
0.0
 40
0.0
 40
1.0
 40
1.0
 40
1.0
 40
2.0
 40
2.0
 40
2.0
 40
3.0
 40
3.0
 40
3.0
 40
3.0
 10
182.2703643854854
 20
156.3749529804105
 30
0.0
 10
182.3120627177549
 20
156.3870179801027
 30
0.0
 10
182.3540785500163
 20
156.3952729798922
 30
0.0
 10
182.3971527155841
 20
156.4009527019695
 30
0.0
 10
182.9855507561284
 20
156.4714377001712
 30
0.0
 10
183.5423046308133
 20
155.8652596600806
 30
0.0
 10
183.6401299060953
 20
155.0484412052893
 30
0.0
 10
183.725925459462
 20
154.3323696991879
 30
0.0
 10
183.4320615780703
 20
153.6917605488645
 30
0.0
 10
182.9638549233485
 20
153.4960747205235
 30
0.0
  0
SPLINE
  5
130
330
115
100
AcDbEntity
  8
_U+30EC_U+30A4_U+30E4_U+30FC 1
 62
     7
370
     5
100
AcDbSpline
210
0.0
220
0.0
230
1.0
 70
     8
 71
     3
 72
    14
 73
    10
 74
     0
 42
0.0000000001
 43
0.0000000001
 12
1.0
 22
0.0
 32
0.0
 13
1.0
 23
0.0
 33
0.0
 40
0.0
 40
0.0
 40
0.0
 40
0.0
 40
1.0
 40
1.0
 40
1.0
 40
2.0
 40
2.0
 40
2.0
 40
3.0
 40
3.0
 40
3.0
 40
3.0
 10
181.3305338839552
 20
156.2455893726001
 30
0.0
 10
181.3722274639543
 20
156.2581835389451
 30
0.0
 10
181.4142432962158
 20
156.2664385387345
 30
0.0
 10
181.4573174617835
 20
156.2714479830512
 30
0.0
 10
182.0457507801047
 20
156.3430971478899
 30
0.0
 10
182.6024693770127
 20
155.736425218923
 30
0.0
 10
182.7002946522948
 20
154.919074406442
 30
0.0
 10
182.7860949947025
 20
154.2034999802534
 30
0.0
 10
182.4922311058869
 20
153.5637727743519
 30
0.0
 10
182.024019669548
 20
153.3665347238284
 30
0.0
  0
SPLINE
  5
131
330
115
100
AcDbEntity
  8
_U+30EC_U+30A4_U+30E4_U+30FC 1
 62
     7
370
     5
100
AcDbSpline
210
0.0
220
0.0
230
1.0
 70
     8
 71
     3
 72
    14
 73
    10
 74
     0
 42
0.0000000001
 43
0.0000000001
 12
1.0
 22
0.0
 32
0.0
 13
1.0
 23
0.0
 33
0.0
 40
0.0
 40
0.0
 40
0.0
 40
0.0
 40
1.0
 40
1.0
 40
1.0
 40
2.0
 40
2.0
 40
2.0
 40
3.0
 40
3.0
 40
3.0
 40
3.0
 10
180.5354033186368
 20
156.138450764222
 30
0.0
 10
180.5771016509063
 20
156.1505189827915
 30
0.0
 10
180.6191174831678
 20
156.1587707637036
 30
0.0
 10
180.6621916487355
 20
156.1643093746734
 30
0.0
 10
181.2506249670567
 20
156.235429372859
 30
0.0
 10
181.8073435639647
 20
155.6287606495885
 30
0.0
 10
181.9055216170156
 20
154.8119357980642
 30
0.0
 10
181.9909643926135
 20
154.0963613718756
 30
0.0
 10
181.6971005112217
 20
153.4557522215522
 30
0.0
 10
181.2288938565
 20
153.2593961154506
 30
0.0
  0
SPLINE
  5
132
330
115
100
AcDbEntity
  8
_U+30EC_U+30A4_U+30E4_U+30FC 1
 62
     7
370
     5
100
AcDbSpline
210
0.0
220
0.0
230
1.0
 70
     8
 71
     3
 72
    14
 73
    10
 74
     0
 42
0.0000000001
 43
0.0000000001
 12
1.0
 22
0.0
 32
0.0
 13
1.0
 23
0.0
 33
0.0
 40
0.0
 40
0.0
 40
0.0
 40
0.0
 40
1.0
 40
1.0
 40
1.0
 40
2.0
 40
2.0
 40
2.0
 40
3.0
 40
3.0
 40
3.0
 40
3.0
 10
179.7096211174821
 20
156.0233746560467
 30
0.0
 10
179.7513194497516
 20
156.0354396557389
 30
0.0
 10
179.793335282013
 20
156.0437299333055
 30
0.0
 10
179.8364094475808
 20
156.0492332664981
 30
0.0
 10
180.424807488125
 20
156.1203532646837
 30
0.0
 10
180.9815613628099
 20
155.5136813357168
 30
0.0
 10
181.0797394158608
 20
154.696859689889
 30
0.0
 10
181.1651821914587
 20
153.9813205414772
 30
0.0
 10
180.8713183100669
 20
153.340676113377
 30
0.0
 10
180.4031116553452
 20
153.1443200072753
 30
0.0
  0
SPLINE
  5
133
330
115
100
AcDbEntity
  8
_U+30EC_U+30A4_U+30E4_U+30FC 1
 62
     7
370
     5
100
AcDbSpline
210
0.0
220
0.0
230
1.0
 70
     8
 71
     3
 72
    11
 73
     7
 74
     0
 42
0.0000000001
 43
0.0000000001
 12
1.0
 22
0.0
 32
0.0
 13
1.0
 23
0.0
 33
0.0
 40
0.0
 40
0.0
 40
0.0
 40
0.0
 40
1.0
 40
1.0
 40
1.0
 40
2.0
 40
2.0
 40
2.0
 40
2.0
 10
179.5831855651521
 20
155.8849093818018
 30
0.0
 10
179.9101400012553
 20
155.6571913320555
 30
0.0
 10
180.1612824948481
 20
155.2201702320937
 30
0.0
 10
180.2243238821287
 20
154.696859689889
 30
0.0
 10
180.3097666577266
 20
153.9813205414772
 30
0.0
 10
180.0159027763349
 20
153.340676113377
 30
0.0
 10
179.5476961216131
 20
153.1443200072753
 30
0.0
  0
ENDBLK
  5
118
330
115
100
AcDbEntity
  8
0
100
AcDbBlockEnd
  0
BLOCK
  5
136
330
134
100
AcDbEntity
  8
0
100
AcDbBlockBegin
  2
block 4
 70
     0
 10
0.0
 20
0.0
 30
0.0
  3
block 4
  1

  0
POLYLINE
  5
138
330
134
100
AcDbEntity
  8
_U+30EC_U+30A4_U+30E4_U+30FC 1
 62
     7
370
     5
100
AcDb2dPolyline
 66
     1
 10
0.0
 20
0.0
 30
0.0
  0
VERTEX
  5
139
330
138
100
AcDbEntity
  8
_U+30EC_U+30A4_U+30E4_U+30FC 1
 62
     7
370
     5
100
AcDbVertex
100
AcDb2dVertex
 10
190.2802189033592
 20
93.50677958431127
 30
0.0
  0
VERTEX
  5
13A
330
138
100
AcDbEntity
  8
_U+30EC_U+30A4_U+30E4_U+30FC 1
 62
     7
370
     5
100
AcDbVertex
100
AcDb2dVertex
 10
175.5017937248327
 20
91.50243741322409
 30
0.0
  0
SEQEND
  5
13B
330
138
100
AcDbEntity
  8
_U+30EC_U+30A4_U+30E4_U+30FC 1
 62
     7
370
     5
  0
POLYLINE
  5
13C
330
134
100
AcDbEntity
  8
_U+30EC_U+30A4_U+30E4_U+30FC 1
 62
     7
370
     5
100
AcDb2dPolyline
 66
     1
 10
0.0
 20
0.0
 30
0.0
  0
VERTEX
  5
13D
330
13C
100
AcDbEntity
  8
_U+30EC_U+30A4_U+30E4_U+30FC 1
 62
     7
370
     5
100
AcDbVertex
100
AcDb2dVertex
 10
190.9258022202224
 20
90.62186882457816
 30
0.0
  0
VERTEX
  5
13E
330
13C
100
AcDbEntity
  8
_U+30EC_U+30A4_U+30E4_U+30FC 1
 62
     7
370
     5
100
AcDbVertex
100
AcDb2dVertex
 10
175.3164442851169
 20
88.4962416565852
 30
0.0
  0
SEQEND
  5
13F
330
13C
100
AcDbEntity
  8
_U+30EC_U+30A4_U+30E4_U+30FC 1
 62
     7
370
     5
  0
SPLINE
  5
140
330
134
100
AcDbEntity
  8
_U+30EC_U+30A4_U+30E4_U+30FC 1
 62
     7
370
     5
100
AcDbSpline
210
0.0
220
0.0
230
1.0
 70
     8
 71
     3
 72
    14
 73
    10
 74
     0
 42
0.0000000001
 43
0.0000000001
 12
1.0
 22
0.0
 32
0.0
 13
1.0
 23
0.0
 33
0.0
 40
0.0
 40
0.0
 40
0.0
 40
0.0
 40
1.0
 40
1.0
 40
1.0
 40
2.0
 40
2.0
 40
2.0
 40
3.0
 40
3.0
 40
3.0
 40
3.0
 10
190.232664460128
 20
93.50060597335766
 30
0.0
 10
190.2740100146287
 20
93.51263569527299
 30
0.0
 10
190.3160258468901
 20
93.52092597283927
 30
0.0
 10
190.3591000124579
 20
93.52678208380097
 30
0.0
 10
190.947533330779
 20
93.59705541534149
 30
0.0
 10
191.5042519276871
 20
92.9910537641352
 30
0.0
 10
191.6027827585067
 20
92.1742321183074
 30
0.0
 10
191.6878727563358
 20
91.45834019212688
 30
0.0
 10
191.3940088749441
 20
90.81755465291913
 30
0.0
 10
190.9258022202224
 20
90.62186882457816
 30
0.0
  0
SPLINE
  5
141
330
134
100
AcDbEntity
  8
_U+30EC_U+30A4_U+30E4_U+30FC 1
 62
     7
370
     5
100
AcDbSpline
210
0.0
220
0.0
230
1.0
 70
     8
 71
     3
 72
    14
 73
    10
 74
     0
 42
0.0000000001
 43
0.0000000001
 12
1.0
 22
0.0
 32
0.0
 13
1.0
 23
0.0
 33
0.0
 40
0.0
 40
0.0
 40
0.0
 40
0.0
 40
1.0
 40
1.0
 40
1.0
 40
2.0
 40
2.0
 40
2.0
 40
3.0
 40
3.0
 40
3.0
 40
3.0
 10
189.398591981407
 20
93.38620014294307
 30
0.0
 10
189.4399375359077
 20
93.39861792040405
 30
0.0
 10
189.4823061459379
 20
93.406874554033
 30
0.0
 10
189.5253803115056
 20
93.41205875339448
 30
0.0
 10
190.1138136298268
 20
93.48370791823322
 30
0.0
 10
190.6708850045036
 20
92.87703598926626
 30
0.0
 10
190.7683977704848
 20
92.05986156566968
 30
0.0
 10
190.8541530553836
 20
91.34396963948916
 30
0.0
 10
190.5602891739918
 20
90.70420715581086
 30
0.0
 10
190.0921227706534
 20
90.50749827194043
 30
0.0
  0
SPLINE
  5
142
330
134
100
AcDbEntity
  8
_U+30EC_U+30A4_U+30E4_U+30FC 1
 62
     7
370
     5
100
AcDbSpline
210
0.0
220
0.0
230
1.0
 70
     8
 71
     3
 72
    14
 73
    10
 74
     0
 42
0.0000000001
 43
0.0000000001
 12
1.0
 22
0.0
 32
0.0
 13
1.0
 23
0.0
 33
0.0
 40
0.0
 40
0.0
 40
0.0
 40
0.0
 40
1.0
 40
1.0
 40
1.0
 40
2.0
 40
2.0
 40
2.0
 40
3.0
 40
3.0
 40
3.0
 40
3.0
 10
188.5490325586366
 20
93.26149320168017
 30
0.0
 10
188.5907308909061
 20
93.27391097914114
 30
0.0
 10
188.6327467231675
 20
93.28216597893054
 30
0.0
 10
188.6758208887352
 20
93.2869990343628
 30
0.0
 10
189.2642542070564
 20
93.35864819920154
 30
0.0
 10
189.8209728039645
 20
92.75232904800336
 30
0.0
 10
189.9188333570234
 20
91.93444906886921
 30
0.0
 10
190.0045936326132
 20
91.21926269822626
 30
0.0
 10
189.7107297512214
 20
90.57914743677918
 30
0.0
 10
189.2425583742766
 20
90.38208577513997
 30
0.0
  0
SPLINE
  5
143
330
134
100
AcDbEntity
  8
_U+30EC_U+30A4_U+30E4_U+30FC 1
 62
     7
370
     5
100
AcDbSpline
210
0.0
220
0.0
230
1.0
 70
     8
 71
     3
 72
    14
 73
    10
 74
     0
 42
0.0000000001
 43
0.0000000001
 12
1.0
 22
0.0
 32
0.0
 13
1.0
 23
0.0
 33
0.0
 40
0.0
 40
0.0
 40
0.0
 40
0.0
 40
1.0
 40
1.0
 40
1.0
 40
2.0
 40
2.0
 40
2.0
 40
3.0
 40
3.0
 40
3.0
 40
3.0
 10
187.6092325826129
 20
93.13332903828324
 30
0.0
 10
187.6509005490421
 20
93.14504126020665
 30
0.0
 10
187.6929467471438
 20
93.15333153777294
 30
0.0
 10
187.7360209127116
 20
93.15883487096586
 30
0.0
 10
188.3244189532558
 20
93.22946098027515
 30
0.0
 10
188.8811375501639
 20
92.62345932906888
 30
0.0
 10
188.9789981032228
 20
91.8062849054723
 30
0.0
 10
189.0647936565895
 20
91.09039297929178
 30
0.0
 10
188.7705769974289
 20
90.44996021785279
 30
0.0
 10
188.302723120476
 20
90.25392161174304
 30
0.0
  0
SPLINE
  5
144
330
134
100
AcDbEntity
  8
_U+30EC_U+30A4_U+30E4_U+30FC 1
 62
     7
370
     5
100
AcDbSpline
210
0.0
220
0.0
230
1.0
 70
     8
 71
     3
 72
    14
 73
    10
 74
     0
 42
0.0000000001
 43
0.0000000001
 12
1.0
 22
0.0
 32
0.0
 13
1.0
 23
0.0
 33
0.0
 40
0.0
 40
0.0
 40
0.0
 40
0.0
 40
1.0
 40
1.0
 40
1.0
 40
2.0
 40
2.0
 40
2.0
 40
3.0
 40
3.0
 40
3.0
 40
3.0
 10
186.814111660362
 20
93.02516899857275
 30
0.0
 10
186.8557698240575
 20
93.03790265182889
 30
0.0
 10
186.8978209340958
 20
93.04619292939516
 30
0.0
 10
186.9408598218867
 20
93.05134348481931
 30
0.0
 10
187.5292931402078
 20
93.12232237189738
 30
0.0
 10
188.0860117371159
 20
92.51596794292233
 30
0.0
 10
188.1838722901748
 20
91.69879351932573
 30
0.0
 10
188.2696325657647
 20
90.98258566574975
 30
0.0
 10
187.9757686843729
 20
90.34282160947502
 30
0.0
 10
187.507597307428
 20
90.14643022559649
 30
0.0
  0
SPLINE
  5
145
330
134
100
AcDbEntity
  8
_U+30EC_U+30A4_U+30E4_U+30FC 1
 62
     7
370
     5
100
AcDbSpline
210
0.0
220
0.0
230
1.0
 70
     8
 71
     3
 72
    14
 73
    10
 74
     0
 42
0.0000000001
 43
0.0000000001
 12
1.0
 22
0.0
 32
0.0
 13
1.0
 23
0.0
 33
0.0
 40
0.0
 40
0.0
 40
0.0
 40
0.0
 40
1.0
 40
1.0
 40
1.0
 40
2.0
 40
2.0
 40
2.0
 40
3.0
 40
3.0
 40
3.0
 40
3.0
 10
185.9645473467945
 20
92.90046043311311
 30
0.0
 10
186.0062104012871
 20
92.9128429327972
 30
0.0
 10
186.0482615113254
 20
92.92113321036348
 30
0.0
 10
186.0913003991163
 20
92.92628376578763
 30
0.0
 10
186.6797337174375
 20
92.9972626528657
 30
0.0
 10
187.2364523143455
 20
92.39126100165942
 30
0.0
 10
187.3343128674044
 20
91.57373380029405
 30
0.0
 10
187.4197556430024
 20
90.85752437412164
 30
0.0
 10
187.1262092616025
 20
90.21811622149662
 30
0.0
 10
186.6576851068889
 20
90.02140578434168
 30
0.0
  0
SPLINE
  5
146
330
134
100
AcDbEntity
  8
_U+30EC_U+30A4_U+30E4_U+30FC 1
 62
     7
370
     5
100
AcDbSpline
210
0.0
220
0.0
230
1.0
 70
     8
 71
     3
 72
    14
 73
    10
 74
     0
 42
0.0000000001
 43
0.0000000001
 12
1.0
 22
0.0
 32
0.0
 13
1.0
 23
0.0
 33
0.0
 40
0.0
 40
0.0
 40
0.0
 40
0.0
 40
1.0
 40
1.0
 40
1.0
 40
2.0
 40
2.0
 40
2.0
 40
3.0
 40
3.0
 40
3.0
 40
3.0
 10
185.0247120929939
 20
92.7716259919555
 30
0.0
 10
185.0660576474947
 20
92.78365571387081
 30
0.0
 10
185.1080783274554
 20
92.79194599143709
 30
0.0
 10
185.1515004230926
 20
92.7978021023988
 30
0.0
 10
185.7399033272972
 20
92.86874571169999
 30
0.0
 10
186.2966523383218
 20
92.26172100496426
 30
0.0
 10
186.3944776136038
 20
91.44525213690522
 30
0.0
 10
186.4802731669706
 20
90.7293602107247
 30
0.0
 10
186.18605650781
 20
90.08924494927763
 30
0.0
 10
185.7178498530883
 20
89.8925360654072
 30
0.0
  0
SPLINE
  5
147
330
134
100
AcDbEntity
  8
_U+30EC_U+30A4_U+30E4_U+30FC 1
 62
     7
370
     5
100
AcDbSpline
210
0.0
220
0.0
230
1.0
 70
     8
 71
     3
 72
    14
 73
    10
 74
     0
 42
0.0000000001
 43
0.0000000001
 12
1.0
 22
0.0
 32
0.0
 13
1.0
 23
0.0
 33
0.0
 40
0.0
 40
0.0
 40
0.0
 40
0.0
 40
1.0
 40
1.0
 40
1.0
 40
2.0
 40
2.0
 40
2.0
 40
3.0
 40
3.0
 40
3.0
 40
3.0
 10
184.22581155782
 20
92.67754016102249
 30
0.0
 10
184.2671218345439
 20
92.68960516071469
 30
0.0
 10
184.3095257223509
 20
92.69789543828097
 30
0.0
 10
184.3525646101418
 20
92.7033987714739
 30
0.0
 10
184.940997928463
 20
92.77437765855197
 30
0.0
 10
185.497716525371
 20
92.16767045180814
 30
0.0
 10
185.5955770784299
 20
91.35084880598032
 30
0.0
 10
185.681342216201
 20
90.63530965756858
 30
0.0
 10
185.3874783273854
 20
89.99487689612961
 30
0.0
 10
184.9193020956832
 20
89.79848551225108
 30
0.0
  0
SPLINE
  5
148
330
134
100
AcDbEntity
  8
_U+30EC_U+30A4_U+30E4_U+30FC 1
 62
     7
370
     5
100
AcDbSpline
210
0.0
220
0.0
230
1.0
 70
     8
 71
     3
 72
    14
 73
    10
 74
     0
 42
0.0000000001
 43
0.0000000001
 12
1.0
 22
0.0
 32
0.0
 13
1.0
 23
0.0
 33
0.0
 40
0.0
 40
0.0
 40
0.0
 40
0.0
 40
1.0
 40
1.0
 40
1.0
 40
2.0
 40
2.0
 40
2.0
 40
3.0
 40
3.0
 40
3.0
 40
3.0
 10
183.3758993572808
 20
92.5525157197677
 30
0.0
 10
183.4175672167671
 20
92.56454544168301
 30
0.0
 10
183.4596135218118
 20
92.57283571924928
 30
0.0
 10
183.5026876873796
 20
92.57833905244222
 30
0.0
 10
184.0910857279238
 20
92.64963543951218
 30
0.0
 10
184.6478043248319
 20
92.04261073277645
 30
0.0
 10
184.7460176556596
 20
91.22614186471742
 30
0.0
 10
184.8314604312575
 20
90.5102499385369
 30
0.0
 10
184.5375612720888
 20
89.86981717709791
 30
0.0
 10
184.069389895144
 20
89.6737801105217
 30
0.0
  0
SPLINE
  5
149
330
134
100
AcDbEntity
  8
_U+30EC_U+30A4_U+30E4_U+30FC 1
 62
     7
370
     5
100
AcDbSpline
210
0.0
220
0.0
230
1.0
 70
     8
 71
     3
 72
    14
 73
    10
 74
     0
 42
0.0000000001
 43
0.0000000001
 12
1.0
 22
0.0
 32
0.0
 13
1.0
 23
0.0
 33
0.0
 40
0.0
 40
0.0
 40
0.0
 40
0.0
 40
1.0
 40
1.0
 40
1.0
 40
2.0
 40
2.0
 40
2.0
 40
3.0
 40
3.0
 40
3.0
 40
3.0
 10
182.4360641034803
 20
92.4236460008332
 30
0.0
 10
182.4777672170019
 20
92.43606377829418
 30
0.0
 10
182.5197782680112
 20
92.44431877808358
 30
0.0
 10
182.562852433579
 20
92.44950461128461
 30
0.0
 10
183.1512857519001
 20
92.52080099835457
 30
0.0
 10
183.7080043488081
 20
91.9144818471564
 30
0.0
 10
183.8058296240902
 20
91.09730742355981
 30
0.0
 10
183.8916251774569
 20
90.38070994184174
 30
0.0
 10
183.5977612960651
 20
89.74130023593221
 30
0.0
 10
183.1295546413434
 20
89.54459135206179
 30
0.0
  0
SPLINE
  5
14A
330
134
100
AcDbEntity
  8
_U+30EC_U+30A4_U+30E4_U+30FC 1
 62
     7
370
     5
100
AcDbSpline
210
0.0
220
0.0
230
1.0
 70
     8
 71
     3
 72
    14
 73
    10
 74
     0
 42
0.0000000001
 43
0.0000000001
 12
1.0
 22
0.0
 32
0.0
 13
1.0
 23
0.0
 33
0.0
 40
0.0
 40
0.0
 40
0.0
 40
0.0
 40
1.0
 40
1.0
 40
1.0
 40
2.0
 40
2.0
 40
2.0
 40
3.0
 40
3.0
 40
3.0
 40
3.0
 10
181.6412910682011
 20
92.31615461468665
 30
0.0
 10
181.6826366227018
 20
92.32857239214762
 30
0.0
 10
181.725005232732
 20
92.33682739193702
 30
0.0
 10
181.767726620531
 20
92.34166044736928
 30
0.0
 10
182.356477438844
 20
92.41330961220802
 30
0.0
 10
182.9132313135289
 20
91.80699046100985
 30
0.0
 10
183.011056588811
 20
90.9891104818757
 30
0.0
 10
183.0968521421777
 20
90.27392411123274
 30
0.0
 10
182.8029882607859
 20
89.63380884978567
 30
0.0
 10
182.3344288282954
 20
89.43674718814646
 30
0.0
  0
SPLINE
  5
14B
330
134
100
AcDbEntity
  8
_U+30EC_U+30A4_U+30E4_U+30FC 1
 62
     7
370
     5
100
AcDbSpline
210
0.0
220
0.0
230
1.0
 70
     8
 71
     3
 72
    14
 73
    10
 74
     0
 42
0.0000000001
 43
0.0000000001
 12
1.0
 22
0.0
 32
0.0
 13
1.0
 23
0.0
 33
0.0
 40
0.0
 40
0.0
 40
0.0
 40
0.0
 40
1.0
 40
1.0
 40
1.0
 40
2.0
 40
2.0
 40
2.0
 40
3.0
 40
3.0
 40
3.0
 40
3.0
 10
180.7913788676619
 20
92.19077739566308
 30
0.0
 10
180.8330771999314
 20
92.20351267311594
 30
0.0
 10
180.8750977729582
 20
92.21176767290534
 30
0.0
 10
180.9181671977606
 20
92.21695510988617
 30
0.0
 10
181.5065699950222
 20
92.28860267094512
 30
0.0
 10
182.0633191129898
 20
91.68157796420938
 30
0.0
 10
182.1614971660406
 20
90.86440511022406
 30
0.0
 10
182.2469399416386
 20
90.14886439220106
 30
0.0
 10
181.9530760602468
 20
89.50910190852275
 30
0.0
 10
181.484869405525
 20
89.31204024688356
 30
0.0
  0
SPLINE
  5
14C
330
134
100
AcDbEntity
  8
_U+30EC_U+30A4_U+30E4_U+30FC 1
 62
     7
370
     5
100
AcDbSpline
210
0.0
220
0.0
230
1.0
 70
     8
 71
     3
 72
    14
 73
    10
 74
     0
 42
0.0000000001
 43
0.0000000001
 12
1.0
 22
0.0
 32
0.0
 13
1.0
 23
0.0
 33
0.0
 40
0.0
 40
0.0
 40
0.0
 40
0.0
 40
1.0
 40
1.0
 40
1.0
 40
2.0
 40
2.0
 40
2.0
 40
3.0
 40
3.0
 40
3.0
 40
3.0
 10
179.8515436138613
 20
92.06261323226614
 30
0.0
 10
179.8932419461308
 20
92.07499573195024
 30
0.0
 10
179.9352577783923
 20
92.08328600951651
 30
0.0
 10
179.9783366620708
 20
92.08878934270945
 30
0.0
 10
180.5667699952576
 20
92.15906267424995
 30
0.0
 10
181.1234838591892
 20
91.55306102304368
 30
0.0
 10
181.2213444122481
 20
90.73623937721587
 30
0.0
 10
181.307104687838
 20
90.02034745103535
 30
0.0
 10
181.0132408064462
 20
89.37956344392833
 30
0.0
 10
180.5450694295014
 20
89.18387608348662
 30
0.0
  0
SPLINE
  5
14D
330
134
100
AcDbEntity
  8
_U+30EC_U+30A4_U+30E4_U+30FC 1
 62
     7
370
     5
100
AcDbSpline
210
0.0
220
0.0
230
1.0
 70
     8
 71
     3
 72
    14
 73
    10
 74
     0
 42
0.0000000001
 43
0.0000000001
 12
1.0
 22
0.0
 32
0.0
 13
1.0
 23
0.0
 33
0.0
 40
0.0
 40
0.0
 40
0.0
 40
0.0
 40
1.0
 40
1.0
 40
1.0
 40
2.0
 40
2.0
 40
2.0
 40
3.0
 40
3.0
 40
3.0
 40
3.0
 10
179.0288658570718
 20
91.96545823474477
 30
0.0
 10
179.0698586338038
 20
91.97787601220575
 30
0.0
 10
179.112227243834
 20
91.98577823422637
 30
0.0
 10
179.1556588844992
 20
91.99163434518807
 30
0.0
 10
179.7437394399076
 20
92.0619076767286
 30
0.0
 10
180.3008061023997
 20
91.45558852553042
 30
0.0
 10
180.3986313776817
 20
90.63908437969451
 30
0.0
 10
180.4840741532797
 20
89.92287495352208
 30
0.0
 10
180.1902102718879
 20
89.28240691430622
 30
0.0
 10
179.722038894943
 20
89.08672108596525
 30
0.0
  0
SPLINE
  5
14E
330
134
100
AcDbEntity
  8
_U+30EC_U+30A4_U+30E4_U+30FC 1
 62
     7
370
     5
100
AcDbSpline
210
0.0
220
0.0
230
1.0
 70
     8
 71
     3
 72
    14
 73
    10
 74
     0
 42
0.0000000001
 43
0.0000000001
 12
1.0
 22
0.0
 32
0.0
 13
1.0
 23
0.0
 33
0.0
 40
0.0
 40
0.0
 40
0.0
 40
0.0
 40
1.0
 40
1.0
 40
1.0
 40
2.0
 40
2.0
 40
2.0
 40
3.0
 40
3.0
 40
3.0
 40
3.0
 10
178.1789536565327
 20
91.84075129348187
 30
0.0
 10
178.2206519888022
 20
91.85246351540529
 30
0.0
 10
178.2626678210636
 20
91.86071851519469
 30
0.0
 10
178.3057419866313
 20
91.86657462615639
 30
0.0
 10
178.8941753049525
 20
91.9372023321778
 30
0.0
 10
179.4508939018605
 20
91.3308815842675
 30
0.0
 10
179.5487191771426
 20
90.51402466066281
 30
0.0
 10
179.6345147305093
 20
89.7978152344904
 30
0.0
 10
179.3406508491175
 20
89.15734719527454
 30
0.0
 10
178.8724794721727
 20
88.96166136693357
 30
0.0
  0
SPLINE
  5
14F
330
134
100
AcDbEntity
  8
_U+30EC_U+30A4_U+30E4_U+30FC 1
 62
     7
370
     5
100
AcDbSpline
210
0.0
220
0.0
230
1.0
 70
     8
 71
     3
 72
    14
 73
    10
 74
     0
 42
0.0000000001
 43
0.0000000001
 12
1.0
 22
0.0
 32
0.0
 13
1.0
 23
0.0
 33
0.0
 40
0.0
 40
0.0
 40
0.0
 40
0.0
 40
1.0
 40
1.0
 40
1.0
 40
2.0
 40
2.0
 40
2.0
 40
3.0
 40
3.0
 40
3.0
 40
3.0
 10
177.2391536805089
 20
91.71121129678671
 30
0.0
 10
177.2808167350016
 20
91.72359379647081
 30
0.0
 10
177.3228678450399
 20
91.731885665563
 30
0.0
 10
177.3659067328308
 20
91.73703462946123
 30
0.0
 10
177.9543400511519
 20
91.80871907207685
 30
0.0
 10
178.51105864806
 20
91.20201344347309
 30
0.0
 10
178.6089192011189
 20
90.38483744173644
 30
0.0
 10
178.6946794767087
 20
89.66894551555592
 30
0.0
 10
178.4008155953169
 20
89.02953580964639
 30
0.0
 10
177.9326442183721
 20
88.83215664801529
 30
0.0
  0
SPLINE
  5
150
330
134
100
AcDbEntity
  8
_U+30EC_U+30A4_U+30E4_U+30FC 1
 62
     7
370
     5
100
AcDbSpline
210
0.0
220
0.0
230
1.0
 70
     8
 71
     3
 72
    14
 73
    10
 74
     0
 42
0.0000000001
 43
0.0000000001
 12
1.0
 22
0.0
 32
0.0
 13
1.0
 23
0.0
 33
0.0
 40
0.0
 40
0.0
 40
0.0
 40
0.0
 40
1.0
 40
1.0
 40
1.0
 40
2.0
 40
2.0
 40
2.0
 40
3.0
 40
3.0
 40
3.0
 40
3.0
 10
176.444027867461
 20
91.60407268840893
 30
0.0
 10
176.4856909219536
 20
91.61613768810113
 30
0.0
 10
176.5277420319919
 20
91.62439268789052
 30
0.0
 10
176.5707809197828
 20
91.62989602108345
 30
0.0
 10
177.1592142381039
 20
91.70087490816152
 30
0.0
 10
177.715932835012
 20
91.09452047918647
 30
0.0
 10
177.8141461658397
 20
90.27734605558989
 30
0.0
 10
177.8995536636608
 20
89.56215968494692
 30
0.0
 10
177.6056897822689
 20
88.92137414573916
 30
0.0
 10
177.1375184053241
 20
88.72498276186063
 30
0.0
  0
SPLINE
  5
151
330
134
100
AcDbEntity
  8
_U+30EC_U+30A4_U+30E4_U+30FC 1
 62
     7
370
     5
100
AcDbSpline
210
0.0
220
0.0
230
1.0
 70
     8
 71
     3
 72
    14
 73
    10
 74
     0
 42
0.0000000001
 43
0.0000000001
 12
1.0
 22
0.0
 32
0.0
 13
1.0
 23
0.0
 33
0.0
 40
0.0
 40
0.0
 40
0.0
 40
0.0
 40
1.0
 40
1.0
 40
1.0
 40
2.0
 40
2.0
 40
2.0
 40
3.0
 40
3.0
 40
3.0
 40
3.0
 10
175.6182103885293
 20
91.48899658023366
 30
0.0
 10
175.6599087207989
 20
91.50106157992586
 30
0.0
 10
175.7019245530603
 20
91.50931657971525
 30
0.0
 10
175.7450033297958
 20
91.51485519068505
 30
0.0
 10
176.3334366629826
 20
91.58579879998625
 30
0.0
 10
176.8901506338572
 20
90.97947964878807
 30
0.0
 10
176.988328686908
 20
90.16230522519149
 30
0.0
 10
177.073771462506
 20
89.44708357677165
 30
0.0
 10
176.7799075811142
 20
88.80629955518276
 30
0.0
 10
176.3117362041693
 20
88.60994193146225
 30
0.0
  0
SPLINE
  5
152
330
134
100
AcDbEntity
  8
_U+30EC_U+30A4_U+30E4_U+30FC 1
 62
     7
370
     5
100
AcDbSpline
210
0.0
220
0.0
230
1.0
 70
     8
 71
     3
 72
    11
 73
     7
 74
     0
 42
0.0000000001
 43
0.0000000001
 12
1.0
 22
0.0
 32
0.0
 13
1.0
 23
0.0
 33
0.0
 40
0.0
 40
0.0
 40
0.0
 40
0.0
 40
1.0
 40
1.0
 40
1.0
 40
2.0
 40
2.0
 40
2.0
 40
2.0
 10
175.6037465000094
 20
91.26198566568036
 30
0.0
 10
175.8752442708607
 20
91.0190965922218
 30
0.0
 10
176.0774564879241
 20
90.62426771340584
 30
0.0
 10
176.1329131531759
 20
90.16230522519149
 30
0.0
 10
176.2183559287739
 20
89.44708357677165
 30
0.0
 10
175.9244920473821
 20
88.80629955518276
 30
0.0
 10
175.4563206704373
 20
88.60994193146225
 30
0.0
  0
ENDBLK
  5
137
330
134
100
AcDbEntity
  8
0
100
AcDbBlockEnd
  0
BLOCK
  5
155
330
153
100
AcDbEntity
  8
0
100
AcDbBlockBegin
  2
block 5
 70
     0
 10
0.0
 20
0.0
 30
0.0
  3
block 5
  1

  0
POLYLINE
  5
157
330
153
100
AcDbEntity
  8
_U+30EC_U+30A4_U+30E4_U+30FC 1
 62
     7
370
     5
100
AcDb2dPolyline
 66
     1
 10
0.0
 20
0.0
 30
0.0
  0
VERTEX
  5
158
330
157
100
AcDbEntity
  8
_U+30EC_U+30A4_U+30E4_U+30FC 1
 62
     7
370
     5
100
AcDbVertex
100
AcDb2dVertex
 10
136.2273622268069
 20
188.9259340944103
 30
0.0
  0
VERTEX
  5
159
330
157
100
AcDbEntity
  8
_U+30EC_U+30A4_U+30E4_U+30FC 1
 62
     7
370
     5
100
AcDbVertex
100
AcDb2dVertex
 10
121.4489370482804
 20
186.9215919233231
 30
0.0
  0
SEQEND
  5
15A
330
157
100
AcDbEntity
  8
_U+30EC_U+30A4_U+30E4_U+30FC 1
 62
     7
370
     5
  0
POLYLINE
  5
15B
330
153
100
AcDbEntity
  8
_U+30EC_U+30A4_U+30E4_U+30FC 1
 62
     7
370
     5
100
AcDb2dPolyline
 66
     1
 10
0.0
 20
0.0
 30
0.0
  0
VERTEX
  5
15C
330
15B
100
AcDbEntity
  8
_U+30EC_U+30A4_U+30E4_U+30FC 1
 62
     7
370
     5
100
AcDbVertex
100
AcDb2dVertex
 10
136.8729455436701
 20
186.0410273086522
 30
0.0
  0
VERTEX
  5
15D
330
15B
100
AcDbEntity
  8
_U+30EC_U+30A4_U+30E4_U+30FC 1
 62
     7
370
     5
100
AcDbVertex
100
AcDb2dVertex
 10
126.1878394532966
 20
184.5859914273537
 30
0.0
  0
SEQEND
  5
15E
330
15B
100
AcDbEntity
  8
_U+30EC_U+30A4_U+30E4_U+30FC 1
 62
     7
370
     5
  0
SPLINE
  5
15F
330
153
100
AcDbEntity
  8
_U+30EC_U+30A4_U+30E4_U+30FC 1
 62
     7
370
     5
100
AcDbSpline
210
0.0
220
0.0
230
1.0
 70
     8
 71
     3
 72
    14
 73
    10
 74
     0
 42
0.0000000001
 43
0.0000000001
 12
1.0
 22
0.0
 32
0.0
 13
1.0
 23
0.0
 33
0.0
 40
0.0
 40
0.0
 40
0.0
 40
0.0
 40
1.0
 40
1.0
 40
1.0
 40
2.0
 40
2.0
 40
2.0
 40
3.0
 40
3.0
 40
3.0
 40
3.0
 10
136.1798077835757
 20
188.9197252056798
 30
0.0
 10
136.2211533380764
 20
188.931790205372
 30
0.0
 10
136.2631727841109
 20
188.9400804829383
 30
0.0
 10
136.3062433359056
 20
188.9459365939
 30
0.0
 10
136.8946766542267
 20
189.0162099254405
 30
0.0
 10
137.4513952511348
 20
188.4102082742342
 30
0.0
 10
137.5499260819544
 20
187.5933866284064
 30
0.0
 10
137.6350160797836
 20
186.8774947022259
 30
0.0
 10
137.3411521983918
 20
186.2367091630181
 30
0.0
 10
136.8729455436701
 20
186.0410273086522
 30
0.0
  0
SPLINE
  5
160
330
153
100
AcDbEntity
  8
_U+30EC_U+30A4_U+30E4_U+30FC 1
 62
     7
370
     5
100
AcDbSpline
210
0.0
220
0.0
230
1.0
 70
     8
 71
     3
 72
    14
 73
    10
 74
     0
 42
0.0000000001
 43
0.0000000001
 12
1.0
 22
0.0
 32
0.0
 13
1.0
 23
0.0
 33
0.0
 40
0.0
 40
0.0
 40
0.0
 40
0.0
 40
1.0
 40
1.0
 40
1.0
 40
2.0
 40
2.0
 40
2.0
 40
3.0
 40
3.0
 40
3.0
 40
3.0
 10
135.3457353048547
 20
188.8053546530421
 30
0.0
 10
135.3870808593554
 20
188.8177724305031
 30
0.0
 10
135.4294494693856
 20
188.8260274302924
 30
0.0
 10
135.4725236349533
 20
188.8312132634935
 30
0.0
 10
136.0609569532745
 20
188.9028624283322
 30
0.0
 10
136.6180283279513
 20
188.2961904993653
 30
0.0
 10
136.7155361032414
 20
187.4790160757687
 30
0.0
 10
136.8012963788313
 20
186.7631241495882
 30
0.0
 10
136.5074324974395
 20
186.1233616659099
 30
0.0
 10
136.0392611204947
 20
185.9266527820394
 30
0.0
  0
SPLINE
  5
161
330
153
100
AcDbEntity
  8
_U+30EC_U+30A4_U+30E4_U+30FC 1
 62
     7
370
     5
100
AcDbSpline
210
0.0
220
0.0
230
1.0
 70
     8
 71
     3
 72
    14
 73
    10
 74
     0
 42
0.0000000001
 43
0.0000000001
 12
1.0
 22
0.0
 32
0.0
 13
1.0
 23
0.0
 33
0.0
 40
0.0
 40
0.0
 40
0.0
 40
0.0
 40
1.0
 40
1.0
 40
1.0
 40
2.0
 40
2.0
 40
2.0
 40
3.0
 40
3.0
 40
3.0
 40
3.0
 10
134.4961758820843
 20
188.6806477117792
 30
0.0
 10
134.5378742143538
 20
188.6930654892402
 30
0.0
 10
134.5798900466152
 20
188.7013245302091
 30
0.0
 10
134.6229642121829
 20
188.7061535444618
 30
0.0
 10
135.2113975305041
 20
188.7778027093005
 30
0.0
 10
135.7681161274122
 20
188.1714835581024
 30
0.0
 10
135.8659450064324
 20
187.3536035789682
 30
0.0
 10
135.9517369560609
 20
186.6384172083253
 30
0.0
 10
135.6578730746691
 20
185.9983019468782
 30
0.0
 10
135.1897016977243
 20
185.801240285239
 30
0.0
  0
SPLINE
  5
162
330
153
100
AcDbEntity
  8
_U+30EC_U+30A4_U+30E4_U+30FC 1
 62
     7
370
     5
100
AcDbSpline
210
0.0
220
0.0
230
1.0
 70
     8
 71
     3
 72
    14
 73
    10
 74
     0
 42
0.0000000001
 43
0.0000000001
 12
1.0
 22
0.0
 32
0.0
 13
1.0
 23
0.0
 33
0.0
 40
0.0
 40
0.0
 40
0.0
 40
0.0
 40
1.0
 40
1.0
 40
1.0
 40
2.0
 40
2.0
 40
2.0
 40
3.0
 40
3.0
 40
3.0
 40
3.0
 10
133.5563759060606
 20
188.5524835483826
 30
0.0
 10
133.5980389605532
 20
188.5641957703057
 30
0.0
 10
133.6400900705915
 20
188.5724860478719
 30
0.0
 10
133.6831289583824
 20
188.5779893810649
 30
0.0
 10
134.2715622767035
 20
188.6486154903742
 30
0.0
 10
134.8282808736116
 20
188.0426138391679
 30
0.0
 10
134.9261450066671
 20
187.2254394155713
 30
0.0
 10
135.0119017022603
 20
186.5095474893908
 30
0.0
 10
134.7177203208767
 20
185.8691147279518
 30
0.0
 10
134.249870006837
 20
185.6730800865218
 30
0.0
  0
SPLINE
  5
163
330
153
100
AcDbEntity
  8
_U+30EC_U+30A4_U+30E4_U+30FC 1
 62
     7
370
     5
100
AcDbSpline
210
0.0
220
0.0
230
1.0
 70
     8
 71
     3
 72
    14
 73
    10
 74
     0
 42
0.0000000001
 43
0.0000000001
 12
1.0
 22
0.0
 32
0.0
 13
1.0
 23
0.0
 33
0.0
 40
0.0
 40
0.0
 40
0.0
 40
0.0
 40
1.0
 40
1.0
 40
1.0
 40
2.0
 40
2.0
 40
2.0
 40
3.0
 40
3.0
 40
3.0
 40
3.0
 10
132.7612500930126
 20
188.444321884475
 30
0.0
 10
132.8029131475052
 20
188.4570571619279
 30
0.0
 10
132.8449642575435
 20
188.4653474394942
 30
0.0
 10
132.8880031453344
 20
188.4704979949183
 30
0.0
 10
133.4764364636555
 20
188.5414768819964
 30
0.0
 10
134.0331550605636
 20
187.9351224530213
 30
0.0
 10
134.1310156136225
 20
187.1179480294248
 30
0.0
 10
134.2167758892124
 20
186.4017386032523
 30
0.0
 10
133.9229120078206
 20
185.7619800864997
 30
0.0
 10
133.4547406308757
 20
185.5655847356955
 30
0.0
  0
SPLINE
  5
164
330
153
100
AcDbEntity
  8
_U+30EC_U+30A4_U+30E4_U+30FC 1
 62
     7
370
     5
100
AcDbSpline
210
0.0
220
0.0
230
1.0
 70
     8
 71
     3
 72
    14
 73
    10
 74
     0
 42
0.0000000001
 43
0.0000000001
 12
1.0
 22
0.0
 32
0.0
 13
1.0
 23
0.0
 33
0.0
 40
0.0
 40
0.0
 40
0.0
 40
0.0
 40
1.0
 40
1.0
 40
1.0
 40
2.0
 40
2.0
 40
2.0
 40
3.0
 40
3.0
 40
3.0
 40
3.0
 10
131.9116906702422
 20
188.3196189747492
 30
0.0
 10
131.9533537247349
 20
188.3319974428962
 30
0.0
 10
131.9954048347732
 20
188.3402877204625
 30
0.0
 10
132.038443722564
 20
188.3454382758866
 30
0.0
 10
132.6268770408852
 20
188.4164171629647
 30
0.0
 10
133.1835956377932
 20
187.8104155117584
 30
0.0
 10
133.2814561908521
 20
186.9928883103931
 30
0.0
 10
133.3668989664501
 20
186.2766828641488
 30
0.0
 10
133.0733561182419
 20
185.6372691783111
 30
0.0
 10
132.6048284303366
 20
185.4405250166638
 30
0.0
  0
SPLINE
  5
165
330
153
100
AcDbEntity
  8
_U+30EC_U+30A4_U+30E4_U+30FC 1
 62
     7
370
     5
100
AcDbSpline
210
0.0
220
0.0
230
1.0
 70
     8
 71
     3
 72
    14
 73
    10
 74
     0
 42
0.0000000001
 43
0.0000000001
 12
1.0
 22
0.0
 32
0.0
 13
1.0
 23
0.0
 33
0.0
 40
0.0
 40
0.0
 40
0.0
 40
0.0
 40
1.0
 40
1.0
 40
1.0
 40
2.0
 40
2.0
 40
2.0
 40
3.0
 40
3.0
 40
3.0
 40
3.0
 10
130.9718588965449
 20
188.1907452242776
 30
0.0
 10
131.0132009709424
 20
188.2028102239698
 30
0.0
 10
131.0552168032038
 20
188.2111005015361
 30
0.0
 10
131.0986437465403
 20
188.2169606414415
 30
0.0
 10
131.6870417870846
 20
188.287900221799
 30
0.0
 10
132.2437956617695
 20
187.6808755150633
 30
0.0
 10
132.3416209370515
 20
186.8644106417797
 30
0.0
 10
132.4274200072922
 20
186.1485147208237
 30
0.0
 10
132.1332033406995
 20
185.5083994593766
 30
0.0
 10
131.664993176536
 20
185.3116905755062
 30
0.0
  0
SPLINE
  5
166
330
153
100
AcDbEntity
  8
_U+30EC_U+30A4_U+30E4_U+30FC 1
 62
     7
370
     5
100
AcDbSpline
210
0.0
220
0.0
230
1.0
 70
     8
 71
     3
 72
    14
 73
    10
 74
     0
 42
0.0000000001
 43
0.0000000001
 12
1.0
 22
0.0
 32
0.0
 13
1.0
 23
0.0
 33
0.0
 40
0.0
 40
0.0
 40
0.0
 40
0.0
 40
1.0
 40
1.0
 40
1.0
 40
2.0
 40
2.0
 40
2.0
 40
3.0
 40
3.0
 40
3.0
 40
3.0
 10
130.1729548812677
 20
188.0966946711215
 30
0.0
 10
130.2142651579916
 20
188.1087596708137
 30
0.0
 10
130.2566690457986
 20
188.11704994838
 30
0.0
 10
130.2997079335895
 20
188.1225532815729
 30
0.0
 10
130.8881412519107
 20
188.193532168651
 30
0.0
 10
131.4448598488187
 20
187.5868249619075
 30
0.0
 10
131.5427204018776
 20
186.7700033160793
 30
0.0
 10
131.6284806774675
 20
186.0544641676676
 30
0.0
 10
131.3346167960757
 20
185.4139961284517
 30
0.0
 10
130.8664454191309
 20
185.2176439755245
 30
0.0
  0
SPLINE
  5
167
330
153
100
AcDbEntity
  8
_U+30EC_U+30A4_U+30E4_U+30FC 1
 62
     7
370
     5
100
AcDbSpline
210
0.0
220
0.0
230
1.0
 70
     8
 71
     3
 72
    14
 73
    10
 74
     0
 42
0.0000000001
 43
0.0000000001
 12
1.0
 22
0.0
 32
0.0
 13
1.0
 23
0.0
 33
0.0
 40
0.0
 40
0.0
 40
0.0
 40
0.0
 40
1.0
 40
1.0
 40
1.0
 40
2.0
 40
2.0
 40
2.0
 40
3.0
 40
3.0
 40
3.0
 40
3.0
 10
129.3230426807285
 20
187.9716349520898
 30
0.0
 10
129.3647057352212
 20
187.983699951782
 30
0.0
 10
129.4067568452595
 20
187.9919902293483
 30
0.0
 10
129.4497957330504
 20
187.9974935625412
 30
0.0
 10
130.0382290513715
 20
188.0687939748118
 30
0.0
 10
130.5949476482796
 20
187.4617652428755
 30
0.0
 10
130.6931644521698
 20
186.6452963748164
 30
0.0
 10
130.7785684769283
 20
185.9294044486359
 30
0.0
 10
130.4847045955365
 20
185.2889716871969
 30
0.0
 10
130.016536674562
 20
185.0929330810872
 30
0.0
  0
SPLINE
  5
168
330
153
100
AcDbEntity
  8
_U+30EC_U+30A4_U+30E4_U+30FC 1
 62
     7
370
     5
100
AcDbSpline
210
0.0
220
0.0
230
1.0
 70
     8
 71
     3
 72
    14
 73
    10
 74
     0
 42
0.0000000001
 43
0.0000000001
 12
1.0
 22
0.0
 32
0.0
 13
1.0
 23
0.0
 33
0.0
 40
0.0
 40
0.0
 40
0.0
 40
0.0
 40
1.0
 40
1.0
 40
1.0
 40
2.0
 40
2.0
 40
2.0
 40
3.0
 40
3.0
 40
3.0
 40
3.0
 10
128.383207426928
 20
187.8428005109322
 30
0.0
 10
128.4249057591975
 20
187.8552182883932
 30
0.0
 10
128.4669215914589
 20
187.8634773081964
 30
0.0
 10
128.5099957570267
 20
187.8686591213836
 30
0.0
 10
129.0984290753478
 20
187.9399555084536
 30
0.0
 10
129.6551476722559
 20
187.3336363572554
 30
0.0
 10
129.7529729475379
 20
186.5164266558819
 30
0.0
 10
129.8387685009046
 20
185.7998644519407
 30
0.0
 10
129.5449046195128
 20
185.1604547460312
 30
0.0
 10
129.0766979647911
 20
184.9637458621608
 30
0.0
  0
SPLINE
  5
169
330
153
100
AcDbEntity
  8
_U+30EC_U+30A4_U+30E4_U+30FC 1
 62
     7
370
     5
100
AcDbSpline
210
0.0
220
0.0
230
1.0
 70
     8
 71
     3
 72
    14
 73
    10
 74
     0
 42
0.0000000001
 43
0.0000000001
 12
1.0
 22
0.0
 32
0.0
 13
1.0
 23
0.0
 33
0.0
 40
0.0
 40
0.0
 40
0.0
 40
0.0
 40
1.0
 40
1.0
 40
1.0
 40
2.0
 40
2.0
 40
2.0
 40
3.0
 40
3.0
 40
3.0
 40
3.0
 10
127.5884343916488
 20
187.7353091247857
 30
0.0
 10
127.6297799461495
 20
187.7477269022466
 30
0.0
 10
127.6721485561797
 20
187.755981902036
 30
0.0
 10
127.7148699439787
 20
187.760818974889
 30
0.0
 10
128.3036207622917
 20
187.8324641223074
 30
0.0
 10
128.8603393591998
 20
187.2261449711092
 30
0.0
 10
128.9582033414932
 20
186.4082689752268
 30
0.0
 10
129.0439954656254
 20
185.6930786213318
 30
0.0
 10
128.7500963064568
 20
185.0529633598847
 30
0.0
 10
128.2815755638841
 20
184.8559016982455
 30
0.0
  0
SPLINE
  5
16A
330
153
100
AcDbEntity
  8
_U+30EC_U+30A4_U+30E4_U+30FC 1
 62
     7
370
     5
100
AcDbSpline
210
0.0
220
0.0
230
1.0
 70
     8
 71
     3
 72
    14
 73
    10
 74
     0
 42
0.0000000001
 43
0.0000000001
 12
1.0
 22
0.0
 32
0.0
 13
1.0
 23
0.0
 33
0.0
 40
0.0
 40
0.0
 40
0.0
 40
0.0
 40
1.0
 40
1.0
 40
1.0
 40
2.0
 40
2.0
 40
2.0
 40
3.0
 40
3.0
 40
3.0
 40
3.0
 10
126.7385255642699
 20
187.6099319057621
 30
0.0
 10
126.7802205233791
 20
187.622667183215
 30
0.0
 10
126.8222363556406
 20
187.6309221830043
 30
0.0
 10
126.8653105212083
 20
187.6361080162054
 30
0.0
 10
127.4537085617526
 20
187.7077571810441
 30
0.0
 10
128.0104624364375
 20
187.1007324743084
 30
0.0
 10
128.1086404894883
 20
186.2835580507118
 30
0.0
 10
128.1940866750172
 20
185.5680189023001
 30
0.0
 10
127.9002227862016
 20
184.9282564186218
 30
0.0
 10
127.4320127289728
 20
184.7311947569825
 30
0.0
  0
SPLINE
  5
16B
330
153
100
AcDbEntity
  8
_U+30EC_U+30A4_U+30E4_U+30FC 1
 62
     7
370
     5
100
AcDbSpline
210
0.0
220
0.0
230
1.0
 70
     8
 71
     3
 72
    14
 73
    10
 74
     0
 42
0.0000000001
 43
0.0000000001
 12
1.0
 22
0.0
 32
0.0
 13
1.0
 23
0.0
 33
0.0
 40
0.0
 40
0.0
 40
0.0
 40
0.0
 40
1.0
 40
1.0
 40
1.0
 40
2.0
 40
2.0
 40
2.0
 40
3.0
 40
3.0
 40
3.0
 40
3.0
 10
125.798686937309
 20
187.4817717527364
 30
0.0
 10
125.8403852695785
 20
187.4941502420492
 30
0.0
 10
125.88240110184
 20
187.5024405196155
 30
0.0
 10
125.9254752674077
 20
187.5079438528085
 30
0.0
 10
126.5139085857289
 20
187.578217184349
 30
0.0
 10
127.0706271826369
 20
186.9722155331427
 30
0.0
 10
127.1684877356958
 20
186.1553938873149
 30
0.0
 10
127.2542480112857
 20
185.4395019611344
 30
0.0
 10
126.9603841298939
 20
184.7987164219266
 30
0.0
 10
126.492212752949
 20
184.6030305935856
 30
0.0
  0
SPLINE
  5
16C
330
153
100
AcDbEntity
  8
_U+30EC_U+30A4_U+30E4_U+30FC 1
 62
     7
370
     5
100
AcDbSpline
210
0.0
220
0.0
230
1.0
 70
     8
 71
     3
 72
    14
 73
    10
 74
     0
 42
0.0000000001
 43
0.0000000001
 12
1.0
 22
0.0
 32
0.0
 13
1.0
 23
0.0
 33
0.0
 40
0.0
 40
0.0
 40
0.0
 40
0.0
 40
1.0
 40
1.0
 40
1.0
 40
2.0
 40
2.0
 40
2.0
 40
3.0
 40
3.0
 40
3.0
 40
3.0
 10
124.9760091805195
 20
187.3846127448438
 30
0.0
 10
125.0170019572515
 20
187.3969952445279
 30
0.0
 10
125.0593705672817
 20
187.4049327443254
 30
0.0
 10
125.1027975106182
 20
187.4107888552871
 30
0.0
 10
125.6908780511706
 20
187.4810661971809
 30
0.0
 10
126.2479494258474
 20
186.8747430356294
 30
0.0
 10
126.3457747011294
 20
186.0582388897935
 30
0.0
 10
126.4119205327753
 20
185.5034252928369
 30
0.0
 10
126.2505247035595
 20
184.9940494724988
 30
0.0
 10
125.9566608221677
 20
184.7017378132896
 30
0.0
  0
SPLINE
  5
16D
330
153
100
AcDbEntity
  8
_U+30EC_U+30A4_U+30E4_U+30FC 1
 62
     7
370
     5
100
AcDbSpline
210
0.0
220
0.0
230
1.0
 70
     8
 71
     3
 72
    14
 73
    10
 74
     0
 42
0.0000000001
 43
0.0000000001
 12
1.0
 22
0.0
 32
0.0
 13
1.0
 23
0.0
 33
0.0
 40
0.0
 40
0.0
 40
0.0
 40
0.0
 40
1.0
 40
1.0
 40
1.0
 40
2.0
 40
2.0
 40
2.0
 40
3.0
 40
3.0
 40
3.0
 40
3.0
 10
124.1260969799804
 20
187.2599058035809
 30
0.0
 10
124.1677953122499
 20
187.2716180255043
 30
0.0
 10
124.2098144537911
 20
187.2798730252937
 30
0.0
 10
124.2528853100791
 20
187.2857291362554
 30
0.0
 10
124.8413186284002
 20
187.3563552455647
 30
0.0
 10
125.3980372253082
 20
186.7500360943665
 30
0.0
 10
125.4958625005903
 20
185.9331791707618
 30
0.0
 10
125.537208055091
 20
185.5883389017817
 30
0.0
 10
125.4905355562817
 20
185.2610669656866
 30
0.0
 10
125.3785672312767
 20
184.9924972503162
 30
0.0
  0
SPLINE
  5
16E
330
153
100
AcDbEntity
  8
_U+30EC_U+30A4_U+30E4_U+30FC 1
 62
     7
370
     5
100
AcDbSpline
210
0.0
220
0.0
230
1.0
 70
     8
 71
     3
 72
    14
 73
    10
 74
     0
 42
0.0000000001
 43
0.0000000001
 12
1.0
 22
0.0
 32
0.0
 13
1.0
 23
0.0
 33
0.0
 40
0.0
 40
0.0
 40
0.0
 40
0.0
 40
1.0
 40
1.0
 40
1.0
 40
2.0
 40
2.0
 40
2.0
 40
3.0
 40
3.0
 40
3.0
 40
3.0
 10
123.1862970039567
 20
187.1303658068857
 30
0.0
 10
123.2279600584493
 20
187.1427523083767
 30
0.0
 10
123.2700144540258
 20
187.1510385841361
 30
0.0
 10
123.3130533429044
 20
187.1561891395602
 30
0.0
 10
123.9014866760898
 20
187.2278735821759
 30
0.0
 10
124.4582019715076
 20
186.6211663754324
 30
0.0
 10
124.5560625245666
 20
185.8039919518355
 30
0.0
 10
124.5726078019222
 20
185.6660245309682
 30
0.0
 10
124.5750066907499
 20
185.5309772365784
 30
0.0
 10
124.5648466910091
 20
185.401441197701
 30
0.0
  0
SPLINE
  5
16F
330
153
100
AcDbEntity
  8
_U+30EC_U+30A4_U+30E4_U+30FC 1
 62
     7
370
     5
100
AcDbSpline
210
0.0
220
0.0
230
1.0
 70
     8
 71
     3
 72
    11
 73
     7
 74
     0
 42
0.0000000001
 43
0.0000000001
 12
1.0
 22
0.0
 32
0.0
 13
1.0
 23
0.0
 33
0.0
 40
0.0
 40
0.0
 40
0.0
 40
0.0
 40
1.0
 40
1.0
 40
1.0
 40
2.0
 40
2.0
 40
2.0
 40
2.0
 10
122.3911711909087
 20
187.0232271985079
 30
0.0
 10
122.4328342454013
 20
187.0352921982001
 30
0.0
 10
122.4748853554396
 20
187.0435471979895
 30
0.0
 10
122.5179242432305
 20
187.0490505311825
 30
0.0
 10
123.077750565185
 20
187.1165721961265
 30
0.0
 10
123.608995326506
 20
186.5710366544887
 30
0.0
 10
123.7436858786254
 20
185.8139755626918
 30
0.0
  0
SPLINE
  5
170
330
153
100
AcDbEntity
  8
_U+30EC_U+30A4_U+30E4_U+30FC 1
 62
     7
370
     5
100
AcDbSpline
210
0.0
220
0.0
230
1.0
 70
     8
 71
     3
 72
    11
 73
     7
 74
     0
 42
0.0000000001
 43
0.0000000001
 12
1.0
 22
0.0
 32
0.0
 13
1.0
 23
0.0
 33
0.0
 40
0.0
 40
0.0
 40
0.0
 40
0.0
 40
1.0
 40
1.0
 40
1.0
 40
2.0
 40
2.0
 40
2.0
 40
2.0
 10
121.565353711977
 20
186.9081550862131
 30
0.0
 10
121.6070520442465
 20
186.9202160900249
 30
0.0
 10
121.649067876508
 20
186.9284710898143
 30
0.0
 10
121.6921420420757
 20
186.9339744230072
 30
0.0
 10
122.0599128660264
 20
186.9782480329888
 30
0.0
 10
122.4152659125162
 20
186.7581147052715
 30
0.0
 10
122.6540259064249
 20
186.3872394369556
 30
0.0
  0
ENDBLK
  5
156
330
153
100
AcDbEntity
  8
0
100
AcDbBlockEnd
  0
BLOCK
  5
173
330
171
100
AcDbEntity
  8
0
100
AcDbBlockBegin
  2
block 6
 70
     0
 10
0.0
 20
0.0
 30
0.0
  3
block 6
  1

  0
SPLINE
  5
175
330
171
100
AcDbEntity
  8
_U+30EC_U+30A4_U+30E4_U+30FC 1
370
     0
100
AcDbSpline
210
0.0
220
0.0
230
1.0
 70
    11
 71
     3
 72
    68
 73
    64
 74
     0
 42
0.0000000001
 43
0.0000000001
 12
1.0
 22
0.0
 32
0.0
 13
1.0
 23
0.0
 33
0.0
 40
0.0
 40
0.0
 40
0.0
 40
0.0
 40
1.0
 40
1.0
 40
1.0
 40
2.0
 40
2.0
 40
2.0
 40
3.0
 40
3.0
 40
3.0
 40
4.0
 40
4.0
 40
4.0
 40
5.0
 40
5.0
 40
5.0
 40
6.0
 40
6.0
 40
6.0
 40
7.0
 40
7.0
 40
7.0
 40
8.0
 40
8.0
 40
8.0
 40
9.0
 40
9.0
 40
9.0
 40
10.0
 40
10.0
 40
10.0
 40
11.0
 40
11.0
 40
11.0
 40
12.0
 40
12.0
 40
12.0
 40
13.0
 40
13.0
 40
13.0
 40
14.0
 40
14.0
 40
14.0
 40
15.0
 40
15.0
 40
15.0
 40
16.0
 40
16.0
 40
16.0
 40
17.0
 40
17.0
 40
17.0
 40
18.0
 40
18.0
 40
18.0
 40
19.0
 40
19.0
 40
19.0
 40
20.0
 40
20.0
 40
20.0
 40
21.0
 40
21.0
 40
21.0
 40
21.0
 10
141.2916282087178
 20
132.3416147046632
 30
0.0
 10
141.2923337642554
 20
132.2699655398245
 30
0.0
 10
141.2502826542171
 20
132.2389563739489
 30
0.0
 10
141.198635988868
 20
132.2679194287655
 30
0.0
 10
141.198635988868
 20
132.2679194287655
 30
0.0
 10
138.5942893886438
 20
133.7572060574373
 30
0.0
 10
138.5942893886438
 20
133.7572060574373
 30
0.0
 10
137.7909085758064
 20
134.2168049346009
 30
0.0
 10
137.13530637031
 20
135.4556546252174
 30
0.0
 10
137.1306533394492
 20
136.5249945979363
 30
0.0
 10
137.1259930372143
 20
137.5936642928945
 30
0.0
 10
137.7745396873351
 20
138.0876942802907
 30
0.0
 10
138.577779389065
 20
137.6283070697884
 30
0.0
 10
138.577779389065
 20
137.6283070697884
 30
0.0
 10
139.5928621409459
 20
137.0481640290336
 30
0.0
 10
139.5928621409459
 20
137.0481640290336
 30
0.0
 10
139.6460963062544
 20
137.0174723631499
 30
0.0
 10
139.6882922276987
 20
136.9373918096374
 30
0.0
 10
139.6884649162846
 20
136.8665893114437
 30
0.0
 10
139.6884649162846
 20
136.8665893114437
 30
0.0
 10
139.6937918605931
 20
135.6375495434756
 30
0.0
 10
139.6937918605931
 20
135.6375495434756
 30
0.0
 10
139.6941446383619
 20
135.5682965667881
 30
0.0
 10
139.6524463060924
 20
135.5359115676143
 30
0.0
 10
139.5992474185607
 20
135.5662504557292
 30
0.0
 10
139.5992474185607
 20
135.5662504557292
 30
0.0
 10
138.6578599425775
 20
136.1033193309163
 30
0.0
 10
138.6578599425775
 20
136.1033193309163
 30
0.0
 10
138.4716638362167
 20
136.2094348837647
 30
0.0
 10
138.3204280067417
 20
136.095064331127
 30
0.0
 10
138.3216311169293
 20
135.8470262818994
 30
0.0
 10
138.322650506685
 20
135.5979298993655
 30
0.0
 10
138.4754422280025
 20
135.3081935178684
 30
0.0
 10
138.6614935535959
 20
135.2017604650281
 30
0.0
 10
138.6614935535959
 20
135.2017604650281
 30
0.0
 10
139.9801062977331
 20
134.4507318730774
 30
0.0
 10
139.9801062977331
 20
134.4507318730774
 30
0.0
 10
139.9801062977331
 20
134.4507318730774
 30
0.0
 10
139.968887964686
 20
137.0460826401978
 30
0.0
 10
139.968887964686
 20
137.0460826401978
 30
0.0
 10
139.967159353619
 20
137.426412352717
 30
0.0
 10
139.7349610262095
 20
137.8654795637377
 30
0.0
 10
139.4480115890858
 20
138.0296623373268
 30
0.0
 10
139.4480115890858
 20
138.0296623373268
 30
0.0
 10
137.595928303003
 20
139.0886659214205
 30
0.0
 10
137.595928303003
 20
139.0886659214205
 30
0.0
 10
137.5421649710413
 20
139.1193223095273
 30
0.0
 10
137.4999727498955
 20
139.1992617519323
 30
0.0
 10
137.4996199721267
 20
139.2695350834728
 30
0.0
 10
137.4996199721267
 20
139.2695350834728
 30
0.0
 10
137.4942930278181
 20
140.5037662089253
 30
0.0
 10
137.4942930278181
 20
140.5037662089253
 30
0.0
 10
137.4941166389338
 20
140.572837272445
 30
0.0
 10
137.5357796934264
 20
140.606598104917
 30
0.0
 10
137.5895430253881
 20
140.5757653279259
 30
0.0
 10
137.5895430253881
 20
140.5757653279259
 30
0.0
 10
139.806962968817
 20
139.3083053602614
 30
0.0
 10
139.806962968817
 20
139.3083053602614
 30
0.0
 10
140.6158823926242
 20
138.8461312053858
 30
0.0
 10
141.2695795981692
 20
137.6041770704041
 30
0.0
 10
141.2744126536015
 20
136.5288045978391
 30
0.0
 10
141.2744126536015
 20
136.5288045978391
 30
0.0
 10
141.2916282087178
 20
132.3416147046632
 30
0.0
 10
141.2916282087178
 20
132.3416147046632
 30
0.0
  0
HATCH
  5
176
330
171
100
AcDbEntity
  8
_U+30EC_U+30A4_U+30E4_U+30FC 1
 62
     7
100
AcDbHatch
 10
0.0
 20
0.0
 30
0.0
210
0.0
220
0.0
230
1.0
  2
SOLID
 70
     1
 71
     0
 91
        1
 92
        1
 93
        1
 72
     4
 94
        3
 73
     0
 74
     1
 95
       68
 96
       64
 40
0.0
 40
0.0
 40
0.0
 40
0.0
 40
1.0
 40
1.0
 40
1.0
 40
2.0
 40
2.0
 40
2.0
 40
3.0
 40
3.0
 40
3.0
 40
4.0
 40
4.0
 40
4.0
 40
5.0
 40
5.0
 40
5.0
 40
6.0
 40
6.0
 40
6.0
 40
7.0
 40
7.0
 40
7.0
 40
8.0
 40
8.0
 40
8.0
 40
9.0
 40
9.0
 40
9.0
 40
10.0
 40
10.0
 40
10.0
 40
11.0
 40
11.0
 40
11.0
 40
12.0
 40
12.0
 40
12.0
 40
13.0
 40
13.0
 40
13.0
 40
14.0
 40
14.0
 40
14.0
 40
15.0
 40
15.0
 40
15.0
 40
16.0
 40
16.0
 40
16.0
 40
17.0
 40
17.0
 40
17.0
 40
18.0
 40
18.0
 40
18.0
 40
19.0
 40
19.0
 40
19.0
 40
20.0
 40
20.0
 40
20.0
 40
21.0
 40
21.0
 40
21.0
 40
21.0
 10
141.2916282087178
 20
132.3416147046632
 10
141.2923337642554
 20
132.2699655398245
 10
141.2502826542171
 20
132.2389563739489
 10
141.198635988868
 20
132.2679194287655
 10
141.198635988868
 20
132.2679194287655
 10
138.5942893886438
 20
133.7572060574373
 10
138.5942893886438
 20
133.7572060574373
 10
137.7909085758064
 20
134.2168049346009
 10
137.13530637031
 20
135.4556546252174
 10
137.1306533394492
 20
136.5249945979363
 10
137.1259930372143
 20
137.5936642928945
 10
137.7745396873351
 20
138.0876942802907
 10
138.577779389065
 20
137.6283070697884
 10
138.577779389065
 20
137.6283070697884
 10
139.5928621409459
 20
137.0481640290336
 10
139.5928621409459
 20
137.0481640290336
 10
139.6460963062544
 20
137.0174723631499
 10
139.6882922276987
 20
136.9373918096374
 10
139.6884649162846
 20
136.8665893114437
 10
139.6884649162846
 20
136.8665893114437
 10
139.6937918605931
 20
135.6375495434756
 10
139.6937918605931
 20
135.6375495434756
 10
139.6941446383619
 20
135.5682965667881
 10
139.6524463060924
 20
135.5359115676143
 10
139.5992474185607
 20
135.5662504557292
 10
139.5992474185607
 20
135.5662504557292
 10
138.6578599425775
 20
136.1033193309163
 10
138.6578599425775
 20
136.1033193309163
 10
138.4716638362167
 20
136.2094348837647
 10
138.3204280067417
 20
136.095064331127
 10
138.3216311169293
 20
135.8470262818994
 10
138.322650506685
 20
135.5979298993655
 10
138.4754422280025
 20
135.3081935178684
 10
138.6614935535959
 20
135.2017604650281
 10
138.6614935535959
 20
135.2017604650281
 10
139.9801062977331
 20
134.4507318730774
 10
139.9801062977331
 20
134.4507318730774
 10
139.9801062977331
 20
134.4507318730774
 10
139.968887964686
 20
137.0460826401978
 10
139.968887964686
 20
137.0460826401978
 10
139.967159353619
 20
137.426412352717
 10
139.7349610262095
 20
137.8654795637377
 10
139.4480115890858
 20
138.0296623373268
 10
139.4480115890858
 20
138.0296623373268
 10
137.595928303003
 20
139.0886659214205
 10
137.595928303003
 20
139.0886659214205
 10
137.5421649710413
 20
139.1193223095273
 10
137.4999727498955
 20
139.1992617519323
 10
137.4996199721267
 20
139.2695350834728
 10
137.4996199721267
 20
139.2695350834728
 10
137.4942930278181
 20
140.5037662089253
 10
137.4942930278181
 20
140.5037662089253
 10
137.4941166389338
 20
140.572837272445
 10
137.5357796934264
 20
140.606598104917
 10
137.5895430253881
 20
140.5757653279259
 10
137.5895430253881
 20
140.5757653279259
 10
139.806962968817
 20
139.3083053602614
 10
139.806962968817
 20
139.3083053602614
 10
140.6158823926242
 20
138.8461312053858
 10
141.2695795981692
 20
137.6041770704041
 10
141.2744126536015
 20
136.5288045978391
 10
141.2744126536015
 20
136.5288045978391
 10
141.2916282087178
 20
132.3416147046632
 10
141.2916282087178
 20
132.3416147046632
 97
        0
 75
     2
 76
     1
 98
        0
  0
SPLINE
  5
177
330
171
100
AcDbEntity
  8
_U+30EC_U+30A4_U+30E4_U+30FC 1
370
     0
100
AcDbSpline
210
0.0
220
0.0
230
1.0
 70
    11
 71
     3
 72
    68
 73
    64
 74
     0
 42
0.0000000001
 43
0.0000000001
 12
1.0
 22
0.0
 32
0.0
 13
1.0
 23
0.0
 33
0.0
 40
0.0
 40
0.0
 40
0.0
 40
0.0
 40
1.0
 40
1.0
 40
1.0
 40
2.0
 40
2.0
 40
2.0
 40
3.0
 40
3.0
 40
3.0
 40
4.0
 40
4.0
 40
4.0
 40
5.0
 40
5.0
 40
5.0
 40
6.0
 40
6.0
 40
6.0
 40
7.0
 40
7.0
 40
7.0
 40
8.0
 40
8.0
 40
8.0
 40
9.0
 40
9.0
 40
9.0
 40
10.0
 40
10.0
 40
10.0
 40
11.0
 40
11.0
 40
11.0
 40
12.0
 40
12.0
 40
12.0
 40
13.0
 40
13.0
 40
13.0
 40
14.0
 40
14.0
 40
14.0
 40
15.0
 40
15.0
 40
15.0
 40
16.0
 40
16.0
 40
16.0
 40
17.0
 40
17.0
 40
17.0
 40
18.0
 40
18.0
 40
18.0
 40
19.0
 40
19.0
 40
19.0
 40
20.0
 40
20.0
 40
20.0
 40
21.0
 40
21.0
 40
21.0
 40
21.0
 10
150.0552629851389
 20
127.3317823324747
 30
0.0
 10
150.0556157629077
 20
127.2600978898591
 30
0.0
 10
150.0142702084069
 20
127.2287712239916
 30
0.0
 10
149.960859654214
 20
127.2594301011251
 30
0.0
 10
149.960859654214
 20
127.2594301011251
 30
0.0
 10
147.3560544428903
 20
128.7483967407783
 30
0.0
 10
147.3560544428903
 20
128.7483967407783
 30
0.0
 10
146.5533477815383
 20
129.2072900624043
 30
0.0
 10
145.8973889245484
 20
130.4464925307896
 30
0.0
 10
145.892908646885
 20
131.5154797257397
 30
0.0
 10
145.8884283692215
 20
132.5841494206979
 30
0.0
 10
146.536798630458
 20
133.0781794080941
 30
0.0
 10
147.3395091655347
 20
132.619321364245
 30
0.0
 10
147.3395091655347
 20
132.619321364245
 30
0.0
 10
148.3544155285311
 20
132.0391430457132
 30
0.0
 10
148.3544155285311
 20
132.0391430457132
 30
0.0
 10
148.4074733049553
 20
132.0088394353752
 30
0.0
 10
148.4509002482918
 20
131.9282297152095
 30
0.0
 10
148.450547470523
 20
131.8572508281315
 30
0.0
 10
148.450547470523
 20
131.8572508281315
 30
0.0
 10
148.4564035814848
 20
130.6280319706026
 30
0.0
 10
148.4564035814848
 20
130.6280319706026
 30
0.0
 10
148.4564035814848
 20
130.5591344723603
 30
0.0
 10
148.4136821936858
 20
130.5274550287241
 30
0.0
 10
148.3613338921974
 20
130.5574058612933
 30
0.0
 10
148.3613338921974
 20
130.5574058612933
 30
0.0
 10
147.4201227813217
 20
131.0938044587197
 30
0.0
 10
147.4201227813217
 20
131.0938044587197
 30
0.0
 10
147.2333936126863
 20
131.2006255671056
 30
0.0
 10
147.0831808387408
 20
131.0855494589303
 30
0.0
 10
147.0838863942784
 20
130.8375114097028
 30
0.0
 10
147.0852622275766
 20
130.5887678049376
 30
0.0
 10
147.237521112581
 20
130.2993842012093
 30
0.0
 10
147.4238936078263
 20
130.1925630928234
 30
0.0
 10
147.4238936078263
 20
130.1925630928234
 30
0.0
 10
148.7426866698799
 20
129.4412170008807
 30
0.0
 10
148.7426866698799
 20
129.4412170008807
 30
0.0
 10
148.7426866698799
 20
129.4412170008807
 30
0.0
 10
148.7309705189244
 20
132.037099544375
 30
0.0
 10
148.7309705189244
 20
132.037099544375
 30
0.0
 10
148.7292419078574
 20
132.4170738694048
 30
0.0
 10
148.4970435804479
 20
132.8563174693098
 30
0.0
 10
148.2111171988536
 20
133.0203238540145
 30
0.0
 10
148.2111171988536
 20
133.0203238540145
 30
0.0
 10
146.3562822461744
 20
134.0807032714065
 30
0.0
 10
146.3562822461744
 20
134.0807032714065
 30
0.0
 10
146.3046003030485
 20
134.1103366039838
 30
0.0
 10
146.2618789152495
 20
134.1906288241576
 30
0.0
 10
146.2615261374807
 20
134.2609021556981
 30
0.0
 10
146.2615261374807
 20
134.2609021556981
 30
0.0
 10
146.2560228042878
 20
135.4952715686512
 30
0.0
 10
146.2560228042878
 20
135.4952715686512
 30
0.0
 10
146.255670026519
 20
135.5641717657153
 30
0.0
 10
146.2980386365492
 20
135.5975771215967
 30
0.0
 10
146.3500733574439
 20
135.5679790667962
 30
0.0
 10
146.3500733574439
 20
135.5679790667962
 30
0.0
 10
148.5687280230636
 20
134.2994634326985
 30
0.0
 10
148.5687280230636
 20
134.2994634326985
 30
0.0
 10
149.3769418913332
 20
133.8378510553799
 30
0.0
 10
150.0332143745903
 20
132.5944884331252
 30
0.0
 10
150.0376946522537
 20
131.5189369478737
 30
0.0
 10
150.0376946522537
 20
131.5189369478737
 30
0.0
 10
150.0552629851389
 20
127.3317823324747
 30
0.0
 10
150.0552629851389
 20
127.3317823324747
 30
0.0
  0
HATCH
  5
178
330
171
100
AcDbEntity
  8
_U+30EC_U+30A4_U+30E4_U+30FC 1
 62
     7
100
AcDbHatch
 10
0.0
 20
0.0
 30
0.0
210
0.0
220
0.0
230
1.0
  2
SOLID
 70
     1
 71
     0
 91
        1
 92
        1
 93
        1
 72
     4
 94
        3
 73
     0
 74
     1
 95
       68
 96
       64
 40
0.0
 40
0.0
 40
0.0
 40
0.0
 40
1.0
 40
1.0
 40
1.0
 40
2.0
 40
2.0
 40
2.0
 40
3.0
 40
3.0
 40
3.0
 40
4.0
 40
4.0
 40
4.0
 40
5.0
 40
5.0
 40
5.0
 40
6.0
 40
6.0
 40
6.0
 40
7.0
 40
7.0
 40
7.0
 40
8.0
 40
8.0
 40
8.0
 40
9.0
 40
9.0
 40
9.0
 40
10.0
 40
10.0
 40
10.0
 40
11.0
 40
11.0
 40
11.0
 40
12.0
 40
12.0
 40
12.0
 40
13.0
 40
13.0
 40
13.0
 40
14.0
 40
14.0
 40
14.0
 40
15.0
 40
15.0
 40
15.0
 40
16.0
 40
16.0
 40
16.0
 40
17.0
 40
17.0
 40
17.0
 40
18.0
 40
18.0
 40
18.0
 40
19.0
 40
19.0
 40
19.0
 40
20.0
 40
20.0
 40
20.0
 40
21.0
 40
21.0
 40
21.0
 40
21.0
 10
150.0552629851389
 20
127.3317823324747
 10
150.0556157629077
 20
127.2600978898591
 10
150.0142702084069
 20
127.2287712239916
 10
149.960859654214
 20
127.2594301011251
 10
149.960859654214
 20
127.2594301011251
 10
147.3560544428903
 20
128.7483967407783
 10
147.3560544428903
 20
128.7483967407783
 10
146.5533477815383
 20
129.2072900624043
 10
145.8973889245484
 20
130.4464925307896
 10
145.892908646885
 20
131.5154797257397
 10
145.8884283692215
 20
132.5841494206979
 10
146.536798630458
 20
133.0781794080941
 10
147.3395091655347
 20
132.619321364245
 10
147.3395091655347
 20
132.619321364245
 10
148.3544155285311
 20
132.0391430457132
 10
148.3544155285311
 20
132.0391430457132
 10
148.4074733049553
 20
132.0088394353752
 10
148.4509002482918
 20
131.9282297152095
 10
148.450547470523
 20
131.8572508281315
 10
148.450547470523
 20
131.8572508281315
 10
148.4564035814848
 20
130.6280319706026
 10
148.4564035814848
 20
130.6280319706026
 10
148.4564035814848
 20
130.5591344723603
 10
148.4136821936858
 20
130.5274550287241
 10
148.3613338921974
 20
130.5574058612933
 10
148.3613338921974
 20
130.5574058612933
 10
147.4201227813217
 20
131.0938044587197
 10
147.4201227813217
 20
131.0938044587197
 10
147.2333936126863
 20
131.2006255671056
 10
147.0831808387408
 20
131.0855494589303
 10
147.0838863942784
 20
130.8375114097028
 10
147.0852622275766
 20
130.5887678049376
 10
147.237521112581
 20
130.2993842012093
 10
147.4238936078263
 20
130.1925630928234
 10
147.4238936078263
 20
130.1925630928234
 10
148.7426866698799
 20
129.4412170008807
 10
148.7426866698799
 20
129.4412170008807
 10
148.7426866698799
 20
129.4412170008807
 10
148.7309705189244
 20
132.037099544375
 10
148.7309705189244
 20
132.037099544375
 10
148.7292419078574
 20
132.4170738694048
 10
148.4970435804479
 20
132.8563174693098
 10
148.2111171988536
 20
133.0203238540145
 10
148.2111171988536
 20
133.0203238540145
 10
146.3562822461744
 20
134.0807032714065
 10
146.3562822461744
 20
134.0807032714065
 10
146.3046003030485
 20
134.1103366039838
 10
146.2618789152495
 20
134.1906288241576
 10
146.2615261374807
 20
134.2609021556981
 10
146.2615261374807
 20
134.2609021556981
 10
146.2560228042878
 20
135.4952715686512
 10
146.2560228042878
 20
135.4952715686512
 10
146.255670026519
 20
135.5641717657153
 10
146.2980386365492
 20
135.5975771215967
 10
146.3500733574439
 20
135.5679790667962
 10
146.3500733574439
 20
135.5679790667962
 10
148.5687280230636
 20
134.2994634326985
 10
148.5687280230636
 20
134.2994634326985
 10
149.3769418913332
 20
133.8378510553799
 10
150.0332143745903
 20
132.5944884331252
 10
150.0376946522537
 20
131.5189369478737
 10
150.0376946522537
 20
131.5189369478737
 10
150.0552629851389
 20
127.3317823324747
 10
150.0552629851389
 20
127.3317823324747
 97
        0
 75
     2
 76
     1
 98
        0
  0
SPLINE
  5
179
330
171
100
AcDbEntity
  8
_U+30EC_U+30A4_U+30E4_U+30FC 1
370
     0
100
AcDbSpline
210
0.0
220
0.0
230
1.0
 70
    11
 71
     3
 72
    65
 73
    61
 74
     0
 42
0.0000000001
 43
0.0000000001
 12
1.0
 22
0.0
 32
0.0
 13
1.0
 23
0.0
 33
0.0
 40
0.0
 40
0.0
 40
0.0
 40
0.0
 40
1.0
 40
1.0
 40
1.0
 40
2.0
 40
2.0
 40
2.0
 40
3.0
 40
3.0
 40
3.0
 40
4.0
 40
4.0
 40
4.0
 40
5.0
 40
5.0
 40
5.0
 40
6.0
 40
6.0
 40
6.0
 40
7.0
 40
7.0
 40
7.0
 40
8.0
 40
8.0
 40
8.0
 40
9.0
 40
9.0
 40
9.0
 40
10.0
 40
10.0
 40
10.0
 40
11.0
 40
11.0
 40
11.0
 40
12.0
 40
12.0
 40
12.0
 40
13.0
 40
13.0
 40
13.0
 40
14.0
 40
14.0
 40
14.0
 40
15.0
 40
15.0
 40
15.0
 40
16.0
 40
16.0
 40
16.0
 40
17.0
 40
17.0
 40
17.0
 40
18.0
 40
18.0
 40
18.0
 40
19.0
 40
19.0
 40
19.0
 40
20.0
 40
20.0
 40
20.0
 40
20.0
 10
150.6089124154585
 20
126.8825198439363
 30
0.0
 10
150.5568776945639
 20
126.9121531765136
 30
0.0
 10
150.5151793622943
 20
126.9907167856204
 30
0.0
 10
150.5141563067649
 20
127.0596142838627
 30
0.0
 10
150.5141563067649
 20
127.0596142838627
 30
0.0
 10
150.5093232513326
 20
128.2957123078828
 30
0.0
 10
150.5093232513326
 20
128.2957123078828
 30
0.0
 10
150.5093232513326
 20
128.3646098061251
 30
0.0
 10
150.550672780539
 20
128.3997464718953
 30
0.0
 10
150.6030563044968
 20
128.370113139318
 30
0.0
 10
150.6030563044968
 20
128.370113139318
 30
0.0
 10
152.8158195813779
 20
127.1050873382581
 30
0.0
 10
152.8158195813779
 20
127.1050873382581
 30
0.0
 10
153.0025448543919
 20
126.9983015076491
 30
0.0
 10
153.1527616687775
 20
127.1167995601816
 30
0.0
 10
153.152056113222
 20
127.3672717760137
 30
0.0
 10
153.1510290172704
 20
127.6135812141743
 30
0.0
 10
152.998770132266
 20
127.9050462067384
 30
0.0
 10
152.8123976370208
 20
128.0114792595786
 30
0.0
 10
152.8123976370208
 20
128.0114792595786
 30
0.0
 10
151.8301977802193
 20
128.6085203554579
 30
0.0
 10
151.8301977802193
 20
128.6085203554579
 30
0.0
 10
151.0309404602473
 20
129.0653322882481
 30
0.0
 10
150.378760199108
 20
130.2924697569412
 30
0.0
 10
150.3742838916942
 20
131.349427229976
 30
0.0
 10
150.3697996437811
 20
132.4050088697126
 30
0.0
 10
151.0143951828916
 20
132.8928299683783
 30
0.0
 10
151.8140012736031
 20
132.4360180355881
 30
0.0
 10
151.8140012736031
 20
132.4360180355881
 30
0.0
 10
154.0426395500791
 20
131.1616789014325
 30
0.0
 10
154.0426395500791
 20
131.1616789014325
 30
0.0
 10
154.0953445487345
 20
131.1317280688633
 30
0.0
 10
154.1370116685317
 20
131.052458904219
 30
0.0
 10
154.1377172240866
 20
130.9835614059767
 30
0.0
 10
154.1377172240866
 20
130.9835614059767
 30
0.0
 10
154.1432164919576
 20
129.7619272704765
 30
0.0
 10
154.1432164919576
 20
129.7619272704765
 30
0.0
 10
154.1435692697264
 20
129.6909836611753
 30
0.0
 10
154.101553437465
 20
129.6558495449703
 30
0.0
 10
154.0488172241093
 20
129.6857978279743
 30
0.0
 10
154.0488172241093
 20
129.6857978279743
 30
0.0
 10
151.9576523810493
 20
130.8816086307999
 30
0.0
 10
151.9576523810493
 20
130.8816086307999
 30
0.0
 10
151.7716366691224
 20
130.9877241836483
 30
0.0
 10
151.6200440563291
 20
130.8695436311077
 30
0.0
 10
151.6214198896273
 20
130.6218230818721
 30
0.0
 10
151.6224429451568
 20
130.3724091993463
 30
0.0
 10
151.7757601634676
 20
130.0844014289162
 30
0.0
 10
151.9617838912974
 20
129.9782884337788
 30
0.0
 10
151.9617838912974
 20
129.9782884337788
 30
0.0
 10
152.9550256889376
 20
129.3702381138027
 30
0.0
 10
152.9550256889376
 20
129.3702381138027
 30
0.0
 10
153.7553061130715
 20
128.9130734032437
 30
0.0
 10
154.4081525963096
 20
127.6838545457148
 30
0.0
 10
154.4133031517338
 20
126.6268995457278
 30
0.0
 10
154.4171172240172
 20
125.5678934885863
 30
0.0
 10
153.7718473347654
 20
125.0745337789508
 30
0.0
 10
152.9715356885164
 20
125.5313809895179
 30
0.0
 10
152.9715356885164
 20
125.5313809895179
 30
0.0
 10
150.6089124154585
 20
126.8825198439363
 30
0.0
 10
150.6089124154585
 20
126.8825198439363
 30
0.0
  0
HATCH
  5
17A
330
171
100
AcDbEntity
  8
_U+30EC_U+30A4_U+30E4_U+30FC 1
 62
     7
100
AcDbHatch
 10
0.0
 20
0.0
 30
0.0
210
0.0
220
0.0
230
1.0
  2
SOLID
 70
     1
 71
     0
 91
        1
 92
        1
 93
        1
 72
     4
 94
        3
 73
     0
 74
     1
 95
       65
 96
       61
 40
0.0
 40
0.0
 40
0.0
 40
0.0
 40
1.0
 40
1.0
 40
1.0
 40
2.0
 40
2.0
 40
2.0
 40
3.0
 40
3.0
 40
3.0
 40
4.0
 40
4.0
 40
4.0
 40
5.0
 40
5.0
 40
5.0
 40
6.0
 40
6.0
 40
6.0
 40
7.0
 40
7.0
 40
7.0
 40
8.0
 40
8.0
 40
8.0
 40
9.0
 40
9.0
 40
9.0
 40
10.0
 40
10.0
 40
10.0
 40
11.0
 40
11.0
 40
11.0
 40
12.0
 40
12.0
 40
12.0
 40
13.0
 40
13.0
 40
13.0
 40
14.0
 40
14.0
 40
14.0
 40
15.0
 40
15.0
 40
15.0
 40
16.0
 40
16.0
 40
16.0
 40
17.0
 40
17.0
 40
17.0
 40
18.0
 40
18.0
 40
18.0
 40
19.0
 40
19.0
 40
19.0
 40
20.0
 40
20.0
 40
20.0
 40
20.0
 10
150.6089124154585
 20
126.8825198439363
 10
150.5568776945639
 20
126.9121531765136
 10
150.5151793622943
 20
126.9907167856204
 10
150.5141563067649
 20
127.0596142838627
 10
150.5141563067649
 20
127.0596142838627
 10
150.5093232513326
 20
128.2957123078828
 10
150.5093232513326
 20
128.2957123078828
 10
150.5093232513326
 20
128.3646098061251
 10
150.550672780539
 20
128.3997464718953
 10
150.6030563044968
 20
128.370113139318
 10
150.6030563044968
 20
128.370113139318
 10
152.8158195813779
 20
127.1050873382581
 10
152.8158195813779
 20
127.1050873382581
 10
153.0025448543919
 20
126.9983015076491
 10
153.1527616687775
 20
127.1167995601816
 10
153.152056113222
 20
127.3672717760137
 10
153.1510290172704
 20
127.6135812141743
 10
152.998770132266
 20
127.9050462067384
 10
152.8123976370208
 20
128.0114792595786
 10
152.8123976370208
 20
128.0114792595786
 10
151.8301977802193
 20
128.6085203554579
 10
151.8301977802193
 20
128.6085203554579
 10
151.0309404602473
 20
129.0653322882481
 10
150.378760199108
 20
130.2924697569412
 10
150.3742838916942
 20
131.349427229976
 10
150.3697996437811
 20
132.4050088697126
 10
151.0143951828916
 20
132.8928299683783
 10
151.8140012736031
 20
132.4360180355881
 10
151.8140012736031
 20
132.4360180355881
 10
154.0426395500791
 20
131.1616789014325
 10
154.0426395500791
 20
131.1616789014325
 10
154.0953445487345
 20
131.1317280688633
 10
154.1370116685317
 20
131.052458904219
 10
154.1377172240866
 20
130.9835614059767
 10
154.1377172240866
 20
130.9835614059767
 10
154.1432164919576
 20
129.7619272704765
 10
154.1432164919576
 20
129.7619272704765
 10
154.1435692697264
 20
129.6909836611753
 10
154.101553437465
 20
129.6558495449703
 10
154.0488172241093
 20
129.6857978279743
 10
154.0488172241093
 20
129.6857978279743
 10
151.9576523810493
 20
130.8816086307999
 10
151.9576523810493
 20
130.8816086307999
 10
151.7716366691224
 20
130.9877241836483
 10
151.6200440563291
 20
130.8695436311077
 10
151.6214198896273
 20
130.6218230818721
 10
151.6224429451568
 20
130.3724091993463
 10
151.7757601634676
 20
130.0844014289162
 10
151.9617838912974
 20
129.9782884337788
 10
151.9617838912974
 20
129.9782884337788
 10
152.9550256889376
 20
129.3702381138027
 10
152.9550256889376
 20
129.3702381138027
 10
153.7553061130715
 20
128.9130734032437
 10
154.4081525963096
 20
127.6838545457148
 10
154.4133031517338
 20
126.6268995457278
 10
154.4171172240172
 20
125.5678934885863
 10
153.7718473347654
 20
125.0745337789508
 10
152.9715356885164
 20
125.5313809895179
 10
152.9715356885164
 20
125.5313809895179
 10
150.6089124154585
 20
126.8825198439363
 10
150.6089124154585
 20
126.8825198439363
 97
        0
 75
     2
 76
     1
 98
        0
  0
SPLINE
  5
17B
330
171
100
AcDbEntity
  8
_U+30EC_U+30A4_U+30E4_U+30FC 1
370
     0
100
AcDbSpline
210
0.0
220
0.0
230
1.0
 70
    11
 71
     3
 72
    65
 73
    61
 74
     0
 42
0.0000000001
 43
0.0000000001
 12
1.0
 22
0.0
 32
0.0
 13
1.0
 23
0.0
 33
0.0
 40
0.0
 40
0.0
 40
0.0
 40
0.0
 40
1.0
 40
1.0
 40
1.0
 40
2.0
 40
2.0
 40
2.0
 40
3.0
 40
3.0
 40
3.0
 40
4.0
 40
4.0
 40
4.0
 40
5.0
 40
5.0
 40
5.0
 40
6.0
 40
6.0
 40
6.0
 40
7.0
 40
7.0
 40
7.0
 40
8.0
 40
8.0
 40
8.0
 40
9.0
 40
9.0
 40
9.0
 40
10.0
 40
10.0
 40
10.0
 40
11.0
 40
11.0
 40
11.0
 40
12.0
 40
12.0
 40
12.0
 40
13.0
 40
13.0
 40
13.0
 40
14.0
 40
14.0
 40
14.0
 40
15.0
 40
15.0
 40
15.0
 40
16.0
 40
16.0
 40
16.0
 40
17.0
 40
17.0
 40
17.0
 40
18.0
 40
18.0
 40
18.0
 40
19.0
 40
19.0
 40
19.0
 40
20.0
 40
20.0
 40
20.0
 40
20.0
 10
158.5160733248412
 20
128.6106017442937
 30
0.0
 10
158.5160733248412
 20
128.6106017442937
 30
0.0
 10
157.4705105737379
 20
129.2086658957025
 30
0.0
 10
157.4705105737379
 20
129.2086658957025
 30
0.0
 10
157.4177702973057
 20
129.2382992282798
 30
0.0
 10
157.3082328001002
 20
129.2444728392334
 30
0.0
 10
157.308585577869
 20
129.1755753409911
 30
0.0
 10
157.308585577869
 20
129.1755753409911
 30
0.0
 10
157.3182164109566
 20
126.9224895651388
 30
0.0
 10
157.3182164109566
 20
126.9224895651388
 30
0.0
 10
157.3182164109566
 20
126.9224895651388
 30
0.0
 10
156.0077175555013
 20
127.6714745454664
 30
0.0
 10
156.0077175555013
 20
127.6714745454664
 30
0.0
 10
156.0077175555013
 20
127.6714745454664
 30
0.0
 10
155.9984042224056
 20
129.9252280996437
 30
0.0
 10
155.9984042224056
 20
129.9252280996437
 30
0.0
 10
155.9973811668762
 20
129.9938106559971
 30
0.0
 10
155.9539542235396
 20
130.0750880958205
 30
0.0
 10
155.9026250581825
 20
130.104368650629
 30
0.0
 10
155.9026250581825
 20
130.104368650629
 30
0.0
 10
154.7891878643664
 20
130.7410266899421
 30
0.0
 10
154.7891878643664
 20
130.7410266899421
 30
0.0
 10
154.7371531434717
 20
130.7710128002882
 30
0.0
 10
154.6947845334415
 20
130.7382750233456
 30
0.0
 10
154.6951373112103
 20
130.6697328780508
 30
0.0
 10
154.6951373112103
 20
130.6697328780508
 30
0.0
 10
154.720607866116
 20
124.664923511623
 30
0.0
 10
154.720607866116
 20
124.664923511623
 30
0.0
 10
154.720607866116
 20
124.5929215690155
 30
0.0
 10
154.7636820316838
 20
124.513687682148
 30
0.0
 10
154.8157167525785
 20
124.4840543495707
 30
0.0
 10
154.8157167525785
 20
124.4840543495707
 30
0.0
 10
155.9298595019321
 20
123.8473963102577
 30
0.0
 10
155.9298595019321
 20
123.8473963102577
 30
0.0
 10
155.9811886672893
 20
123.8177629776803
 30
0.0
 10
156.0239100550882
 20
123.8481018657952
 30
0.0
 10
156.0235572773195
 20
123.9201038084027
 30
0.0
 10
156.0235572773195
 20
123.9201038084027
 30
0.0
 10
156.0139264442318
 20
126.1859273236158
 30
0.0
 10
156.0139264442318
 20
126.1859273236158
 30
0.0
 10
156.0139264442318
 20
126.1859273236158
 30
0.0
 10
157.3247780774559
 20
125.4362745460255
 30
0.0
 10
157.3247780774559
 20
125.4362745460255
 30
0.0
 10
157.3247780774559
 20
125.4362745460255
 30
0.0
 10
157.3337386327828
 20
123.1707685497421
 30
0.0
 10
157.3337386327828
 20
123.1707685497421
 30
0.0
 10
157.3340561327747
 20
123.0994745466097
 30
0.0
 10
157.3771302983425
 20
123.0195327202671
 30
0.0
 10
157.4291650192372
 20
122.9895818876979
 30
0.0
 10
157.4291650192372
 20
122.9895818876979
 30
0.0
 10
158.5426022130533
 20
122.3529238483848
 30
0.0
 10
158.5426022130533
 20
122.3529238483848
 30
0.0
 10
158.594636933948
 20
122.3232905158075
 30
0.0
 10
158.6366527662094
 20
122.3549699594437
 30
0.0
 10
158.6362999884406
 20
122.4266544020594
 30
0.0
 10
158.6362999884406
 20
122.4266544020594
 30
0.0
 10
158.6108294335349
 20
128.4311084155397
 30
0.0
 10
158.6108294335349
 20
128.4311084155397
 30
0.0
 10
158.6101238779973
 20
128.5003586915507
 30
0.0
 10
158.5681080457359
 20
128.5809684117164
 30
0.0
 10
158.5160733248412
 20
128.6106017442937
 30
0.0
  0
HATCH
  5
17C
330
171
100
AcDbEntity
  8
_U+30EC_U+30A4_U+30E4_U+30FC 1
 62
     7
100
AcDbHatch
 10
0.0
 20
0.0
 30
0.0
210
0.0
220
0.0
230
1.0
  2
SOLID
 70
     1
 71
     0
 91
        1
 92
        1
 93
        1
 72
     4
 94
        3
 73
     0
 74
     1
 95
       65
 96
       61
 40
0.0
 40
0.0
 40
0.0
 40
0.0
 40
1.0
 40
1.0
 40
1.0
 40
2.0
 40
2.0
 40
2.0
 40
3.0
 40
3.0
 40
3.0
 40
4.0
 40
4.0
 40
4.0
 40
5.0
 40
5.0
 40
5.0
 40
6.0
 40
6.0
 40
6.0
 40
7.0
 40
7.0
 40
7.0
 40
8.0
 40
8.0
 40
8.0
 40
9.0
 40
9.0
 40
9.0
 40
10.0
 40
10.0
 40
10.0
 40
11.0
 40
11.0
 40
11.0
 40
12.0
 40
12.0
 40
12.0
 40
13.0
 40
13.0
 40
13.0
 40
14.0
 40
14.0
 40
14.0
 40
15.0
 40
15.0
 40
15.0
 40
16.0
 40
16.0
 40
16.0
 40
17.0
 40
17.0
 40
17.0
 40
18.0
 40
18.0
 40
18.0
 40
19.0
 40
19.0
 40
19.0
 40
20.0
 40
20.0
 40
20.0
 40
20.0
 10
158.5160733248412
 20
128.6106017442937
 10
158.5160733248412
 20
128.6106017442937
 10
157.4705105737379
 20
129.2086658957025
 10
157.4705105737379
 20
129.2086658957025
 10
157.4177702973057
 20
129.2382992282798
 10
157.3082328001002
 20
129.2444728392334
 10
157.308585577869
 20
129.1755753409911
 10
157.308585577869
 20
129.1755753409911
 10
157.3182164109566
 20
126.9224895651388
 10
157.3182164109566
 20
126.9224895651388
 10
157.3182164109566
 20
126.9224895651388
 10
156.0077175555013
 20
127.6714745454664
 10
156.0077175555013
 20
127.6714745454664
 10
156.0077175555013
 20
127.6714745454664
 10
155.9984042224056
 20
129.9252280996437
 10
155.9984042224056
 20
129.9252280996437
 10
155.9973811668762
 20
129.9938106559971
 10
155.9539542235396
 20
130.0750880958205
 10
155.9026250581825
 20
130.104368650629
 10
155.9026250581825
 20
130.104368650629
 10
154.7891878643664
 20
130.7410266899421
 10
154.7891878643664
 20
130.7410266899421
 10
154.7371531434717
 20
130.7710128002882
 10
154.6947845334415
 20
130.7382750233456
 10
154.6951373112103
 20
130.6697328780508
 10
154.6951373112103
 20
130.6697328780508
 10
154.720607866116
 20
124.664923511623
 10
154.720607866116
 20
124.664923511623
 10
154.720607866116
 20
124.5929215690155
 10
154.7636820316838
 20
124.513687682148
 10
154.8157167525785
 20
124.4840543495707
 10
154.8157167525785
 20
124.4840543495707
 10
155.9298595019321
 20
123.8473963102577
 10
155.9298595019321
 20
123.8473963102577
 10
155.9811886672893
 20
123.8177629776803
 10
156.0239100550882
 20
123.8481018657952
 10
156.0235572773195
 20
123.9201038084027
 10
156.0235572773195
 20
123.9201038084027
 10
156.0139264442318
 20
126.1859273236158
 10
156.0139264442318
 20
126.1859273236158
 10
156.0139264442318
 20
126.1859273236158
 10
157.3247780774559
 20
125.4362745460255
 10
157.3247780774559
 20
125.4362745460255
 10
157.3247780774559
 20
125.4362745460255
 10
157.3337386327828
 20
123.1707685497421
 10
157.3337386327828
 20
123.1707685497421
 10
157.3340561327747
 20
123.0994745466097
 10
157.3771302983425
 20
123.0195327202671
 10
157.4291650192372
 20
122.9895818876979
 10
157.4291650192372
 20
122.9895818876979
 10
158.5426022130533
 20
122.3529238483848
 10
158.5426022130533
 20
122.3529238483848
 10
158.594636933948
 20
122.3232905158075
 10
158.6366527662094
 20
122.3549699594437
 10
158.6362999884406
 20
122.4266544020594
 10
158.6362999884406
 20
122.4266544020594
 10
158.6108294335349
 20
128.4311084155397
 10
158.6108294335349
 20
128.4311084155397
 10
158.6101238779973
 20
128.5003586915507
 10
158.5681080457359
 20
128.5809684117164
 10
158.5160733248412
 20
128.6106017442937
 97
        0
 75
     2
 76
     1
 98
        0
  0
SPLINE
  5
17D
330
171
100
AcDbEntity
  8
_U+30EC_U+30A4_U+30E4_U+30FC 1
370
     0
100
AcDbSpline
210
0.0
220
0.0
230
1.0
 70
    11
 71
     3
 72
    29
 73
    25
 74
     0
 42
0.0000000001
 43
0.0000000001
 12
1.0
 22
0.0
 32
0.0
 13
1.0
 23
0.0
 33
0.0
 40
0.0
 40
0.0
 40
0.0
 40
0.0
 40
1.0
 40
1.0
 40
1.0
 40
2.0
 40
2.0
 40
2.0
 40
3.0
 40
3.0
 40
3.0
 40
4.0
 40
4.0
 40
4.0
 40
5.0
 40
5.0
 40
5.0
 40
6.0
 40
6.0
 40
6.0
 40
7.0
 40
7.0
 40
7.0
 40
8.0
 40
8.0
 40
8.0
 40
8.0
 10
162.0686512897629
 20
126.5807537405239
 30
0.0
 10
162.0686512897629
 20
126.5807537405239
 30
0.0
 10
160.3220132787678
 20
127.5791148261647
 30
0.0
 10
160.3220132787678
 20
127.5791148261647
 30
0.0
 10
159.5847430197994
 20
128.0008253709615
 30
0.0
 10
158.9884116673184
 20
127.5477881602972
 30
0.0
 10
158.9932405348898
 20
126.5662545742271
 30
0.0
 10
158.9932405348898
 20
126.5662545742271
 30
0.0
 10
159.0042472012757
 20
123.8673988097474
 30
0.0
 10
159.0042472012757
 20
123.8673988097474
 30
0.0
 10
159.0083747011704
 20
122.8869235569836
 30
0.0
 10
159.6116246857802
 20
121.7486508082456
 30
0.0
 10
160.3481893892111
 20
121.3276458189863
 30
0.0
 10
160.3481893892111
 20
121.3276458189863
 30
0.0
 10
162.0948626779831
 20
120.3292847333455
 30
0.0
 10
162.0948626779831
 20
120.3292847333455
 30
0.0
 10
162.8328032147122
 20
119.9075741885487
 30
0.0
 10
163.4267088884311
 20
120.3609641769817
 30
0.0
 10
163.4225770885547
 20
121.3421449852831
 30
0.0
 10
163.4225770885547
 20
121.3421449852831
 30
0.0
 10
163.4108648666313
 20
124.0406856574854
 30
0.0
 10
163.4108648666313
 20
124.0406856574854
 30
0.0
 10
163.4070901445054
 20
125.0221815580642
 30
0.0
 10
162.8059215487314
 20
126.159078473504
 30
0.0
 10
162.0686512897629
 20
126.5807537405239
 30
0.0
  0
SPLINE
  5
17E
330
171
100
AcDbEntity
  8
_U+30EC_U+30A4_U+30E4_U+30FC 1
370
     0
100
AcDbSpline
210
0.0
220
0.0
230
1.0
 70
    11
 71
     3
 72
    29
 73
    25
 74
     0
 42
0.0000000001
 43
0.0000000001
 12
1.0
 22
0.0
 32
0.0
 13
1.0
 23
0.0
 33
0.0
 40
0.0
 40
0.0
 40
0.0
 40
0.0
 40
1.0
 40
1.0
 40
1.0
 40
2.0
 40
2.0
 40
2.0
 40
3.0
 40
3.0
 40
3.0
 40
4.0
 40
4.0
 40
4.0
 40
5.0
 40
5.0
 40
5.0
 40
6.0
 40
6.0
 40
6.0
 40
7.0
 40
7.0
 40
7.0
 40
8.0
 40
8.0
 40
8.0
 40
8.0
 10
162.1165585107629
 20
122.4369907906845
 30
0.0
 10
162.11828712183
 20
122.087634966264
 30
0.0
 10
161.9057032383645
 20
121.9264155259326
 30
0.0
 10
161.6428485228483
 20
122.0759227443406
 30
0.0
 10
161.6428485228483
 20
122.0759227443406
 30
0.0
 10
160.787785766885
 20
122.5651549540815
 30
0.0
 10
160.787785766885
 20
122.5651549540815
 30
0.0
 10
160.5235552180705
 20
122.7160380057877
 30
0.0
 10
160.3099482790756
 20
123.121167995452
 30
0.0
 10
160.3082196680086
 20
123.4708413198644
 30
0.0
 10
160.3082196680086
 20
123.4708413198644
 30
0.0
 10
160.2999646682192
 20
125.470738491065
 30
0.0
 10
160.2999646682192
 20
125.470738491065
 30
0.0
 10
160.2982360571522
 20
125.8200590377086
 30
0.0
 10
160.5097616073113
 20
125.9816312558088
 30
0.0
 10
160.773639378357
 20
125.8307482041026
 30
0.0
 10
160.773639378357
 20
125.8307482041026
 30
0.0
 10
161.6287374120972
 20
125.3418687721305
 30
0.0
 10
161.6287374120972
 20
125.3418687721305
 30
0.0
 10
161.8915921276134
 20
125.1916912759618
 30
0.0
 10
162.1065748999065
 20
124.7865260085207
 30
0.0
 10
162.1082682331967
 20
124.4372078796084
 30
0.0
 10
162.1082682331967
 20
124.4372078796084
 30
0.0
 10
162.1165585107629
 20
122.4369907906845
 30
0.0
 10
162.1165585107629
 20
122.4369907906845
 30
0.0
  0
HATCH
  5
17F
330
171
100
AcDbEntity
  8
_U+30EC_U+30A4_U+30E4_U+30FC 1
 62
     7
100
AcDbHatch
 10
0.0
 20
0.0
 30
0.0
210
0.0
220
0.0
230
1.0
  2
SOLID
 70
     1
 71
     0
 91
        2
 92
        1
 93
        1
 72
     4
 94
        3
 73
     0
 74
     1
 95
       29
 96
       25
 40
0.0
 40
0.0
 40
0.0
 40
0.0
 40
1.0
 40
1.0
 40
1.0
 40
2.0
 40
2.0
 40
2.0
 40
3.0
 40
3.0
 40
3.0
 40
4.0
 40
4.0
 40
4.0
 40
5.0
 40
5.0
 40
5.0
 40
6.0
 40
6.0
 40
6.0
 40
7.0
 40
7.0
 40
7.0
 40
8.0
 40
8.0
 40
8.0
 40
8.0
 10
162.1165585107629
 20
122.4369907906845
 10
162.11828712183
 20
122.087634966264
 10
161.9057032383645
 20
121.9264155259326
 10
161.6428485228483
 20
122.0759227443406
 10
161.6428485228483
 20
122.0759227443406
 10
160.787785766885
 20
122.5651549540815
 10
160.787785766885
 20
122.5651549540815
 10
160.5235552180705
 20
122.7160380057877
 10
160.3099482790756
 20
123.121167995452
 10
160.3082196680086
 20
123.4708413198644
 10
160.3082196680086
 20
123.4708413198644
 10
160.2999646682192
 20
125.470738491065
 10
160.2999646682192
 20
125.470738491065
 10
160.2982360571522
 20
125.8200590377086
 10
160.5097616073113
 20
125.9816312558088
 10
160.773639378357
 20
125.8307482041026
 10
160.773639378357
 20
125.8307482041026
 10
161.6287374120972
 20
125.3418687721305
 10
161.6287374120972
 20
125.3418687721305
 10
161.8915921276134
 20
125.1916912759618
 10
162.1065748999065
 20
124.7865260085207
 10
162.1082682331967
 20
124.4372078796084
 10
162.1082682331967
 20
124.4372078796084
 10
162.1165585107629
 20
122.4369907906845
 10
162.1165585107629
 20
122.4369907906845
 97
        0
 92
        1
 93
        2
 72
     4
 94
        3
 73
     0
 74
     0
 95
       29
 96
       25
 40
0.0
 40
0.0
 40
0.0
 40
0.0
 40
0.3527777776895833
 40
0.3527777776895833
 40
0.3527777776895833
 40
0.7055555553791667
 40
0.7055555553791667
 40
0.7055555553791667
 40
1.05833333306875
 40
1.05833333306875
 40
1.05833333306875
 40
1.411111110758333
 40
1.411111110758333
 40
1.411111110758333
 40
1.763888888447917
 40
1.763888888447917
 40
1.763888888447917
 40
2.1166666661375
 40
2.1166666661375
 40
2.1166666661375
 40
2.469444443827083
 40
2.469444443827083
 40
2.469444443827083
 40
2.822222221516667
 40
2.822222221516667
 40
2.822222221516667
 40
2.822222221516667
 10
162.0686512897629
 20
126.5807537405239
 10
162.0686512897629
 20
126.5807537405239
 10
160.3220132787678
 20
127.5791148261647
 10
160.3220132787678
 20
127.5791148261647
 10
159.5847430197994
 20
128.0008253709615
 10
158.9884116673184
 20
127.5477881602972
 10
158.9932405348898
 20
126.5662545742271
 10
158.9932405348898
 20
126.5662545742271
 10
159.0042472012757
 20
123.8673988097474
 10
159.0042472012757
 20
123.8673988097474
 10
159.0083747011704
 20
122.8869235569836
 10
159.6116246857802
 20
121.7486508082456
 10
160.3481893892111
 20
121.3276458189863
 10
160.3481893892111
 20
121.3276458189863
 10
162.0948626779831
 20
120.3292847333455
 10
162.0948626779831
 20
120.3292847333455
 10
162.8328032147122
 20
119.9075741885487
 10
163.4267088884311
 20
120.3609641769817
 10
163.4225770885547
 20
121.3421449852831
 10
163.4225770885547
 20
121.3421449852831
 10
163.4108648666313
 20
124.0406856574854
 10
163.4108648666313
 20
124.0406856574854
 10
163.4070901445054
 20
125.0221815580642
 10
162.8059215487314
 20
126.159078473504
 10
162.0686512897629
 20
126.5807537405239
 72
     1
 10
162.0686512897629
 20
126.5807537405239
 11
162.0686512897629
 21
126.5807537405239
 97
        0
 75
     2
 76
     1
 98
        0
  0
SPLINE
  5
180
330
171
100
AcDbEntity
  8
_U+30EC_U+30A4_U+30E4_U+30FC 1
370
     0
100
AcDbSpline
210
0.0
220
0.0
230
1.0
 70
    11
 71
     3
 72
    47
 73
    43
 74
     0
 42
0.0000000001
 43
0.0000000001
 12
1.0
 22
0.0
 32
0.0
 13
1.0
 23
0.0
 33
0.0
 40
0.0
 40
0.0
 40
0.0
 40
0.0
 40
1.0
 40
1.0
 40
1.0
 40
2.0
 40
2.0
 40
2.0
 40
3.0
 40
3.0
 40
3.0
 40
4.0
 40
4.0
 40
4.0
 40
5.0
 40
5.0
 40
5.0
 40
6.0
 40
6.0
 40
6.0
 40
7.0
 40
7.0
 40
7.0
 40
8.0
 40
8.0
 40
8.0
 40
9.0
 40
9.0
 40
9.0
 40
10.0
 40
10.0
 40
10.0
 40
11.0
 40
11.0
 40
11.0
 40
12.0
 40
12.0
 40
12.0
 40
13.0
 40
13.0
 40
13.0
 40
14.0
 40
14.0
 40
14.0
 40
14.0
 10
138.382093560724
 20
142.5253211115219
 30
0.0
 10
138.382093560724
 20
142.5253211115219
 30
0.0
 10
133.2909106350554
 20
145.4357377039376
 30
0.0
 10
133.2909106350554
 20
145.4357377039376
 30
0.0
 10
133.2444145251305
 20
145.4624429810341
 30
0.0
 10
133.206173414995
 20
145.4333388151099
 30
0.0
 10
133.2065261927638
 20
145.3704738167138
 30
0.0
 10
133.2065261927638
 20
145.3704738167138
 30
0.0
 10
133.2128761926018
 20
143.8747666326502
 30
0.0
 10
133.2128761926018
 20
143.8747666326502
 30
0.0
 10
133.2130561182065
 20
143.8115488564852
 30
0.0
 10
133.2516464693904
 20
143.7387002472327
 30
0.0
 10
133.2983189681997
 20
143.7119949701362
 30
0.0
 10
133.2983189681997
 20
143.7119949701362
 30
0.0
 10
135.0904653113671
 20
142.6874224962752
 30
0.0
 10
135.0904653113671
 20
142.6874224962752
 30
0.0
 10
135.0904653113671
 20
142.6874224962752
 30
0.0
 10
135.1193930884069
 20
135.8704507257462
 30
0.0
 10
135.1193930884069
 20
135.8704507257462
 30
0.0
 10
135.1199222550601
 20
135.7987689878792
 30
0.0
 10
135.1619380873215
 20
135.7195323962631
 30
0.0
 10
135.2146783637537
 20
135.6895815636939
 30
0.0
 10
135.2146783637537
 20
135.6895815636939
 30
0.0
 10
136.5317388857083
 20
134.9364715829073
 30
0.0
 10
136.5317388857083
 20
134.9364715829073
 30
0.0
 10
136.58493777324
 20
134.9058151948006
 30
0.0
 10
136.62561304998
 20
134.9382001939744
 30
0.0
 10
136.6252602722112
 20
135.0094965810443
 30
0.0
 10
136.6252602722112
 20
135.0094965810443
 30
0.0
 10
136.5961561062871
 20
141.8266828752613
 30
0.0
 10
136.5961561062871
 20
141.8266828752613
 30
0.0
 10
136.5961561062871
 20
141.8266828752613
 30
0.0
 10
138.389325504984
 20
140.8014019888361
 30
0.0
 10
138.389325504984
 20
140.8014019888361
 30
0.0
 10
138.4367035593308
 20
140.7746995421909
 30
0.0
 10
138.4733924472837
 20
140.8043328755168
 30
0.0
 10
138.4732160583993
 20
140.8675478204819
 30
0.0
 10
138.4732160583993
 20
140.8675478204819
 30
0.0
 10
138.4668307807844
 20
142.3633961156529
 30
0.0
 10
138.4668307807844
 20
142.3633961156529
 30
0.0
 10
138.4664780030157
 20
142.4261200029416
 30
0.0
 10
138.4292952261865
 20
142.4982983344335
 30
0.0
 10
138.382093560724
 20
142.5253211115219
 30
0.0
  0
HATCH
  5
181
330
171
100
AcDbEntity
  8
_U+30EC_U+30A4_U+30E4_U+30FC 1
 62
     7
100
AcDbHatch
 10
0.0
 20
0.0
 30
0.0
210
0.0
220
0.0
230
1.0
  2
SOLID
 70
     1
 71
     0
 91
        1
 92
        1
 93
        1
 72
     4
 94
        3
 73
     0
 74
     1
 95
       47
 96
       43
 40
0.0
 40
0.0
 40
0.0
 40
0.0
 40
1.0
 40
1.0
 40
1.0
 40
2.0
 40
2.0
 40
2.0
 40
3.0
 40
3.0
 40
3.0
 40
4.0
 40
4.0
 40
4.0
 40
5.0
 40
5.0
 40
5.0
 40
6.0
 40
6.0
 40
6.0
 40
7.0
 40
7.0
 40
7.0
 40
8.0
 40
8.0
 40
8.0
 40
9.0
 40
9.0
 40
9.0
 40
10.0
 40
10.0
 40
10.0
 40
11.0
 40
11.0
 40
11.0
 40
12.0
 40
12.0
 40
12.0
 40
13.0
 40
13.0
 40
13.0
 40
14.0
 40
14.0
 40
14.0
 40
14.0
 10
138.382093560724
 20
142.5253211115219
 10
138.382093560724
 20
142.5253211115219
 10
133.2909106350554
 20
145.4357377039376
 10
133.2909106350554
 20
145.4357377039376
 10
133.2444145251305
 20
145.4624429810341
 10
133.206173414995
 20
145.4333388151099
 10
133.2065261927638
 20
145.3704738167138
 10
133.2065261927638
 20
145.3704738167138
 10
133.2128761926018
 20
143.8747666326502
 10
133.2128761926018
 20
143.8747666326502
 10
133.2130561182065
 20
143.8115488564852
 10
133.2516464693904
 20
143.7387002472327
 10
133.2983189681997
 20
143.7119949701362
 10
133.2983189681997
 20
143.7119949701362
 10
135.0904653113671
 20
142.6874224962752
 10
135.0904653113671
 20
142.6874224962752
 10
135.0904653113671
 20
142.6874224962752
 10
135.1193930884069
 20
135.8704507257462
 10
135.1193930884069
 20
135.8704507257462
 10
135.1199222550601
 20
135.7987689878792
 10
135.1619380873215
 20
135.7195323962631
 10
135.2146783637537
 20
135.6895815636939
 10
135.2146783637537
 20
135.6895815636939
 10
136.5317388857083
 20
134.9364715829073
 10
136.5317388857083
 20
134.9364715829073
 10
136.58493777324
 20
134.9058151948006
 10
136.62561304998
 20
134.9382001939744
 10
136.6252602722112
 20
135.0094965810443
 10
136.6252602722112
 20
135.0094965810443
 10
136.5961561062871
 20
141.8266828752613
 10
136.5961561062871
 20
141.8266828752613
 10
136.5961561062871
 20
141.8266828752613
 10
138.389325504984
 20
140.8014019888361
 10
138.389325504984
 20
140.8014019888361
 10
138.4367035593308
 20
140.7746995421909
 10
138.4733924472837
 20
140.8043328755168
 10
138.4732160583993
 20
140.8675478204819
 10
138.4732160583993
 20
140.8675478204819
 10
138.4668307807844
 20
142.3633961156529
 10
138.4668307807844
 20
142.3633961156529
 10
138.4664780030157
 20
142.4261200029416
 10
138.4292952261865
 20
142.4982983344335
 10
138.382093560724
 20
142.5253211115219
 97
        0
 75
     2
 76
     1
 98
        0
  0
SPLINE
  5
182
330
171
100
AcDbEntity
  8
_U+30EC_U+30A4_U+30E4_U+30FC 1
370
     0
100
AcDbSpline
210
0.0
220
0.0
230
1.0
 70
    11
 71
     3
 72
    29
 73
    25
 74
     0
 42
0.0000000001
 43
0.0000000001
 12
1.0
 22
0.0
 32
0.0
 13
1.0
 23
0.0
 33
0.0
 40
0.0
 40
0.0
 40
0.0
 40
0.0
 40
1.0
 40
1.0
 40
1.0
 40
2.0
 40
2.0
 40
2.0
 40
3.0
 40
3.0
 40
3.0
 40
4.0
 40
4.0
 40
4.0
 40
5.0
 40
5.0
 40
5.0
 40
6.0
 40
6.0
 40
6.0
 40
7.0
 40
7.0
 40
7.0
 40
8.0
 40
8.0
 40
8.0
 40
8.0
 10
142.8966965011025
 20
131.297780564627
 30
0.0
 10
142.9490839997659
 20
131.2681472320496
 30
0.0
 10
142.9918053875649
 20
131.2984508423876
 30
0.0
 10
142.9918053875649
 20
131.3711583405327
 30
0.0
 10
142.9918053875649
 20
131.3711583405327
 30
0.0
 10
142.9663033379908
 20
137.3840437426868
 30
0.0
 10
142.9663033379908
 20
137.3840437426868
 30
0.0
 10
142.9655977824352
 20
137.453823185351
 30
0.0
 10
142.9222061157795
 20
137.534926794393
 30
0.0
 10
142.8698501128985
 20
137.5647365158547
 30
0.0
 10
142.8698501128985
 20
137.5647365158547
 30
0.0
 10
141.7524265302952
 20
138.2033023206117
 30
0.0
 10
141.7524265302952
 20
138.2033023206117
 30
0.0
 10
141.6990159761023
 20
138.2336031654572
 30
0.0
 10
141.6570001438409
 20
138.2020648329284
 30
0.0
 10
141.6570001438409
 20
138.1323206680411
 30
0.0
 10
141.6570001438409
 20
138.1323206680411
 30
0.0
 10
141.6831762542842
 20
132.119435265887
 30
0.0
 10
141.6831762542842
 20
132.119435265887
 30
0.0
 10
141.6831762542842
 20
132.0467277677419
 30
0.0
 10
141.7262504198519
 20
131.9667883253369
 30
0.0
 10
141.7789554185073
 20
131.9364847149989
 30
0.0
 10
141.7789554185073
 20
131.9364847149989
 30
0.0
 10
142.8966965011025
 20
131.297780564627
 30
0.0
 10
142.8966965011025
 20
131.297780564627
 30
0.0
  0
HATCH
  5
183
330
171
100
AcDbEntity
  8
_U+30EC_U+30A4_U+30E4_U+30FC 1
 62
     7
100
AcDbHatch
 10
0.0
 20
0.0
 30
0.0
210
0.0
220
0.0
230
1.0
  2
SOLID
 70
     1
 71
     0
 91
        1
 92
        1
 93
        1
 72
     4
 94
        3
 73
     0
 74
     1
 95
       29
 96
       25
 40
0.0
 40
0.0
 40
0.0
 40
0.0
 40
1.0
 40
1.0
 40
1.0
 40
2.0
 40
2.0
 40
2.0
 40
3.0
 40
3.0
 40
3.0
 40
4.0
 40
4.0
 40
4.0
 40
5.0
 40
5.0
 40
5.0
 40
6.0
 40
6.0
 40
6.0
 40
7.0
 40
7.0
 40
7.0
 40
8.0
 40
8.0
 40
8.0
 40
8.0
 10
142.8966965011025
 20
131.297780564627
 10
142.9490839997659
 20
131.2681472320496
 10
142.9918053875649
 20
131.2984508423876
 10
142.9918053875649
 20
131.3711583405327
 10
142.9918053875649
 20
131.3711583405327
 10
142.9663033379908
 20
137.3840437426868
 10
142.9663033379908
 20
137.3840437426868
 10
142.9655977824352
 20
137.453823185351
 10
142.9222061157795
 20
137.534926794393
 10
142.8698501128985
 20
137.5647365158547
 10
142.8698501128985
 20
137.5647365158547
 10
141.7524265302952
 20
138.2033023206117
 10
141.7524265302952
 20
138.2033023206117
 10
141.6990159761023
 20
138.2336031654572
 10
141.6570001438409
 20
138.2020648329284
 10
141.6570001438409
 20
138.1323206680411
 10
141.6570001438409
 20
138.1323206680411
 10
141.6831762542842
 20
132.119435265887
 10
141.6831762542842
 20
132.119435265887
 10
141.6831762542842
 20
132.0467277677419
 10
141.7262504198519
 20
131.9667883253369
 10
141.7789554185073
 20
131.9364847149989
 10
141.7789554185073
 20
131.9364847149989
 10
142.8966965011025
 20
131.297780564627
 10
142.8966965011025
 20
131.297780564627
 97
        0
 75
     2
 76
     1
 98
        0
  0
SPLINE
  5
184
330
171
100
AcDbEntity
  8
_U+30EC_U+30A4_U+30E4_U+30FC 1
370
     0
100
AcDbSpline
210
0.0
220
0.0
230
1.0
 70
    11
 71
     3
 72
    29
 73
    25
 74
     0
 42
0.0000000001
 43
0.0000000001
 12
1.0
 22
0.0
 32
0.0
 13
1.0
 23
0.0
 33
0.0
 40
0.0
 40
0.0
 40
0.0
 40
0.0
 40
1.0
 40
1.0
 40
1.0
 40
2.0
 40
2.0
 40
2.0
 40
3.0
 40
3.0
 40
3.0
 40
4.0
 40
4.0
 40
4.0
 40
5.0
 40
5.0
 40
5.0
 40
6.0
 40
6.0
 40
6.0
 40
7.0
 40
7.0
 40
7.0
 40
8.0
 40
8.0
 40
8.0
 40
8.0
 10
144.7139958991837
 20
136.5064032095217
 30
0.0
 10
144.6247784014599
 20
136.5573795971101
 30
0.0
 10
144.5455445145924
 20
136.5436212641278
 30
0.0
 10
144.4986956268987
 20
136.4802270990784
 30
0.0
 10
144.4986956268987
 20
136.4802270990784
 30
0.0
 10
142.9787173323433
 20
134.3725210417394
 30
0.0
 10
142.9787173323433
 20
134.3725210417394
 30
0.0
 10
142.9787173323433
 20
134.3725210417394
 30
0.0
 10
144.5138297931793
 20
130.3796411436062
 30
0.0
 10
144.5138297931793
 20
130.3796411436062
 30
0.0
 10
144.5138297931793
 20
130.3796411436062
 30
0.0
 10
146.1144178079005
 20
129.464291211685
 30
0.0
 10
146.1144178079005
 20
129.464291211685
 30
0.0
 10
146.1144178079005
 20
129.464291211685
 30
0.0
 10
144.3588192415784
 20
133.5834277285375
 30
0.0
 10
144.3588192415784
 20
133.5834277285375
 30
0.0
 10
144.3588192415784
 20
133.5834277285375
 30
0.0
 10
146.0868658641589
 20
135.7195323962631
 30
0.0
 10
146.0868658641589
 20
135.7195323962631
 30
0.0
 10
146.0868658641589
 20
135.7195323962631
 30
0.0
 10
144.7132903436462
 20
136.5050300988139
 30
0.0
 10
144.7132903436462
 20
136.5050300988139
 30
0.0
 10
144.7132903436462
 20
136.5050300988139
 30
0.0
 10
144.7139958991837
 20
136.5064032095217
 30
0.0
 10
144.7139958991837
 20
136.5064032095217
 30
0.0
  0
HATCH
  5
185
330
171
100
AcDbEntity
  8
_U+30EC_U+30A4_U+30E4_U+30FC 1
 62
     7
100
AcDbHatch
 10
0.0
 20
0.0
 30
0.0
210
0.0
220
0.0
230
1.0
  2
SOLID
 70
     1
 71
     0
 91
        1
 92
        1
 93
        1
 72
     4
 94
        3
 73
     0
 74
     1
 95
       29
 96
       25
 40
0.0
 40
0.0
 40
0.0
 40
0.0
 40
1.0
 40
1.0
 40
1.0
 40
2.0
 40
2.0
 40
2.0
 40
3.0
 40
3.0
 40
3.0
 40
4.0
 40
4.0
 40
4.0
 40
5.0
 40
5.0
 40
5.0
 40
6.0
 40
6.0
 40
6.0
 40
7.0
 40
7.0
 40
7.0
 40
8.0
 40
8.0
 40
8.0
 40
8.0
 10
144.7139958991837
 20
136.5064032095217
 10
144.6247784014599
 20
136.5573795971101
 10
144.5455445145924
 20
136.5436212641278
 10
144.4986956268987
 20
136.4802270990784
 10
144.4986956268987
 20
136.4802270990784
 10
142.9787173323433
 20
134.3725210417394
 10
142.9787173323433
 20
134.3725210417394
 10
142.9787173323433
 20
134.3725210417394
 10
144.5138297931793
 20
130.3796411436062
 10
144.5138297931793
 20
130.3796411436062
 10
144.5138297931793
 20
130.3796411436062
 10
146.1144178079005
 20
129.464291211685
 10
146.1144178079005
 20
129.464291211685
 10
146.1144178079005
 20
129.464291211685
 10
144.3588192415784
 20
133.5834277285375
 10
144.3588192415784
 20
133.5834277285375
 10
144.3588192415784
 20
133.5834277285375
 10
146.0868658641589
 20
135.7195323962631
 10
146.0868658641589
 20
135.7195323962631
 10
146.0868658641589
 20
135.7195323962631
 10
144.7132903436462
 20
136.5050300988139
 10
144.7132903436462
 20
136.5050300988139
 10
144.7132903436462
 20
136.5050300988139
 10
144.7139958991837
 20
136.5064032095217
 10
144.7139958991837
 20
136.5064032095217
 97
        0
 75
     2
 76
     1
 98
        0
  0
SPLINE
  5
186
330
171
100
AcDbEntity
  8
_U+30EC_U+30A4_U+30E4_U+30FC 1
370
     0
100
AcDbSpline
210
0.0
220
0.0
230
1.0
 70
    11
 71
     3
 72
    29
 73
    25
 74
     0
 42
0.0000000001
 43
0.0000000001
 12
1.0
 22
0.0
 32
0.0
 13
1.0
 23
0.0
 33
0.0
 40
0.0
 40
0.0
 40
0.0
 40
0.0
 40
1.0
 40
1.0
 40
1.0
 40
2.0
 40
2.0
 40
2.0
 40
3.0
 40
3.0
 40
3.0
 40
4.0
 40
4.0
 40
4.0
 40
5.0
 40
5.0
 40
5.0
 40
6.0
 40
6.0
 40
6.0
 40
7.0
 40
7.0
 40
7.0
 40
8.0
 40
8.0
 40
8.0
 40
8.0
 10
124.7711864079672
 20
145.9862856519992
 30
0.0
 10
124.890742793806
 20
145.9178790805261
 30
0.0
 10
124.9865219580291
 20
145.9926356519976
 30
0.0
 10
124.9858164024915
 20
146.1507829634731
 30
0.0
 10
124.9858164024915
 20
146.1507829634731
 30
0.0
 10
124.969800291789
 20
149.902151201101
 30
0.0
 10
124.969800291789
 20
149.902151201101
 30
0.0
 10
124.9693064029127
 20
150.0619948081342
 30
0.0
 10
124.8721514053914
 20
150.2452628590142
 30
0.0
 10
124.7525950195526
 20
150.3136664683802
 30
0.0
 10
124.7525950195526
 20
150.3136664683802
 30
0.0
 10
121.9322811210271
 20
151.9259667050248
 30
0.0
 10
121.9322811210271
 20
151.9259667050248
 30
0.0
 10
121.8113456501457
 20
151.9950405921514
 30
0.0
 10
121.7157428748069
 20
151.9220155940145
 30
0.0
 10
121.7162720414601
 20
151.7621367092044
 30
0.0
 10
121.7162720414601
 20
151.7621367092044
 30
0.0
 10
121.7322881521626
 20
148.0107684715765
 30
0.0
 10
121.7322881521626
 20
148.0107684715765
 30
0.0
 10
121.7329616766323
 20
147.8524800959771
 30
0.0
 10
121.8299370385603
 20
147.6676568136633
 30
0.0
 10
121.9506928688129
 20
147.5985829265369
 30
0.0
 10
121.9506928688129
 20
147.5985829265369
 30
0.0
 10
124.7711864079672
 20
145.9862856519992
 30
0.0
 10
124.7711864079672
 20
145.9862856519992
 30
0.0
  0
HATCH
  5
187
330
171
100
AcDbEntity
  8
_U+30EC_U+30A4_U+30E4_U+30FC 1
 62
     7
100
AcDbHatch
 10
0.0
 20
0.0
 30
0.0
210
0.0
220
0.0
230
1.0
  2
SOLID
 70
     1
 71
     0
 91
        1
 92
        1
 93
        1
 72
     4
 94
        3
 73
     0
 74
     1
 95
       29
 96
       25
 40
0.0
 40
0.0
 40
0.0
 40
0.0
 40
1.0
 40
1.0
 40
1.0
 40
2.0
 40
2.0
 40
2.0
 40
3.0
 40
3.0
 40
3.0
 40
4.0
 40
4.0
 40
4.0
 40
5.0
 40
5.0
 40
5.0
 40
6.0
 40
6.0
 40
6.0
 40
7.0
 40
7.0
 40
7.0
 40
8.0
 40
8.0
 40
8.0
 40
8.0
 10
124.7711864079672
 20
145.9862856519992
 10
124.890742793806
 20
145.9178790805261
 10
124.9865219580291
 20
145.9926356519976
 10
124.9858164024915
 20
146.1507829634731
 10
124.9858164024915
 20
146.1507829634731
 10
124.969800291789
 20
149.902151201101
 10
124.969800291789
 20
149.902151201101
 10
124.9693064029127
 20
150.0619948081342
 10
124.8721514053914
 20
150.2452628590142
 10
124.7525950195526
 20
150.3136664683802
 10
124.7525950195526
 20
150.3136664683802
 10
121.9322811210271
 20
151.9259667050248
 10
121.9322811210271
 20
151.9259667050248
 10
121.8113456501457
 20
151.9950405921514
 10
121.7157428748069
 20
151.9220155940145
 10
121.7162720414601
 20
151.7621367092044
 10
121.7162720414601
 20
151.7621367092044
 10
121.7322881521626
 20
148.0107684715765
 10
121.7322881521626
 20
148.0107684715765
 10
121.7329616766323
 20
147.8524800959771
 10
121.8299370385603
 20
147.6676568136633
 10
121.9506928688129
 20
147.5985829265369
 10
121.9506928688129
 20
147.5985829265369
 10
124.7711864079672
 20
145.9862856519992
 10
124.7711864079672
 20
145.9862856519992
 97
        0
 75
     2
 76
     1
 98
        0
  0
SPLINE
  5
188
330
171
100
AcDbEntity
  8
_U+30EC_U+30A4_U+30E4_U+30FC 1
370
     0
100
AcDbSpline
210
0.0
220
0.0
230
1.0
 70
    11
 71
     3
 72
    29
 73
    25
 74
     0
 42
0.0000000001
 43
0.0000000001
 12
1.0
 22
0.0
 32
0.0
 13
1.0
 23
0.0
 33
0.0
 40
0.0
 40
0.0
 40
0.0
 40
0.0
 40
1.0
 40
1.0
 40
1.0
 40
2.0
 40
2.0
 40
2.0
 40
3.0
 40
3.0
 40
3.0
 40
4.0
 40
4.0
 40
4.0
 40
5.0
 40
5.0
 40
5.0
 40
6.0
 40
6.0
 40
6.0
 40
7.0
 40
7.0
 40
7.0
 40
8.0
 40
8.0
 40
8.0
 40
8.0
 10
128.0454227133233
 20
139.7957736811584
 30
0.0
 10
128.1644533416917
 20
139.7275817384537
 30
0.0
 10
128.2602290967321
 20
139.8016297921201
 30
0.0
 10
128.2597033416674
 20
139.9616497880377
 30
0.0
 10
128.2597033416674
 20
139.9616497880377
 30
0.0
 10
128.243507430492
 20
143.7121713590206
 30
0.0
 10
128.243507430492
 20
143.7121713590206
 30
0.0
 10
128.2429782638389
 20
143.8704627438711
 30
0.0
 10
128.1459996552019
 20
144.0540835725199
 30
0.0
 10
128.0269724360163
 20
144.1221344041171
 30
0.0
 10
128.0269724360163
 20
144.1221344041171
 30
0.0
 10
125.2061613968701
 20
145.7349638074149
 30
0.0
 10
125.2061613968701
 20
145.7349638074149
 30
0.0
 10
125.0862522332625
 20
145.803332139004
 30
0.0
 10
124.9884269579805
 20
145.731153807512
 30
0.0
 10
124.9887477869299
 20
145.5725096448927
 30
0.0
 10
124.9887477869299
 20
145.5725096448927
 30
0.0
 10
125.0047605686749
 20
141.822517240563
 30
0.0
 10
125.0047605686749
 20
141.822517240563
 30
0.0
 10
125.0054661242124
 20
141.6620033557692
 30
0.0
 10
125.1048436216771
 20
141.4770066938222
 30
0.0
 10
125.2244033424258
 20
141.4084266955721
 30
0.0
 10
125.2244033424258
 20
141.4084266955721
 30
0.0
 10
128.0454227133233
 20
139.7957736811584
 30
0.0
 10
128.0454227133233
 20
139.7957736811584
 30
0.0
  0
HATCH
  5
189
330
171
100
AcDbEntity
  8
_U+30EC_U+30A4_U+30E4_U+30FC 1
 62
     7
100
AcDbHatch
 10
0.0
 20
0.0
 30
0.0
210
0.0
220
0.0
230
1.0
  2
SOLID
 70
     1
 71
     0
 91
        1
 92
        1
 93
        1
 72
     4
 94
        3
 73
     0
 74
     1
 95
       29
 96
       25
 40
0.0
 40
0.0
 40
0.0
 40
0.0
 40
1.0
 40
1.0
 40
1.0
 40
2.0
 40
2.0
 40
2.0
 40
3.0
 40
3.0
 40
3.0
 40
4.0
 40
4.0
 40
4.0
 40
5.0
 40
5.0
 40
5.0
 40
6.0
 40
6.0
 40
6.0
 40
7.0
 40
7.0
 40
7.0
 40
8.0
 40
8.0
 40
8.0
 40
8.0
 10
128.0454227133233
 20
139.7957736811584
 10
128.1644533416917
 20
139.7275817384537
 10
128.2602290967321
 20
139.8016297921201
 10
128.2597033416674
 20
139.9616497880377
 10
128.2597033416674
 20
139.9616497880377
 10
128.243507430492
 20
143.7121713590206
 10
128.243507430492
 20
143.7121713590206
 10
128.2429782638389
 20
143.8704627438711
 10
128.1459996552019
 20
144.0540835725199
 10
128.0269724360163
 20
144.1221344041171
 10
128.0269724360163
 20
144.1221344041171
 10
125.2061613968701
 20
145.7349638074149
 10
125.2061613968701
 20
145.7349638074149
 10
125.0862522332625
 20
145.803332139004
 10
124.9884269579805
 20
145.731153807512
 10
124.9887477869299
 20
145.5725096448927
 10
124.9887477869299
 20
145.5725096448927
 10
125.0047605686749
 20
141.822517240563
 10
125.0047605686749
 20
141.822517240563
 10
125.0054661242124
 20
141.6620033557692
 10
125.1048436216771
 20
141.4770066938222
 10
125.2244033424258
 20
141.4084266955721
 10
125.2244033424258
 20
141.4084266955721
 10
128.0454227133233
 20
139.7957736811584
 10
128.0454227133233
 20
139.7957736811584
 97
        0
 75
     2
 76
     1
 98
        0
  0
SPLINE
  5
18A
330
171
100
AcDbEntity
  8
_U+30EC_U+30A4_U+30E4_U+30FC 1
370
     0
100
AcDbSpline
210
0.0
220
0.0
230
1.0
 70
    11
 71
     3
 72
    29
 73
    25
 74
     0
 42
0.0000000001
 43
0.0000000001
 12
1.0
 22
0.0
 32
0.0
 13
1.0
 23
0.0
 33
0.0
 40
0.0
 40
0.0
 40
0.0
 40
0.0
 40
1.0
 40
1.0
 40
1.0
 40
2.0
 40
2.0
 40
2.0
 40
3.0
 40
3.0
 40
3.0
 40
4.0
 40
4.0
 40
4.0
 40
5.0
 40
5.0
 40
5.0
 40
6.0
 40
6.0
 40
6.0
 40
7.0
 40
7.0
 40
7.0
 40
8.0
 40
8.0
 40
8.0
 40
8.0
 10
131.2822645751891
 20
142.2641950070727
 30
0.0
 10
131.4012917943747
 20
142.195967786591
 30
0.0
 10
131.4982704030116
 20
142.2702275069188
 30
0.0
 10
131.4975648474741
 20
142.428168986222
 30
0.0
 10
131.4975648474741
 20
142.428168986222
 30
0.0
 10
131.4815487367716
 20
146.1795343516285
 30
0.0
 10
131.4815487367716
 20
146.1795343516285
 30
0.0
 10
131.4808784590109
 20
146.3395543475463
 30
0.0
 10
131.3828450075536
 20
146.5233515650792
 30
0.0
 10
131.263814297882
 20
146.5912260077923
 30
0.0
 10
131.263814297882
 20
146.5912260077923
 30
0.0
 10
128.4428268698514
 20
148.2040554110897
 30
0.0
 10
128.4428268698514
 20
148.2040554110897
 30
0.0
 10
128.3230940951283
 20
148.2726001315633
 30
0.0
 10
128.2273149309051
 20
148.1993987445419
 30
0.0
 10
128.2281968753271
 20
148.0393787486246
 30
0.0
 10
128.2281968753271
 20
148.0393787486246
 30
0.0
 10
128.2442129860296
 20
144.2883662079792
 30
0.0
 10
128.2442129860296
 20
144.2883662079792
 30
0.0
 10
128.2447068749059
 20
144.1298955150302
 30
0.0
 10
128.3415090946584
 20
143.9450399641907
 30
0.0
 10
128.461418258266
 20
143.8766745414153
 30
0.0
 10
128.461418258266
 20
143.8766745414153
 30
0.0
 10
131.2822645751891
 20
142.2641950070727
 30
0.0
 10
131.2822645751891
 20
142.2641950070727
 30
0.0
  0
HATCH
  5
18B
330
171
100
AcDbEntity
  8
_U+30EC_U+30A4_U+30E4_U+30FC 1
 62
     7
100
AcDbHatch
 10
0.0
 20
0.0
 30
0.0
210
0.0
220
0.0
230
1.0
  2
SOLID
 70
     1
 71
     0
 91
        1
 92
        1
 93
        1
 72
     4
 94
        3
 73
     0
 74
     1
 95
       29
 96
       25
 40
0.0
 40
0.0
 40
0.0
 40
0.0
 40
1.0
 40
1.0
 40
1.0
 40
2.0
 40
2.0
 40
2.0
 40
3.0
 40
3.0
 40
3.0
 40
4.0
 40
4.0
 40
4.0
 40
5.0
 40
5.0
 40
5.0
 40
6.0
 40
6.0
 40
6.0
 40
7.0
 40
7.0
 40
7.0
 40
8.0
 40
8.0
 40
8.0
 40
8.0
 10
131.2822645751891
 20
142.2641950070727
 10
131.4012917943747
 20
142.195967786591
 10
131.4982704030116
 20
142.2702275069188
 10
131.4975648474741
 20
142.428168986222
 10
131.4975648474741
 20
142.428168986222
 10
131.4815487367716
 20
146.1795343516285
 10
131.4815487367716
 20
146.1795343516285
 10
131.4808784590109
 20
146.3395543475463
 10
131.3828450075536
 20
146.5233515650792
 10
131.263814297882
 20
146.5912260077923
 10
131.263814297882
 20
146.5912260077923
 10
128.4428268698514
 20
148.2040554110897
 10
128.4428268698514
 20
148.2040554110897
 10
128.3230940951283
 20
148.2726001315633
 10
128.2273149309051
 20
148.1993987445419
 10
128.2281968753271
 20
148.0393787486246
 10
128.2281968753271
 20
148.0393787486246
 10
128.2442129860296
 20
144.2883662079792
 10
128.2442129860296
 20
144.2883662079792
 10
128.2447068749059
 20
144.1298955150302
 10
128.3415090946584
 20
143.9450399641907
 10
128.461418258266
 20
143.8766745414153
 10
128.461418258266
 20
143.8766745414153
 10
131.2822645751891
 20
142.2641950070727
 10
131.2822645751891
 20
142.2641950070727
 97
        0
 75
     2
 76
     1
 98
        0
  0
SPLINE
  5
18C
330
171
100
AcDbEntity
  8
_U+30EC_U+30A4_U+30E4_U+30FC 1
370
     0
100
AcDbSpline
210
0.0
220
0.0
230
1.0
 70
    11
 71
     3
 72
    29
 73
    25
 74
     0
 42
0.0000000001
 43
0.0000000001
 12
1.0
 22
0.0
 32
0.0
 13
1.0
 23
0.0
 33
0.0
 40
0.0
 40
0.0
 40
0.0
 40
0.0
 40
1.0
 40
1.0
 40
1.0
 40
2.0
 40
2.0
 40
2.0
 40
3.0
 40
3.0
 40
3.0
 40
4.0
 40
4.0
 40
4.0
 40
5.0
 40
5.0
 40
5.0
 40
6.0
 40
6.0
 40
6.0
 40
7.0
 40
7.0
 40
7.0
 40
8.0
 40
8.0
 40
8.0
 40
8.0
 10
124.8082280736889
 20
137.3270348552523
 30
0.0
 10
124.9277844595276
 20
137.2584548570019
 30
0.0
 10
125.0235636237507
 20
137.332890966214
 30
0.0
 10
125.0228580682132
 20
137.492205406594
 30
0.0
 10
125.0228580682132
 20
137.492205406594
 30
0.0
 10
125.0066655686263
 20
141.2433972553376
 30
0.0
 10
125.0066655686263
 20
141.2433972553376
 30
0.0
 10
125.00617167975
 20
141.4013711401962
 30
0.0
 10
124.909193071113
 20
141.5860150243745
 30
0.0
 10
124.7896366852743
 20
141.6542422448561
 30
0.0
 10
124.7896366852743
 20
141.6542422448561
 30
0.0
 10
121.9691431461199
 20
143.2667217637903
 30
0.0
 10
121.9691431461199
 20
143.2667217637903
 30
0.0
 10
121.8483873158674
 20
143.3356163686273
 30
0.0
 10
121.7526081516442
 20
143.2612155371921
 30
0.0
 10
121.7533137071818
 20
143.1032416523335
 30
0.0
 10
121.7533137071818
 20
143.1032416523335
 30
0.0
 10
121.7693298178843
 20
139.3520498035899
 30
0.0
 10
121.7693298178843
 20
139.3520498035899
 30
0.0
 10
121.7700033432902
 20
139.1927353632099
 30
0.0
 10
121.8669787042819
 20
139.0084089790236
 30
0.0
 10
121.9875581456501
 20
138.9393350918969
 30
0.0
 10
121.9875581456501
 20
138.9393350918969
 30
0.0
 10
124.8082280736889
 20
137.3270348552523
 30
0.0
 10
124.8082280736889
 20
137.3270348552523
 30
0.0
  0
HATCH
  5
18D
330
171
100
AcDbEntity
  8
_U+30EC_U+30A4_U+30E4_U+30FC 1
 62
     7
100
AcDbHatch
 10
0.0
 20
0.0
 30
0.0
210
0.0
220
0.0
230
1.0
  2
SOLID
 70
     1
 71
     0
 91
        1
 92
        1
 93
        1
 72
     4
 94
        3
 73
     0
 74
     1
 95
       29
 96
       25
 40
0.0
 40
0.0
 40
0.0
 40
0.0
 40
1.0
 40
1.0
 40
1.0
 40
2.0
 40
2.0
 40
2.0
 40
3.0
 40
3.0
 40
3.0
 40
4.0
 40
4.0
 40
4.0
 40
5.0
 40
5.0
 40
5.0
 40
6.0
 40
6.0
 40
6.0
 40
7.0
 40
7.0
 40
7.0
 40
8.0
 40
8.0
 40
8.0
 40
8.0
 10
124.8082280736889
 20
137.3270348552523
 10
124.9277844595276
 20
137.2584548570019
 10
125.0235636237507
 20
137.332890966214
 10
125.0228580682132
 20
137.492205406594
 10
125.0228580682132
 20
137.492205406594
 10
125.0066655686263
 20
141.2433972553376
 10
125.0066655686263
 20
141.2433972553376
 10
125.00617167975
 20
141.4013711401962
 10
124.909193071113
 20
141.5860150243745
 10
124.7896366852743
 20
141.6542422448561
 10
124.7896366852743
 20
141.6542422448561
 10
121.9691431461199
 20
143.2667217637903
 10
121.9691431461199
 20
143.2667217637903
 10
121.8483873158674
 20
143.3356163686273
 10
121.7526081516442
 20
143.2612155371921
 10
121.7533137071818
 20
143.1032416523335
 10
121.7533137071818
 20
143.1032416523335
 10
121.7693298178843
 20
139.3520498035899
 10
121.7693298178843
 20
139.3520498035899
 10
121.7700033432902
 20
139.1927353632099
 10
121.8669787042819
 20
139.0084089790236
 10
121.9875581456501
 20
138.9393350918969
 10
121.9875581456501
 20
138.9393350918969
 10
124.8082280736889
 20
137.3270348552523
 10
124.8082280736889
 20
137.3270348552523
 97
        0
 75
     2
 76
     1
 98
        0
  0
ENDBLK
  5
174
330
171
100
AcDbEntity
  8
0
100
AcDbBlockEnd
  0
ENDSEC
  0
SECTION
  2
ENTITIES
  0
INSERT
  5
42
330
1F
100
AcDbEntity
  8
_U+30EC_U+30A4_U+30E4_U+30FC 1
100
AcDbBlockReference
  2
block 2
 10
0.0
 20
0.0
 30
0.0
  0
POLYLINE
  5
EC
330
1F
100
AcDbEntity
  8
_U+30EC_U+30A4_U+30E4_U+30FC 1
 62
     7
370
     5
100
AcDb2dPolyline
 66
     1
 10
0.0
 20
0.0
 30
0.0
  0
VERTEX
  5
ED
330
EC
100
AcDbEntity
  8
_U+30EC_U+30A4_U+30E4_U+30FC 1
 62
     7
370
     5
100
AcDbVertex
100
AcDb2dVertex
 10
170.7444444017583
 20
85.46937455601737
 30
0.0
  0
VERTEX
  5
EE
330
EC
100
AcDbEntity
  8
_U+30EC_U+30A4_U+30E4_U+30FC 1
 62
     7
370
     5
100
AcDbVertex
100
AcDb2dVertex
 10
110.5598514927508
 20
115.7731245718051
 30
0.0
  0
VERTEX
  5
EF
330
EC
100
AcDbEntity
  8
_U+30EC_U+30A4_U+30E4_U+30FC 1
 62
     7
370
     5
100
AcDbVertex
100
AcDb2dVertex
 10
115.0582619335423
 20
188.8195050857352
 30
0.0
  0
VERTEX
  5
F0
330
EC
100
AcDbEntity
  8
_U+30EC_U+30A4_U+30E4_U+30FC 1
 62
     7
370
     5
100
AcDbVertex
100
AcDb2dVertex
 10
175.2423609536736
 20
158.5153968146925
 30
0.0
  0
VERTEX
  5
F1
330
EC
100
AcDbEntity
  8
_U+30EC_U+30A4_U+30E4_U+30FC 1
 62
     7
370
     5
100
AcDbVertex
100
AcDb2dVertex
 10
170.7444444017583
 20
85.46937455601737
 30
0.0
  0
SEQEND
  5
F2
330
EC
100
AcDbEntity
  8
_U+30EC_U+30A4_U+30E4_U+30FC 1
 62
     7
370
     5
  0
POLYLINE
  5
F3
330
1F
100
AcDbEntity
  8
_U+30EC_U+30A4_U+30E4_U+30FC 1
 62
     7
370
     5
100
AcDb2dPolyline
 66
     1
 10
0.0
 20
0.0
 30
0.0
  0
VERTEX
  5
F4
330
F3
100
AcDbEntity
  8
_U+30EC_U+30A4_U+30E4_U+30FC 1
 62
     7
370
     5
100
AcDbVertex
100
AcDb2dVertex
 10
116.6967735584071
 20
189.0053443701624
 30
0.0
  0
VERTEX
  5
F5
330
F3
100
AcDbEntity
  8
_U+30EC_U+30A4_U+30E4_U+30FC 1
 62
     7
370
     5
100
AcDbVertex
100
AcDb2dVertex
 10
176.8808373007615
 20
158.7014165321686
 30
0.0
  0
VERTEX
  5
F6
330
F3
100
AcDbEntity
  8
_U+30EC_U+30A4_U+30E4_U+30FC 1
 62
     7
370
     5
100
AcDbVertex
100
AcDb2dVertex
 10
172.3826032488543
 20
85.6550753401805
 30
0.0
  0
SEQEND
  5
F7
330
F3
100
AcDbEntity
  8
_U+30EC_U+30A4_U+30E4_U+30FC 1
 62
     7
370
     5
  0
POLYLINE
  5
F8
330
1F
100
AcDbEntity
  8
_U+30EC_U+30A4_U+30E4_U+30FC 1
 62
     7
370
     5
100
AcDb2dPolyline
 66
     1
 10
0.0
 20
0.0
 30
0.0
  0
VERTEX
  5
F9
330
F8
100
AcDbEntity
  8
_U+30EC_U+30A4_U+30E4_U+30FC 1
 62
     7
370
     5
100
AcDbVertex
100
AcDb2dVertex
 10
119.8936456990703
 20
187.747903291131
 30
0.0
  0
VERTEX
  5
FA
330
F8
100
AcDbEntity
  8
_U+30EC_U+30A4_U+30E4_U+30FC 1
 62
     7
370
     5
100
AcDbVertex
100
AcDb2dVertex
 10
179.6958275067229
 20
157.7056307242399
 30
0.0
  0
VERTEX
  5
FB
330
F8
100
AcDbEntity
  8
_U+30EC_U+30A4_U+30E4_U+30FC 1
 62
     7
370
     5
100
AcDbVertex
100
AcDb2dVertex
 10
175.3439962288584
 20
87.03690586048262
 30
0.0
  0
SEQEND
  5
FC
330
F8
100
AcDbEntity
  8
_U+30EC_U+30A4_U+30E4_U+30FC 1
 62
     7
370
     5
  0
POLYLINE
  5
FD
330
1F
100
AcDbEntity
  8
_U+30EC_U+30A4_U+30E4_U+30FC 1
 62
     7
370
     5
100
AcDb2dPolyline
 66
     1
 10
0.0
 20
0.0
 30
0.0
  0
VERTEX
  5
FE
330
FD
100
AcDbEntity
  8
_U+30EC_U+30A4_U+30E4_U+30FC 1
 62
     7
370
     5
100
AcDbVertex
100
AcDb2dVertex
 10
175.2423609536736
 20
158.5153968146925
 30
0.0
  0
VERTEX
  5
FF
330
FD
100
AcDbEntity
  8
_U+30EC_U+30A4_U+30E4_U+30FC 1
 62
     7
370
     5
100
AcDbVertex
100
AcDb2dVertex
 10
176.8808373007615
 20
158.7014165321686
 30
0.0
  0
SEQEND
  5
100
330
FD
100
AcDbEntity
  8
_U+30EC_U+30A4_U+30E4_U+30FC 1
 62
     7
370
     5
  0
POLYLINE
  5
101
330
1F
100
AcDbEntity
  8
_U+30EC_U+30A4_U+30E4_U+30FC 1
 62
     7
370
     5
100
AcDb2dPolyline
 66
     1
 10
0.0
 20
0.0
 30
0.0
  0
VERTEX
  5
102
330
101
100
AcDbEntity
  8
_U+30EC_U+30A4_U+30E4_U+30FC 1
 62
     7
370
     5
100
AcDbVertex
100
AcDb2dVertex
 10
176.7992045250663
 20
157.3769829548467
 30
0.0
  0
VERTEX
  5
103
330
101
100
AcDbEntity
  8
_U+30EC_U+30A4_U+30E4_U+30FC 1
 62
     7
370
     5
100
AcDbVertex
100
AcDb2dVertex
 10
179.695510006731
 20
157.7058071131243
 30
0.0
  0
SEQEND
  5
104
330
101
100
AcDbEntity
  8
_U+30EC_U+30A4_U+30E4_U+30FC 1
 62
     7
370
     5
  0
POLYLINE
  5
105
330
1F
100
AcDbEntity
  8
_U+30EC_U+30A4_U+30E4_U+30FC 1
 62
     7
370
     5
100
AcDb2dPolyline
 66
     1
 10
0.0
 20
0.0
 30
0.0
  0
VERTEX
  5
106
330
105
100
AcDbEntity
  8
_U+30EC_U+30A4_U+30E4_U+30FC 1
 62
     7
370
     5
100
AcDbVertex
100
AcDb2dVertex
 10
119.3229571025187
 20
187.6831332927835
 30
0.0
  0
VERTEX
  5
107
330
105
100
AcDbEntity
  8
_U+30EC_U+30A4_U+30E4_U+30FC 1
 62
     7
370
     5
100
AcDbVertex
100
AcDb2dVertex
 10
119.8939631990622
 20
187.747903291131
 30
0.0
  0
SEQEND
  5
108
330
105
100
AcDbEntity
  8
_U+30EC_U+30A4_U+30E4_U+30FC 1
 62
     7
370
     5
  0
POLYLINE
  5
109
330
1F
100
AcDbEntity
  8
_U+30EC_U+30A4_U+30E4_U+30FC 1
 62
     7
370
     5
100
AcDb2dPolyline
 66
     1
 10
0.0
 20
0.0
 30
0.0
  0
VERTEX
  5
10A
330
109
100
AcDbEntity
  8
_U+30EC_U+30A4_U+30E4_U+30FC 1
 62
     7
370
     5
100
AcDbVertex
100
AcDb2dVertex
 10
172.4473732472019
 20
86.70790531332057
 30
0.0
  0
VERTEX
  5
10B
330
109
100
AcDbEntity
  8
_U+30EC_U+30A4_U+30E4_U+30FC 1
 62
     7
370
     5
100
AcDbVertex
100
AcDb2dVertex
 10
175.3774088854435
 20
87.04068058260854
 30
0.0
  0
SEQEND
  5
10C
330
109
100
AcDbEntity
  8
_U+30EC_U+30A4_U+30E4_U+30FC 1
 62
     7
370
     5
  0
POLYLINE
  5
10D
330
1F
100
AcDbEntity
  8
_U+30EC_U+30A4_U+30E4_U+30FC 1
 62
     7
370
     5
100
AcDb2dPolyline
 66
     1
 10
0.0
 20
0.0
 30
0.0
  0
VERTEX
  5
10E
330
10D
100
AcDbEntity
  8
_U+30EC_U+30A4_U+30E4_U+30FC 1
 62
     7
370
     5
100
AcDbVertex
100
AcDb2dVertex
 10
170.7444444017583
 20
85.46937455601737
 30
0.0
  0
VERTEX
  5
10F
330
10D
100
AcDbEntity
  8
_U+30EC_U+30A4_U+30E4_U+30FC 1
 62
     7
370
     5
100
AcDbVertex
100
AcDb2dVertex
 10
172.3829207488462
 20
85.65542811794927
 30
0.0
  0
SEQEND
  5
110
330
10D
100
AcDbEntity
  8
_U+30EC_U+30A4_U+30E4_U+30FC 1
 62
     7
370
     5
  0
POLYLINE
  5
111
330
1F
100
AcDbEntity
  8
_U+30EC_U+30A4_U+30E4_U+30FC 1
 62
     7
370
     5
100
AcDb2dPolyline
 66
     1
 10
0.0
 20
0.0
 30
0.0
  0
VERTEX
  5
112
330
111
100
AcDbEntity
  8
_U+30EC_U+30A4_U+30E4_U+30FC 1
 62
     7
370
     5
100
AcDbVertex
100
AcDb2dVertex
 10
115.0582619335423
 20
188.8195050857352
 30
0.0
  0
VERTEX
  5
113
330
111
100
AcDbEntity
  8
_U+30EC_U+30A4_U+30E4_U+30FC 1
 62
     7
370
     5
100
AcDbVertex
100
AcDb2dVertex
 10
116.6967735584071
 20
189.0053443701624
 30
0.0
  0
SEQEND
  5
114
330
111
100
AcDbEntity
  8
_U+30EC_U+30A4_U+30E4_U+30FC 1
 62
     7
370
     5
  0
INSERT
  5
116
330
1F
100
AcDbEntity
  8
_U+30EC_U+30A4_U+30E4_U+30FC 1
100
AcDbBlockReference
  2
block 3
 10
0.0
 20
0.0
 30
0.0
  0
INSERT
  5
135
330
1F
100
AcDbEntity
  8
_U+30EC_U+30A4_U+30E4_U+30FC 1
100
AcDbBlockReference
  2
block 4
 10
0.0
 20
0.0
 30
0.0
  0
INSERT
  5
154
330
1F
100
AcDbEntity
  8
_U+30EC_U+30A4_U+30E4_U+30FC 1
100
AcDbBlockReference
  2
block 5
 10
0.0
 20
0.0
 30
0.0
  0
INSERT
  5
172
330
1F
100
AcDbEntity
  8
_U+30EC_U+30A4_U+30E4_U+30FC 1
100
AcDbBlockReference
  2
block 6
 10
0.0
 20
0.0
 30
0.0
  0
ENDSEC
  0
SECTION
  2
OBJECTS
  0
DICTIONARY
  5
C
330
0
100
AcDbDictionary
281
     1
  3
ACAD_GROUP
350
D
  3
ACAD_LAYOUT
350
1A
  3
ACAD_MATERIAL
350
3B
  3
ACAD_MLEADERSTYLE
350
1AF
  3
ACAD_MLINESTYLE
350
17
  3
ACAD_PLOTSETTINGS
350
19
  3
ACAD_PLOTSTYLENAME
350
E
  3
ACAD_TABLESTYLE
350
1AE
  3
ACAD_VISUALSTYLE
350
2A
  0
SUN
  5
3F
330
29
100
AcDbSun
 90
        1
290
     0
 63
     7
421
 16777215
 40
1.0
291
     1
 91
  2455826
 92
 54000000
292
     0
 70
     2
 71
   256
280
     1
  0
DICTIONARY
  5
D
102
{ACAD_REACTORS
330
C
102
}
330
C
100
AcDbDictionary
281
     1
  0
DICTIONARY
  5
1A
102
{ACAD_REACTORS
330
C
102
}
330
C
100
AcDbDictionary
281
     1
  3
Layout1
350
1E
  3
Layout2
350
26
  3
Model
350
22
  0
DICTIONARY
  5
3B
102
{ACAD_REACTORS
330
C
102
}
330
C
100
AcDbDictionary
281
     1
  3
ByBlock
350
3D
  3
ByLayer
350
3C
  3
Global
350
3E
  0
DICTIONARY
  5
1AF
102
{ACAD_REACTORS
330
C
102
}
330
C
100
AcDbDictionary
281
     1
  0
DICTIONARY
  5
17
102
{ACAD_REACTORS
330
C
102
}
330
C
100
AcDbDictionary
281
     1
  3
Standard
350
18
  0
DICTIONARY
  5
19
102
{ACAD_REACTORS
330
C
102
}
330
C
100
AcDbDictionary
281
     1
  0
ACDBDICTIONARYWDFLT
  5
E
102
{ACAD_REACTORS
330
C
102
}
330
C
100
AcDbDictionary
281
     1
  3
Normal
350
F
100
AcDbDictionaryWithDefault
340
F
  0
DICTIONARY
  5
1AE
102
{ACAD_REACTORS
330
C
102
}
330
C
100
AcDbDictionary
281
     1
  0
DICTIONARY
  5
2A
102
{ACAD_REACTORS
330
C
102
}
330
C
100
AcDbDictionary
281
     1
  3
2dWireframe
350
2F
  3
3D Hidden
350
31
  3
3dWireframe
350
30
  3
Basic
350
32
  3
Brighten
350
36
  3
ColorChange
350
3A
  3
Conceptual
350
34
  3
Dim
350
35
  3
Facepattern
350
39
  3
Flat
350
2B
  3
FlatWithEdges
350
2C
  3
Gouraud
350
2D
  3
GouraudWithEdges
350
2E
  3
Linepattern
350
38
  3
Realistic
350
33
  3
Thicken
350
37
  0
LAYOUT
  5
1E
102
{ACAD_REACTORS
330
1A
102
}
330
1A
100
AcDbPlotSettings
  1

  2
none_device
  4

  6

 40
0.0
 41
0.0
 42
0.0
 43
0.0
 44
0.0
 45
0.0
 46
0.0
 47
0.0
 48
0.0
 49
0.0
140
0.0
141
0.0
142
1.0
143
1.0
 70
   688
 72
     0
 73
     0
 74
     5
  7

 75
    16
 76
     0
 77
     2
 78
   300
147
1.0
148
0.0
149
0.0
100
AcDbLayout
  1
Layout1
 70
     1
 71
     1
 10
0.0
 20
0.0
 11
12.0
 21
9.0
 12
0.0
 22
0.0
 32
0.0
 14
1.000000000000000E+20
 24
1.000000000000000E+20
 34
1.000000000000000E+20
 15
-1.000000000000000E+20
 25
-1.000000000000000E+20
 35
-1.000000000000000E+20
146
0.0
 13
0.0
 23
0.0
 33
0.0
 16
1.0
 26
0.0
 36
0.0
 17
0.0
 27
1.0
 37
0.0
 76
     0
330
1B
  0
LAYOUT
  5
26
102
{ACAD_REACTORS
330
1A
102
}
330
1A
100
AcDbPlotSettings
  1

  2
none_device
  4

  6

 40
0.0
 41
0.0
 42
0.0
 43
0.0
 44
0.0
 45
0.0
 46
0.0
 47
0.0
 48
0.0
 49
0.0
140
0.0
141
0.0
142
1.0
143
1.0
 70
   688
 72
     0
 73
     0
 74
     5
  7

 75
    16
 76
     0
 77
     2
 78
   300
147
1.0
148
0.0
149
0.0
100
AcDbLayout
  1
Layout2
 70
     1
 71
     2
 10
0.0
 20
0.0
 11
0.0
 21
0.0
 12
0.0
 22
0.0
 32
0.0
 14
0.0
 24
0.0
 34
0.0
 15
0.0
 25
0.0
 35
0.0
146
0.0
 13
0.0
 23
0.0
 33
0.0
 16
1.0
 26
0.0
 36
0.0
 17
0.0
 27
1.0
 37
0.0
 76
     0
330
23
  0
LAYOUT
  5
22
102
{ACAD_REACTORS
330
1A
102
}
330
1A
100
AcDbPlotSettings
  1

  2
none_device
  4

  6

 40
0.0
 41
0.0
 42
0.0
 43
0.0
 44
0.0
 45
0.0
 46
0.0
 47
0.0
 48
0.0
 49
0.0
140
0.0
141
0.0
142
1.0
143
1.0
 70
  1712
 72
     0
 73
     0
 74
     0
  7

 75
     0
 76
     0
 77
     2
 78
   300
147
1.0
148
0.0
149
0.0
100
AcDbLayout
  1
Model
 70
     1
 71
     0
 10
0.0
 20
0.0
 11
12.0
 21
9.0
 12
0.0
 22
0.0
 32
0.0
 14
1.000000000000000E+20
 24
1.000000000000000E+20
 34
1.000000000000000E+20
 15
-1.000000000000000E+20
 25
-1.000000000000000E+20
 35
-1.000000000000000E+20
146
0.0
 13
0.0
 23
0.0
 33
0.0
 16
1.0
 26
0.0
 36
0.0
 17
0.0
 27
1.0
 37
0.0
 76
     0
330
1F
331
29
  0
MATERIAL
  5
3D
102
{ACAD_REACTORS
330
3B
102
}
330
3B
100
AcDbMaterial
  1
ByBlock
 72
     1
 94
      127
  0
MATERIAL
  5
3C
102
{ACAD_REACTORS
330
3B
102
}
330
3B
100
AcDbMaterial
  1
ByLayer
 72
     1
 94
      127
  0
MATERIAL
  5
3E
102
{ACAD_REACTORS
330
3B
102
}
330
3B
100
AcDbMaterial
  1
Global
 72
     1
 94
      127
  0
MLINESTYLE
  5
18
102
{ACAD_REACTORS
330
17
102
}
330
17
100
AcDbMlineStyle
  2
Standard
 70
     0
  3

 62
   256
 51
90.0
 52
90.0
 71
     2
 49
0.5
 62
   256
  6
BYLAYER
 49
-0.5
 62
   256
  6
BYLAYER
  0
ACDBPLACEHOLDER
  5
F
102
{ACAD_REACTORS
330
E
102
}
330
E
  0
VISUALSTYLE
  5
2F
102
{ACAD_REACTORS
330
2A
102
}
102
{ACAD_XDICTIONARY
360
196
102
}
330
2A
100
AcDbVisualStyle
  2
2dWireframe
 70
     4
 71
     0
 72
     2
 73
     0
 90
        0
 40
-0.6
 41
-30.0
 62
     5
 63
     7
421
 16777215
 74
     1
 91
        4
 64
     7
 65
   257
 75
     1
175
     1
 42
1.0
 92
        0
 66
   257
 43
1.0
 76
     1
 77
     6
 78
     2
 67
     7
 79
     5
170
     0
171
     0
290
     0
174
     0
 93
        1
 44
0.0
173
     0
291
     0
 45
0.0
  0
VISUALSTYLE
  5
31
102
{ACAD_REACTORS
330
2A
102
}
102
{ACAD_XDICTIONARY
360
19A
102
}
330
2A
100
AcDbVisualStyle
  2
3D Hidden
 70
     6
 71
     1
 72
     2
 73
     2
 90
        0
 40
-0.6
 41
-30.0
 62
     5
 63
     7
421
 16777215
 74
     2
 91
        2
 64
     7
 65
   257
 75
     2
175
     1
 42
40.0
 92
        0
 66
   257
 43
1.0
 76
     1
 77
     6
 78
     2
 67
     7
 79
     3
170
     0
171
     0
290
     0
174
     0
 93
        1
 44
0.0
173
     0
291
     0
 45
0.0
  0
VISUALSTYLE
  5
30
102
{ACAD_REACTORS
330
2A
102
}
102
{ACAD_XDICTIONARY
360
198
102
}
330
2A
100
AcDbVisualStyle
  2
3dWireframe
 70
     5
 71
     0
 72
     2
 73
     0
 90
        0
 40
-0.6
 41
-30.0
 62
     5
 63
     7
421
 16777215
 74
     1
 91
        4
 64
     7
 65
   257
 75
     1
175
     1
 42
1.0
 92
        0
 66
   257
 43
1.0
 76
     1
 77
     6
 78
     2
 67
     7
 79
     5
170
     0
171
     0
290
     0
174
     0
 93
        1
 44
0.0
173
     0
291
     0
 45
0.0
  0
VISUALSTYLE
  5
32
102
{ACAD_REACTORS
330
2A
102
}
102
{ACAD_XDICTIONARY
360
19C
102
}
330
2A
100
AcDbVisualStyle
  2
Basic
 70
     7
 71
     1
 72
     0
 73
     1
 90
        0
 40
-0.6
 41
-30.0
 62
     5
 63
     7
421
 16777215
 74
     0
 91
        4
 64
     7
 65
   257
 75
     1
175
     1
 42
1.0
 92
        8
 66
     7
 43
1.0
 76
     1
 77
     6
 78
     2
 67
     7
 79
     5
170
     0
171
     0
290
     0
174
     0
 93
        1
 44
0.0
173
     0
291
     1
 45
0.0
  0
VISUALSTYLE
  5
36
102
{ACAD_REACTORS
330
2A
102
}
102
{ACAD_XDICTIONARY
360
1A4
102
}
330
2A
100
AcDbVisualStyle
  2
Brighten
 70
    12
 71
     2
 72
     2
 73
     0
 90
        0
 40
-0.6
 41
-30.0
 62
     5
 63
     7
421
 16777215
 74
     1
 91
        4
 64
     7
 65
   257
 75
     1
175
     1
 42
1.0
 92
        8
 66
     7
 43
1.0
 76
     1
 77
     6
 78
     2
 67
     7
 79
     5
170
     0
171
     0
290
     0
174
     0
 93
        1
 44
50.0
173
     0
291
     1
 45
0.0
  0
VISUALSTYLE
  5
3A
102
{ACAD_REACTORS
330
2A
102
}
102
{ACAD_XDICTIONARY
360
1AC
102
}
330
2A
100
AcDbVisualStyle
  2
ColorChange
 70
    16
 71
     2
 72
     2
 73
     3
 90
        0
 40
-0.6
 41
-30.0
 62
     5
 63
     8
421
  8421504
 74
     1
 91
        4
 64
     7
 65
   257
 75
     1
175
     1
 42
1.0
 92
        8
 66
     8
424
  8421504
 43
1.0
 76
     1
 77
     6
 78
     2
 67
     7
 79
     5
170
     0
171
     0
290
     0
174
     0
 93
        1
 44
0.0
173
     0
291
     1
 45
0.0
  0
VISUALSTYLE
  5
34
102
{ACAD_REACTORS
330
2A
102
}
102
{ACAD_XDICTIONARY
360
1A0
102
}
330
2A
100
AcDbVisualStyle
  2
Conceptual
 70
     9
 71
     3
 72
     2
 73
     0
 90
        0
 40
-0.6
 41
-30.0
 62
     5
 63
     7
421
 16777215
 74
     2
 91
        2
 64
     7
 65
   257
 75
     1
175
     1
 42
40.0
 92
        8
 66
     7
 43
1.0
 76
     1
 77
     6
 78
     2
 67
     7
 79
     3
170
     0
171
     0
290
     0
174
     0
 93
        1
 44
0.0
173
     0
291
     0
 45
0.0
  0
VISUALSTYLE
  5
35
102
{ACAD_REACTORS
330
2A
102
}
102
{ACAD_XDICTIONARY
360
1A2
102
}
330
2A
100
AcDbVisualStyle
  2
Dim
 70
    11
 71
     2
 72
     2
 73
     0
 90
        0
 40
-0.6
 41
-30.0
 62
     5
 63
     7
421
 16777215
 74
     1
 91
        4
 64
     7
 65
   257
 75
     1
175
     1
 42
1.0
 92
        8
 66
     7
 43
1.0
 76
     1
 77
     6
 78
     2
 67
     7
 79
     5
170
     0
171
     0
290
     0
174
     0
 93
        1
 44
-50.0
173
     0
291
     1
 45
0.0
  0
VISUALSTYLE
  5
39
102
{ACAD_REACTORS
330
2A
102
}
102
{ACAD_XDICTIONARY
360
1AA
102
}
330
2A
100
AcDbVisualStyle
  2
Facepattern
 70
    15
 71
     2
 72
     2
 73
     0
 90
        0
 40
-0.6
 41
-30.0
 62
     5
 63
     7
421
 16777215
 74
     1
 91
        4
 64
     7
 65
   257
 75
     1
175
     1
 42
1.0
 92
        8
 66
     7
 43
1.0
 76
     1
 77
     6
 78
     2
 67
     7
 79
     5
170
     0
171
     0
290
     0
174
     0
 93
        1
 44
0.0
173
     0
291
     1
 45
0.0
  0
VISUALSTYLE
  5
2B
102
{ACAD_REACTORS
330
2A
102
}
102
{ACAD_XDICTIONARY
360
18E
102
}
330
2A
100
AcDbVisualStyle
  2
Flat
 70
     0
 71
     2
 72
     1
 73
     1
 90
        2
 40
-0.6
 41
30.0
 62
     5
 63
     7
421
 16777215
 74
     0
 91
        4
 64
     7
 65
   257
 75
     1
175
     1
 42
1.0
 92
        8
 66
     7
 43
1.0
 76
     1
 77
     6
 78
     2
 67
     7
 79
     5
170
     0
171
     0
290
     0
174
     0
 93
       13
 44
0.0
173
     0
291
     1
 45
0.0
  0
VISUALSTYLE
  5
2C
102
{ACAD_REACTORS
330
2A
102
}
102
{ACAD_XDICTIONARY
360
190
102
}
330
2A
100
AcDbVisualStyle
  2
FlatWithEdges
 70
     1
 71
     2
 72
     1
 73
     1
 90
        2
 40
-0.6
 41
30.0
 62
     5
 63
     7
421
 16777215
 74
     1
 91
        4
 64
     7
 65
   257
 75
     1
175
     1
 42
1.0
 92
        0
 66
   257
 43
1.0
 76
     1
 77
     6
 78
     2
 67
     7
 79
     5
170
     0
171
     0
290
     0
174
     0
 93
       13
 44
0.0
173
     0
291
     1
 45
0.0
  0
VISUALSTYLE
  5
2D
102
{ACAD_REACTORS
330
2A
102
}
102
{ACAD_XDICTIONARY
360
192
102
}
330
2A
100
AcDbVisualStyle
  2
Gouraud
 70
     2
 71
     2
 72
     2
 73
     1
 90
        2
 40
-0.6
 41
30.0
 62
     5
 63
     7
421
 16777215
 74
     0
 91
        4
 64
     7
 65
   257
 75
     1
175
     1
 42
1.0
 92
        0
 66
     7
 43
1.0
 76
     1
 77
     6
 78
     2
 67
     7
 79
     5
170
     0
171
     0
290
     0
174
     0
 93
       13
 44
0.0
173
     0
291
     1
 45
0.0
  0
VISUALSTYLE
  5
2E
102
{ACAD_REACTORS
330
2A
102
}
102
{ACAD_XDICTIONARY
360
194
102
}
330
2A
100
AcDbVisualStyle
  2
GouraudWithEdges
 70
     3
 71
     2
 72
     2
 73
     1
 90
        2
 40
-0.6
 41
30.0
 62
     5
 63
     7
421
 16777215
 74
     1
 91
        4
 64
     7
 65
   257
 75
     1
175
     1
 42
1.0
 92
        0
 66
   257
 43
1.0
 76
     1
 77
     6
 78
     2
 67
     7
 79
     5
170
     0
171
     0
290
     0
174
     0
 93
       13
 44
0.0
173
     0
291
     1
 45
0.0
  0
VISUALSTYLE
  5
38
102
{ACAD_REACTORS
330
2A
102
}
102
{ACAD_XDICTIONARY
360
1A8
102
}
330
2A
100
AcDbVisualStyle
  2
Linepattern
 70
    14
 71
     2
 72
     2
 73
     0
 90
        0
 40
-0.6
 41
-30.0
 62
     5
 63
     7
421
 16777215
 74
     1
 91
        4
 64
     7
 65
   257
 75
     7
175
     7
 42
1.0
 92
        8
 66
     7
 43
1.0
 76
     1
 77
     6
 78
     2
 67
     7
 79
     5
170
     0
171
     0
290
     0
174
     0
 93
        1
 44
0.0
173
     0
291
     1
 45
0.0
  0
VISUALSTYLE
  5
33
102
{ACAD_REACTORS
330
2A
102
}
102
{ACAD_XDICTIONARY
360
19E
102
}
330
2A
100
AcDbVisualStyle
  2
Realistic
 70
     8
 71
     2
 72
     2
 73
     0
 90
        0
 40
-0.6
 41
-30.0
 62
     5
 63
     7
421
 16777215
 74
     1
 91
        0
 64
     7
 65
   257
 75
     1
175
     1
 42
1.0
 92
        8
 66
     8
424
  7895160
 43
1.0
 76
     1
 77
     6
 78
     2
 67
     7
 79
     5
170
     0
171
     0
290
     0
174
     0
 93
       13
 44
0.0
173
     0
291
     0
 45
0.0
  0
VISUALSTYLE
  5
37
102
{ACAD_REACTORS
330
2A
102
}
102
{ACAD_XDICTIONARY
360
1A6
102
}
330
2A
100
AcDbVisualStyle
  2
Thicken
 70
    13
 71
     2
 72
     2
 73
     0
 90
        0
 40
-0.6
 41
-30.0
 62
     5
 63
     7
421
 16777215
 74
     1
 91
        4
 64
     7
 65
   257
 75
     1
175
     1
 42
1.0
 92
       12
 66
     7
 43
1.0
 76
     1
 77
     6
 78
     2
 67
     7
 79
     5
170
     0
171
     0
290
     0
174
     0
 93
        1
 44
0.0
173
     0
291
     1
 45
0.0
  0
DICTIONARY
  5
196
330
2F
100
AcDbDictionary
280
     1
281
     1
  3
ACAD_XREC_ROUNDTRIP
360
197
  0
DICTIONARY
  5
19A
330
31
100
AcDbDictionary
280
     1
281
     1
  3
ACAD_XREC_ROUNDTRIP
360
19B
  0
DICTIONARY
  5
198
330
30
100
AcDbDictionary
280
     1
281
     1
  3
ACAD_XREC_ROUNDTRIP
360
199
  0
DICTIONARY
  5
19C
330
32
100
AcDbDictionary
280
     1
281
     1
  3
ACAD_XREC_ROUNDTRIP
360
19D
  0
DICTIONARY
  5
1A4
330
36
100
AcDbDictionary
280
     1
281
     1
  3
ACAD_XREC_ROUNDTRIP
360
1A5
  0
DICTIONARY
  5
1AC
330
3A
100
AcDbDictionary
280
     1
281
     1
  3
ACAD_XREC_ROUNDTRIP
360
1AD
  0
DICTIONARY
  5
1A0
330
34
100
AcDbDictionary
280
     1
281
     1
  3
ACAD_XREC_ROUNDTRIP
360
1A1
  0
DICTIONARY
  5
1A2
330
35
100
AcDbDictionary
280
     1
281
     1
  3
ACAD_XREC_ROUNDTRIP
360
1A3
  0
DICTIONARY
  5
1AA
330
39
100
AcDbDictionary
280
     1
281
     1
  3
ACAD_XREC_ROUNDTRIP
360
1AB
  0
DICTIONARY
  5
18E
330
2B
100
AcDbDictionary
280
     1
281
     1
  3
ACAD_XREC_ROUNDTRIP
360
18F
  0
DICTIONARY
  5
190
330
2C
100
AcDbDictionary
280
     1
281
     1
  3
ACAD_XREC_ROUNDTRIP
360
191
  0
DICTIONARY
  5
192
330
2D
100
AcDbDictionary
280
     1
281
     1
  3
ACAD_XREC_ROUNDTRIP
360
193
  0
DICTIONARY
  5
194
330
2E
100
AcDbDictionary
280
     1
281
     1
  3
ACAD_XREC_ROUNDTRIP
360
195
  0
DICTIONARY
  5
1A8
330
38
100
AcDbDictionary
280
     1
281
     1
  3
ACAD_XREC_ROUNDTRIP
360
1A9
  0
DICTIONARY
  5
19E
330
33
100
AcDbDictionary
280
     1
281
     1
  3
ACAD_XREC_ROUNDTRIP
360
19F
  0
DICTIONARY
  5
1A6
330
37
100
AcDbDictionary
280
     1
281
     1
  3
ACAD_XREC_ROUNDTRIP
360
1A7
  0
XRECORD
  5
197
102
{ACAD_REACTORS
330
196
102
}
330
196
100
AcDbXrecord
280
     1
102
RTVSPropertyOp0
 70
     1
102
RTVSPropertyOp1
 70
     1
102
RTVSPropertyOp2
 70
     1
102
RTVSPropertyOp3
 70
     1
102
RTVSPropertyOp4
 70
     1
102
RTVSPropertyOp5
 70
     1
102
RTVSPropertyOp6
 70
     1
102
RTVSPropertyOp7
 70
     1
102
RTVSPropertyOp8
 70
     1
102
RTVSPropertyOp9
 70
     1
102
RTVSPropertyOp10
 70
     1
102
RTVSPropertyOp11
 70
     1
102
RTVSPropertyOp12
 70
     1
102
RTVSPropertyOp13
 70
     1
102
RTVSPropertyOp14
 70
     1
102
RTVSPropertyOp15
 70
     1
102
RTVSPropertyOp16
 70
     1
102
RTVSPropertyOp17
 70
     1
102
RTVSPropertyOp18
 70
     1
102
RTVSPropertyOp19
 70
     1
102
RTVSPropertyOp20
 70
     1
102
RTVSPropertyOp21
 70
     1
102
RTVSPropertyOp22
 70
     1
102
RTVSPropertyOp23
 70
     1
102
RTVSPropertyOp24
 70
     1
102
RTVSPropertyOp25
 70
     1
102
RTVSPropertyOp26
 70
     1
102
RTVSPropertyOp27
 70
     1
102
RTVSPropertyOp28
 70
     1
102
RTVSPropertyOp29
 70
     1
102
RTVSPropertyOp30
 70
     1
102
RTVSPropertyOp31
 70
     1
102
RTVSPropertyOp32
 70
     1
  0
XRECORD
  5
19B
102
{ACAD_REACTORS
330
19A
102
}
330
19A
100
AcDbXrecord
280
     1
102
RTVSPropertyOp0
 70
     1
102
RTVSPropertyOp1
 70
     1
102
RTVSPropertyOp2
 70
     1
102
RTVSPropertyOp3
 70
     1
102
RTVSPropertyOp4
 70
     1
102
RTVSPropertyOp5
 70
     1
102
RTVSPropertyOp6
 70
     1
102
RTVSPropertyOp7
 70
     1
102
RTVSPropertyOp8
 70
     1
102
RTVSPropertyOp9
 70
     1
102
RTVSPropertyOp10
 70
     1
102
RTVSPropertyOp11
 70
     1
102
RTVSPropertyOp12
 70
     1
102
RTVSPropertyOp13
 70
     1
102
RTVSPropertyOp14
 70
     1
102
RTVSPropertyOp15
 70
     1
102
RTVSPropertyOp16
 70
     1
102
RTVSPropertyOp17
 70
     1
102
RTVSPropertyOp18
 70
     1
102
RTVSPropertyOp19
 70
     1
102
RTVSPropertyOp20
 70
     1
102
RTVSPropertyOp21
 70
     1
102
RTVSPropertyOp22
 70
     1
102
RTVSPropertyOp23
 70
     1
102
RTVSPropertyOp24
 70
     1
102
RTVSPropertyOp25
 70
     1
102
RTVSPropertyOp26
 70
     1
102
RTVSPropertyOp27
 70
     1
102
RTVSPropertyOp28
 70
     1
102
RTVSPropertyOp29
 70
     1
102
RTVSPropertyOp30
 70
     1
102
RTVSPropertyOp31
 70
     1
102
RTVSPropertyOp32
 70
     1
  0
XRECORD
  5
199
102
{ACAD_REACTORS
330
198
102
}
330
198
100
AcDbXrecord
280
     1
102
RTVSPropertyOp0
 70
     1
102
RTVSPropertyOp1
 70
     1
102
RTVSPropertyOp2
 70
     1
102
RTVSPropertyOp3
 70
     1
102
RTVSPropertyOp4
 70
     1
102
RTVSPropertyOp5
 70
     1
102
RTVSPropertyOp6
 70
     1
102
RTVSPropertyOp7
 70
     1
102
RTVSPropertyOp8
 70
     1
102
RTVSPropertyOp9
 70
     1
102
RTVSPropertyOp10
 70
     1
102
RTVSPropertyOp11
 70
     1
102
RTVSPropertyOp12
 70
     1
102
RTVSPropertyOp13
 70
     1
102
RTVSPropertyOp14
 70
     1
102
RTVSPropertyOp15
 70
     1
102
RTVSPropertyOp16
 70
     1
102
RTVSPropertyOp17
 70
     1
102
RTVSPropertyOp18
 70
     1
102
RTVSPropertyOp19
 70
     1
102
RTVSPropertyOp20
 70
     1
102
RTVSPropertyOp21
 70
     1
102
RTVSPropertyOp22
 70
     1
102
RTVSPropertyOp23
 70
     1
102
RTVSPropertyOp24
 70
     1
102
RTVSPropertyOp25
 70
     1
102
RTVSPropertyOp26
 70
     1
102
RTVSPropertyOp27
 70
     1
102
RTVSPropertyOp28
 70
     1
102
RTVSPropertyOp29
 70
     1
102
RTVSPropertyOp30
 70
     1
102
RTVSPropertyOp31
 70
     1
102
RTVSPropertyOp32
 70
     1
  0
XRECORD
  5
19D
102
{ACAD_REACTORS
330
19C
102
}
330
19C
100
AcDbXrecord
280
     1
102
RTVSPropertyOp0
 70
     1
102
RTVSPropertyOp1
 70
     1
102
RTVSPropertyOp2
 70
     1
102
RTVSPropertyOp3
 70
     1
102
RTVSPropertyOp4
 70
     1
102
RTVSPropertyOp5
 70
     1
102
RTVSPropertyOp6
 70
     1
102
RTVSPropertyOp7
 70
     1
102
RTVSPropertyOp8
 70
     1
102
RTVSPropertyOp9
 70
     1
102
RTVSPropertyOp10
 70
     1
102
RTVSPropertyOp11
 70
     1
102
RTVSPropertyOp12
 70
     1
102
RTVSPropertyOp13
 70
     1
102
RTVSPropertyOp14
 70
     1
102
RTVSPropertyOp15
 70
     1
102
RTVSPropertyOp16
 70
     1
102
RTVSPropertyOp17
 70
     1
102
RTVSPropertyOp18
 70
     1
102
RTVSPropertyOp19
 70
     1
102
RTVSPropertyOp20
 70
     1
102
RTVSPropertyOp21
 70
     1
102
RTVSPropertyOp22
 70
     1
102
RTVSPropertyOp23
 70
     1
102
RTVSPropertyOp24
 70
     1
102
RTVSPropertyOp25
 70
     1
102
RTVSPropertyOp26
 70
     1
102
RTVSPropertyOp27
 70
     1
102
RTVSPropertyOp28
 70
     1
102
RTVSPropertyOp29
 70
     1
102
RTVSPropertyOp30
 70
     1
102
RTVSPropertyOp31
 70
     1
102
RTVSPropertyOp32
 70
     1
  0
XRECORD
  5
1A5
102
{ACAD_REACTORS
330
1A4
102
}
330
1A4
100
AcDbXrecord
280
     1
102
RTVSPropertyOp0
 70
     1
102
RTVSPropertyOp1
 70
     1
102
RTVSPropertyOp2
 70
     1
102
RTVSPropertyOp3
 70
     1
102
RTVSPropertyOp4
 70
     1
102
RTVSPropertyOp5
 70
     1
102
RTVSPropertyOp6
 70
     1
102
RTVSPropertyOp7
 70
     1
102
RTVSPropertyOp8
 70
     1
102
RTVSPropertyOp9
 70
     1
102
RTVSPropertyOp10
 70
     1
102
RTVSPropertyOp11
 70
     1
102
RTVSPropertyOp12
 70
     1
102
RTVSPropertyOp13
 70
     1
102
RTVSPropertyOp14
 70
     1
102
RTVSPropertyOp15
 70
     1
102
RTVSPropertyOp16
 70
     1
102
RTVSPropertyOp17
 70
     1
102
RTVSPropertyOp18
 70
     1
102
RTVSPropertyOp19
 70
     1
102
RTVSPropertyOp20
 70
     1
102
RTVSPropertyOp21
 70
     1
102
RTVSPropertyOp22
 70
     1
102
RTVSPropertyOp23
 70
     1
102
RTVSPropertyOp24
 70
     1
102
RTVSPropertyOp25
 70
     1
102
RTVSPropertyOp26
 70
     1
102
RTVSPropertyOp27
 70
     1
102
RTVSPropertyOp28
 70
     1
102
RTVSPropertyOp29
 70
     1
102
RTVSPropertyOp30
 70
     1
102
RTVSPropertyOp31
 70
     1
102
RTVSPropertyOp32
 70
     1
  0
XRECORD
  5
1AD
102
{ACAD_REACTORS
330
1AC
102
}
330
1AC
100
AcDbXrecord
280
     1
102
RTVSPropertyOp0
 70
     1
102
RTVSPropertyOp1
 70
     1
102
RTVSPropertyOp2
 70
     1
102
RTVSPropertyOp3
 70
     1
102
RTVSPropertyOp4
 70
     1
102
RTVSPropertyOp5
 70
     1
102
RTVSPropertyOp6
 70
     1
102
RTVSPropertyOp7
 70
     1
102
RTVSPropertyOp8
 70
     1
102
RTVSPropertyOp9
 70
     1
102
RTVSPropertyOp10
 70
     1
102
RTVSPropertyOp11
 70
     1
102
RTVSPropertyOp12
 70
     1
102
RTVSPropertyOp13
 70
     1
102
RTVSPropertyOp14
 70
     1
102
RTVSPropertyOp15
 70
     1
102
RTVSPropertyOp16
 70
     1
102
RTVSPropertyOp17
 70
     1
102
RTVSPropertyOp18
 70
     1
102
RTVSPropertyOp19
 70
     1
102
RTVSPropertyOp20
 70
     1
102
RTVSPropertyOp21
 70
     1
102
RTVSPropertyOp22
 70
     1
102
RTVSPropertyOp23
 70
     1
102
RTVSPropertyOp24
 70
     1
102
RTVSPropertyOp25
 70
     1
102
RTVSPropertyOp26
 70
     1
102
RTVSPropertyOp27
 70
     1
102
RTVSPropertyOp28
 70
     1
102
RTVSPropertyOp29
 70
     1
102
RTVSPropertyOp30
 70
     1
102
RTVSPropertyOp31
 70
     1
102
RTVSPropertyOp32
 70
     1
  0
XRECORD
  5
1A1
102
{ACAD_REACTORS
330
1A0
102
}
330
1A0
100
AcDbXrecord
280
     1
102
RTVSPropertyOp0
 70
     1
102
RTVSPropertyOp1
 70
     1
102
RTVSPropertyOp2
 70
     1
102
RTVSPropertyOp3
 70
     1
102
RTVSPropertyOp4
 70
     1
102
RTVSPropertyOp5
 70
     1
102
RTVSPropertyOp6
 70
     1
102
RTVSPropertyOp7
 70
     1
102
RTVSPropertyOp8
 70
     1
102
RTVSPropertyOp9
 70
     1
102
RTVSPropertyOp10
 70
     1
102
RTVSPropertyOp11
 70
     1
102
RTVSPropertyOp12
 70
     1
102
RTVSPropertyOp13
 70
     1
102
RTVSPropertyOp14
 70
     1
102
RTVSPropertyOp15
 70
     1
102
RTVSPropertyOp16
 70
     1
102
RTVSPropertyOp17
 70
     1
102
RTVSPropertyOp18
 70
     1
102
RTVSPropertyOp19
 70
     1
102
RTVSPropertyOp20
 70
     1
102
RTVSPropertyOp21
 70
     1
102
RTVSPropertyOp22
 70
     1
102
RTVSPropertyOp23
 70
     1
102
RTVSPropertyOp24
 70
     1
102
RTVSPropertyOp25
 70
     1
102
RTVSPropertyOp26
 70
     1
102
RTVSPropertyOp27
 70
     1
102
RTVSPropertyOp28
 70
     1
102
RTVSPropertyOp29
 70
     1
102
RTVSPropertyOp30
 70
     1
102
RTVSPropertyOp31
 70
     1
102
RTVSPropertyOp32
 70
     1
  0
XRECORD
  5
1A3
102
{ACAD_REACTORS
330
1A2
102
}
330
1A2
100
AcDbXrecord
280
     1
102
RTVSPropertyOp0
 70
     1
102
RTVSPropertyOp1
 70
     1
102
RTVSPropertyOp2
 70
     1
102
RTVSPropertyOp3
 70
     1
102
RTVSPropertyOp4
 70
     1
102
RTVSPropertyOp5
 70
     1
102
RTVSPropertyOp6
 70
     1
102
RTVSPropertyOp7
 70
     1
102
RTVSPropertyOp8
 70
     1
102
RTVSPropertyOp9
 70
     1
102
RTVSPropertyOp10
 70
     1
102
RTVSPropertyOp11
 70
     1
102
RTVSPropertyOp12
 70
     1
102
RTVSPropertyOp13
 70
     1
102
RTVSPropertyOp14
 70
     1
102
RTVSPropertyOp15
 70
     1
102
RTVSPropertyOp16
 70
     1
102
RTVSPropertyOp17
 70
     1
102
RTVSPropertyOp18
 70
     1
102
RTVSPropertyOp19
 70
     1
102
RTVSPropertyOp20
 70
     1
102
RTVSPropertyOp21
 70
     1
102
RTVSPropertyOp22
 70
     1
102
RTVSPropertyOp23
 70
     1
102
RTVSPropertyOp24
 70
     1
102
RTVSPropertyOp25
 70
     1
102
RTVSPropertyOp26
 70
     1
102
RTVSPropertyOp27
 70
     1
102
RTVSPropertyOp28
 70
     1
102
RTVSPropertyOp29
 70
     1
102
RTVSPropertyOp30
 70
     1
102
RTVSPropertyOp31
 70
     1
102
RTVSPropertyOp32
 70
     1
  0
XRECORD
  5
1AB
102
{ACAD_REACTORS
330
1AA
102
}
330
1AA
100
AcDbXrecord
280
     1
102
RTVSPropertyOp0
 70
     1
102
RTVSPropertyOp1
 70
     1
102
RTVSPropertyOp2
 70
     1
102
RTVSPropertyOp3
 70
     1
102
RTVSPropertyOp4
 70
     1
102
RTVSPropertyOp5
 70
     1
102
RTVSPropertyOp6
 70
     1
102
RTVSPropertyOp7
 70
     1
102
RTVSPropertyOp8
 70
     1
102
RTVSPropertyOp9
 70
     1
102
RTVSPropertyOp10
 70
     1
102
RTVSPropertyOp11
 70
     1
102
RTVSPropertyOp12
 70
     1
102
RTVSPropertyOp13
 70
     1
102
RTVSPropertyOp14
 70
     1
102
RTVSPropertyOp15
 70
     1
102
RTVSPropertyOp16
 70
     1
102
RTVSPropertyOp17
 70
     1
102
RTVSPropertyOp18
 70
     1
102
RTVSPropertyOp19
 70
     1
102
RTVSPropertyOp20
 70
     1
102
RTVSPropertyOp21
 70
     1
102
RTVSPropertyOp22
 70
     1
102
RTVSPropertyOp23
 70
     1
102
RTVSPropertyOp24
 70
     1
102
RTVSPropertyOp25
 70
     1
102
RTVSPropertyOp26
 70
     1
102
RTVSPropertyOp27
 70
     1
102
RTVSPropertyOp28
 70
     1
102
RTVSPropertyOp29
 70
     1
102
RTVSPropertyOp30
 70
     1
102
RTVSPropertyOp31
 70
     1
102
RTVSPropertyOp32
 70
     1
  0
XRECORD
  5
18F
102
{ACAD_REACTORS
330
18E
102
}
330
18E
100
AcDbXrecord
280
     1
102
RTVSPropertyOp0
 70
     1
102
RTVSPropertyOp1
 70
     1
102
RTVSPropertyOp2
 70
     1
102
RTVSPropertyOp3
 70
     1
102
RTVSPropertyOp4
 70
     1
102
RTVSPropertyOp5
 70
     1
102
RTVSPropertyOp6
 70
     1
102
RTVSPropertyOp7
 70
     1
102
RTVSPropertyOp8
 70
     1
102
RTVSPropertyOp9
 70
     1
102
RTVSPropertyOp10
 70
     1
102
RTVSPropertyOp11
 70
     1
102
RTVSPropertyOp12
 70
     1
102
RTVSPropertyOp13
 70
     1
102
RTVSPropertyOp14
 70
     1
102
RTVSPropertyOp15
 70
     1
102
RTVSPropertyOp16
 70
     1
102
RTVSPropertyOp17
 70
     1
102
RTVSPropertyOp18
 70
     1
102
RTVSPropertyOp19
 70
     1
102
RTVSPropertyOp20
 70
     1
102
RTVSPropertyOp21
 70
     1
102
RTVSPropertyOp22
 70
     1
102
RTVSPropertyOp23
 70
     1
102
RTVSPropertyOp24
 70
     1
102
RTVSPropertyOp25
 70
     1
102
RTVSPropertyOp26
 70
     1
102
RTVSPropertyOp27
 70
     1
102
RTVSPropertyOp28
 70
     1
102
RTVSPropertyOp29
 70
     1
102
RTVSPropertyOp30
 70
     1
102
RTVSPropertyOp31
 70
     1
102
RTVSPropertyOp32
 70
     1
  0
XRECORD
  5
191
102
{ACAD_REACTORS
330
190
102
}
330
190
100
AcDbXrecord
280
     1
102
RTVSPropertyOp0
 70
     1
102
RTVSPropertyOp1
 70
     1
102
RTVSPropertyOp2
 70
     1
102
RTVSPropertyOp3
 70
     1
102
RTVSPropertyOp4
 70
     1
102
RTVSPropertyOp5
 70
     1
102
RTVSPropertyOp6
 70
     1
102
RTVSPropertyOp7
 70
     1
102
RTVSPropertyOp8
 70
     1
102
RTVSPropertyOp9
 70
     1
102
RTVSPropertyOp10
 70
     1
102
RTVSPropertyOp11
 70
     1
102
RTVSPropertyOp12
 70
     1
102
RTVSPropertyOp13
 70
     1
102
RTVSPropertyOp14
 70
     1
102
RTVSPropertyOp15
 70
     1
102
RTVSPropertyOp16
 70
     1
102
RTVSPropertyOp17
 70
     1
102
RTVSPropertyOp18
 70
     1
102
RTVSPropertyOp19
 70
     1
102
RTVSPropertyOp20
 70
     1
102
RTVSPropertyOp21
 70
     1
102
RTVSPropertyOp22
 70
     1
102
RTVSPropertyOp23
 70
     1
102
RTVSPropertyOp24
 70
     1
102
RTVSPropertyOp25
 70
     1
102
RTVSPropertyOp26
 70
     1
102
RTVSPropertyOp27
 70
     1
102
RTVSPropertyOp28
 70
     1
102
RTVSPropertyOp29
 70
     1
102
RTVSPropertyOp30
 70
     1
102
RTVSPropertyOp31
 70
     1
102
RTVSPropertyOp32
 70
     1
  0
XRECORD
  5
193
102
{ACAD_REACTORS
330
192
102
}
330
192
100
AcDbXrecord
280
     1
102
RTVSPropertyOp0
 70
     1
102
RTVSPropertyOp1
 70
     1
102
RTVSPropertyOp2
 70
     1
102
RTVSPropertyOp3
 70
     1
102
RTVSPropertyOp4
 70
     1
102
RTVSPropertyOp5
 70
     1
102
RTVSPropertyOp6
 70
     1
102
RTVSPropertyOp7
 70
     1
102
RTVSPropertyOp8
 70
     1
102
RTVSPropertyOp9
 70
     1
102
RTVSPropertyOp10
 70
     1
102
RTVSPropertyOp11
 70
     1
102
RTVSPropertyOp12
 70
     1
102
RTVSPropertyOp13
 70
     1
102
RTVSPropertyOp14
 70
     1
102
RTVSPropertyOp15
 70
     1
102
RTVSPropertyOp16
 70
     1
102
RTVSPropertyOp17
 70
     1
102
RTVSPropertyOp18
 70
     1
102
RTVSPropertyOp19
 70
     1
102
RTVSPropertyOp20
 70
     1
102
RTVSPropertyOp21
 70
     1
102
RTVSPropertyOp22
 70
     1
102
RTVSPropertyOp23
 70
     1
102
RTVSPropertyOp24
 70
     1
102
RTVSPropertyOp25
 70
     1
102
RTVSPropertyOp26
 70
     1
102
RTVSPropertyOp27
 70
     1
102
RTVSPropertyOp28
 70
     1
102
RTVSPropertyOp29
 70
     1
102
RTVSPropertyOp30
 70
     1
102
RTVSPropertyOp31
 70
     1
102
RTVSPropertyOp32
 70
     1
  0
XRECORD
  5
195
102
{ACAD_REACTORS
330
194
102
}
330
194
100
AcDbXrecord
280
     1
102
RTVSPropertyOp0
 70
     1
102
RTVSPropertyOp1
 70
     1
102
RTVSPropertyOp2
 70
     1
102
RTVSPropertyOp3
 70
     1
102
RTVSPropertyOp4
 70
     1
102
RTVSPropertyOp5
 70
     1
102
RTVSPropertyOp6
 70
     1
102
RTVSPropertyOp7
 70
     1
102
RTVSPropertyOp8
 70
     1
102
RTVSPropertyOp9
 70
     1
102
RTVSPropertyOp10
 70
     1
102
RTVSPropertyOp11
 70
     1
102
RTVSPropertyOp12
 70
     1
102
RTVSPropertyOp13
 70
     1
102
RTVSPropertyOp14
 70
     1
102
RTVSPropertyOp15
 70
     1
102
RTVSPropertyOp16
 70
     1
102
RTVSPropertyOp17
 70
     1
102
RTVSPropertyOp18
 70
     1
102
RTVSPropertyOp19
 70
     1
102
RTVSPropertyOp20
 70
     1
102
RTVSPropertyOp21
 70
     1
102
RTVSPropertyOp22
 70
     1
102
RTVSPropertyOp23
 70
     1
102
RTVSPropertyOp24
 70
     1
102
RTVSPropertyOp25
 70
     1
102
RTVSPropertyOp26
 70
     1
102
RTVSPropertyOp27
 70
     1
102
RTVSPropertyOp28
 70
     1
102
RTVSPropertyOp29
 70
     1
102
RTVSPropertyOp30
 70
     1
102
RTVSPropertyOp31
 70
     1
102
RTVSPropertyOp32
 70
     1
  0
XRECORD
  5
1A9
102
{ACAD_REACTORS
330
1A8
102
}
330
1A8
100
AcDbXrecord
280
     1
102
RTVSPropertyOp0
 70
     1
102
RTVSPropertyOp1
 70
     1
102
RTVSPropertyOp2
 70
     1
102
RTVSPropertyOp3
 70
     1
102
RTVSPropertyOp4
 70
     1
102
RTVSPropertyOp5
 70
     1
102
RTVSPropertyOp6
 70
     1
102
RTVSPropertyOp7
 70
     1
102
RTVSPropertyOp8
 70
     1
102
RTVSPropertyOp9
 70
     1
102
RTVSPropertyOp10
 70
     1
102
RTVSPropertyOp11
 70
     1
102
RTVSPropertyOp12
 70
     1
102
RTVSPropertyOp13
 70
     1
102
RTVSPropertyOp14
 70
     1
102
RTVSPropertyOp15
 70
     1
102
RTVSPropertyOp16
 70
     1
102
RTVSPropertyOp17
 70
     1
102
RTVSPropertyOp18
 70
     1
102
RTVSPropertyOp19
 70
     1
102
RTVSPropertyOp20
 70
     1
102
RTVSPropertyOp21
 70
     1
102
RTVSPropertyOp22
 70
     1
102
RTVSPropertyOp23
 70
     1
102
RTVSPropertyOp24
 70
     1
102
RTVSPropertyOp25
 70
     1
102
RTVSPropertyOp26
 70
     1
102
RTVSPropertyOp27
 70
     1
102
RTVSPropertyOp28
 70
     1
102
RTVSPropertyOp29
 70
     1
102
RTVSPropertyOp30
 70
     1
102
RTVSPropertyOp31
 70
     1
102
RTVSPropertyOp32
 70
     1
  0
XRECORD
  5
19F
102
{ACAD_REACTORS
330
19E
102
}
330
19E
100
AcDbXrecord
280
     1
102
RTVSPropertyOp0
 70
     1
102
RTVSPropertyOp1
 70
     1
102
RTVSPropertyOp2
 70
     1
102
RTVSPropertyOp3
 70
     1
102
RTVSPropertyOp4
 70
     1
102
RTVSPropertyOp5
 70
     1
102
RTVSPropertyOp6
 70
     1
102
RTVSPropertyOp7
 70
     1
102
RTVSPropertyOp8
 70
     1
102
RTVSPropertyOp9
 70
     1
102
RTVSPropertyOp10
 70
     1
102
RTVSPropertyOp11
 70
     1
102
RTVSPropertyOp12
 70
     1
102
RTVSPropertyOp13
 70
     1
102
RTVSPropertyOp14
 70
     1
102
RTVSPropertyOp15
 70
     1
102
RTVSPropertyOp16
 70
     1
102
RTVSPropertyOp17
 70
     1
102
RTVSPropertyOp18
 70
     1
102
RTVSPropertyOp19
 70
     1
102
RTVSPropertyOp20
 70
     1
102
RTVSPropertyOp21
 70
     1
102
RTVSPropertyOp22
 70
     1
102
RTVSPropertyOp23
 70
     1
102
RTVSPropertyOp24
 70
     1
102
RTVSPropertyOp25
 70
     1
102
RTVSPropertyOp26
 70
     1
102
RTVSPropertyOp27
 70
     1
102
RTVSPropertyOp28
 70
     1
102
RTVSPropertyOp29
 70
     1
102
RTVSPropertyOp30
 70
     1
102
RTVSPropertyOp31
 70
     1
102
RTVSPropertyOp32
 70
     1
  0
XRECORD
  5
1A7
102
{ACAD_REACTORS
330
1A6
102
}
330
1A6
100
AcDbXrecord
280
     1
102
RTVSPropertyOp0
 70
     1
102
RTVSPropertyOp1
 70
     1
102
RTVSPropertyOp2
 70
     1
102
RTVSPropertyOp3
 70
     1
102
RTVSPropertyOp4
 70
     1
102
RTVSPropertyOp5
 70
     1
102
RTVSPropertyOp6
 70
     1
102
RTVSPropertyOp7
 70
     1
102
RTVSPropertyOp8
 70
     1
102
RTVSPropertyOp9
 70
     1
102
RTVSPropertyOp10
 70
     1
102
RTVSPropertyOp11
 70
     1
102
RTVSPropertyOp12
 70
     1
102
RTVSPropertyOp13
 70
     1
102
RTVSPropertyOp14
 70
     1
102
RTVSPropertyOp15
 70
     1
102
RTVSPropertyOp16
 70
     1
102
RTVSPropertyOp17
 70
     1
102
RTVSPropertyOp18
 70
     1
102
RTVSPropertyOp19
 70
     1
102
RTVSPropertyOp20
 70
     1
102
RTVSPropertyOp21
 70
     1
102
RTVSPropertyOp22
 70
     1
102
RTVSPropertyOp23
 70
     1
102
RTVSPropertyOp24
 70
     1
102
RTVSPropertyOp25
 70
     1
102
RTVSPropertyOp26
 70
     1
102
RTVSPropertyOp27
 70
     1
102
RTVSPropertyOp28
 70
     1
102
RTVSPropertyOp29
 70
     1
102
RTVSPropertyOp30
 70
     1
102
RTVSPropertyOp31
 70
     1
102
RTVSPropertyOp32
 70
     1
  0
ENDSEC
  0
EOF
