  0
SECTION
  2
HEADER
  9
$ACADVER
  1
AC1021
  9
$ACADMAINTVER
 70
    25
  9
$DWGCODEPAGE
  3
ANSI_932
  9
$INSBASE
 10
0.0
 20
0.0
 30
0.0
  9
$EXTMIN
 10
1.000000000000000E+20
 20
1.000000000000000E+20
 30
1.000000000000000E+20
  9
$EXTMAX
 10
-1.000000000000000E+20
 20
-1.000000000000000E+20
 30
-1.000000000000000E+20
  9
$LIMMIN
 10
0.0
 20
0.0
  9
$LIMMAX
 10
12.0
 20
9.0
  9
$ORTHOMODE
 70
     0
  9
$REGENMODE
 70
     1
  9
$FILLMODE
 70
     1
  9
$QTEXTMODE
 70
     0
  9
$MIRRTEXT
 70
     1
  9
$LTSCALE
 40
1.0
  9
$ATTMODE
 70
     1
  9
$TEXTSIZE
 40
0.2
  9
$TRACEWID
 40
0.05
  9
$TEXTSTYLE
  7
Standard
  9
$CLAYER
  8
0
  9
$CELTYPE
  6
ByLayer
  9
$CECOLOR
 62
   256
  9
$CELTSCALE
 40
1.0
  9
$DISPSILH
 70
     0
  9
$DIMSCALE
 40
1.0
  9
$DIMASZ
 40
0.18
  9
$DIMEXO
 40
0.0625
  9
$DIMDLI
 40
0.38
  9
$DIMRND
 40
0.0
  9
$DIMDLE
 40
0.0
  9
$DIMEXE
 40
0.18
  9
$DIMTP
 40
0.0
  9
$DIMTM
 40
0.0
  9
$DIMTXT
 40
0.18
  9
$DIMCEN
 40
0.09
  9
$DIMTSZ
 40
0.0
  9
$DIMTOL
 70
     0
  9
$DIMLIM
 70
     0
  9
$DIMTIH
 70
     1
  9
$DIMTOH
 70
     1
  9
$DIMSE1
 70
     0
  9
$DIMSE2
 70
     0
  9
$DIMTAD
 70
     0
  9
$DIMZIN
 70
     0
  9
$DIMBLK
  1

  9
$DIMASO
 70
     1
  9
$DIMSHO
 70
     1
  9
$DIMPOST
  1

  9
$DIMAPOST
  1

  9
$DIMALT
 70
     0
  9
$DIMALTD
 70
     2
  9
$DIMALTF
 40
25.4
  9
$DIMLFAC
 40
1.0
  9
$DIMTOFL
 70
     0
  9
$DIMTVP
 40
0.0
  9
$DIMTIX
 70
     0
  9
$DIMSOXD
 70
     0
  9
$DIMSAH
 70
     0
  9
$DIMBLK1
  1

  9
$DIMBLK2
  1

  9
$DIMSTYLE
  2
Standard
  9
$DIMCLRD
 70
     0
  9
$DIMCLRE
 70
     0
  9
$DIMCLRT
 70
     0
  9
$DIMTFAC
 40
1.0
  9
$DIMGAP
 40
0.09
  9
$DIMJUST
 70
     0
  9
$DIMSD1
 70
     0
  9
$DIMSD2
 70
     0
  9
$DIMTOLJ
 70
     1
  9
$DIMTZIN
 70
     0
  9
$DIMALTZ
 70
     0
  9
$DIMALTTZ
 70
     0
  9
$DIMUPT
 70
     0
  9
$DIMDEC
 70
     4
  9
$DIMTDEC
 70
     4
  9
$DIMALTU
 70
     2
  9
$DIMALTTD
 70
     2
  9
$DIMTXSTY
  7
Standard
  9
$DIMAUNIT
 70
     0
  9
$DIMADEC
 70
     0
  9
$DIMALTRND
 40
0.0
  9
$DIMAZIN
 70
     0
  9
$DIMDSEP
 70
    46
  9
$DIMATFIT
 70
     3
  9
$DIMFRAC
 70
     0
  9
$DIMLDRBLK
  1

  9
$DIMLUNIT
 70
     2
  9
$DIMLWD
 70
    -2
  9
$DIMLWE
 70
    -2
  9
$DIMTMOVE
 70
     0
  9
$DIMFXL
 40
1.0
  9
$DIMFXLON
 70
     0
  9
$DIMJOGANG
 40
0.7853981633974483
  9
$DIMTFILL
 70
     0
  9
$DIMTFILLCLR
 70
     0
  9
$DIMARCSYM
 70
     0
  9
$DIMLTYPE
  6

  9
$DIMLTEX1
  6

  9
$DIMLTEX2
  6

  9
$LUNITS
 70
     2
  9
$LUPREC
 70
     4
  9
$SKETCHINC
 40
0.1
  9
$FILLETRAD
 40
0.5
  9
$AUNITS
 70
     0
  9
$AUPREC
 70
     0
  9
$MENU
  1
.
  9
$ELEVATION
 40
0.0
  9
$PELEVATION
 40
0.0
  9
$THICKNESS
 40
0.0
  9
$LIMCHECK
 70
     0
  9
$CHAMFERA
 40
0.5
  9
$CHAMFERB
 40
0.5
  9
$CHAMFERC
 40
1.0
  9
$CHAMFERD
 40
0.0
  9
$SKPOLY
 70
     0
  9
$TDCREATE
 40
2458515.580059352
  9
$TDUCREATE
 40
2458515.205059352
  9
$TDUPDATE
 40
2458515.580059502
  9
$TDUUPDATE
 40
2458515.205059502
  9
$TDINDWG
 40
0.0000000116
  9
$TDUSRTIMER
 40
0.0000000116
  9
$USRTIMER
 70
     1
  9
$ANGBASE
 50
0.0
  9
$ANGDIR
 70
     0
  9
$PDMODE
 70
     0
  9
$PDSIZE
 40
0.0
  9
$PLINEWID
 40
0.0
  9
$SPLFRAME
 70
     0
  9
$SPLINETYPE
 70
     6
  9
$SPLINESEGS
 70
     8
  9
$HANDSEED
  5
145
  9
$SURFTAB1
 70
     6
  9
$SURFTAB2
 70
     6
  9
$SURFTYPE
 70
     6
  9
$SURFU
 70
     6
  9
$SURFV
 70
     6
  9
$UCSBASE
  2

  9
$UCSNAME
  2

  9
$UCSORG
 10
0.0
 20
0.0
 30
0.0
  9
$UCSXDIR
 10
1.0
 20
0.0
 30
0.0
  9
$UCSYDIR
 10
0.0
 20
1.0
 30
0.0
  9
$UCSORTHOREF
  2

  9
$UCSORTHOVIEW
 70
     0
  9
$UCSORGTOP
 10
0.0
 20
0.0
 30
0.0
  9
$UCSORGBOTTOM
 10
0.0
 20
0.0
 30
0.0
  9
$UCSORGLEFT
 10
0.0
 20
0.0
 30
0.0
  9
$UCSORGRIGHT
 10
0.0
 20
0.0
 30
0.0
  9
$UCSORGFRONT
 10
0.0
 20
0.0
 30
0.0
  9
$UCSORGBACK
 10
0.0
 20
0.0
 30
0.0
  9
$PUCSBASE
  2

  9
$PUCSNAME
  2

  9
$PUCSORG
 10
0.0
 20
0.0
 30
0.0
  9
$PUCSXDIR
 10
1.0
 20
0.0
 30
0.0
  9
$PUCSYDIR
 10
0.0
 20
1.0
 30
0.0
  9
$PUCSORTHOREF
  2

  9
$PUCSORTHOVIEW
 70
     0
  9
$PUCSORGTOP
 10
0.0
 20
0.0
 30
0.0
  9
$PUCSORGBOTTOM
 10
0.0
 20
0.0
 30
0.0
  9
$PUCSORGLEFT
 10
0.0
 20
0.0
 30
0.0
  9
$PUCSORGRIGHT
 10
0.0
 20
0.0
 30
0.0
  9
$PUCSORGFRONT
 10
0.0
 20
0.0
 30
0.0
  9
$PUCSORGBACK
 10
0.0
 20
0.0
 30
0.0
  9
$USERI1
 70
     0
  9
$USERI2
 70
     0
  9
$USERI3
 70
     0
  9
$USERI4
 70
     0
  9
$USERI5
 70
     0
  9
$USERR1
 40
0.0
  9
$USERR2
 40
0.0
  9
$USERR3
 40
0.0
  9
$USERR4
 40
0.0
  9
$USERR5
 40
0.0
  9
$WORLDVIEW
 70
     1
  9
$SHADEDGE
 70
     3
  9
$SHADEDIF
 70
    70
  9
$TILEMODE
 70
     1
  9
$MAXACTVP
 70
    64
  9
$PINSBASE
 10
0.0
 20
0.0
 30
0.0
  9
$PLIMCHECK
 70
     0
  9
$PEXTMIN
 10
1.000000000000000E+20
 20
1.000000000000000E+20
 30
1.000000000000000E+20
  9
$PEXTMAX
 10
-1.000000000000000E+20
 20
-1.000000000000000E+20
 30
-1.000000000000000E+20
  9
$PLIMMIN
 10
0.0
 20
0.0
  9
$PLIMMAX
 10
12.0
 20
9.0
  9
$UNITMODE
 70
     0
  9
$VISRETAIN
 70
     1
  9
$PLINEGEN
 70
     0
  9
$PSLTSCALE
 70
     1
  9
$TREEDEPTH
 70
  3020
  9
$CMLSTYLE
  2
Standard
  9
$CMLJUST
 70
     0
  9
$CMLSCALE
 40
1.0
  9
$PROXYGRAPHICS
 70
     1
  9
$MEASUREMENT
 70
     0
  9
$CELWEIGHT
370
    -1
  9
$ENDCAPS
280
     0
  9
$JOINSTYLE
280
     0
  9
$LWDISPLAY
290
     1
  9
$INSUNITS
 70
     1
  9
$HYPERLINKBASE
  1

  9
$STYLESHEET
  1

  9
$XEDIT
290
     1
  9
$CEPSNTYPE
380
     0
  9
$PSTYLEMODE
290
     1
  9
$FINGERPRINTGUID
  2
{81A01195-2044-4F12-8428-B1EF9A2015B9}
  9
$VERSIONGUID
  2
{FAEB1C32-E019-11D5-929B-00C0DF256EC4}
  9
$EXTNAMES
290
     1
  9
$PSVPSCALE
 40
0.0
  9
$OLESTARTUP
290
     0
  9
$SORTENTS
280
   127
  9
$INDEXCTL
280
     0
  9
$HIDETEXT
280
     1
  9
$XCLIPFRAME
290
     0
  9
$HALOGAP
280
     0
  9
$OBSCOLOR
 70
   257
  9
$OBSLTYPE
280
     0
  9
$INTERSECTIONDISPLAY
280
     0
  9
$INTERSECTIONCOLOR
 70
   257
  9
$DIMASSOC
280
     2
  9
$PROJECTNAME
  1

  9
$CAMERADISPLAY
290
     0
  9
$LENSLENGTH
 40
50.0
  9
$CAMERAHEIGHT
 40
0.0
  9
$STEPSPERSEC
 40
2.0
  9
$STEPSIZE
 40
6.0
  9
$3DDWFPREC
 40
2.0
  9
$PSOLWIDTH
 40
0.25
  9
$PSOLHEIGHT
 40
4.0
  9
$LOFTANG1
 40
1.570796326794897
  9
$LOFTANG2
 40
1.570796326794897
  9
$LOFTMAG1
 40
0.0
  9
$LOFTMAG2
 40
0.0
  9
$LOFTPARAM
 70
     7
  9
$LOFTNORMALS
280
     1
  9
$LATITUDE
 40
37.795
  9
$LONGITUDE
 40
-122.394
  9
$NORTHDIRECTION
 40
0.0
  9
$TIMEZONE
 70
 -8000
  9
$LIGHTGLYPHDISPLAY
280
     1
  9
$TILEMODELIGHTSYNCH
280
     1
  9
$CMATERIAL
347
3C
  9
$SOLIDHIST
280
     1
  9
$SHOWHIST
280
     1
  9
$DWFFRAME
280
     2
  9
$DGNFRAME
280
     2
  9
$REALWORLDSCALE
290
     1
  9
$INTERFERECOLOR
 62
   256
  9
$CSHADOW
280
     0
  9
$SHADOWPLANELOCATION
 40
0.0
  0
ENDSEC
  0
SECTION
  2
CLASSES
  0
CLASS
  1
ACDBDICTIONARYWDFLT
  2
AcDbDictionaryWithDefault
  3
ObjectDBX Classes
 90
        0
 91
        4
280
     0
281
     0
  0
CLASS
  1
VISUALSTYLE
  2
AcDbVisualStyle
  3
ObjectDBX Classes
 90
     4095
 91
        4
280
     0
281
     0
  0
CLASS
  1
MATERIAL
  2
AcDbMaterial
  3
ObjectDBX Classes
 90
     1153
 91
        4
280
     0
281
     0
  0
CLASS
  1
SUN
  2
AcDbSun
  3
SCENEOE
 90
     1024
 91
        4
280
     0
281
     0
  0
ENDSEC
  0
SECTION
  2
TABLES
  0
TABLE
  2
VPORT
  5
8
330
0
100
AcDbSymbolTable
 70
     1
  0
VPORT
  5
29
330
8
100
AcDbSymbolTableRecord
100
AcDbViewportTableRecord
  2
*Active
 70
     0
 10
0.0
 20
0.0
 11
1.0
 21
1.0
 12
0.0
 22
0.0
 13
0.0
 23
0.0
 14
0.5
 24
0.5
 15
0.5
 25
0.5
 16
0.0
 26
0.0
 36
1.0
 17
148.3916656437123
 27
104.8915941359208
 37
0.0
 40
297.0000052006764
 41
0.7070706878738762
 42
50.0
 43
0.0
 44
0.0
 50
0.0
 51
0.0
 71
     0
 72
   100
 73
     1
 74
     3
 75
     0
 76
     0
 77
     0
 78
     0
281
     0
 65
     1
110
0.0
120
0.0
130
0.0
111
1.0
121
0.0
131
0.0
112
0.0
122
1.0
132
0.0
 79
     0
146
0.0
 60
     3
 61
     5
292
     1
282
     1
141
0.0
142
0.0
 63
   250
361
3F
  0
ENDTAB
  0
TABLE
  2
LTYPE
  5
5
330
0
100
AcDbSymbolTable
 70
     1
  0
LTYPE
  5
14
330
5
100
AcDbSymbolTableRecord
100
AcDbLinetypeTableRecord
  2
ByBlock
 70
     0
  3

 72
    65
 73
     0
 40
0.0
  0
LTYPE
  5
15
330
5
100
AcDbSymbolTableRecord
100
AcDbLinetypeTableRecord
  2
ByLayer
 70
     0
  3

 72
    65
 73
     0
 40
0.0
  0
LTYPE
  5
16
330
5
100
AcDbSymbolTableRecord
100
AcDbLinetypeTableRecord
  2
Continuous
 70
     0
  3
Solid line
 72
    65
 73
     0
 40
0.0
  0
ENDTAB
  0
TABLE
  2
LAYER
  5
2
330
0
100
AcDbSymbolTable
 70
     2
  0
LAYER
  5
10
330
2
100
AcDbSymbolTableRecord
100
AcDbLayerTableRecord
  2
0
 70
     0
 62
     7
  6
Continuous
370
    -3
390
F
347
3E
  0
LAYER
  5
40
330
2
100
AcDbSymbolTableRecord
100
AcDbLayerTableRecord
  2
_U+30EC_U+30A4_U+30E4_U+30FC 1
 70
     0
 62
     7
  6
Continuous
370
    -3
390
F
347
3E
  0
ENDTAB
  0
TABLE
  2
STYLE
  5
3
330
0
100
AcDbSymbolTable
 70
     1
  0
STYLE
  5
11
330
3
100
AcDbSymbolTableRecord
100
AcDbTextStyleTableRecord
  2
Standard
 70
     0
 40
0.0
 41
1.0
 50
0.0
 71
     0
 42
0.2
  3
txt
  4

  0
ENDTAB
  0
TABLE
  2
VIEW
  5
6
330
0
100
AcDbSymbolTable
 70
     0
  0
ENDTAB
  0
TABLE
  2
UCS
  5
7
330
0
100
AcDbSymbolTable
 70
     0
  0
ENDTAB
  0
TABLE
  2
APPID
  5
9
330
0
100
AcDbSymbolTable
 70
     1
  0
APPID
  5
12
330
9
100
AcDbSymbolTableRecord
100
AcDbRegAppTableRecord
  2
ACAD
 70
     0
  0
ENDTAB
  0
TABLE
  2
DIMSTYLE
  5
A
330
0
100
AcDbSymbolTable
 70
     1
100
AcDbDimStyleTable
  0
DIMSTYLE
105
27
330
A
100
AcDbSymbolTableRecord
100
AcDbDimStyleTableRecord
  2
Standard
 70
     0
178
     0
340
11
  0
ENDTAB
  0
TABLE
  2
BLOCK_RECORD
  5
1
330
0
100
AcDbSymbolTable
 70
     3
  0
BLOCK_RECORD
  5
1F
330
1
100
AcDbSymbolTableRecord
100
AcDbBlockTableRecord
  2
*Model_Space
340
22
 70
     0
280
     1
281
     0
  0
BLOCK_RECORD
  5
1B
330
1
100
AcDbSymbolTableRecord
100
AcDbBlockTableRecord
  2
*Paper_Space
340
1E
 70
     0
280
     1
281
     0
  0
BLOCK_RECORD
  5
23
330
1
100
AcDbSymbolTableRecord
100
AcDbBlockTableRecord
  2
*Paper_Space0
340
26
 70
     0
280
     1
281
     0
  0
BLOCK_RECORD
  5
41
330
1
100
AcDbSymbolTableRecord
100
AcDbBlockTableRecord
  2
block 2
340
0
102
{BLKREFS
331
42
102
}
 70
     0
280
     1
281
     0
  0
BLOCK_RECORD
  5
F8
330
1
100
AcDbSymbolTableRecord
100
AcDbBlockTableRecord
  2
block 3
340
0
102
{BLKREFS
331
F9
102
}
 70
     0
280
     1
281
     0
  0
ENDTAB
  0
ENDSEC
  0
SECTION
  2
BLOCKS
  0
BLOCK
  5
20
330
1F
100
AcDbEntity
  8
0
100
AcDbBlockBegin
  2
*Model_Space
 70
     0
 10
0.0
 20
0.0
 30
0.0
  3
*Model_Space
  1

  0
ENDBLK
  5
21
330
1F
100
AcDbEntity
  8
0
100
AcDbBlockEnd
  0
BLOCK
  5
1C
330
1B
100
AcDbEntity
 67
     1
  8
0
100
AcDbBlockBegin
  2
*Paper_Space
 70
     0
 10
0.0
 20
0.0
 30
0.0
  3
*Paper_Space
  1

  0
ENDBLK
  5
1D
330
1B
100
AcDbEntity
 67
     1
  8
0
100
AcDbBlockEnd
  0
BLOCK
  5
24
330
23
100
AcDbEntity
  8
0
100
AcDbBlockBegin
  2
*Paper_Space0
 70
     0
 10
0.0
 20
0.0
 30
0.0
  3
*Paper_Space0
  1

  0
ENDBLK
  5
25
330
23
100
AcDbEntity
  8
0
100
AcDbBlockEnd
  0
BLOCK
  5
43
330
41
100
AcDbEntity
  8
0
100
AcDbBlockBegin
  2
block 2
 70
     0
 10
0.0
 20
0.0
 30
0.0
  3
block 2
  1

  0
SPLINE
  5
45
330
41
100
AcDbEntity
  8
_U+30EC_U+30A4_U+30E4_U+30FC 1
370
     0
100
AcDbSpline
210
0.0
220
0.0
230
1.0
 70
    11
 71
     3
 72
    23
 73
    19
 74
     0
 42
0.0000000001
 43
0.0000000001
 12
1.0
 22
0.0
 32
0.0
 13
1.0
 23
0.0
 33
0.0
 40
0.0
 40
0.0
 40
0.0
 40
0.0
 40
1.0
 40
1.0
 40
1.0
 40
2.0
 40
2.0
 40
2.0
 40
3.0
 40
3.0
 40
3.0
 40
4.0
 40
4.0
 40
4.0
 40
5.0
 40
5.0
 40
5.0
 40
6.0
 40
6.0
 40
6.0
 40
6.0
 10
167.9794107652968
 20
64.87734982158204
 30
0.0
 10
168.2305582261715
 20
64.91800194830799
 30
0.0
 10
168.5223578137722
 20
64.94935231722376
 30
0.0
 10
168.8413736557063
 20
64.94935231722376
 30
0.0
 10
170.2149332256755
 20
64.94935231722376
 30
0.0
 10
170.6100856778336
 20
64.13665429225333
 30
0.0
 10
170.6100856778336
 20
63.29742903204647
 30
0.0
 10
170.6100856778336
 20
62.75413747402256
 30
0.0
 10
170.4664251960987
 20
62.29146115035351
 30
0.0
 10
170.1432752395822
 20
61.9548753214446
 30
0.0
 10
169.8425184037199
 20
61.64516123732064
 30
0.0
 10
169.3440130870043
 20
61.47462901080078
 30
0.0
 10
168.7201062946255
 20
61.47462901080078
 30
0.0
 10
168.4372639552865
 20
61.47462901080078
 30
0.0
 10
168.1947292331249
 20
61.48358625906243
 30
0.0
 10
167.9794107652968
 20
61.51045800384738
 30
0.0
 10
167.9794107652968
 20
61.51045800384738
 30
0.0
 10
167.9794107652968
 20
64.87734982158204
 30
0.0
 10
167.9794107652968
 20
64.87734982158204
 30
0.0
  0
SPLINE
  5
46
330
41
100
AcDbEntity
  8
_U+30EC_U+30A4_U+30E4_U+30FC 1
370
     0
100
AcDbSpline
210
0.0
220
0.0
230
1.0
 70
    11
 71
     3
 72
    20
 73
    16
 74
     0
 42
0.0000000001
 43
0.0000000001
 12
1.0
 22
0.0
 32
0.0
 13
1.0
 23
0.0
 33
0.0
 40
0.0
 40
0.0
 40
0.0
 40
0.0
 40
1.0
 40
1.0
 40
1.0
 40
2.0
 40
2.0
 40
2.0
 40
3.0
 40
3.0
 40
3.0
 40
4.0
 40
4.0
 40
4.0
 40
5.0
 40
5.0
 40
5.0
 40
5.0
 10
168.3518255872523
 20
61.79777896731721
 30
0.0
 10
168.4641357000715
 20
61.77986447079391
 30
0.0
 10
168.6257106783297
 20
61.77538584666308
 30
0.0
 10
168.7872856565879
 20
61.77538584666308
 30
0.0
 10
169.7122937943775
 20
61.77538584666308
 30
0.0
 10
170.2194118498063
 20
62.30076290816369
 30
0.0
 10
170.2194118498063
 20
63.27917002597464
 30
0.0
 10
170.2194118498063
 20
64.16834917071762
 30
0.0
 10
169.7436441632933
 20
64.64859548136145
 30
0.0
 10
168.8548095280988
 20
64.64859548136145
 30
0.0
 10
168.6391465507222
 20
64.64859548136145
 30
0.0
 10
168.4686143242023
 20
64.62620236070732
 30
0.0
 10
168.3518255872523
 20
64.60380924005321
 30
0.0
 10
168.3518255872523
 20
64.60380924005321
 30
0.0
 10
168.3518255872523
 20
61.79777896731721
 30
0.0
 10
168.3518255872523
 20
61.79777896731721
 30
0.0
  0
HATCH
  5
47
330
41
100
AcDbEntity
  8
_U+30EC_U+30A4_U+30E4_U+30FC 1
 62
     7
100
AcDbHatch
 10
0.0
 20
0.0
 30
0.0
210
0.0
220
0.0
230
1.0
  2
SOLID
 70
     1
 71
     0
 91
        2
 92
        1
 93
        1
 72
     4
 94
        3
 73
     0
 74
     1
 95
       23
 96
       19
 40
0.0
 40
0.0
 40
0.0
 40
0.0
 40
1.0
 40
1.0
 40
1.0
 40
2.0
 40
2.0
 40
2.0
 40
3.0
 40
3.0
 40
3.0
 40
4.0
 40
4.0
 40
4.0
 40
5.0
 40
5.0
 40
5.0
 40
6.0
 40
6.0
 40
6.0
 40
6.0
 10
167.9794107652968
 20
64.87734982158204
 10
168.2305582261715
 20
64.91800194830799
 10
168.5223578137722
 20
64.94935231722376
 10
168.8413736557063
 20
64.94935231722376
 10
170.2149332256755
 20
64.94935231722376
 10
170.6100856778336
 20
64.13665429225333
 10
170.6100856778336
 20
63.29742903204647
 10
170.6100856778336
 20
62.75413747402256
 10
170.4664251960987
 20
62.29146115035351
 10
170.1432752395822
 20
61.9548753214446
 10
169.8425184037199
 20
61.64516123732064
 10
169.3440130870043
 20
61.47462901080078
 10
168.7201062946255
 20
61.47462901080078
 10
168.4372639552865
 20
61.47462901080078
 10
168.1947292331249
 20
61.48358625906243
 10
167.9794107652968
 20
61.51045800384738
 10
167.9794107652968
 20
61.51045800384738
 10
167.9794107652968
 20
64.87734982158204
 10
167.9794107652968
 20
64.87734982158204
 97
        0
 92
        1
 93
        1
 72
     4
 94
        3
 73
     0
 74
     1
 95
       20
 96
       16
 40
0.0
 40
0.0
 40
0.0
 40
0.0
 40
1.0
 40
1.0
 40
1.0
 40
2.0
 40
2.0
 40
2.0
 40
3.0
 40
3.0
 40
3.0
 40
4.0
 40
4.0
 40
4.0
 40
5.0
 40
5.0
 40
5.0
 40
5.0
 10
168.3518255872523
 20
61.79777896731721
 10
168.4641357000715
 20
61.77986447079391
 10
168.6257106783297
 20
61.77538584666308
 10
168.7872856565879
 20
61.77538584666308
 10
169.7122937943775
 20
61.77538584666308
 10
170.2194118498063
 20
62.30076290816369
 10
170.2194118498063
 20
63.27917002597464
 10
170.2194118498063
 20
64.16834917071762
 10
169.7436441632933
 20
64.64859548136145
 10
168.8548095280988
 20
64.64859548136145
 10
168.6391465507222
 20
64.64859548136145
 10
168.4686143242023
 20
64.62620236070732
 10
168.3518255872523
 20
64.60380924005321
 10
168.3518255872523
 20
64.60380924005321
 10
168.3518255872523
 20
61.79777896731721
 10
168.3518255872523
 20
61.79777896731721
 97
        0
 75
     2
 76
     1
 98
        0
  0
SPLINE
  5
48
330
41
100
AcDbEntity
  8
_U+30EC_U+30A4_U+30E4_U+30FC 1
370
     0
100
AcDbSpline
210
0.0
220
0.0
230
1.0
 70
    11
 71
     3
 72
    35
 73
    31
 74
     0
 42
0.0000000001
 43
0.0000000001
 12
1.0
 22
0.0
 32
0.0
 13
1.0
 23
0.0
 33
0.0
 40
0.0
 40
0.0
 40
0.0
 40
0.0
 40
1.0
 40
1.0
 40
1.0
 40
2.0
 40
2.0
 40
2.0
 40
3.0
 40
3.0
 40
3.0
 40
4.0
 40
4.0
 40
4.0
 40
5.0
 40
5.0
 40
5.0
 40
6.0
 40
6.0
 40
6.0
 40
7.0
 40
7.0
 40
7.0
 40
8.0
 40
8.0
 40
8.0
 40
9.0
 40
9.0
 40
9.0
 40
10.0
 40
10.0
 40
10.0
 40
10.0
 10
173.4188720269578
 20
61.60485362014322
 30
0.0
 10
173.2617756728304
 20
61.52837250037067
 30
0.0
 10
172.9565402128373
 20
61.45223589014665
 30
0.0
 10
172.5658663848099
 20
61.45223589014665
 30
0.0
 10
171.6859889978771
 20
61.45223589014665
 30
0.0
 10
170.9766438374642
 20
62.0223991929555
 30
0.0
 10
170.9766438374642
 20
63.1806402950965
 30
0.0
 10
170.9766438374642
 20
64.28479339811906
 30
0.0
 10
171.663595877223
 20
64.97174543787789
 30
0.0
 10
172.6647406252366
 20
64.97174543787789
 30
0.0
 10
173.0733289497872
 20
64.97174543787789
 30
0.0
 10
173.311385047818
 20
64.88665157939222
 30
0.0
 10
173.4188720269578
 20
64.8325635802738
 30
0.0
 10
173.4188720269578
 20
64.8325635802738
 30
0.0
 10
173.3203422960796
 20
64.518370872019
 30
0.0
 10
173.3203422960796
 20
64.518370872019
 30
0.0
 10
173.1632459419523
 20
64.59485199179156
 30
0.0
 10
172.9431043404448
 20
64.6575527296231
 30
0.0
 10
172.6736978734982
 20
64.6575527296231
 30
0.0
 10
171.8971733511229
 20
64.6575527296231
 30
0.0
 10
171.3673176654915
 20
64.13665429225333
 30
0.0
 10
171.3673176654915
 20
63.19407616748897
 30
0.0
 10
171.3673176654915
 20
62.29628428403286
 30
0.0
 10
171.8520426002662
 20
61.76642859840144
 30
0.0
 10
172.6513047528441
 20
61.76642859840144
 30
0.0
 10
172.911753971529
 20
61.76642859840144
 30
0.0
 10
173.1677245660831
 20
61.82465071210216
 30
0.0
 10
173.3382567926029
 20
61.90561045600553
 30
0.0
 10
173.3382567926029
 20
61.90561045600553
 30
0.0
 10
173.4188720269578
 20
61.60485362014322
 30
0.0
 10
173.4188720269578
 20
61.60485362014322
 30
0.0
  0
HATCH
  5
49
330
41
100
AcDbEntity
  8
_U+30EC_U+30A4_U+30E4_U+30FC 1
 62
     7
100
AcDbHatch
 10
0.0
 20
0.0
 30
0.0
210
0.0
220
0.0
230
1.0
  2
SOLID
 70
     1
 71
     0
 91
        1
 92
        1
 93
        1
 72
     4
 94
        3
 73
     0
 74
     1
 95
       35
 96
       31
 40
0.0
 40
0.0
 40
0.0
 40
0.0
 40
1.0
 40
1.0
 40
1.0
 40
2.0
 40
2.0
 40
2.0
 40
3.0
 40
3.0
 40
3.0
 40
4.0
 40
4.0
 40
4.0
 40
5.0
 40
5.0
 40
5.0
 40
6.0
 40
6.0
 40
6.0
 40
7.0
 40
7.0
 40
7.0
 40
8.0
 40
8.0
 40
8.0
 40
9.0
 40
9.0
 40
9.0
 40
10.0
 40
10.0
 40
10.0
 40
10.0
 10
173.4188720269578
 20
61.60485362014322
 10
173.2617756728304
 20
61.52837250037067
 10
172.9565402128373
 20
61.45223589014665
 10
172.5658663848099
 20
61.45223589014665
 10
171.6859889978771
 20
61.45223589014665
 10
170.9766438374642
 20
62.0223991929555
 10
170.9766438374642
 20
63.1806402950965
 10
170.9766438374642
 20
64.28479339811906
 10
171.663595877223
 20
64.97174543787789
 10
172.6647406252366
 20
64.97174543787789
 10
173.0733289497872
 20
64.97174543787789
 10
173.311385047818
 20
64.88665157939222
 10
173.4188720269578
 20
64.8325635802738
 10
173.4188720269578
 20
64.8325635802738
 10
173.3203422960796
 20
64.518370872019
 10
173.3203422960796
 20
64.518370872019
 10
173.1632459419523
 20
64.59485199179156
 10
172.9431043404448
 20
64.6575527296231
 10
172.6736978734982
 20
64.6575527296231
 10
171.8971733511229
 20
64.6575527296231
 10
171.3673176654915
 20
64.13665429225333
 10
171.3673176654915
 20
63.19407616748897
 10
171.3673176654915
 20
62.29628428403286
 10
171.8520426002662
 20
61.76642859840144
 10
172.6513047528441
 20
61.76642859840144
 10
172.911753971529
 20
61.76642859840144
 10
173.1677245660831
 20
61.82465071210216
 10
173.3382567926029
 20
61.90561045600553
 10
173.3382567926029
 20
61.90561045600553
 10
173.4188720269578
 20
61.60485362014322
 10
173.4188720269578
 20
61.60485362014322
 97
        0
 75
     2
 76
     1
 98
        0
  0
SPLINE
  5
4A
330
41
100
AcDbEntity
  8
_U+30EC_U+30A4_U+30E4_U+30FC 1
370
     0
100
AcDbSpline
210
0.0
220
0.0
230
1.0
 70
    11
 71
     3
 72
    35
 73
    31
 74
     0
 42
0.0000000001
 43
0.0000000001
 12
1.0
 22
0.0
 32
0.0
 13
1.0
 23
0.0
 33
0.0
 40
0.0
 40
0.0
 40
0.0
 40
0.0
 40
1.0
 40
1.0
 40
1.0
 40
2.0
 40
2.0
 40
2.0
 40
3.0
 40
3.0
 40
3.0
 40
4.0
 40
4.0
 40
4.0
 40
5.0
 40
5.0
 40
5.0
 40
6.0
 40
6.0
 40
6.0
 40
7.0
 40
7.0
 40
7.0
 40
8.0
 40
8.0
 40
8.0
 40
9.0
 40
9.0
 40
9.0
 40
10.0
 40
10.0
 40
10.0
 40
10.0
 10
175.276123003056
 20
63.33325802509307
 30
0.0
 10
175.5992729595724
 20
63.25677690532051
 30
0.0
 10
175.9809895393381
 20
62.98737043837398
 30
0.0
 10
175.9809895393381
 20
62.47129513468356
 30
0.0
 10
175.9809895393381
 20
62.16605967469042
 30
0.0
 10
175.8642008023881
 20
61.95039669731378
 30
0.0
 10
175.7071044482607
 20
61.79777896731721
 30
0.0
 10
175.4780055984916
 20
61.57350325122745
 30
0.0
 10
175.1100694006669
 20
61.47462901080078
 30
0.0
 10
174.593649587428
 20
61.47462901080078
 30
0.0
 10
174.310807248089
 20
61.47462901080078
 30
0.0
 10
174.0999674043917
 20
61.4970221314549
 30
0.0
 10
173.9607855467876
 20
61.51045800384738
 30
0.0
 10
173.9607855467876
 20
61.51045800384738
 30
0.0
 10
173.9607855467876
 20
64.87287119745122
 30
0.0
 10
173.9607855467876
 20
64.87287119745122
 30
0.0
 10
174.1492322698307
 20
64.91352332417716
 30
0.0
 10
174.4186387367773
 20
64.94487369309294
 30
0.0
 10
174.6970024519855
 20
64.94487369309294
 30
0.0
 10
175.1190266489286
 20
64.94487369309294
 30
0.0
 10
175.3973903641368
 20
64.86391394918957
 30
0.0
 10
175.5992729595724
 20
64.6933817226697
 30
0.0
 10
175.7608479378306
 20
64.55419986506561
 30
0.0
 10
175.8552435541265
 20
64.35679589376079
 30
0.0
 10
175.8552435541265
 20
64.10082529920673
 30
0.0
 10
175.8552435541265
 20
63.76423947029782
 30
0.0
 10
175.6261447043574
 20
63.47243988269716
 30
0.0
 10
175.276123003056
 20
63.34669389748554
 30
0.0
 10
175.276123003056
 20
63.34669389748554
 30
0.0
 10
175.276123003056
 20
63.33325802509307
 30
0.0
 10
175.276123003056
 20
63.33325802509307
 30
0.0
  0
SPLINE
  5
4B
330
41
100
AcDbEntity
  8
_U+30EC_U+30A4_U+30E4_U+30FC 1
370
     0
100
AcDbSpline
210
0.0
220
0.0
230
1.0
 70
    11
 71
     3
 72
    23
 73
    19
 74
     0
 42
0.0000000001
 43
0.0000000001
 12
1.0
 22
0.0
 32
0.0
 13
1.0
 23
0.0
 33
0.0
 40
0.0
 40
0.0
 40
0.0
 40
0.0
 40
1.0
 40
1.0
 40
1.0
 40
2.0
 40
2.0
 40
2.0
 40
3.0
 40
3.0
 40
3.0
 40
4.0
 40
4.0
 40
4.0
 40
5.0
 40
5.0
 40
5.0
 40
6.0
 40
6.0
 40
6.0
 40
6.0
 10
174.7328314450321
 20
63.45900401030468
 30
0.0
 10
175.186206010891
 20
63.45900401030468
 30
0.0
 10
175.4780055984916
 20
63.71910871944105
 30
0.0
 10
175.4780055984916
 20
64.06947493029095
 30
0.0
 10
175.4780055984916
 20
64.06947493029095
 30
0.0
 10
175.4780055984916
 20
64.07395355442178
 30
0.0
 10
175.4780055984916
 20
64.07395355442178
 30
0.0
 10
175.4780055984916
 20
64.47806325484159
 30
0.0
 10
175.1817273867601
 20
64.65307410549228
 30
0.0
 10
174.7149169485088
 20
64.65307410549228
 30
0.0
 10
174.5175129772039
 20
64.65307410549228
 30
0.0
 10
174.400724240254
 20
64.6396382330998
 30
0.0
 10
174.3332003687431
 20
64.6217237365765
 30
0.0
 10
174.3332003687431
 20
64.6217237365765
 30
0.0
 10
174.3332003687431
 20
63.45900401030468
 30
0.0
 10
174.3332003687431
 20
63.45900401030468
 30
0.0
 10
174.3332003687431
 20
63.45900401030468
 30
0.0
 10
174.7328314450321
 20
63.45900401030468
 30
0.0
 10
174.7328314450321
 20
63.45900401030468
 30
0.0
  0
SPLINE
  5
4C
330
41
100
AcDbEntity
  8
_U+30EC_U+30A4_U+30E4_U+30FC 1
370
     0
100
AcDbSpline
210
0.0
220
0.0
230
1.0
 70
    11
 71
     3
 72
    20
 73
    16
 74
     0
 42
0.0000000001
 43
0.0000000001
 12
1.0
 22
0.0
 32
0.0
 13
1.0
 23
0.0
 33
0.0
 40
0.0
 40
0.0
 40
0.0
 40
0.0
 40
1.0
 40
1.0
 40
1.0
 40
2.0
 40
2.0
 40
2.0
 40
3.0
 40
3.0
 40
3.0
 40
4.0
 40
4.0
 40
4.0
 40
5.0
 40
5.0
 40
5.0
 40
5.0
 10
174.3332003687431
 20
61.79330034318639
 30
0.0
 10
174.4186387367773
 20
61.77538584666308
 30
0.0
 10
174.5399060978581
 20
61.77090722253227
 30
0.0
 10
174.6970024519855
 20
61.77090722253227
 30
0.0
 10
175.1682915143677
 20
61.77090722253227
 30
0.0
 10
175.5903157113108
 20
61.9548753214446
 30
0.0
 10
175.5903157113108
 20
62.47129513468356
 30
0.0
 10
175.5903157113108
 20
62.98289181424315
 30
0.0
 10
175.1458983937135
 20
63.17168304683484
 30
0.0
 10
174.6925238278546
 20
63.17168304683484
 30
0.0
 10
174.6925238278546
 20
63.17168304683484
 30
0.0
 10
174.3332003687431
 20
63.17168304683484
 30
0.0
 10
174.3332003687431
 20
63.17168304683484
 30
0.0
 10
174.3332003687431
 20
63.17168304683484
 30
0.0
 10
174.3332003687431
 20
61.79330034318639
 30
0.0
 10
174.3332003687431
 20
61.79330034318639
 30
0.0
  0
HATCH
  5
4D
330
41
100
AcDbEntity
  8
_U+30EC_U+30A4_U+30E4_U+30FC 1
 62
     7
100
AcDbHatch
 10
0.0
 20
0.0
 30
0.0
210
0.0
220
0.0
230
1.0
  2
SOLID
 70
     1
 71
     0
 91
        3
 92
        1
 93
        1
 72
     4
 94
        3
 73
     0
 74
     1
 95
       35
 96
       31
 40
0.0
 40
0.0
 40
0.0
 40
0.0
 40
1.0
 40
1.0
 40
1.0
 40
2.0
 40
2.0
 40
2.0
 40
3.0
 40
3.0
 40
3.0
 40
4.0
 40
4.0
 40
4.0
 40
5.0
 40
5.0
 40
5.0
 40
6.0
 40
6.0
 40
6.0
 40
7.0
 40
7.0
 40
7.0
 40
8.0
 40
8.0
 40
8.0
 40
9.0
 40
9.0
 40
9.0
 40
10.0
 40
10.0
 40
10.0
 40
10.0
 10
175.276123003056
 20
63.33325802509307
 10
175.5992729595724
 20
63.25677690532051
 10
175.9809895393381
 20
62.98737043837398
 10
175.9809895393381
 20
62.47129513468356
 10
175.9809895393381
 20
62.16605967469042
 10
175.8642008023881
 20
61.95039669731378
 10
175.7071044482607
 20
61.79777896731721
 10
175.4780055984916
 20
61.57350325122745
 10
175.1100694006669
 20
61.47462901080078
 10
174.593649587428
 20
61.47462901080078
 10
174.310807248089
 20
61.47462901080078
 10
174.0999674043917
 20
61.4970221314549
 10
173.9607855467876
 20
61.51045800384738
 10
173.9607855467876
 20
61.51045800384738
 10
173.9607855467876
 20
64.87287119745122
 10
173.9607855467876
 20
64.87287119745122
 10
174.1492322698307
 20
64.91352332417716
 10
174.4186387367773
 20
64.94487369309294
 10
174.6970024519855
 20
64.94487369309294
 10
175.1190266489286
 20
64.94487369309294
 10
175.3973903641368
 20
64.86391394918957
 10
175.5992729595724
 20
64.6933817226697
 10
175.7608479378306
 20
64.55419986506561
 10
175.8552435541265
 20
64.35679589376079
 10
175.8552435541265
 20
64.10082529920673
 10
175.8552435541265
 20
63.76423947029782
 10
175.6261447043574
 20
63.47243988269716
 10
175.276123003056
 20
63.34669389748554
 10
175.276123003056
 20
63.34669389748554
 10
175.276123003056
 20
63.33325802509307
 10
175.276123003056
 20
63.33325802509307
 97
        0
 92
        1
 93
        1
 72
     4
 94
        3
 73
     0
 74
     1
 95
       23
 96
       19
 40
0.0
 40
0.0
 40
0.0
 40
0.0
 40
1.0
 40
1.0
 40
1.0
 40
2.0
 40
2.0
 40
2.0
 40
3.0
 40
3.0
 40
3.0
 40
4.0
 40
4.0
 40
4.0
 40
5.0
 40
5.0
 40
5.0
 40
6.0
 40
6.0
 40
6.0
 40
6.0
 10
174.7328314450321
 20
63.45900401030468
 10
175.186206010891
 20
63.45900401030468
 10
175.4780055984916
 20
63.71910871944105
 10
175.4780055984916
 20
64.06947493029095
 10
175.4780055984916
 20
64.06947493029095
 10
175.4780055984916
 20
64.07395355442178
 10
175.4780055984916
 20
64.07395355442178
 10
175.4780055984916
 20
64.47806325484159
 10
175.1817273867601
 20
64.65307410549228
 10
174.7149169485088
 20
64.65307410549228
 10
174.5175129772039
 20
64.65307410549228
 10
174.400724240254
 20
64.6396382330998
 10
174.3332003687431
 20
64.6217237365765
 10
174.3332003687431
 20
64.6217237365765
 10
174.3332003687431
 20
63.45900401030468
 10
174.3332003687431
 20
63.45900401030468
 10
174.3332003687431
 20
63.45900401030468
 10
174.7328314450321
 20
63.45900401030468
 10
174.7328314450321
 20
63.45900401030468
 97
        0
 92
        1
 93
        1
 72
     4
 94
        3
 73
     0
 74
     1
 95
       20
 96
       16
 40
0.0
 40
0.0
 40
0.0
 40
0.0
 40
1.0
 40
1.0
 40
1.0
 40
2.0
 40
2.0
 40
2.0
 40
3.0
 40
3.0
 40
3.0
 40
4.0
 40
4.0
 40
4.0
 40
5.0
 40
5.0
 40
5.0
 40
5.0
 10
174.3332003687431
 20
61.79330034318639
 10
174.4186387367773
 20
61.77538584666308
 10
174.5399060978581
 20
61.77090722253227
 10
174.6970024519855
 20
61.77090722253227
 10
175.1682915143677
 20
61.77090722253227
 10
175.5903157113108
 20
61.9548753214446
 10
175.5903157113108
 20
62.47129513468356
 10
175.5903157113108
 20
62.98289181424315
 10
175.1458983937135
 20
63.17168304683484
 10
174.6925238278546
 20
63.17168304683484
 10
174.6925238278546
 20
63.17168304683484
 10
174.3332003687431
 20
63.17168304683484
 10
174.3332003687431
 20
63.17168304683484
 10
174.3332003687431
 20
63.17168304683484
 10
174.3332003687431
 20
61.79330034318639
 10
174.3332003687431
 20
61.79330034318639
 97
        0
 75
     2
 76
     1
 98
        0
  0
POLYLINE
  5
4E
330
41
100
AcDbEntity
  8
_U+30EC_U+30A4_U+30E4_U+30FC 1
370
     0
100
AcDb2dPolyline
 66
     1
 10
0.0
 20
0.0
 30
0.0
  0
VERTEX
  5
4F
330
4E
100
AcDbEntity
  8
_U+30EC_U+30A4_U+30E4_U+30FC 1
370
     0
100
AcDbVertex
100
AcDb2dVertex
 10
176.3344563361247
 20
63.01458669270745
 30
0.0
  0
VERTEX
  5
50
330
4E
100
AcDbEntity
  8
_U+30EC_U+30A4_U+30E4_U+30FC 1
370
     0
100
AcDbVertex
100
AcDb2dVertex
 10
177.5602213097766
 20
63.01458669270745
 30
0.0
  0
VERTEX
  5
51
330
4E
100
AcDbEntity
  8
_U+30EC_U+30A4_U+30E4_U+30FC 1
370
     0
100
AcDbVertex
100
AcDb2dVertex
 10
177.5602213097766
 20
62.72726572923762
 30
0.0
  0
VERTEX
  5
52
330
4E
100
AcDbEntity
  8
_U+30EC_U+30A4_U+30E4_U+30FC 1
370
     0
100
AcDbVertex
100
AcDb2dVertex
 10
176.3344563361247
 20
62.72726572923762
 30
0.0
  0
VERTEX
  5
53
330
4E
100
AcDbEntity
  8
_U+30EC_U+30A4_U+30E4_U+30FC 1
370
     0
100
AcDbVertex
100
AcDb2dVertex
 10
176.3344563361247
 20
63.01458669270745
 30
0.0
  0
SEQEND
  5
54
330
4E
100
AcDbEntity
  8
_U+30EC_U+30A4_U+30E4_U+30FC 1
370
     0
  0
HATCH
  5
55
330
41
100
AcDbEntity
  8
_U+30EC_U+30A4_U+30E4_U+30FC 1
 62
     7
100
AcDbHatch
 10
0.0
 20
0.0
 30
0.0
210
0.0
220
0.0
230
1.0
  2
SOLID
 70
     1
 71
     0
 91
        1
 92
        1
 93
        4
 72
     1
 10
176.3344563361247
 20
63.01458669270745
 11
177.5602213097766
 21
63.01458669270745
 72
     1
 10
177.5602213097766
 20
63.01458669270745
 11
177.5602213097766
 21
62.72726572923762
 72
     1
 10
177.5602213097766
 20
62.72726572923762
 11
176.3344563361247
 21
62.72726572923762
 72
     1
 10
176.3344563361247
 20
62.72726572923762
 11
176.3344563361247
 21
63.01458669270745
 97
        0
 75
     2
 76
     1
 98
        0
  0
POLYLINE
  5
56
330
41
100
AcDbEntity
  8
_U+30EC_U+30A4_U+30E4_U+30FC 1
370
     0
100
AcDb2dPolyline
 66
     1
 10
0.0
 20
0.0
 30
0.0
  0
VERTEX
  5
57
330
56
100
AcDbEntity
  8
_U+30EC_U+30A4_U+30E4_U+30FC 1
370
     0
100
AcDbVertex
100
AcDb2dVertex
 10
178.8790038615303
 20
61.50150075558572
 30
0.0
  0
VERTEX
  5
58
330
56
100
AcDbEntity
  8
_U+30EC_U+30A4_U+30E4_U+30FC 1
370
     0
100
AcDbVertex
100
AcDb2dVertex
 10
178.8790038615303
 20
64.51389224788818
 30
0.0
  0
VERTEX
  5
59
330
56
100
AcDbEntity
  8
_U+30EC_U+30A4_U+30E4_U+30FC 1
370
     0
100
AcDbVertex
100
AcDb2dVertex
 10
178.8700466132686
 20
64.51389224788818
 30
0.0
  0
VERTEX
  5
5A
330
56
100
AcDbEntity
  8
_U+30EC_U+30A4_U+30E4_U+30FC 1
370
     0
100
AcDbVertex
100
AcDb2dVertex
 10
178.3177978069831
 20
64.19522091550257
 30
0.0
  0
VERTEX
  5
5B
330
56
100
AcDbEntity
  8
_U+30EC_U+30A4_U+30E4_U+30FC 1
370
     0
100
AcDbVertex
100
AcDb2dVertex
 10
178.2282253243666
 20
64.47358463071076
 30
0.0
  0
VERTEX
  5
5C
330
56
100
AcDbEntity
  8
_U+30EC_U+30A4_U+30E4_U+30FC 1
370
     0
100
AcDbVertex
100
AcDb2dVertex
 10
178.9237901028385
 20
64.86391394918957
 30
0.0
  0
VERTEX
  5
5D
330
56
100
AcDbEntity
  8
_U+30EC_U+30A4_U+30E4_U+30FC 1
370
     0
100
AcDbVertex
100
AcDb2dVertex
 10
179.2428059447726
 20
64.86391394918957
 30
0.0
  0
VERTEX
  5
5E
330
56
100
AcDbEntity
  8
_U+30EC_U+30A4_U+30E4_U+30FC 1
370
     0
100
AcDbVertex
100
AcDb2dVertex
 10
179.2428059447726
 20
61.50150075558572
 30
0.0
  0
VERTEX
  5
5F
330
56
100
AcDbEntity
  8
_U+30EC_U+30A4_U+30E4_U+30FC 1
370
     0
100
AcDbVertex
100
AcDb2dVertex
 10
178.8790038615303
 20
61.50150075558572
 30
0.0
  0
SEQEND
  5
60
330
56
100
AcDbEntity
  8
_U+30EC_U+30A4_U+30E4_U+30FC 1
370
     0
  0
HATCH
  5
61
330
41
100
AcDbEntity
  8
_U+30EC_U+30A4_U+30E4_U+30FC 1
 62
     7
100
AcDbHatch
 10
0.0
 20
0.0
 30
0.0
210
0.0
220
0.0
230
1.0
  2
SOLID
 70
     1
 71
     0
 91
        1
 92
        1
 93
        8
 72
     1
 10
178.8790038615303
 20
61.50150075558572
 11
178.8790038615303
 21
64.51389224788818
 72
     1
 10
178.8790038615303
 20
64.51389224788818
 11
178.8700466132686
 21
64.51389224788818
 72
     1
 10
178.8700466132686
 20
64.51389224788818
 11
178.3177978069831
 21
64.19522091550257
 72
     1
 10
178.3177978069831
 20
64.19522091550257
 11
178.2282253243666
 21
64.47358463071076
 72
     1
 10
178.2282253243666
 20
64.47358463071076
 11
178.9237901028385
 21
64.86391394918957
 72
     1
 10
178.9237901028385
 20
64.86391394918957
 11
179.2428059447726
 21
64.86391394918957
 72
     1
 10
179.2428059447726
 20
64.86391394918957
 11
179.2428059447726
 21
61.50150075558572
 72
     1
 10
179.2428059447726
 20
61.50150075558572
 11
178.8790038615303
 21
61.50150075558572
 97
        0
 75
     2
 76
     1
 98
        0
  0
POLYLINE
  5
62
330
41
100
AcDbEntity
  8
_U+30EC_U+30A4_U+30E4_U+30FC 1
370
     0
100
AcDb2dPolyline
 66
     1
 10
0.0
 20
0.0
 30
0.0
  0
VERTEX
  5
63
330
62
100
AcDbEntity
  8
_U+30EC_U+30A4_U+30E4_U+30FC 1
370
     0
100
AcDbVertex
100
AcDb2dVertex
 10
180.4671928802304
 20
64.86391394918957
 30
0.0
  0
VERTEX
  5
64
330
62
100
AcDbEntity
  8
_U+30EC_U+30A4_U+30E4_U+30FC 1
370
     0
100
AcDbVertex
100
AcDb2dVertex
 10
182.4381320073419
 20
64.86391394918957
 30
0.0
  0
VERTEX
  5
65
330
62
100
AcDbEntity
  8
_U+30EC_U+30A4_U+30E4_U+30FC 1
370
     0
100
AcDbVertex
100
AcDb2dVertex
 10
182.4381320073419
 20
64.62620236070732
 30
0.0
  0
VERTEX
  5
66
330
62
100
AcDbEntity
  8
_U+30EC_U+30A4_U+30E4_U+30FC 1
370
     0
100
AcDbVertex
100
AcDb2dVertex
 10
181.0328775589085
 20
61.50150075558572
 30
0.0
  0
VERTEX
  5
67
330
62
100
AcDbEntity
  8
_U+30EC_U+30A4_U+30E4_U+30FC 1
370
     0
100
AcDbVertex
100
AcDb2dVertex
 10
180.6511609791428
 20
61.50150075558572
 30
0.0
  0
VERTEX
  5
68
330
62
100
AcDbEntity
  8
_U+30EC_U+30A4_U+30E4_U+30FC 1
370
     0
100
AcDbVertex
100
AcDb2dVertex
 10
182.0564154275762
 20
64.54524261680396
 30
0.0
  0
VERTEX
  5
69
330
62
100
AcDbEntity
  8
_U+30EC_U+30A4_U+30E4_U+30FC 1
370
     0
100
AcDbVertex
100
AcDb2dVertex
 10
182.0564154275762
 20
64.55419986506561
 30
0.0
  0
VERTEX
  5
6A
330
62
100
AcDbEntity
  8
_U+30EC_U+30A4_U+30E4_U+30FC 1
370
     0
100
AcDbVertex
100
AcDb2dVertex
 10
180.4671928802304
 20
64.55419986506561
 30
0.0
  0
VERTEX
  5
6B
330
62
100
AcDbEntity
  8
_U+30EC_U+30A4_U+30E4_U+30FC 1
370
     0
100
AcDbVertex
100
AcDb2dVertex
 10
180.4671928802304
 20
64.86391394918957
 30
0.0
  0
SEQEND
  5
6C
330
62
100
AcDbEntity
  8
_U+30EC_U+30A4_U+30E4_U+30FC 1
370
     0
  0
HATCH
  5
6D
330
41
100
AcDbEntity
  8
_U+30EC_U+30A4_U+30E4_U+30FC 1
 62
     7
100
AcDbHatch
 10
0.0
 20
0.0
 30
0.0
210
0.0
220
0.0
230
1.0
  2
SOLID
 70
     1
 71
     0
 91
        1
 92
        1
 93
        8
 72
     1
 10
180.4671928802304
 20
64.86391394918957
 11
182.4381320073419
 21
64.86391394918957
 72
     1
 10
182.4381320073419
 20
64.86391394918957
 11
182.4381320073419
 21
64.62620236070732
 72
     1
 10
182.4381320073419
 20
64.62620236070732
 11
181.0328775589085
 21
61.50150075558572
 72
     1
 10
181.0328775589085
 20
61.50150075558572
 11
180.6511609791428
 21
61.50150075558572
 72
     1
 10
180.6511609791428
 20
61.50150075558572
 11
182.0564154275762
 21
64.54524261680396
 72
     1
 10
182.0564154275762
 20
64.54524261680396
 11
182.0564154275762
 21
64.55419986506561
 72
     1
 10
182.0564154275762
 20
64.55419986506561
 11
180.4671928802304
 21
64.55419986506561
 72
     1
 10
180.4671928802304
 20
64.55419986506561
 11
180.4671928802304
 21
64.86391394918957
 97
        0
 75
     2
 76
     1
 98
        0
  0
SPLINE
  5
6E
330
41
100
AcDbEntity
  8
_U+30EC_U+30A4_U+30E4_U+30FC 1
370
     0
100
AcDbSpline
210
0.0
220
0.0
230
1.0
 70
    11
 71
     3
 72
    23
 73
    19
 74
     0
 42
0.0000000001
 43
0.0000000001
 12
1.0
 22
0.0
 32
0.0
 13
1.0
 23
0.0
 33
0.0
 40
0.0
 40
0.0
 40
0.0
 40
0.0
 40
1.0
 40
1.0
 40
1.0
 40
2.0
 40
2.0
 40
2.0
 40
3.0
 40
3.0
 40
3.0
 40
4.0
 40
4.0
 40
4.0
 40
5.0
 40
5.0
 40
5.0
 40
6.0
 40
6.0
 40
6.0
 40
6.0
 10
167.9794107652968
 20
59.49266557813655
 30
0.0
 10
168.2305582261715
 20
59.53331770486249
 30
0.0
 10
168.5223578137722
 20
59.56466807377826
 30
0.0
 10
168.8413736557063
 20
59.56466807377826
 30
0.0
 10
170.2149332256755
 20
59.56466807377826
 30
0.0
 10
170.6100856778336
 20
58.75197004880783
 30
0.0
 10
170.6100856778336
 20
57.91274478860097
 30
0.0
 10
170.6100856778336
 20
57.36945323057707
 30
0.0
 10
170.4664251960987
 20
56.90677690690801
 30
0.0
 10
170.1432752395822
 20
56.57019107799911
 30
0.0
 10
169.8425184037199
 20
56.26047699387514
 30
0.0
 10
169.3440130870043
 20
56.08994476735528
 30
0.0
 10
168.7201062946255
 20
56.08994476735528
 30
0.0
 10
168.4372639552865
 20
56.08994476735528
 30
0.0
 10
168.1947292331249
 20
56.09890201561693
 30
0.0
 10
167.9794107652968
 20
56.12577376040188
 30
0.0
 10
167.9794107652968
 20
56.12577376040188
 30
0.0
 10
167.9794107652968
 20
59.49266557813655
 30
0.0
 10
167.9794107652968
 20
59.49266557813655
 30
0.0
  0
SPLINE
  5
6F
330
41
100
AcDbEntity
  8
_U+30EC_U+30A4_U+30E4_U+30FC 1
370
     0
100
AcDbSpline
210
0.0
220
0.0
230
1.0
 70
    11
 71
     3
 72
    20
 73
    16
 74
     0
 42
0.0000000001
 43
0.0000000001
 12
1.0
 22
0.0
 32
0.0
 13
1.0
 23
0.0
 33
0.0
 40
0.0
 40
0.0
 40
0.0
 40
0.0
 40
1.0
 40
1.0
 40
1.0
 40
2.0
 40
2.0
 40
2.0
 40
3.0
 40
3.0
 40
3.0
 40
4.0
 40
4.0
 40
4.0
 40
5.0
 40
5.0
 40
5.0
 40
5.0
 10
168.3518255872523
 20
56.41309472387172
 30
0.0
 10
168.4641357000715
 20
56.39518022734842
 30
0.0
 10
168.6257106783297
 20
56.39070160321759
 30
0.0
 10
168.7872856565879
 20
56.39070160321759
 30
0.0
 10
169.7122937943775
 20
56.39070160321759
 30
0.0
 10
170.2194118498063
 20
56.91607866471819
 30
0.0
 10
170.2194118498063
 20
57.89448578252915
 30
0.0
 10
170.2194118498063
 20
58.78366492727213
 30
0.0
 10
169.7436441632933
 20
59.26391123791596
 30
0.0
 10
168.8548095280988
 20
59.26391123791596
 30
0.0
 10
168.6391465507222
 20
59.26391123791596
 30
0.0
 10
168.4686143242023
 20
59.24151811726183
 30
0.0
 10
168.3518255872523
 20
59.21912499660771
 30
0.0
 10
168.3518255872523
 20
59.21912499660771
 30
0.0
 10
168.3518255872523
 20
56.41309472387172
 30
0.0
 10
168.3518255872523
 20
56.41309472387172
 30
0.0
  0
HATCH
  5
70
330
41
100
AcDbEntity
  8
_U+30EC_U+30A4_U+30E4_U+30FC 1
 62
     7
100
AcDbHatch
 10
0.0
 20
0.0
 30
0.0
210
0.0
220
0.0
230
1.0
  2
SOLID
 70
     1
 71
     0
 91
        2
 92
        1
 93
        1
 72
     4
 94
        3
 73
     0
 74
     1
 95
       23
 96
       19
 40
0.0
 40
0.0
 40
0.0
 40
0.0
 40
1.0
 40
1.0
 40
1.0
 40
2.0
 40
2.0
 40
2.0
 40
3.0
 40
3.0
 40
3.0
 40
4.0
 40
4.0
 40
4.0
 40
5.0
 40
5.0
 40
5.0
 40
6.0
 40
6.0
 40
6.0
 40
6.0
 10
167.9794107652968
 20
59.49266557813655
 10
168.2305582261715
 20
59.53331770486249
 10
168.5223578137722
 20
59.56466807377826
 10
168.8413736557063
 20
59.56466807377826
 10
170.2149332256755
 20
59.56466807377826
 10
170.6100856778336
 20
58.75197004880783
 10
170.6100856778336
 20
57.91274478860097
 10
170.6100856778336
 20
57.36945323057707
 10
170.4664251960987
 20
56.90677690690801
 10
170.1432752395822
 20
56.57019107799911
 10
169.8425184037199
 20
56.26047699387514
 10
169.3440130870043
 20
56.08994476735528
 10
168.7201062946255
 20
56.08994476735528
 10
168.4372639552865
 20
56.08994476735528
 10
168.1947292331249
 20
56.09890201561693
 10
167.9794107652968
 20
56.12577376040188
 10
167.9794107652968
 20
56.12577376040188
 10
167.9794107652968
 20
59.49266557813655
 10
167.9794107652968
 20
59.49266557813655
 97
        0
 92
        1
 93
        1
 72
     4
 94
        3
 73
     0
 74
     1
 95
       20
 96
       16
 40
0.0
 40
0.0
 40
0.0
 40
0.0
 40
1.0
 40
1.0
 40
1.0
 40
2.0
 40
2.0
 40
2.0
 40
3.0
 40
3.0
 40
3.0
 40
4.0
 40
4.0
 40
4.0
 40
5.0
 40
5.0
 40
5.0
 40
5.0
 10
168.3518255872523
 20
56.41309472387172
 10
168.4641357000715
 20
56.39518022734842
 10
168.6257106783297
 20
56.39070160321759
 10
168.7872856565879
 20
56.39070160321759
 10
169.7122937943775
 20
56.39070160321759
 10
170.2194118498063
 20
56.91607866471819
 10
170.2194118498063
 20
57.89448578252915
 10
170.2194118498063
 20
58.78366492727213
 10
169.7436441632933
 20
59.26391123791596
 10
168.8548095280988
 20
59.26391123791596
 10
168.6391465507222
 20
59.26391123791596
 10
168.4686143242023
 20
59.24151811726183
 10
168.3518255872523
 20
59.21912499660771
 10
168.3518255872523
 20
59.21912499660771
 10
168.3518255872523
 20
56.41309472387172
 10
168.3518255872523
 20
56.41309472387172
 97
        0
 75
     2
 76
     1
 98
        0
  0
SPLINE
  5
71
330
41
100
AcDbEntity
  8
_U+30EC_U+30A4_U+30E4_U+30FC 1
370
     0
100
AcDbSpline
210
0.0
220
0.0
230
1.0
 70
    11
 71
     3
 72
    35
 73
    31
 74
     0
 42
0.0000000001
 43
0.0000000001
 12
1.0
 22
0.0
 32
0.0
 13
1.0
 23
0.0
 33
0.0
 40
0.0
 40
0.0
 40
0.0
 40
0.0
 40
1.0
 40
1.0
 40
1.0
 40
2.0
 40
2.0
 40
2.0
 40
3.0
 40
3.0
 40
3.0
 40
4.0
 40
4.0
 40
4.0
 40
5.0
 40
5.0
 40
5.0
 40
6.0
 40
6.0
 40
6.0
 40
7.0
 40
7.0
 40
7.0
 40
8.0
 40
8.0
 40
8.0
 40
9.0
 40
9.0
 40
9.0
 40
10.0
 40
10.0
 40
10.0
 40
10.0
 10
173.4188720269578
 20
56.22016937669773
 30
0.0
 10
173.2617756728304
 20
56.14368825692518
 30
0.0
 10
172.9565402128373
 20
56.06755164670115
 30
0.0
 10
172.5658663848099
 20
56.06755164670115
 30
0.0
 10
171.6859889978771
 20
56.06755164670115
 30
0.0
 10
170.9766438374642
 20
56.63771494951001
 30
0.0
 10
170.9766438374642
 20
57.795956051651
 30
0.0
 10
170.9766438374642
 20
58.90010915467357
 30
0.0
 10
171.663595877223
 20
59.58706119443239
 30
0.0
 10
172.6647406252366
 20
59.58706119443239
 30
0.0
 10
173.0733289497872
 20
59.58706119443239
 30
0.0
 10
173.311385047818
 20
59.50196733594672
 30
0.0
 10
173.4188720269578
 20
59.4478793368283
 30
0.0
 10
173.4188720269578
 20
59.4478793368283
 30
0.0
 10
173.3203422960796
 20
59.13368662857351
 30
0.0
 10
173.3203422960796
 20
59.13368662857351
 30
0.0
 10
173.1632459419523
 20
59.21016774834606
 30
0.0
 10
172.9431043404448
 20
59.27286848617761
 30
0.0
 10
172.6736978734982
 20
59.27286848617761
 30
0.0
 10
171.8971733511229
 20
59.27286848617761
 30
0.0
 10
171.3673176654915
 20
58.75197004880783
 30
0.0
 10
171.3673176654915
 20
57.80939192404347
 30
0.0
 10
171.3673176654915
 20
56.91160004058737
 30
0.0
 10
171.8520426002662
 20
56.38174435495594
 30
0.0
 10
172.6513047528441
 20
56.38174435495594
 30
0.0
 10
172.911753971529
 20
56.38174435495594
 30
0.0
 10
173.1677245660831
 20
56.43996646865666
 30
0.0
 10
173.3382567926029
 20
56.52092621256003
 30
0.0
 10
173.3382567926029
 20
56.52092621256003
 30
0.0
 10
173.4188720269578
 20
56.22016937669773
 30
0.0
 10
173.4188720269578
 20
56.22016937669773
 30
0.0
  0
HATCH
  5
72
330
41
100
AcDbEntity
  8
_U+30EC_U+30A4_U+30E4_U+30FC 1
 62
     7
100
AcDbHatch
 10
0.0
 20
0.0
 30
0.0
210
0.0
220
0.0
230
1.0
  2
SOLID
 70
     1
 71
     0
 91
        1
 92
        1
 93
        1
 72
     4
 94
        3
 73
     0
 74
     1
 95
       35
 96
       31
 40
0.0
 40
0.0
 40
0.0
 40
0.0
 40
1.0
 40
1.0
 40
1.0
 40
2.0
 40
2.0
 40
2.0
 40
3.0
 40
3.0
 40
3.0
 40
4.0
 40
4.0
 40
4.0
 40
5.0
 40
5.0
 40
5.0
 40
6.0
 40
6.0
 40
6.0
 40
7.0
 40
7.0
 40
7.0
 40
8.0
 40
8.0
 40
8.0
 40
9.0
 40
9.0
 40
9.0
 40
10.0
 40
10.0
 40
10.0
 40
10.0
 10
173.4188720269578
 20
56.22016937669773
 10
173.2617756728304
 20
56.14368825692518
 10
172.9565402128373
 20
56.06755164670115
 10
172.5658663848099
 20
56.06755164670115
 10
171.6859889978771
 20
56.06755164670115
 10
170.9766438374642
 20
56.63771494951001
 10
170.9766438374642
 20
57.795956051651
 10
170.9766438374642
 20
58.90010915467357
 10
171.663595877223
 20
59.58706119443239
 10
172.6647406252366
 20
59.58706119443239
 10
173.0733289497872
 20
59.58706119443239
 10
173.311385047818
 20
59.50196733594672
 10
173.4188720269578
 20
59.4478793368283
 10
173.4188720269578
 20
59.4478793368283
 10
173.3203422960796
 20
59.13368662857351
 10
173.3203422960796
 20
59.13368662857351
 10
173.1632459419523
 20
59.21016774834606
 10
172.9431043404448
 20
59.27286848617761
 10
172.6736978734982
 20
59.27286848617761
 10
171.8971733511229
 20
59.27286848617761
 10
171.3673176654915
 20
58.75197004880783
 10
171.3673176654915
 20
57.80939192404347
 10
171.3673176654915
 20
56.91160004058737
 10
171.8520426002662
 20
56.38174435495594
 10
172.6513047528441
 20
56.38174435495594
 10
172.911753971529
 20
56.38174435495594
 10
173.1677245660831
 20
56.43996646865666
 10
173.3382567926029
 20
56.52092621256003
 10
173.3382567926029
 20
56.52092621256003
 10
173.4188720269578
 20
56.22016937669773
 10
173.4188720269578
 20
56.22016937669773
 97
        0
 75
     2
 76
     1
 98
        0
  0
SPLINE
  5
73
330
41
100
AcDbEntity
  8
_U+30EC_U+30A4_U+30E4_U+30FC 1
370
     0
100
AcDbSpline
210
0.0
220
0.0
230
1.0
 70
    11
 71
     3
 72
    35
 73
    31
 74
     0
 42
0.0000000001
 43
0.0000000001
 12
1.0
 22
0.0
 32
0.0
 13
1.0
 23
0.0
 33
0.0
 40
0.0
 40
0.0
 40
0.0
 40
0.0
 40
1.0
 40
1.0
 40
1.0
 40
2.0
 40
2.0
 40
2.0
 40
3.0
 40
3.0
 40
3.0
 40
4.0
 40
4.0
 40
4.0
 40
5.0
 40
5.0
 40
5.0
 40
6.0
 40
6.0
 40
6.0
 40
7.0
 40
7.0
 40
7.0
 40
8.0
 40
8.0
 40
8.0
 40
9.0
 40
9.0
 40
9.0
 40
10.0
 40
10.0
 40
10.0
 40
10.0
 10
175.276123003056
 20
57.94857378164757
 30
0.0
 10
175.5992729595724
 20
57.87209266187502
 30
0.0
 10
175.9809895393381
 20
57.60268619492849
 30
0.0
 10
175.9809895393381
 20
57.08661089123806
 30
0.0
 10
175.9809895393381
 20
56.78137543124492
 30
0.0
 10
175.8642008023881
 20
56.56571245386829
 30
0.0
 10
175.7071044482607
 20
56.41309472387172
 30
0.0
 10
175.4780055984916
 20
56.18881900778195
 30
0.0
 10
175.1100694006669
 20
56.08994476735528
 30
0.0
 10
174.593649587428
 20
56.08994476735528
 30
0.0
 10
174.310807248089
 20
56.08994476735528
 30
0.0
 10
174.0999674043917
 20
56.11233788800941
 30
0.0
 10
173.9607855467876
 20
56.12577376040188
 30
0.0
 10
173.9607855467876
 20
56.12577376040188
 30
0.0
 10
173.9607855467876
 20
59.48818695400572
 30
0.0
 10
173.9607855467876
 20
59.48818695400572
 30
0.0
 10
174.1492322698307
 20
59.52883908073167
 30
0.0
 10
174.4186387367773
 20
59.56018944964744
 30
0.0
 10
174.6970024519855
 20
59.56018944964744
 30
0.0
 10
175.1190266489286
 20
59.56018944964744
 30
0.0
 10
175.3973903641368
 20
59.47922970574407
 30
0.0
 10
175.5992729595724
 20
59.30869747922421
 30
0.0
 10
175.7608479378306
 20
59.16951562162011
 30
0.0
 10
175.8552435541265
 20
58.97211165031529
 30
0.0
 10
175.8552435541265
 20
58.71614105576123
 30
0.0
 10
175.8552435541265
 20
58.37955522685233
 30
0.0
 10
175.6261447043574
 20
58.08775563925166
 30
0.0
 10
175.276123003056
 20
57.96200965404005
 30
0.0
 10
175.276123003056
 20
57.96200965404005
 30
0.0
 10
175.276123003056
 20
57.94857378164757
 30
0.0
 10
175.276123003056
 20
57.94857378164757
 30
0.0
  0
SPLINE
  5
74
330
41
100
AcDbEntity
  8
_U+30EC_U+30A4_U+30E4_U+30FC 1
370
     0
100
AcDbSpline
210
0.0
220
0.0
230
1.0
 70
    11
 71
     3
 72
    23
 73
    19
 74
     0
 42
0.0000000001
 43
0.0000000001
 12
1.0
 22
0.0
 32
0.0
 13
1.0
 23
0.0
 33
0.0
 40
0.0
 40
0.0
 40
0.0
 40
0.0
 40
1.0
 40
1.0
 40
1.0
 40
2.0
 40
2.0
 40
2.0
 40
3.0
 40
3.0
 40
3.0
 40
4.0
 40
4.0
 40
4.0
 40
5.0
 40
5.0
 40
5.0
 40
6.0
 40
6.0
 40
6.0
 40
6.0
 10
174.7328314450321
 20
58.07431976685919
 30
0.0
 10
175.186206010891
 20
58.07431976685919
 30
0.0
 10
175.4780055984916
 20
58.33442447599555
 30
0.0
 10
175.4780055984916
 20
58.68479068684546
 30
0.0
 10
175.4780055984916
 20
58.68479068684546
 30
0.0
 10
175.4780055984916
 20
58.68926931097629
 30
0.0
 10
175.4780055984916
 20
58.68926931097629
 30
0.0
 10
175.4780055984916
 20
59.09337901139609
 30
0.0
 10
175.1817273867601
 20
59.26838986204678
 30
0.0
 10
174.7149169485088
 20
59.26838986204678
 30
0.0
 10
174.5175129772039
 20
59.26838986204678
 30
0.0
 10
174.400724240254
 20
59.2549539896543
 30
0.0
 10
174.3332003687431
 20
59.23703949313101
 30
0.0
 10
174.3332003687431
 20
59.23703949313101
 30
0.0
 10
174.3332003687431
 20
58.07431976685919
 30
0.0
 10
174.3332003687431
 20
58.07431976685919
 30
0.0
 10
174.3332003687431
 20
58.07431976685919
 30
0.0
 10
174.7328314450321
 20
58.07431976685919
 30
0.0
 10
174.7328314450321
 20
58.07431976685919
 30
0.0
  0
SPLINE
  5
75
330
41
100
AcDbEntity
  8
_U+30EC_U+30A4_U+30E4_U+30FC 1
370
     0
100
AcDbSpline
210
0.0
220
0.0
230
1.0
 70
    11
 71
     3
 72
    20
 73
    16
 74
     0
 42
0.0000000001
 43
0.0000000001
 12
1.0
 22
0.0
 32
0.0
 13
1.0
 23
0.0
 33
0.0
 40
0.0
 40
0.0
 40
0.0
 40
0.0
 40
1.0
 40
1.0
 40
1.0
 40
2.0
 40
2.0
 40
2.0
 40
3.0
 40
3.0
 40
3.0
 40
4.0
 40
4.0
 40
4.0
 40
5.0
 40
5.0
 40
5.0
 40
5.0
 10
174.3332003687431
 20
56.40861609974089
 30
0.0
 10
174.4186387367773
 20
56.39070160321759
 30
0.0
 10
174.5399060978581
 20
56.38622297908677
 30
0.0
 10
174.6970024519855
 20
56.38622297908677
 30
0.0
 10
175.1682915143677
 20
56.38622297908677
 30
0.0
 10
175.5903157113108
 20
56.57019107799911
 30
0.0
 10
175.5903157113108
 20
57.08661089123806
 30
0.0
 10
175.5903157113108
 20
57.59820757079766
 30
0.0
 10
175.1458983937135
 20
57.78699880338935
 30
0.0
 10
174.6925238278546
 20
57.78699880338935
 30
0.0
 10
174.6925238278546
 20
57.78699880338935
 30
0.0
 10
174.3332003687431
 20
57.78699880338935
 30
0.0
 10
174.3332003687431
 20
57.78699880338935
 30
0.0
 10
174.3332003687431
 20
57.78699880338935
 30
0.0
 10
174.3332003687431
 20
56.40861609974089
 30
0.0
 10
174.3332003687431
 20
56.40861609974089
 30
0.0
  0
HATCH
  5
76
330
41
100
AcDbEntity
  8
_U+30EC_U+30A4_U+30E4_U+30FC 1
 62
     7
100
AcDbHatch
 10
0.0
 20
0.0
 30
0.0
210
0.0
220
0.0
230
1.0
  2
SOLID
 70
     1
 71
     0
 91
        3
 92
        1
 93
        1
 72
     4
 94
        3
 73
     0
 74
     1
 95
       35
 96
       31
 40
0.0
 40
0.0
 40
0.0
 40
0.0
 40
1.0
 40
1.0
 40
1.0
 40
2.0
 40
2.0
 40
2.0
 40
3.0
 40
3.0
 40
3.0
 40
4.0
 40
4.0
 40
4.0
 40
5.0
 40
5.0
 40
5.0
 40
6.0
 40
6.0
 40
6.0
 40
7.0
 40
7.0
 40
7.0
 40
8.0
 40
8.0
 40
8.0
 40
9.0
 40
9.0
 40
9.0
 40
10.0
 40
10.0
 40
10.0
 40
10.0
 10
175.276123003056
 20
57.94857378164757
 10
175.5992729595724
 20
57.87209266187502
 10
175.9809895393381
 20
57.60268619492849
 10
175.9809895393381
 20
57.08661089123806
 10
175.9809895393381
 20
56.78137543124492
 10
175.8642008023881
 20
56.56571245386829
 10
175.7071044482607
 20
56.41309472387172
 10
175.4780055984916
 20
56.18881900778195
 10
175.1100694006669
 20
56.08994476735528
 10
174.593649587428
 20
56.08994476735528
 10
174.310807248089
 20
56.08994476735528
 10
174.0999674043917
 20
56.11233788800941
 10
173.9607855467876
 20
56.12577376040188
 10
173.9607855467876
 20
56.12577376040188
 10
173.9607855467876
 20
59.48818695400572
 10
173.9607855467876
 20
59.48818695400572
 10
174.1492322698307
 20
59.52883908073167
 10
174.4186387367773
 20
59.56018944964744
 10
174.6970024519855
 20
59.56018944964744
 10
175.1190266489286
 20
59.56018944964744
 10
175.3973903641368
 20
59.47922970574407
 10
175.5992729595724
 20
59.30869747922421
 10
175.7608479378306
 20
59.16951562162011
 10
175.8552435541265
 20
58.97211165031529
 10
175.8552435541265
 20
58.71614105576123
 10
175.8552435541265
 20
58.37955522685233
 10
175.6261447043574
 20
58.08775563925166
 10
175.276123003056
 20
57.96200965404005
 10
175.276123003056
 20
57.96200965404005
 10
175.276123003056
 20
57.94857378164757
 10
175.276123003056
 20
57.94857378164757
 97
        0
 92
        1
 93
        1
 72
     4
 94
        3
 73
     0
 74
     1
 95
       23
 96
       19
 40
0.0
 40
0.0
 40
0.0
 40
0.0
 40
1.0
 40
1.0
 40
1.0
 40
2.0
 40
2.0
 40
2.0
 40
3.0
 40
3.0
 40
3.0
 40
4.0
 40
4.0
 40
4.0
 40
5.0
 40
5.0
 40
5.0
 40
6.0
 40
6.0
 40
6.0
 40
6.0
 10
174.7328314450321
 20
58.07431976685919
 10
175.186206010891
 20
58.07431976685919
 10
175.4780055984916
 20
58.33442447599555
 10
175.4780055984916
 20
58.68479068684546
 10
175.4780055984916
 20
58.68479068684546
 10
175.4780055984916
 20
58.68926931097629
 10
175.4780055984916
 20
58.68926931097629
 10
175.4780055984916
 20
59.09337901139609
 10
175.1817273867601
 20
59.26838986204678
 10
174.7149169485088
 20
59.26838986204678
 10
174.5175129772039
 20
59.26838986204678
 10
174.400724240254
 20
59.2549539896543
 10
174.3332003687431
 20
59.23703949313101
 10
174.3332003687431
 20
59.23703949313101
 10
174.3332003687431
 20
58.07431976685919
 10
174.3332003687431
 20
58.07431976685919
 10
174.3332003687431
 20
58.07431976685919
 10
174.7328314450321
 20
58.07431976685919
 10
174.7328314450321
 20
58.07431976685919
 97
        0
 92
        1
 93
        1
 72
     4
 94
        3
 73
     0
 74
     1
 95
       20
 96
       16
 40
0.0
 40
0.0
 40
0.0
 40
0.0
 40
1.0
 40
1.0
 40
1.0
 40
2.0
 40
2.0
 40
2.0
 40
3.0
 40
3.0
 40
3.0
 40
4.0
 40
4.0
 40
4.0
 40
5.0
 40
5.0
 40
5.0
 40
5.0
 10
174.3332003687431
 20
56.40861609974089
 10
174.4186387367773
 20
56.39070160321759
 10
174.5399060978581
 20
56.38622297908677
 10
174.6970024519855
 20
56.38622297908677
 10
175.1682915143677
 20
56.38622297908677
 10
175.5903157113108
 20
56.57019107799911
 10
175.5903157113108
 20
57.08661089123806
 10
175.5903157113108
 20
57.59820757079766
 10
175.1458983937135
 20
57.78699880338935
 10
174.6925238278546
 20
57.78699880338935
 10
174.6925238278546
 20
57.78699880338935
 10
174.3332003687431
 20
57.78699880338935
 10
174.3332003687431
 20
57.78699880338935
 10
174.3332003687431
 20
57.78699880338935
 10
174.3332003687431
 20
56.40861609974089
 10
174.3332003687431
 20
56.40861609974089
 97
        0
 75
     2
 76
     1
 98
        0
  0
POLYLINE
  5
77
330
41
100
AcDbEntity
  8
_U+30EC_U+30A4_U+30E4_U+30FC 1
370
     0
100
AcDb2dPolyline
 66
     1
 10
0.0
 20
0.0
 30
0.0
  0
VERTEX
  5
78
330
77
100
AcDbEntity
  8
_U+30EC_U+30A4_U+30E4_U+30FC 1
370
     0
100
AcDbVertex
100
AcDb2dVertex
 10
176.3344563361247
 20
57.62990244926196
 30
0.0
  0
VERTEX
  5
79
330
77
100
AcDbEntity
  8
_U+30EC_U+30A4_U+30E4_U+30FC 1
370
     0
100
AcDbVertex
100
AcDb2dVertex
 10
177.5602213097766
 20
57.62990244926196
 30
0.0
  0
VERTEX
  5
7A
330
77
100
AcDbEntity
  8
_U+30EC_U+30A4_U+30E4_U+30FC 1
370
     0
100
AcDbVertex
100
AcDb2dVertex
 10
177.5602213097766
 20
57.34258148579212
 30
0.0
  0
VERTEX
  5
7B
330
77
100
AcDbEntity
  8
_U+30EC_U+30A4_U+30E4_U+30FC 1
370
     0
100
AcDbVertex
100
AcDb2dVertex
 10
176.3344563361247
 20
57.34258148579212
 30
0.0
  0
VERTEX
  5
7C
330
77
100
AcDbEntity
  8
_U+30EC_U+30A4_U+30E4_U+30FC 1
370
     0
100
AcDbVertex
100
AcDb2dVertex
 10
176.3344563361247
 20
57.62990244926196
 30
0.0
  0
SEQEND
  5
7D
330
77
100
AcDbEntity
  8
_U+30EC_U+30A4_U+30E4_U+30FC 1
370
     0
  0
HATCH
  5
7E
330
41
100
AcDbEntity
  8
_U+30EC_U+30A4_U+30E4_U+30FC 1
 62
     7
100
AcDbHatch
 10
0.0
 20
0.0
 30
0.0
210
0.0
220
0.0
230
1.0
  2
SOLID
 70
     1
 71
     0
 91
        1
 92
        1
 93
        4
 72
     1
 10
176.3344563361247
 20
57.62990244926196
 11
177.5602213097766
 21
57.62990244926196
 72
     1
 10
177.5602213097766
 20
57.62990244926196
 11
177.5602213097766
 21
57.34258148579212
 72
     1
 10
177.5602213097766
 20
57.34258148579212
 11
176.3344563361247
 21
57.34258148579212
 72
     1
 10
176.3344563361247
 20
57.34258148579212
 11
176.3344563361247
 21
57.62990244926196
 97
        0
 75
     2
 76
     1
 98
        0
  0
SPLINE
  5
7F
330
41
100
AcDbEntity
  8
_U+30EC_U+30A4_U+30E4_U+30FC 1
370
     0
100
AcDbSpline
210
0.0
220
0.0
230
1.0
 70
    11
 71
     3
 72
    47
 73
    43
 74
     0
 42
0.0000000001
 43
0.0000000001
 12
1.0
 22
0.0
 32
0.0
 13
1.0
 23
0.0
 33
0.0
 40
0.0
 40
0.0
 40
0.0
 40
0.0
 40
1.0
 40
1.0
 40
1.0
 40
2.0
 40
2.0
 40
2.0
 40
3.0
 40
3.0
 40
3.0
 40
4.0
 40
4.0
 40
4.0
 40
5.0
 40
5.0
 40
5.0
 40
6.0
 40
6.0
 40
6.0
 40
7.0
 40
7.0
 40
7.0
 40
8.0
 40
8.0
 40
8.0
 40
9.0
 40
9.0
 40
9.0
 40
10.0
 40
10.0
 40
10.0
 40
11.0
 40
11.0
 40
11.0
 40
12.0
 40
12.0
 40
12.0
 40
13.0
 40
13.0
 40
13.0
 40
14.0
 40
14.0
 40
14.0
 40
14.0
 10
179.9204562267213
 20
56.11681651214023
 30
0.0
 10
179.9204562267213
 20
56.11681651214023
 30
0.0
 10
177.9319471126351
 20
56.11681651214023
 30
0.0
 10
177.9319471126351
 20
56.11681651214023
 30
0.0
 10
177.9319471126351
 20
56.11681651214023
 30
0.0
 10
177.9319471126351
 20
56.34591536190934
 30
0.0
 10
177.9319471126351
 20
56.34591536190934
 30
0.0
 10
177.9319471126351
 20
56.34591536190934
 30
0.0
 10
178.2595756932823
 20
56.6914584390799
 30
0.0
 10
178.2595756932823
 20
56.6914584390799
 30
0.0
 10
179.0584933363118
 20
57.49967783991951
 30
0.0
 10
179.4626030367316
 20
57.98888139882499
 30
0.0
 10
179.4626030367316
 20
58.53665158097971
 30
0.0
 10
179.4626030367316
 20
58.89563053054275
 30
0.0
 10
179.3055066826042
 20
59.22808224486936
 30
0.0
 10
178.8207817478295
 20
59.22808224486936
 30
0.0
 10
178.551375280883
 20
59.22808224486936
 30
0.0
 10
178.3088405587214
 20
59.07994313900362
 30
0.0
 10
178.1472655804632
 20
58.94971852966117
 30
0.0
 10
178.1472655804632
 20
58.94971852966117
 30
0.0
 10
178.0215195952516
 20
59.21016774834606
 30
0.0
 10
178.0215195952516
 20
59.21016774834606
 30
0.0
 10
178.2282253243666
 20
59.3941358472584
 30
0.0
 10
178.5334607843597
 20
59.53779632899332
 30
0.0
 10
178.8924397339227
 20
59.53779632899332
 30
0.0
 10
179.5704345254199
 20
59.53779632899332
 30
0.0
 10
179.8398409923664
 20
59.04376963640849
 30
0.0
 10
179.8398409923664
 20
58.58143782228796
 30
0.0
 10
179.8398409923664
 20
57.94857378164757
 30
0.0
 10
179.3954236747692
 20
57.40976084775449
 30
0.0
 10
178.6995143867487
 20
56.7093729356032
 30
0.0
 10
178.6995143867487
 20
56.7093729356032
 30
0.0
 10
178.434586543933
 20
56.43100922039501
 30
0.0
 10
178.434586543933
 20
56.43100922039501
 30
0.0
 10
178.434586543933
 20
56.43100922039501
 30
0.0
 10
178.434586543933
 20
56.42205197213337
 30
0.0
 10
178.434586543933
 20
56.42205197213337
 30
0.0
 10
178.434586543933
 20
56.42205197213337
 30
0.0
 10
179.9204562267213
 20
56.42205197213337
 30
0.0
 10
179.9204562267213
 20
56.42205197213337
 30
0.0
 10
179.9204562267213
 20
56.42205197213337
 30
0.0
 10
179.9204562267213
 20
56.11681651214023
 30
0.0
 10
179.9204562267213
 20
56.11681651214023
 30
0.0
  0
HATCH
  5
80
330
41
100
AcDbEntity
  8
_U+30EC_U+30A4_U+30E4_U+30FC 1
 62
     7
100
AcDbHatch
 10
0.0
 20
0.0
 30
0.0
210
0.0
220
0.0
230
1.0
  2
SOLID
 70
     1
 71
     0
 91
        1
 92
        1
 93
        1
 72
     4
 94
        3
 73
     0
 74
     1
 95
       47
 96
       43
 40
0.0
 40
0.0
 40
0.0
 40
0.0
 40
1.0
 40
1.0
 40
1.0
 40
2.0
 40
2.0
 40
2.0
 40
3.0
 40
3.0
 40
3.0
 40
4.0
 40
4.0
 40
4.0
 40
5.0
 40
5.0
 40
5.0
 40
6.0
 40
6.0
 40
6.0
 40
7.0
 40
7.0
 40
7.0
 40
8.0
 40
8.0
 40
8.0
 40
9.0
 40
9.0
 40
9.0
 40
10.0
 40
10.0
 40
10.0
 40
11.0
 40
11.0
 40
11.0
 40
12.0
 40
12.0
 40
12.0
 40
13.0
 40
13.0
 40
13.0
 40
14.0
 40
14.0
 40
14.0
 40
14.0
 10
179.9204562267213
 20
56.11681651214023
 10
179.9204562267213
 20
56.11681651214023
 10
177.9319471126351
 20
56.11681651214023
 10
177.9319471126351
 20
56.11681651214023
 10
177.9319471126351
 20
56.11681651214023
 10
177.9319471126351
 20
56.34591536190934
 10
177.9319471126351
 20
56.34591536190934
 10
177.9319471126351
 20
56.34591536190934
 10
178.2595756932823
 20
56.6914584390799
 10
178.2595756932823
 20
56.6914584390799
 10
179.0584933363118
 20
57.49967783991951
 10
179.4626030367316
 20
57.98888139882499
 10
179.4626030367316
 20
58.53665158097971
 10
179.4626030367316
 20
58.89563053054275
 10
179.3055066826042
 20
59.22808224486936
 10
178.8207817478295
 20
59.22808224486936
 10
178.551375280883
 20
59.22808224486936
 10
178.3088405587214
 20
59.07994313900362
 10
178.1472655804632
 20
58.94971852966117
 10
178.1472655804632
 20
58.94971852966117
 10
178.0215195952516
 20
59.21016774834606
 10
178.0215195952516
 20
59.21016774834606
 10
178.2282253243666
 20
59.3941358472584
 10
178.5334607843597
 20
59.53779632899332
 10
178.8924397339227
 20
59.53779632899332
 10
179.5704345254199
 20
59.53779632899332
 10
179.8398409923664
 20
59.04376963640849
 10
179.8398409923664
 20
58.58143782228796
 10
179.8398409923664
 20
57.94857378164757
 10
179.3954236747692
 20
57.40976084775449
 10
178.6995143867487
 20
56.7093729356032
 10
178.6995143867487
 20
56.7093729356032
 10
178.434586543933
 20
56.43100922039501
 10
178.434586543933
 20
56.43100922039501
 10
178.434586543933
 20
56.43100922039501
 10
178.434586543933
 20
56.42205197213337
 10
178.434586543933
 20
56.42205197213337
 10
178.434586543933
 20
56.42205197213337
 10
179.9204562267213
 20
56.42205197213337
 10
179.9204562267213
 20
56.42205197213337
 10
179.9204562267213
 20
56.42205197213337
 10
179.9204562267213
 20
56.11681651214023
 10
179.9204562267213
 20
56.11681651214023
 97
        0
 75
     2
 76
     1
 98
        0
  0
SPLINE
  5
81
330
41
100
AcDbEntity
  8
_U+30EC_U+30A4_U+30E4_U+30FC 1
370
     0
100
AcDbSpline
210
0.0
220
0.0
230
1.0
 70
    11
 71
     3
 72
    17
 73
    13
 74
     0
 42
0.0000000001
 43
0.0000000001
 12
1.0
 22
0.0
 32
0.0
 13
1.0
 23
0.0
 33
0.0
 40
0.0
 40
0.0
 40
0.0
 40
0.0
 40
1.0
 40
1.0
 40
1.0
 40
2.0
 40
2.0
 40
2.0
 40
3.0
 40
3.0
 40
3.0
 40
4.0
 40
4.0
 40
4.0
 40
4.0
 10
180.3638400156729
 20
57.78699880338935
 30
0.0
 10
180.3638400156729
 20
58.96315440205365
 30
0.0
 10
180.8216932056627
 20
59.53331770486249
 30
0.0
 10
181.4504231317207
 20
59.53331770486249
 30
0.0
 10
182.087765796492
 20
59.53331770486249
 30
0.0
 10
182.4784396245193
 20
58.93180403313787
 30
0.0
 10
182.4784396245193
 20
57.8317850446976
 30
0.0
 10
182.4784396245193
 20
56.66458669429495
 30
0.0
 10
182.0698512999687
 20
56.06307302257033
 30
0.0
 10
181.4008137567331
 20
56.06307302257033
 30
0.0
 10
180.7903428367469
 20
56.06307302257033
 30
0.0
 10
180.3638400156729
 20
56.66458669429495
 30
0.0
 10
180.3638400156729
 20
57.78699880338935
 30
0.0
  0
SPLINE
  5
82
330
41
100
AcDbEntity
  8
_U+30EC_U+30A4_U+30E4_U+30FC 1
370
     0
100
AcDbSpline
210
0.0
220
0.0
230
1.0
 70
    11
 71
     3
 72
    17
 73
    13
 74
     0
 42
0.0000000001
 43
0.0000000001
 12
1.0
 22
0.0
 32
0.0
 13
1.0
 23
0.0
 33
0.0
 40
0.0
 40
0.0
 40
0.0
 40
0.0
 40
1.0
 40
1.0
 40
1.0
 40
2.0
 40
2.0
 40
2.0
 40
3.0
 40
3.0
 40
3.0
 40
4.0
 40
4.0
 40
4.0
 40
4.0
 10
182.1012016688844
 20
57.8138705481743
 30
0.0
 10
182.1012016688844
 20
58.65344031792969
 30
0.0
 10
181.8993190734488
 20
59.23256086900018
 30
0.0
 10
181.4280300110666
 20
59.23256086900018
 30
0.0
 10
181.0283989347776
 20
59.23256086900018
 30
0.0
 10
180.7455565954386
 20
58.69822655923793
 30
0.0
 10
180.7455565954386
 20
57.8138705481743
 30
0.0
 10
180.7455565954386
 20
56.92951453711066
 30
0.0
 10
180.992569941731
 20
56.36830848256347
 30
0.0
 10
181.4145941386741
 20
56.36830848256347
 30
0.0
 10
181.9127549458413
 20
56.36830848256347
 30
0.0
 10
182.1012016688844
 20
57.01460839559634
 30
0.0
 10
182.1012016688844
 20
57.8138705481743
 30
0.0
  0
HATCH
  5
83
330
41
100
AcDbEntity
  8
_U+30EC_U+30A4_U+30E4_U+30FC 1
 62
     7
100
AcDbHatch
 10
0.0
 20
0.0
 30
0.0
210
0.0
220
0.0
230
1.0
  2
SOLID
 70
     1
 71
     0
 91
        2
 92
        1
 93
        1
 72
     4
 94
        3
 73
     0
 74
     1
 95
       17
 96
       13
 40
0.0
 40
0.0
 40
0.0
 40
0.0
 40
1.0
 40
1.0
 40
1.0
 40
2.0
 40
2.0
 40
2.0
 40
3.0
 40
3.0
 40
3.0
 40
4.0
 40
4.0
 40
4.0
 40
4.0
 10
180.3638400156729
 20
57.78699880338935
 10
180.3638400156729
 20
58.96315440205365
 10
180.8216932056627
 20
59.53331770486249
 10
181.4504231317207
 20
59.53331770486249
 10
182.087765796492
 20
59.53331770486249
 10
182.4784396245193
 20
58.93180403313787
 10
182.4784396245193
 20
57.8317850446976
 10
182.4784396245193
 20
56.66458669429495
 10
182.0698512999687
 20
56.06307302257033
 10
181.4008137567331
 20
56.06307302257033
 10
180.7903428367469
 20
56.06307302257033
 10
180.3638400156729
 20
56.66458669429495
 10
180.3638400156729
 20
57.78699880338935
 97
        0
 92
        1
 93
        1
 72
     4
 94
        3
 73
     0
 74
     1
 95
       17
 96
       13
 40
0.0
 40
0.0
 40
0.0
 40
0.0
 40
1.0
 40
1.0
 40
1.0
 40
2.0
 40
2.0
 40
2.0
 40
3.0
 40
3.0
 40
3.0
 40
4.0
 40
4.0
 40
4.0
 40
4.0
 10
182.1012016688844
 20
57.8138705481743
 10
182.1012016688844
 20
58.65344031792969
 10
181.8993190734488
 20
59.23256086900018
 10
181.4280300110666
 20
59.23256086900018
 10
181.0283989347776
 20
59.23256086900018
 10
180.7455565954386
 20
58.69822655923793
 10
180.7455565954386
 20
57.8138705481743
 10
180.7455565954386
 20
56.92951453711066
 10
180.992569941731
 20
56.36830848256347
 10
181.4145941386741
 20
56.36830848256347
 10
181.9127549458413
 20
56.36830848256347
 10
182.1012016688844
 20
57.01460839559634
 10
182.1012016688844
 20
57.8138705481743
 97
        0
 75
     2
 76
     1
 98
        0
  0
POLYLINE
  5
84
330
41
100
AcDbEntity
  8
_U+30EC_U+30A4_U+30E4_U+30FC 1
370
     0
100
AcDb2dPolyline
 66
     1
 10
0.0
 20
0.0
 30
0.0
  0
VERTEX
  5
85
330
84
100
AcDbEntity
  8
_U+30EC_U+30A4_U+30E4_U+30FC 1
370
     0
100
AcDbVertex
100
AcDb2dVertex
 10
170.3585937074104
 20
50.73178775914621
 30
0.0
  0
VERTEX
  5
86
330
84
100
AcDbEntity
  8
_U+30EC_U+30A4_U+30E4_U+30FC 1
370
     0
100
AcDbVertex
100
AcDb2dVertex
 10
169.9861788854548
 20
50.73178775914621
 30
0.0
  0
VERTEX
  5
87
330
84
100
AcDbEntity
  8
_U+30EC_U+30A4_U+30E4_U+30FC 1
370
     0
100
AcDbVertex
100
AcDb2dVertex
 10
169.9861788854548
 20
52.36579654780021
 30
0.0
  0
VERTEX
  5
88
330
84
100
AcDbEntity
  8
_U+30EC_U+30A4_U+30E4_U+30FC 1
370
     0
100
AcDbVertex
100
AcDb2dVertex
 10
168.3518255872523
 20
52.36579654780021
 30
0.0
  0
VERTEX
  5
89
330
84
100
AcDbEntity
  8
_U+30EC_U+30A4_U+30E4_U+30FC 1
370
     0
100
AcDbVertex
100
AcDb2dVertex
 10
168.3518255872523
 20
50.73178775914621
 30
0.0
  0
VERTEX
  5
8A
330
84
100
AcDbEntity
  8
_U+30EC_U+30A4_U+30E4_U+30FC 1
370
     0
100
AcDbVertex
100
AcDb2dVertex
 10
167.9794107652968
 20
50.73178775914621
 30
0.0
  0
VERTEX
  5
8B
330
84
100
AcDbEntity
  8
_U+30EC_U+30A4_U+30E4_U+30FC 1
370
     0
100
AcDbVertex
100
AcDb2dVertex
 10
167.9794107652968
 20
54.14828895186847
 30
0.0
  0
VERTEX
  5
8C
330
84
100
AcDbEntity
  8
_U+30EC_U+30A4_U+30E4_U+30FC 1
370
     0
100
AcDbVertex
100
AcDb2dVertex
 10
168.3518255872523
 20
54.14828895186847
 30
0.0
  0
VERTEX
  5
8D
330
84
100
AcDbEntity
  8
_U+30EC_U+30A4_U+30E4_U+30FC 1
370
     0
100
AcDbVertex
100
AcDb2dVertex
 10
168.3518255872523
 20
52.68929101386517
 30
0.0
  0
VERTEX
  5
8E
330
84
100
AcDbEntity
  8
_U+30EC_U+30A4_U+30E4_U+30FC 1
370
     0
100
AcDbVertex
100
AcDb2dVertex
 10
169.9861788854548
 20
52.68929101386517
 30
0.0
  0
VERTEX
  5
8F
330
84
100
AcDbEntity
  8
_U+30EC_U+30A4_U+30E4_U+30FC 1
370
     0
100
AcDbVertex
100
AcDb2dVertex
 10
169.9861788854548
 20
54.14828895186847
 30
0.0
  0
VERTEX
  5
90
330
84
100
AcDbEntity
  8
_U+30EC_U+30A4_U+30E4_U+30FC 1
370
     0
100
AcDbVertex
100
AcDb2dVertex
 10
170.3585937074104
 20
54.14828895186847
 30
0.0
  0
VERTEX
  5
91
330
84
100
AcDbEntity
  8
_U+30EC_U+30A4_U+30E4_U+30FC 1
370
     0
100
AcDbVertex
100
AcDb2dVertex
 10
170.3585937074104
 20
50.73178775914621
 30
0.0
  0
SEQEND
  5
92
330
84
100
AcDbEntity
  8
_U+30EC_U+30A4_U+30E4_U+30FC 1
370
     0
  0
HATCH
  5
93
330
41
100
AcDbEntity
  8
_U+30EC_U+30A4_U+30E4_U+30FC 1
 62
     7
100
AcDbHatch
 10
0.0
 20
0.0
 30
0.0
210
0.0
220
0.0
230
1.0
  2
SOLID
 70
     1
 71
     0
 91
        1
 92
        1
 93
       12
 72
     1
 10
170.3585937074104
 20
50.73178775914621
 11
169.9861788854548
 21
50.73178775914621
 72
     1
 10
169.9861788854548
 20
50.73178775914621
 11
169.9861788854548
 21
52.36579654780021
 72
     1
 10
169.9861788854548
 20
52.36579654780021
 11
168.3518255872523
 21
52.36579654780021
 72
     1
 10
168.3518255872523
 20
52.36579654780021
 11
168.3518255872523
 21
50.73178775914621
 72
     1
 10
168.3518255872523
 20
50.73178775914621
 11
167.9794107652968
 21
50.73178775914621
 72
     1
 10
167.9794107652968
 20
50.73178775914621
 11
167.9794107652968
 21
54.14828895186847
 72
     1
 10
167.9794107652968
 20
54.14828895186847
 11
168.3518255872523
 21
54.14828895186847
 72
     1
 10
168.3518255872523
 20
54.14828895186847
 11
168.3518255872523
 21
52.68929101386517
 72
     1
 10
168.3518255872523
 20
52.68929101386517
 11
169.9861788854548
 21
52.68929101386517
 72
     1
 10
169.9861788854548
 20
52.68929101386517
 11
169.9861788854548
 21
54.14828895186847
 72
     1
 10
169.9861788854548
 20
54.14828895186847
 11
170.3585937074104
 21
54.14828895186847
 72
     1
 10
170.3585937074104
 20
54.14828895186847
 11
170.3585937074104
 21
50.73178775914621
 97
        0
 75
     2
 76
     1
 98
        0
  0
SPLINE
  5
94
330
41
100
AcDbEntity
  8
_U+30EC_U+30A4_U+30E4_U+30FC 1
370
     0
100
AcDbSpline
210
0.0
220
0.0
230
1.0
 70
    11
 71
     3
 72
    23
 73
    19
 74
     0
 42
0.0000000001
 43
0.0000000001
 12
1.0
 22
0.0
 32
0.0
 13
1.0
 23
0.0
 33
0.0
 40
0.0
 40
0.0
 40
0.0
 40
0.0
 40
1.0
 40
1.0
 40
1.0
 40
2.0
 40
2.0
 40
2.0
 40
3.0
 40
3.0
 40
3.0
 40
4.0
 40
4.0
 40
4.0
 40
5.0
 40
5.0
 40
5.0
 40
6.0
 40
6.0
 40
6.0
 40
6.0
 10
171.1206488287476
 20
54.10798133469105
 30
0.0
 10
171.3717962896223
 20
54.14828895186847
 30
0.0
 10
171.663595877223
 20
54.17963932078425
 30
0.0
 10
171.9826117191571
 20
54.17963932078425
 30
0.0
 10
173.3561712891263
 20
54.17963932078425
 30
0.0
 10
173.7513237412844
 20
53.36694129581381
 30
0.0
 10
173.7513237412844
 20
52.52737152605842
 30
0.0
 10
173.7513237412844
 20
51.98442447758305
 30
0.0
 10
173.6076632595495
 20
51.52209266346252
 30
0.0
 10
173.284513303033
 20
51.18516232500509
 30
0.0
 10
172.9837564671707
 20
50.87544824088113
 30
0.0
 10
172.4852511504551
 20
50.70491601436126
 30
0.0
 10
171.8613443580763
 20
50.70491601436126
 30
0.0
 10
171.5785020187373
 20
50.70491601436126
 30
0.0
 10
171.3359672965757
 20
50.71387326262291
 30
0.0
 10
171.1206488287476
 20
50.74074500740786
 30
0.0
 10
171.1206488287476
 20
50.74074500740786
 30
0.0
 10
171.1206488287476
 20
54.10798133469105
 30
0.0
 10
171.1206488287476
 20
54.10798133469105
 30
0.0
  0
SPLINE
  5
95
330
41
100
AcDbEntity
  8
_U+30EC_U+30A4_U+30E4_U+30FC 1
370
     0
100
AcDbSpline
210
0.0
220
0.0
230
1.0
 70
    11
 71
     3
 72
    20
 73
    16
 74
     0
 42
0.0000000001
 43
0.0000000001
 12
1.0
 22
0.0
 32
0.0
 13
1.0
 23
0.0
 33
0.0
 40
0.0
 40
0.0
 40
0.0
 40
0.0
 40
1.0
 40
1.0
 40
1.0
 40
2.0
 40
2.0
 40
2.0
 40
3.0
 40
3.0
 40
3.0
 40
4.0
 40
4.0
 40
4.0
 40
5.0
 40
5.0
 40
5.0
 40
5.0
 10
171.4930636507031
 20
51.0280659708777
 30
0.0
 10
171.6053737635223
 20
51.01015147435439
 30
0.0
 10
171.7669487417805
 20
51.00567285022357
 30
0.0
 10
171.9285237200387
 20
51.00567285022357
 30
0.0
 10
172.8535318578283
 20
51.00567285022357
 30
0.0
 10
173.3606499132571
 20
51.53104991172417
 30
0.0
 10
173.3606499132571
 20
52.50945702953513
 30
0.0
 10
173.3606499132571
 20
53.39863617427811
 30
0.0
 10
172.8848822267441
 20
53.87888248492194
 30
0.0
 10
171.9960475915496
 20
53.87888248492194
 30
0.0
 10
171.780384614173
 20
53.87888248492194
 30
0.0
 10
171.6098523876531
 20
53.85648936426781
 30
0.0
 10
171.4930636507031
 20
53.83409624361369
 30
0.0
 10
171.4930636507031
 20
53.83409624361369
 30
0.0
 10
171.4930636507031
 20
51.0280659708777
 30
0.0
 10
171.4930636507031
 20
51.0280659708777
 30
0.0
  0
HATCH
  5
96
330
41
100
AcDbEntity
  8
_U+30EC_U+30A4_U+30E4_U+30FC 1
 62
     7
100
AcDbHatch
 10
0.0
 20
0.0
 30
0.0
210
0.0
220
0.0
230
1.0
  2
SOLID
 70
     1
 71
     0
 91
        2
 92
        1
 93
        1
 72
     4
 94
        3
 73
     0
 74
     1
 95
       23
 96
       19
 40
0.0
 40
0.0
 40
0.0
 40
0.0
 40
1.0
 40
1.0
 40
1.0
 40
2.0
 40
2.0
 40
2.0
 40
3.0
 40
3.0
 40
3.0
 40
4.0
 40
4.0
 40
4.0
 40
5.0
 40
5.0
 40
5.0
 40
6.0
 40
6.0
 40
6.0
 40
6.0
 10
171.1206488287476
 20
54.10798133469105
 10
171.3717962896223
 20
54.14828895186847
 10
171.663595877223
 20
54.17963932078425
 10
171.9826117191571
 20
54.17963932078425
 10
173.3561712891263
 20
54.17963932078425
 10
173.7513237412844
 20
53.36694129581381
 10
173.7513237412844
 20
52.52737152605842
 10
173.7513237412844
 20
51.98442447758305
 10
173.6076632595495
 20
51.52209266346252
 10
173.284513303033
 20
51.18516232500509
 10
172.9837564671707
 20
50.87544824088113
 10
172.4852511504551
 20
50.70491601436126
 10
171.8613443580763
 20
50.70491601436126
 10
171.5785020187373
 20
50.70491601436126
 10
171.3359672965757
 20
50.71387326262291
 10
171.1206488287476
 20
50.74074500740786
 10
171.1206488287476
 20
50.74074500740786
 10
171.1206488287476
 20
54.10798133469105
 10
171.1206488287476
 20
54.10798133469105
 97
        0
 92
        1
 93
        1
 72
     4
 94
        3
 73
     0
 74
     1
 95
       20
 96
       16
 40
0.0
 40
0.0
 40
0.0
 40
0.0
 40
1.0
 40
1.0
 40
1.0
 40
2.0
 40
2.0
 40
2.0
 40
3.0
 40
3.0
 40
3.0
 40
4.0
 40
4.0
 40
4.0
 40
5.0
 40
5.0
 40
5.0
 40
5.0
 10
171.4930636507031
 20
51.0280659708777
 10
171.6053737635223
 20
51.01015147435439
 10
171.7669487417805
 20
51.00567285022357
 10
171.9285237200387
 20
51.00567285022357
 10
172.8535318578283
 20
51.00567285022357
 10
173.3606499132571
 20
51.53104991172417
 10
173.3606499132571
 20
52.50945702953513
 10
173.3606499132571
 20
53.39863617427811
 10
172.8848822267441
 20
53.87888248492194
 10
171.9960475915496
 20
53.87888248492194
 10
171.780384614173
 20
53.87888248492194
 10
171.6098523876531
 20
53.85648936426781
 10
171.4930636507031
 20
53.83409624361369
 10
171.4930636507031
 20
53.83409624361369
 10
171.4930636507031
 20
51.0280659708777
 10
171.4930636507031
 20
51.0280659708777
 97
        0
 75
     2
 76
     1
 98
        0
  0
SPLINE
  5
97
330
41
100
AcDbEntity
  8
_U+30EC_U+30A4_U+30E4_U+30FC 1
370
     0
100
AcDbSpline
210
0.0
220
0.0
230
1.0
 70
    11
 71
     3
 72
    35
 73
    31
 74
     0
 42
0.0000000001
 43
0.0000000001
 12
1.0
 22
0.0
 32
0.0
 13
1.0
 23
0.0
 33
0.0
 40
0.0
 40
0.0
 40
0.0
 40
0.0
 40
1.0
 40
1.0
 40
1.0
 40
2.0
 40
2.0
 40
2.0
 40
3.0
 40
3.0
 40
3.0
 40
4.0
 40
4.0
 40
4.0
 40
5.0
 40
5.0
 40
5.0
 40
6.0
 40
6.0
 40
6.0
 40
7.0
 40
7.0
 40
7.0
 40
8.0
 40
8.0
 40
8.0
 40
9.0
 40
9.0
 40
9.0
 40
10.0
 40
10.0
 40
10.0
 40
10.0
 10
176.5601100904086
 20
50.8351406237037
 30
0.0
 10
176.4030137362812
 20
50.75865950393116
 30
0.0
 10
176.0977782762881
 20
50.68252289370714
 30
0.0
 10
175.7071044482607
 20
50.68252289370714
 30
0.0
 10
174.8272270613279
 20
50.68252289370714
 30
0.0
 10
174.117881900915
 20
51.25268619651598
 30
0.0
 10
174.117881900915
 20
52.41092729865698
 30
0.0
 10
174.117881900915
 20
53.51508040167955
 30
0.0
 10
174.8048339406738
 20
54.20203244143837
 30
0.0
 10
175.8059786886874
 20
54.20203244143837
 30
0.0
 10
176.214567013238
 20
54.20203244143837
 30
0.0
 10
176.4526231112688
 20
54.1169385829527
 30
0.0
 10
176.5601100904086
 20
54.06285058383428
 30
0.0
 10
176.5601100904086
 20
54.06285058383428
 30
0.0
 10
176.4615803595304
 20
53.74865787557949
 30
0.0
 10
176.4615803595304
 20
53.74865787557949
 30
0.0
 10
176.3044840054031
 20
53.82513899535203
 30
0.0
 10
176.0843424038956
 20
53.88783973318358
 30
0.0
 10
175.814935936949
 20
53.88783973318358
 30
0.0
 10
175.0384114145737
 20
53.88783973318358
 30
0.0
 10
174.5085557289423
 20
53.36694129581381
 30
0.0
 10
174.5085557289423
 20
52.42436317104946
 30
0.0
 10
174.5085557289423
 20
51.52657128759335
 30
0.0
 10
174.993280663717
 20
50.99671560196192
 30
0.0
 10
175.7925428162949
 20
50.99671560196192
 30
0.0
 10
176.0529920349798
 20
50.99671560196192
 30
0.0
 10
176.3089626295339
 20
51.05493771566265
 30
0.0
 10
176.4794948560537
 20
51.13589745956602
 30
0.0
 10
176.4794948560537
 20
51.13589745956602
 30
0.0
 10
176.5601100904086
 20
50.8351406237037
 30
0.0
 10
176.5601100904086
 20
50.8351406237037
 30
0.0
  0
HATCH
  5
98
330
41
100
AcDbEntity
  8
_U+30EC_U+30A4_U+30E4_U+30FC 1
 62
     7
100
AcDbHatch
 10
0.0
 20
0.0
 30
0.0
210
0.0
220
0.0
230
1.0
  2
SOLID
 70
     1
 71
     0
 91
        1
 92
        1
 93
        1
 72
     4
 94
        3
 73
     0
 74
     1
 95
       35
 96
       31
 40
0.0
 40
0.0
 40
0.0
 40
0.0
 40
1.0
 40
1.0
 40
1.0
 40
2.0
 40
2.0
 40
2.0
 40
3.0
 40
3.0
 40
3.0
 40
4.0
 40
4.0
 40
4.0
 40
5.0
 40
5.0
 40
5.0
 40
6.0
 40
6.0
 40
6.0
 40
7.0
 40
7.0
 40
7.0
 40
8.0
 40
8.0
 40
8.0
 40
9.0
 40
9.0
 40
9.0
 40
10.0
 40
10.0
 40
10.0
 40
10.0
 10
176.5601100904086
 20
50.8351406237037
 10
176.4030137362812
 20
50.75865950393116
 10
176.0977782762881
 20
50.68252289370714
 10
175.7071044482607
 20
50.68252289370714
 10
174.8272270613279
 20
50.68252289370714
 10
174.117881900915
 20
51.25268619651598
 10
174.117881900915
 20
52.41092729865698
 10
174.117881900915
 20
53.51508040167955
 10
174.8048339406738
 20
54.20203244143837
 10
175.8059786886874
 20
54.20203244143837
 10
176.214567013238
 20
54.20203244143837
 10
176.4526231112688
 20
54.1169385829527
 10
176.5601100904086
 20
54.06285058383428
 10
176.5601100904086
 20
54.06285058383428
 10
176.4615803595304
 20
53.74865787557949
 10
176.4615803595304
 20
53.74865787557949
 10
176.3044840054031
 20
53.82513899535203
 10
176.0843424038956
 20
53.88783973318358
 10
175.814935936949
 20
53.88783973318358
 10
175.0384114145737
 20
53.88783973318358
 10
174.5085557289423
 20
53.36694129581381
 10
174.5085557289423
 20
52.42436317104946
 10
174.5085557289423
 20
51.52657128759335
 10
174.993280663717
 20
50.99671560196192
 10
175.7925428162949
 20
50.99671560196192
 10
176.0529920349798
 20
50.99671560196192
 10
176.3089626295339
 20
51.05493771566265
 10
176.4794948560537
 20
51.13589745956602
 10
176.4794948560537
 20
51.13589745956602
 10
176.5601100904086
 20
50.8351406237037
 10
176.5601100904086
 20
50.8351406237037
 97
        0
 75
     2
 76
     1
 98
        0
  0
POLYLINE
  5
99
330
41
100
AcDbEntity
  8
_U+30EC_U+30A4_U+30E4_U+30FC 1
370
     0
100
AcDb2dPolyline
 66
     1
 10
0.0
 20
0.0
 30
0.0
  0
VERTEX
  5
9A
330
99
100
AcDbEntity
  8
_U+30EC_U+30A4_U+30E4_U+30FC 1
370
     0
100
AcDbVertex
100
AcDb2dVertex
 10
176.8729247604693
 20
52.24487369626794
 30
0.0
  0
VERTEX
  5
9B
330
99
100
AcDbEntity
  8
_U+30EC_U+30A4_U+30E4_U+30FC 1
370
     0
100
AcDbVertex
100
AcDb2dVertex
 10
178.0986897341212
 20
52.24487369626794
 30
0.0
  0
VERTEX
  5
9C
330
99
100
AcDbEntity
  8
_U+30EC_U+30A4_U+30E4_U+30FC 1
370
     0
100
AcDbVertex
100
AcDb2dVertex
 10
178.0986897341212
 20
51.9575527327981
 30
0.0
  0
VERTEX
  5
9D
330
99
100
AcDbEntity
  8
_U+30EC_U+30A4_U+30E4_U+30FC 1
370
     0
100
AcDbVertex
100
AcDb2dVertex
 10
176.8729247604693
 20
51.9575527327981
 30
0.0
  0
VERTEX
  5
9E
330
99
100
AcDbEntity
  8
_U+30EC_U+30A4_U+30E4_U+30FC 1
370
     0
100
AcDbVertex
100
AcDb2dVertex
 10
176.8729247604693
 20
52.24487369626794
 30
0.0
  0
SEQEND
  5
9F
330
99
100
AcDbEntity
  8
_U+30EC_U+30A4_U+30E4_U+30FC 1
370
     0
  0
HATCH
  5
A0
330
41
100
AcDbEntity
  8
_U+30EC_U+30A4_U+30E4_U+30FC 1
 62
     7
100
AcDbHatch
 10
0.0
 20
0.0
 30
0.0
210
0.0
220
0.0
230
1.0
  2
SOLID
 70
     1
 71
     0
 91
        1
 92
        1
 93
        4
 72
     1
 10
176.8729247604693
 20
52.24487369626794
 11
178.0986897341212
 21
52.24487369626794
 72
     1
 10
178.0986897341212
 20
52.24487369626794
 11
178.0986897341212
 21
51.9575527327981
 72
     1
 10
178.0986897341212
 20
51.9575527327981
 11
176.8729247604693
 21
51.9575527327981
 72
     1
 10
176.8729247604693
 20
51.9575527327981
 11
176.8729247604693
 21
52.24487369626794
 97
        0
 75
     2
 76
     1
 98
        0
  0
POLYLINE
  5
A1
330
41
100
AcDbEntity
  8
_U+30EC_U+30A4_U+30E4_U+30FC 1
370
     0
100
AcDb2dPolyline
 66
     1
 10
0.0
 20
0.0
 30
0.0
  0
VERTEX
  5
A2
330
A1
100
AcDbEntity
  8
_U+30EC_U+30A4_U+30E4_U+30FC 1
370
     0
100
AcDbVertex
100
AcDb2dVertex
 10
181.0111734573514
 20
50.73178775914621
 30
0.0
  0
VERTEX
  5
A3
330
A1
100
AcDbEntity
  8
_U+30EC_U+30A4_U+30E4_U+30FC 1
370
     0
100
AcDbVertex
100
AcDb2dVertex
 10
180.6387586353959
 20
50.73178775914621
 30
0.0
  0
VERTEX
  5
A4
330
A1
100
AcDbEntity
  8
_U+30EC_U+30A4_U+30E4_U+30FC 1
370
     0
100
AcDbVertex
100
AcDb2dVertex
 10
180.6387586353959
 20
52.36579654780021
 30
0.0
  0
VERTEX
  5
A5
330
A1
100
AcDbEntity
  8
_U+30EC_U+30A4_U+30E4_U+30FC 1
370
     0
100
AcDbVertex
100
AcDb2dVertex
 10
179.0044053371934
 20
52.36579654780021
 30
0.0
  0
VERTEX
  5
A6
330
A1
100
AcDbEntity
  8
_U+30EC_U+30A4_U+30E4_U+30FC 1
370
     0
100
AcDbVertex
100
AcDb2dVertex
 10
179.0044053371934
 20
50.73178775914621
 30
0.0
  0
VERTEX
  5
A7
330
A1
100
AcDbEntity
  8
_U+30EC_U+30A4_U+30E4_U+30FC 1
370
     0
100
AcDbVertex
100
AcDb2dVertex
 10
178.6319905152378
 20
50.73178775914621
 30
0.0
  0
VERTEX
  5
A8
330
A1
100
AcDbEntity
  8
_U+30EC_U+30A4_U+30E4_U+30FC 1
370
     0
100
AcDbVertex
100
AcDb2dVertex
 10
178.6319905152378
 20
54.14828895186847
 30
0.0
  0
VERTEX
  5
A9
330
A1
100
AcDbEntity
  8
_U+30EC_U+30A4_U+30E4_U+30FC 1
370
     0
100
AcDbVertex
100
AcDb2dVertex
 10
179.0044053371934
 20
54.14828895186847
 30
0.0
  0
VERTEX
  5
AA
330
A1
100
AcDbEntity
  8
_U+30EC_U+30A4_U+30E4_U+30FC 1
370
     0
100
AcDbVertex
100
AcDb2dVertex
 10
179.0044053371934
 20
52.68929101386517
 30
0.0
  0
VERTEX
  5
AB
330
A1
100
AcDbEntity
  8
_U+30EC_U+30A4_U+30E4_U+30FC 1
370
     0
100
AcDbVertex
100
AcDb2dVertex
 10
180.6387586353959
 20
52.68929101386517
 30
0.0
  0
VERTEX
  5
AC
330
A1
100
AcDbEntity
  8
_U+30EC_U+30A4_U+30E4_U+30FC 1
370
     0
100
AcDbVertex
100
AcDb2dVertex
 10
180.6387586353959
 20
54.14828895186847
 30
0.0
  0
VERTEX
  5
AD
330
A1
100
AcDbEntity
  8
_U+30EC_U+30A4_U+30E4_U+30FC 1
370
     0
100
AcDbVertex
100
AcDb2dVertex
 10
181.0111734573514
 20
54.14828895186847
 30
0.0
  0
VERTEX
  5
AE
330
A1
100
AcDbEntity
  8
_U+30EC_U+30A4_U+30E4_U+30FC 1
370
     0
100
AcDbVertex
100
AcDb2dVertex
 10
181.0111734573514
 20
50.73178775914621
 30
0.0
  0
SEQEND
  5
AF
330
A1
100
AcDbEntity
  8
_U+30EC_U+30A4_U+30E4_U+30FC 1
370
     0
  0
HATCH
  5
B0
330
41
100
AcDbEntity
  8
_U+30EC_U+30A4_U+30E4_U+30FC 1
 62
     7
100
AcDbHatch
 10
0.0
 20
0.0
 30
0.0
210
0.0
220
0.0
230
1.0
  2
SOLID
 70
     1
 71
     0
 91
        1
 92
        1
 93
       12
 72
     1
 10
181.0111734573514
 20
50.73178775914621
 11
180.6387586353959
 21
50.73178775914621
 72
     1
 10
180.6387586353959
 20
50.73178775914621
 11
180.6387586353959
 21
52.36579654780021
 72
     1
 10
180.6387586353959
 20
52.36579654780021
 11
179.0044053371934
 21
52.36579654780021
 72
     1
 10
179.0044053371934
 20
52.36579654780021
 11
179.0044053371934
 21
50.73178775914621
 72
     1
 10
179.0044053371934
 20
50.73178775914621
 11
178.6319905152378
 21
50.73178775914621
 72
     1
 10
178.6319905152378
 20
50.73178775914621
 11
178.6319905152378
 21
54.14828895186847
 72
     1
 10
178.6319905152378
 20
54.14828895186847
 11
179.0044053371934
 21
54.14828895186847
 72
     1
 10
179.0044053371934
 20
54.14828895186847
 11
179.0044053371934
 21
52.68929101386517
 72
     1
 10
179.0044053371934
 20
52.68929101386517
 11
180.6387586353959
 21
52.68929101386517
 72
     1
 10
180.6387586353959
 20
52.68929101386517
 11
180.6387586353959
 21
54.14828895186847
 72
     1
 10
180.6387586353959
 20
54.14828895186847
 11
181.0111734573514
 21
54.14828895186847
 72
     1
 10
181.0111734573514
 20
54.14828895186847
 11
181.0111734573514
 21
50.73178775914621
 97
        0
 75
     2
 76
     1
 98
        0
  0
SPLINE
  5
B1
330
41
100
AcDbEntity
  8
_U+30EC_U+30A4_U+30E4_U+30FC 1
370
     0
100
AcDbSpline
210
0.0
220
0.0
230
1.0
 70
    11
 71
     3
 72
    17
 73
    13
 74
     0
 42
0.0000000001
 43
0.0000000001
 12
1.0
 22
0.0
 32
0.0
 13
1.0
 23
0.0
 33
0.0
 40
0.0
 40
0.0
 40
0.0
 40
0.0
 40
1.0
 40
1.0
 40
1.0
 40
2.0
 40
2.0
 40
2.0
 40
3.0
 40
3.0
 40
3.0
 40
4.0
 40
4.0
 40
4.0
 40
4.0
 10
181.5710014737045
 20
52.40197005039533
 30
0.0
 10
181.5710014737045
 20
53.57812564905962
 30
0.0
 10
182.0288546636942
 20
54.14828895186847
 30
0.0
 10
182.6575845897523
 20
54.14828895186847
 30
0.0
 10
183.2949272545235
 20
54.14828895186847
 30
0.0
 10
183.6856010825508
 20
53.54677528014385
 30
0.0
 10
183.6856010825508
 20
52.44675629170358
 30
0.0
 10
183.6856010825508
 20
51.27955794130094
 30
0.0
 10
183.2770127580002
 20
50.67804426957631
 30
0.0
 10
182.6079752147647
 20
50.67804426957631
 30
0.0
 10
181.9975042947784
 20
50.67804426957631
 30
0.0
 10
181.5710014737045
 20
51.27955794130094
 30
0.0
 10
181.5710014737045
 20
52.40197005039533
 30
0.0
  0
SPLINE
  5
B2
330
41
100
AcDbEntity
  8
_U+30EC_U+30A4_U+30E4_U+30FC 1
370
     0
100
AcDbSpline
210
0.0
220
0.0
230
1.0
 70
    11
 71
     3
 72
    17
 73
    13
 74
     0
 42
0.0000000001
 43
0.0000000001
 12
1.0
 22
0.0
 32
0.0
 13
1.0
 23
0.0
 33
0.0
 40
0.0
 40
0.0
 40
0.0
 40
0.0
 40
1.0
 40
1.0
 40
1.0
 40
2.0
 40
2.0
 40
2.0
 40
3.0
 40
3.0
 40
3.0
 40
4.0
 40
4.0
 40
4.0
 40
4.0
 10
183.308363126916
 20
52.42884179518028
 30
0.0
 10
183.308363126916
 20
53.26841156493566
 30
0.0
 10
183.1064805314803
 20
53.84753211600616
 30
0.0
 10
182.6351914690981
 20
53.84753211600616
 30
0.0
 10
182.2355603928092
 20
53.84753211600616
 30
0.0
 10
181.9527180534702
 20
53.31319780624391
 30
0.0
 10
181.9527180534702
 20
52.42884179518028
 30
0.0
 10
181.9527180534702
 20
51.54448578411665
 30
0.0
 10
182.1997313997626
 20
50.98327972956945
 30
0.0
 10
182.6217555967057
 20
50.98327972956945
 30
0.0
 10
183.1199164038728
 20
50.98327972956945
 30
0.0
 10
183.308363126916
 20
51.62957964260232
 30
0.0
 10
183.308363126916
 20
52.42884179518028
 30
0.0
  0
HATCH
  5
B3
330
41
100
AcDbEntity
  8
_U+30EC_U+30A4_U+30E4_U+30FC 1
 62
     7
100
AcDbHatch
 10
0.0
 20
0.0
 30
0.0
210
0.0
220
0.0
230
1.0
  2
SOLID
 70
     1
 71
     0
 91
        2
 92
        1
 93
        1
 72
     4
 94
        3
 73
     0
 74
     1
 95
       17
 96
       13
 40
0.0
 40
0.0
 40
0.0
 40
0.0
 40
1.0
 40
1.0
 40
1.0
 40
2.0
 40
2.0
 40
2.0
 40
3.0
 40
3.0
 40
3.0
 40
4.0
 40
4.0
 40
4.0
 40
4.0
 10
181.5710014737045
 20
52.40197005039533
 10
181.5710014737045
 20
53.57812564905962
 10
182.0288546636942
 20
54.14828895186847
 10
182.6575845897523
 20
54.14828895186847
 10
183.2949272545235
 20
54.14828895186847
 10
183.6856010825508
 20
53.54677528014385
 10
183.6856010825508
 20
52.44675629170358
 10
183.6856010825508
 20
51.27955794130094
 10
183.2770127580002
 20
50.67804426957631
 10
182.6079752147647
 20
50.67804426957631
 10
181.9975042947784
 20
50.67804426957631
 10
181.5710014737045
 20
51.27955794130094
 10
181.5710014737045
 20
52.40197005039533
 97
        0
 92
        1
 93
        1
 72
     4
 94
        3
 73
     0
 74
     1
 95
       17
 96
       13
 40
0.0
 40
0.0
 40
0.0
 40
0.0
 40
1.0
 40
1.0
 40
1.0
 40
2.0
 40
2.0
 40
2.0
 40
3.0
 40
3.0
 40
3.0
 40
4.0
 40
4.0
 40
4.0
 40
4.0
 10
183.308363126916
 20
52.42884179518028
 10
183.308363126916
 20
53.26841156493566
 10
183.1064805314803
 20
53.84753211600616
 10
182.6351914690981
 20
53.84753211600616
 10
182.2355603928092
 20
53.84753211600616
 10
181.9527180534702
 20
53.31319780624391
 10
181.9527180534702
 20
52.42884179518028
 10
181.9527180534702
 20
51.54448578411665
 10
182.1997313997626
 20
50.98327972956945
 10
182.6217555967057
 20
50.98327972956945
 10
183.1199164038728
 20
50.98327972956945
 10
183.308363126916
 20
51.62957964260232
 10
183.308363126916
 20
52.42884179518028
 97
        0
 75
     2
 76
     1
 98
        0
  0
SPLINE
  5
B4
330
41
100
AcDbEntity
  8
_U+30EC_U+30A4_U+30E4_U+30FC 1
370
     0
100
AcDbSpline
210
0.0
220
0.0
230
1.0
 70
    11
 71
     3
 72
    17
 73
    13
 74
     0
 42
0.0000000001
 43
0.0000000001
 12
1.0
 22
0.0
 32
0.0
 13
1.0
 23
0.0
 33
0.0
 40
0.0
 40
0.0
 40
0.0
 40
0.0
 40
1.0
 40
1.0
 40
1.0
 40
2.0
 40
2.0
 40
2.0
 40
3.0
 40
3.0
 40
3.0
 40
4.0
 40
4.0
 40
4.0
 40
4.0
 10
184.0435465034683
 20
52.40197005039533
 30
0.0
 10
184.0435465034683
 20
53.57812564905962
 30
0.0
 10
184.501399693458
 20
54.14828895186847
 30
0.0
 10
185.1301296195161
 20
54.14828895186847
 30
0.0
 10
185.7674722842873
 20
54.14828895186847
 30
0.0
 10
186.1581461123146
 20
53.54677528014385
 30
0.0
 10
186.1581461123146
 20
52.44675629170358
 30
0.0
 10
186.1581461123146
 20
51.27955794130094
 30
0.0
 10
185.749557787764
 20
50.67804426957631
 30
0.0
 10
185.0805202445285
 20
50.67804426957631
 30
0.0
 10
184.4700493245422
 20
50.67804426957631
 30
0.0
 10
184.0435465034683
 20
51.27955794130094
 30
0.0
 10
184.0435465034683
 20
52.40197005039533
 30
0.0
  0
SPLINE
  5
B5
330
41
100
AcDbEntity
  8
_U+30EC_U+30A4_U+30E4_U+30FC 1
370
     0
100
AcDbSpline
210
0.0
220
0.0
230
1.0
 70
    11
 71
     3
 72
    17
 73
    13
 74
     0
 42
0.0000000001
 43
0.0000000001
 12
1.0
 22
0.0
 32
0.0
 13
1.0
 23
0.0
 33
0.0
 40
0.0
 40
0.0
 40
0.0
 40
0.0
 40
1.0
 40
1.0
 40
1.0
 40
2.0
 40
2.0
 40
2.0
 40
3.0
 40
3.0
 40
3.0
 40
4.0
 40
4.0
 40
4.0
 40
4.0
 10
185.7809081566798
 20
52.42884179518028
 30
0.0
 10
185.7809081566798
 20
53.26841156493566
 30
0.0
 10
185.5790255612442
 20
53.84753211600616
 30
0.0
 10
185.107736498862
 20
53.84753211600616
 30
0.0
 10
184.708105422573
 20
53.84753211600616
 30
0.0
 10
184.425263083234
 20
53.31319780624391
 30
0.0
 10
184.425263083234
 20
52.42884179518028
 30
0.0
 10
184.425263083234
 20
51.54448578411665
 30
0.0
 10
184.6722764295264
 20
50.98327972956945
 30
0.0
 10
185.0943006264695
 20
50.98327972956945
 30
0.0
 10
185.5924614336366
 20
50.98327972956945
 30
0.0
 10
185.7809081566798
 20
51.62957964260232
 30
0.0
 10
185.7809081566798
 20
52.42884179518028
 30
0.0
  0
HATCH
  5
B6
330
41
100
AcDbEntity
  8
_U+30EC_U+30A4_U+30E4_U+30FC 1
 62
     7
100
AcDbHatch
 10
0.0
 20
0.0
 30
0.0
210
0.0
220
0.0
230
1.0
  2
SOLID
 70
     1
 71
     0
 91
        2
 92
        1
 93
        1
 72
     4
 94
        3
 73
     0
 74
     1
 95
       17
 96
       13
 40
0.0
 40
0.0
 40
0.0
 40
0.0
 40
1.0
 40
1.0
 40
1.0
 40
2.0
 40
2.0
 40
2.0
 40
3.0
 40
3.0
 40
3.0
 40
4.0
 40
4.0
 40
4.0
 40
4.0
 10
184.0435465034683
 20
52.40197005039533
 10
184.0435465034683
 20
53.57812564905962
 10
184.501399693458
 20
54.14828895186847
 10
185.1301296195161
 20
54.14828895186847
 10
185.7674722842873
 20
54.14828895186847
 10
186.1581461123146
 20
53.54677528014385
 10
186.1581461123146
 20
52.44675629170358
 10
186.1581461123146
 20
51.27955794130094
 10
185.749557787764
 20
50.67804426957631
 10
185.0805202445285
 20
50.67804426957631
 10
184.4700493245422
 20
50.67804426957631
 10
184.0435465034683
 20
51.27955794130094
 10
184.0435465034683
 20
52.40197005039533
 97
        0
 92
        1
 93
        1
 72
     4
 94
        3
 73
     0
 74
     1
 95
       17
 96
       13
 40
0.0
 40
0.0
 40
0.0
 40
0.0
 40
1.0
 40
1.0
 40
1.0
 40
2.0
 40
2.0
 40
2.0
 40
3.0
 40
3.0
 40
3.0
 40
4.0
 40
4.0
 40
4.0
 40
4.0
 10
185.7809081566798
 20
52.42884179518028
 10
185.7809081566798
 20
53.26841156493566
 10
185.5790255612442
 20
53.84753211600616
 10
185.107736498862
 20
53.84753211600616
 10
184.708105422573
 20
53.84753211600616
 10
184.425263083234
 20
53.31319780624391
 10
184.425263083234
 20
52.42884179518028
 10
184.425263083234
 20
51.54448578411665
 10
184.6722764295264
 20
50.98327972956945
 10
185.0943006264695
 20
50.98327972956945
 10
185.5924614336366
 20
50.98327972956945
 10
185.7809081566798
 20
51.62957964260232
 10
185.7809081566798
 20
52.42884179518028
 97
        0
 75
     2
 76
     1
 98
        0
  0
SPLINE
  5
B7
330
41
100
AcDbEntity
  8
_U+30EC_U+30A4_U+30E4_U+30FC 1
370
     0
100
AcDbSpline
210
0.0
220
0.0
230
1.0
 70
    11
 71
     3
 72
    47
 73
    43
 74
     0
 42
0.0000000001
 43
0.0000000001
 12
1.0
 22
0.0
 32
0.0
 13
1.0
 23
0.0
 33
0.0
 40
0.0
 40
0.0
 40
0.0
 40
0.0
 40
1.0
 40
1.0
 40
1.0
 40
2.0
 40
2.0
 40
2.0
 40
3.0
 40
3.0
 40
3.0
 40
4.0
 40
4.0
 40
4.0
 40
5.0
 40
5.0
 40
5.0
 40
6.0
 40
6.0
 40
6.0
 40
7.0
 40
7.0
 40
7.0
 40
8.0
 40
8.0
 40
8.0
 40
9.0
 40
9.0
 40
9.0
 40
10.0
 40
10.0
 40
10.0
 40
11.0
 40
11.0
 40
11.0
 40
12.0
 40
12.0
 40
12.0
 40
13.0
 40
13.0
 40
13.0
 40
14.0
 40
14.0
 40
14.0
 40
14.0
 10
188.424329922512
 20
54.09420095275005
 30
0.0
 10
188.424329922512
 20
54.09420095275005
 30
0.0
 10
188.424329922512
 20
53.78448686862609
 30
0.0
 10
188.424329922512
 20
53.78448686862609
 30
0.0
 10
188.424329922512
 20
53.78448686862609
 30
0.0
 10
187.2164794453834
 20
53.78448686862609
 30
0.0
 10
187.2164794453834
 20
53.78448686862609
 30
0.0
 10
187.2164794453834
 20
53.78448686862609
 30
0.0
 10
187.0772975877793
 20
52.83295149560008
 30
0.0
 10
187.0772975877793
 20
52.83295149560008
 30
0.0
 10
187.149300083421
 20
52.84190874386174
 30
0.0
 10
187.2209580695142
 20
52.85086599212338
 30
0.0
 10
187.3377468064642
 20
52.85086599212338
 30
0.0
 10
187.934781854058
 20
52.85086599212338
 30
0.0
 10
188.4691161638202
 20
52.49602115714265
 30
0.0
 10
188.4691161638202
 20
51.81837087519401
 30
0.0
 10
188.4691161638202
 20
51.15381195608931
 30
0.0
 10
187.9750894712354
 20
50.67804426957631
 30
0.0
 10
187.3108750616792
 20
50.67804426957631
 30
0.0
 10
186.9739447232218
 20
50.67804426957631
 30
0.0
 10
186.6911023838828
 20
50.77657400045446
 30
0.0
 10
186.5384846538862
 20
50.87544824088113
 30
0.0
 10
186.5384846538862
 20
50.87544824088113
 30
0.0
 10
186.6463161425745
 20
51.16724782848179
 30
0.0
 10
186.6463161425745
 20
51.16724782848179
 30
0.0
 10
186.7720621277862
 20
51.08180946044759
 30
0.0
 10
187.0190754740786
 20
50.97880110543862
 30
0.0
 10
187.3108750616792
 20
50.97880110543862
 30
0.0
 10
187.7328992586224
 20
50.97880110543862
 30
0.0
 10
188.0963568323162
 20
51.28851518956258
 30
0.0
 10
188.0918782081854
 20
51.77324012433724
 30
0.0
 10
188.0918782081854
 20
52.23557193845776
 30
0.0
 10
187.7955999964539
 20
52.55906640452272
 30
0.0
 10
187.1672145799443
 20
52.55906640452272
 30
0.0
 10
186.9877251051628
 20
52.55906640452272
 30
0.0
 10
186.8485432475587
 20
52.54563053213025
 30
0.0
 10
186.7362331347396
 20
52.52737152605842
 30
0.0
 10
186.7362331347396
 20
52.52737152605842
 30
0.0
 10
186.9470729784369
 20
54.09420095275005
 30
0.0
 10
186.9470729784369
 20
54.09420095275005
 30
0.0
 10
186.9470729784369
 20
54.09420095275005
 30
0.0
 10
188.424329922512
 20
54.09420095275005
 30
0.0
 10
188.424329922512
 20
54.09420095275005
 30
0.0
  0
HATCH
  5
B8
330
41
100
AcDbEntity
  8
_U+30EC_U+30A4_U+30E4_U+30FC 1
 62
     7
100
AcDbHatch
 10
0.0
 20
0.0
 30
0.0
210
0.0
220
0.0
230
1.0
  2
SOLID
 70
     1
 71
     0
 91
        1
 92
        1
 93
        1
 72
     4
 94
        3
 73
     0
 74
     1
 95
       47
 96
       43
 40
0.0
 40
0.0
 40
0.0
 40
0.0
 40
1.0
 40
1.0
 40
1.0
 40
2.0
 40
2.0
 40
2.0
 40
3.0
 40
3.0
 40
3.0
 40
4.0
 40
4.0
 40
4.0
 40
5.0
 40
5.0
 40
5.0
 40
6.0
 40
6.0
 40
6.0
 40
7.0
 40
7.0
 40
7.0
 40
8.0
 40
8.0
 40
8.0
 40
9.0
 40
9.0
 40
9.0
 40
10.0
 40
10.0
 40
10.0
 40
11.0
 40
11.0
 40
11.0
 40
12.0
 40
12.0
 40
12.0
 40
13.0
 40
13.0
 40
13.0
 40
14.0
 40
14.0
 40
14.0
 40
14.0
 10
188.424329922512
 20
54.09420095275005
 10
188.424329922512
 20
54.09420095275005
 10
188.424329922512
 20
53.78448686862609
 10
188.424329922512
 20
53.78448686862609
 10
188.424329922512
 20
53.78448686862609
 10
187.2164794453834
 20
53.78448686862609
 10
187.2164794453834
 20
53.78448686862609
 10
187.2164794453834
 20
53.78448686862609
 10
187.0772975877793
 20
52.83295149560008
 10
187.0772975877793
 20
52.83295149560008
 10
187.149300083421
 20
52.84190874386174
 10
187.2209580695142
 20
52.85086599212338
 10
187.3377468064642
 20
52.85086599212338
 10
187.934781854058
 20
52.85086599212338
 10
188.4691161638202
 20
52.49602115714265
 10
188.4691161638202
 20
51.81837087519401
 10
188.4691161638202
 20
51.15381195608931
 10
187.9750894712354
 20
50.67804426957631
 10
187.3108750616792
 20
50.67804426957631
 10
186.9739447232218
 20
50.67804426957631
 10
186.6911023838828
 20
50.77657400045446
 10
186.5384846538862
 20
50.87544824088113
 10
186.5384846538862
 20
50.87544824088113
 10
186.6463161425745
 20
51.16724782848179
 10
186.6463161425745
 20
51.16724782848179
 10
186.7720621277862
 20
51.08180946044759
 10
187.0190754740786
 20
50.97880110543862
 10
187.3108750616792
 20
50.97880110543862
 10
187.7328992586224
 20
50.97880110543862
 10
188.0963568323162
 20
51.28851518956258
 10
188.0918782081854
 20
51.77324012433724
 10
188.0918782081854
 20
52.23557193845776
 10
187.7955999964539
 20
52.55906640452272
 10
187.1672145799443
 20
52.55906640452272
 10
186.9877251051628
 20
52.55906640452272
 10
186.8485432475587
 20
52.54563053213025
 10
186.7362331347396
 20
52.52737152605842
 10
186.7362331347396
 20
52.52737152605842
 10
186.9470729784369
 20
54.09420095275005
 10
186.9470729784369
 20
54.09420095275005
 10
186.9470729784369
 20
54.09420095275005
 10
188.424329922512
 20
54.09420095275005
 10
188.424329922512
 20
54.09420095275005
 97
        0
 75
     2
 76
     1
 98
        0
  0
POLYLINE
  5
B9
330
41
100
AcDbEntity
  8
_U+30EC_U+30A4_U+30E4_U+30FC 1
370
     0
100
AcDb2dPolyline
 66
     1
 10
0.0
 20
0.0
 30
0.0
  0
VERTEX
  5
BA
330
B9
100
AcDbEntity
  8
_U+30EC_U+30A4_U+30E4_U+30FC 1
370
     0
100
AcDbVertex
100
AcDb2dVertex
 10
170.3585937074104
 20
45.34710351570071
 30
0.0
  0
VERTEX
  5
BB
330
B9
100
AcDbEntity
  8
_U+30EC_U+30A4_U+30E4_U+30FC 1
370
     0
100
AcDbVertex
100
AcDb2dVertex
 10
169.9861788854548
 20
45.34710351570071
 30
0.0
  0
VERTEX
  5
BC
330
B9
100
AcDbEntity
  8
_U+30EC_U+30A4_U+30E4_U+30FC 1
370
     0
100
AcDbVertex
100
AcDb2dVertex
 10
169.9861788854548
 20
46.98111230435471
 30
0.0
  0
VERTEX
  5
BD
330
B9
100
AcDbEntity
  8
_U+30EC_U+30A4_U+30E4_U+30FC 1
370
     0
100
AcDbVertex
100
AcDb2dVertex
 10
168.3518255872523
 20
46.98111230435471
 30
0.0
  0
VERTEX
  5
BE
330
B9
100
AcDbEntity
  8
_U+30EC_U+30A4_U+30E4_U+30FC 1
370
     0
100
AcDbVertex
100
AcDb2dVertex
 10
168.3518255872523
 20
45.34710351570071
 30
0.0
  0
VERTEX
  5
BF
330
B9
100
AcDbEntity
  8
_U+30EC_U+30A4_U+30E4_U+30FC 1
370
     0
100
AcDbVertex
100
AcDb2dVertex
 10
167.9794107652968
 20
45.34710351570071
 30
0.0
  0
VERTEX
  5
C0
330
B9
100
AcDbEntity
  8
_U+30EC_U+30A4_U+30E4_U+30FC 1
370
     0
100
AcDbVertex
100
AcDb2dVertex
 10
167.9794107652968
 20
48.76360470842297
 30
0.0
  0
VERTEX
  5
C1
330
B9
100
AcDbEntity
  8
_U+30EC_U+30A4_U+30E4_U+30FC 1
370
     0
100
AcDbVertex
100
AcDb2dVertex
 10
168.3518255872523
 20
48.76360470842297
 30
0.0
  0
VERTEX
  5
C2
330
B9
100
AcDbEntity
  8
_U+30EC_U+30A4_U+30E4_U+30FC 1
370
     0
100
AcDbVertex
100
AcDb2dVertex
 10
168.3518255872523
 20
47.30460677041967
 30
0.0
  0
VERTEX
  5
C3
330
B9
100
AcDbEntity
  8
_U+30EC_U+30A4_U+30E4_U+30FC 1
370
     0
100
AcDbVertex
100
AcDb2dVertex
 10
169.9861788854548
 20
47.30460677041967
 30
0.0
  0
VERTEX
  5
C4
330
B9
100
AcDbEntity
  8
_U+30EC_U+30A4_U+30E4_U+30FC 1
370
     0
100
AcDbVertex
100
AcDb2dVertex
 10
169.9861788854548
 20
48.76360470842297
 30
0.0
  0
VERTEX
  5
C5
330
B9
100
AcDbEntity
  8
_U+30EC_U+30A4_U+30E4_U+30FC 1
370
     0
100
AcDbVertex
100
AcDb2dVertex
 10
170.3585937074104
 20
48.76360470842297
 30
0.0
  0
VERTEX
  5
C6
330
B9
100
AcDbEntity
  8
_U+30EC_U+30A4_U+30E4_U+30FC 1
370
     0
100
AcDbVertex
100
AcDb2dVertex
 10
170.3585937074104
 20
45.34710351570071
 30
0.0
  0
SEQEND
  5
C7
330
B9
100
AcDbEntity
  8
_U+30EC_U+30A4_U+30E4_U+30FC 1
370
     0
  0
HATCH
  5
C8
330
41
100
AcDbEntity
  8
_U+30EC_U+30A4_U+30E4_U+30FC 1
 62
     7
100
AcDbHatch
 10
0.0
 20
0.0
 30
0.0
210
0.0
220
0.0
230
1.0
  2
SOLID
 70
     1
 71
     0
 91
        1
 92
        1
 93
       12
 72
     1
 10
170.3585937074104
 20
45.34710351570071
 11
169.9861788854548
 21
45.34710351570071
 72
     1
 10
169.9861788854548
 20
45.34710351570071
 11
169.9861788854548
 21
46.98111230435471
 72
     1
 10
169.9861788854548
 20
46.98111230435471
 11
168.3518255872523
 21
46.98111230435471
 72
     1
 10
168.3518255872523
 20
46.98111230435471
 11
168.3518255872523
 21
45.34710351570071
 72
     1
 10
168.3518255872523
 20
45.34710351570071
 11
167.9794107652968
 21
45.34710351570071
 72
     1
 10
167.9794107652968
 20
45.34710351570071
 11
167.9794107652968
 21
48.76360470842297
 72
     1
 10
167.9794107652968
 20
48.76360470842297
 11
168.3518255872523
 21
48.76360470842297
 72
     1
 10
168.3518255872523
 20
48.76360470842297
 11
168.3518255872523
 21
47.30460677041967
 72
     1
 10
168.3518255872523
 20
47.30460677041967
 11
169.9861788854548
 21
47.30460677041967
 72
     1
 10
169.9861788854548
 20
47.30460677041967
 11
169.9861788854548
 21
48.76360470842297
 72
     1
 10
169.9861788854548
 20
48.76360470842297
 11
170.3585937074104
 21
48.76360470842297
 72
     1
 10
170.3585937074104
 20
48.76360470842297
 11
170.3585937074104
 21
45.34710351570071
 97
        0
 75
     2
 76
     1
 98
        0
  0
SPLINE
  5
C9
330
41
100
AcDbEntity
  8
_U+30EC_U+30A4_U+30E4_U+30FC 1
370
     0
100
AcDbSpline
210
0.0
220
0.0
230
1.0
 70
    11
 71
     3
 72
    23
 73
    19
 74
     0
 42
0.0000000001
 43
0.0000000001
 12
1.0
 22
0.0
 32
0.0
 13
1.0
 23
0.0
 33
0.0
 40
0.0
 40
0.0
 40
0.0
 40
0.0
 40
1.0
 40
1.0
 40
1.0
 40
2.0
 40
2.0
 40
2.0
 40
3.0
 40
3.0
 40
3.0
 40
4.0
 40
4.0
 40
4.0
 40
5.0
 40
5.0
 40
5.0
 40
6.0
 40
6.0
 40
6.0
 40
6.0
 10
171.1206488287476
 20
48.72329709124556
 30
0.0
 10
171.3717962896223
 20
48.76360470842297
 30
0.0
 10
171.663595877223
 20
48.79495507733875
 30
0.0
 10
171.9826117191571
 20
48.79495507733875
 30
0.0
 10
173.3561712891263
 20
48.79495507733875
 30
0.0
 10
173.7513237412844
 20
47.98225705236831
 30
0.0
 10
173.7513237412844
 20
47.14268728261293
 30
0.0
 10
173.7513237412844
 20
46.59974023413756
 30
0.0
 10
173.6076632595495
 20
46.13740842001702
 30
0.0
 10
173.284513303033
 20
45.80047808155959
 30
0.0
 10
172.9837564671707
 20
45.49076399743563
 30
0.0
 10
172.4852511504551
 20
45.32023177091576
 30
0.0
 10
171.8613443580763
 20
45.32023177091576
 30
0.0
 10
171.5785020187373
 20
45.32023177091576
 30
0.0
 10
171.3359672965757
 20
45.32918901917741
 30
0.0
 10
171.1206488287476
 20
45.35606076396236
 30
0.0
 10
171.1206488287476
 20
45.35606076396236
 30
0.0
 10
171.1206488287476
 20
48.72329709124556
 30
0.0
 10
171.1206488287476
 20
48.72329709124556
 30
0.0
  0
SPLINE
  5
CA
330
41
100
AcDbEntity
  8
_U+30EC_U+30A4_U+30E4_U+30FC 1
370
     0
100
AcDbSpline
210
0.0
220
0.0
230
1.0
 70
    11
 71
     3
 72
    20
 73
    16
 74
     0
 42
0.0000000001
 43
0.0000000001
 12
1.0
 22
0.0
 32
0.0
 13
1.0
 23
0.0
 33
0.0
 40
0.0
 40
0.0
 40
0.0
 40
0.0
 40
1.0
 40
1.0
 40
1.0
 40
2.0
 40
2.0
 40
2.0
 40
3.0
 40
3.0
 40
3.0
 40
4.0
 40
4.0
 40
4.0
 40
5.0
 40
5.0
 40
5.0
 40
5.0
 10
171.4930636507031
 20
45.6433817274322
 30
0.0
 10
171.6053737635223
 20
45.6254672309089
 30
0.0
 10
171.7669487417805
 20
45.62098860677808
 30
0.0
 10
171.9285237200387
 20
45.62098860677808
 30
0.0
 10
172.8535318578283
 20
45.62098860677808
 30
0.0
 10
173.3606499132571
 20
46.14636566827868
 30
0.0
 10
173.3606499132571
 20
47.12477278608963
 30
0.0
 10
173.3606499132571
 20
48.01395193083261
 30
0.0
 10
172.8848822267441
 20
48.49419824147644
 30
0.0
 10
171.9960475915496
 20
48.49419824147644
 30
0.0
 10
171.780384614173
 20
48.49419824147644
 30
0.0
 10
171.6098523876531
 20
48.47180512082232
 30
0.0
 10
171.4930636507031
 20
48.44941200016819
 30
0.0
 10
171.4930636507031
 20
48.44941200016819
 30
0.0
 10
171.4930636507031
 20
45.6433817274322
 30
0.0
 10
171.4930636507031
 20
45.6433817274322
 30
0.0
  0
HATCH
  5
CB
330
41
100
AcDbEntity
  8
_U+30EC_U+30A4_U+30E4_U+30FC 1
 62
     7
100
AcDbHatch
 10
0.0
 20
0.0
 30
0.0
210
0.0
220
0.0
230
1.0
  2
SOLID
 70
     1
 71
     0
 91
        2
 92
        1
 93
        1
 72
     4
 94
        3
 73
     0
 74
     1
 95
       23
 96
       19
 40
0.0
 40
0.0
 40
0.0
 40
0.0
 40
1.0
 40
1.0
 40
1.0
 40
2.0
 40
2.0
 40
2.0
 40
3.0
 40
3.0
 40
3.0
 40
4.0
 40
4.0
 40
4.0
 40
5.0
 40
5.0
 40
5.0
 40
6.0
 40
6.0
 40
6.0
 40
6.0
 10
171.1206488287476
 20
48.72329709124556
 10
171.3717962896223
 20
48.76360470842297
 10
171.663595877223
 20
48.79495507733875
 10
171.9826117191571
 20
48.79495507733875
 10
173.3561712891263
 20
48.79495507733875
 10
173.7513237412844
 20
47.98225705236831
 10
173.7513237412844
 20
47.14268728261293
 10
173.7513237412844
 20
46.59974023413756
 10
173.6076632595495
 20
46.13740842001702
 10
173.284513303033
 20
45.80047808155959
 10
172.9837564671707
 20
45.49076399743563
 10
172.4852511504551
 20
45.32023177091576
 10
171.8613443580763
 20
45.32023177091576
 10
171.5785020187373
 20
45.32023177091576
 10
171.3359672965757
 20
45.32918901917741
 10
171.1206488287476
 20
45.35606076396236
 10
171.1206488287476
 20
45.35606076396236
 10
171.1206488287476
 20
48.72329709124556
 10
171.1206488287476
 20
48.72329709124556
 97
        0
 92
        1
 93
        1
 72
     4
 94
        3
 73
     0
 74
     1
 95
       20
 96
       16
 40
0.0
 40
0.0
 40
0.0
 40
0.0
 40
1.0
 40
1.0
 40
1.0
 40
2.0
 40
2.0
 40
2.0
 40
3.0
 40
3.0
 40
3.0
 40
4.0
 40
4.0
 40
4.0
 40
5.0
 40
5.0
 40
5.0
 40
5.0
 10
171.4930636507031
 20
45.6433817274322
 10
171.6053737635223
 20
45.6254672309089
 10
171.7669487417805
 20
45.62098860677808
 10
171.9285237200387
 20
45.62098860677808
 10
172.8535318578283
 20
45.62098860677808
 10
173.3606499132571
 20
46.14636566827868
 10
173.3606499132571
 20
47.12477278608963
 10
173.3606499132571
 20
48.01395193083261
 10
172.8848822267441
 20
48.49419824147644
 10
171.9960475915496
 20
48.49419824147644
 10
171.780384614173
 20
48.49419824147644
 10
171.6098523876531
 20
48.47180512082232
 10
171.4930636507031
 20
48.44941200016819
 10
171.4930636507031
 20
48.44941200016819
 10
171.4930636507031
 20
45.6433817274322
 10
171.4930636507031
 20
45.6433817274322
 97
        0
 75
     2
 76
     1
 98
        0
  0
SPLINE
  5
CC
330
41
100
AcDbEntity
  8
_U+30EC_U+30A4_U+30E4_U+30FC 1
370
     0
100
AcDbSpline
210
0.0
220
0.0
230
1.0
 70
    11
 71
     3
 72
    35
 73
    31
 74
     0
 42
0.0000000001
 43
0.0000000001
 12
1.0
 22
0.0
 32
0.0
 13
1.0
 23
0.0
 33
0.0
 40
0.0
 40
0.0
 40
0.0
 40
0.0
 40
1.0
 40
1.0
 40
1.0
 40
2.0
 40
2.0
 40
2.0
 40
3.0
 40
3.0
 40
3.0
 40
4.0
 40
4.0
 40
4.0
 40
5.0
 40
5.0
 40
5.0
 40
6.0
 40
6.0
 40
6.0
 40
7.0
 40
7.0
 40
7.0
 40
8.0
 40
8.0
 40
8.0
 40
9.0
 40
9.0
 40
9.0
 40
10.0
 40
10.0
 40
10.0
 40
10.0
 10
176.5601100904086
 20
45.45045638025821
 30
0.0
 10
176.4030137362812
 20
45.37397526048566
 30
0.0
 10
176.0977782762881
 20
45.29783865026164
 30
0.0
 10
175.7071044482607
 20
45.29783865026164
 30
0.0
 10
174.8272270613279
 20
45.29783865026164
 30
0.0
 10
174.117881900915
 20
45.86800195307049
 30
0.0
 10
174.117881900915
 20
47.02624305521148
 30
0.0
 10
174.117881900915
 20
48.13039615823406
 30
0.0
 10
174.8048339406738
 20
48.81734819799287
 30
0.0
 10
175.8059786886874
 20
48.81734819799287
 30
0.0
 10
176.214567013238
 20
48.81734819799287
 30
0.0
 10
176.4526231112688
 20
48.7322543395072
 30
0.0
 10
176.5601100904086
 20
48.67816634038878
 30
0.0
 10
176.5601100904086
 20
48.67816634038878
 30
0.0
 10
176.4615803595304
 20
48.363973632134
 30
0.0
 10
176.4615803595304
 20
48.363973632134
 30
0.0
 10
176.3044840054031
 20
48.44045475190654
 30
0.0
 10
176.0843424038956
 20
48.50315548973809
 30
0.0
 10
175.814935936949
 20
48.50315548973809
 30
0.0
 10
175.0384114145737
 20
48.50315548973809
 30
0.0
 10
174.5085557289423
 20
47.98225705236831
 30
0.0
 10
174.5085557289423
 20
47.03967892760396
 30
0.0
 10
174.5085557289423
 20
46.14188704414785
 30
0.0
 10
174.993280663717
 20
45.61203135851643
 30
0.0
 10
175.7925428162949
 20
45.61203135851643
 30
0.0
 10
176.0529920349798
 20
45.61203135851643
 30
0.0
 10
176.3089626295339
 20
45.67025347221715
 30
0.0
 10
176.4794948560537
 20
45.75121321612052
 30
0.0
 10
176.4794948560537
 20
45.75121321612052
 30
0.0
 10
176.5601100904086
 20
45.45045638025821
 30
0.0
 10
176.5601100904086
 20
45.45045638025821
 30
0.0
  0
HATCH
  5
CD
330
41
100
AcDbEntity
  8
_U+30EC_U+30A4_U+30E4_U+30FC 1
 62
     7
100
AcDbHatch
 10
0.0
 20
0.0
 30
0.0
210
0.0
220
0.0
230
1.0
  2
SOLID
 70
     1
 71
     0
 91
        1
 92
        1
 93
        1
 72
     4
 94
        3
 73
     0
 74
     1
 95
       35
 96
       31
 40
0.0
 40
0.0
 40
0.0
 40
0.0
 40
1.0
 40
1.0
 40
1.0
 40
2.0
 40
2.0
 40
2.0
 40
3.0
 40
3.0
 40
3.0
 40
4.0
 40
4.0
 40
4.0
 40
5.0
 40
5.0
 40
5.0
 40
6.0
 40
6.0
 40
6.0
 40
7.0
 40
7.0
 40
7.0
 40
8.0
 40
8.0
 40
8.0
 40
9.0
 40
9.0
 40
9.0
 40
10.0
 40
10.0
 40
10.0
 40
10.0
 10
176.5601100904086
 20
45.45045638025821
 10
176.4030137362812
 20
45.37397526048566
 10
176.0977782762881
 20
45.29783865026164
 10
175.7071044482607
 20
45.29783865026164
 10
174.8272270613279
 20
45.29783865026164
 10
174.117881900915
 20
45.86800195307049
 10
174.117881900915
 20
47.02624305521148
 10
174.117881900915
 20
48.13039615823406
 10
174.8048339406738
 20
48.81734819799287
 10
175.8059786886874
 20
48.81734819799287
 10
176.214567013238
 20
48.81734819799287
 10
176.4526231112688
 20
48.7322543395072
 10
176.5601100904086
 20
48.67816634038878
 10
176.5601100904086
 20
48.67816634038878
 10
176.4615803595304
 20
48.363973632134
 10
176.4615803595304
 20
48.363973632134
 10
176.3044840054031
 20
48.44045475190654
 10
176.0843424038956
 20
48.50315548973809
 10
175.814935936949
 20
48.50315548973809
 10
175.0384114145737
 20
48.50315548973809
 10
174.5085557289423
 20
47.98225705236831
 10
174.5085557289423
 20
47.03967892760396
 10
174.5085557289423
 20
46.14188704414785
 10
174.993280663717
 20
45.61203135851643
 10
175.7925428162949
 20
45.61203135851643
 10
176.0529920349798
 20
45.61203135851643
 10
176.3089626295339
 20
45.67025347221715
 10
176.4794948560537
 20
45.75121321612052
 10
176.4794948560537
 20
45.75121321612052
 10
176.5601100904086
 20
45.45045638025821
 10
176.5601100904086
 20
45.45045638025821
 97
        0
 75
     2
 76
     1
 98
        0
  0
POLYLINE
  5
CE
330
41
100
AcDbEntity
  8
_U+30EC_U+30A4_U+30E4_U+30FC 1
370
     0
100
AcDb2dPolyline
 66
     1
 10
0.0
 20
0.0
 30
0.0
  0
VERTEX
  5
CF
330
CE
100
AcDbEntity
  8
_U+30EC_U+30A4_U+30E4_U+30FC 1
370
     0
100
AcDbVertex
100
AcDb2dVertex
 10
176.8729247604693
 20
46.86018945282244
 30
0.0
  0
VERTEX
  5
D0
330
CE
100
AcDbEntity
  8
_U+30EC_U+30A4_U+30E4_U+30FC 1
370
     0
100
AcDbVertex
100
AcDb2dVertex
 10
178.0986897341212
 20
46.86018945282244
 30
0.0
  0
VERTEX
  5
D1
330
CE
100
AcDbEntity
  8
_U+30EC_U+30A4_U+30E4_U+30FC 1
370
     0
100
AcDbVertex
100
AcDb2dVertex
 10
178.0986897341212
 20
46.57286848935261
 30
0.0
  0
VERTEX
  5
D2
330
CE
100
AcDbEntity
  8
_U+30EC_U+30A4_U+30E4_U+30FC 1
370
     0
100
AcDbVertex
100
AcDb2dVertex
 10
176.8729247604693
 20
46.57286848935261
 30
0.0
  0
VERTEX
  5
D3
330
CE
100
AcDbEntity
  8
_U+30EC_U+30A4_U+30E4_U+30FC 1
370
     0
100
AcDbVertex
100
AcDb2dVertex
 10
176.8729247604693
 20
46.86018945282244
 30
0.0
  0
SEQEND
  5
D4
330
CE
100
AcDbEntity
  8
_U+30EC_U+30A4_U+30E4_U+30FC 1
370
     0
  0
HATCH
  5
D5
330
41
100
AcDbEntity
  8
_U+30EC_U+30A4_U+30E4_U+30FC 1
 62
     7
100
AcDbHatch
 10
0.0
 20
0.0
 30
0.0
210
0.0
220
0.0
230
1.0
  2
SOLID
 70
     1
 71
     0
 91
        1
 92
        1
 93
        4
 72
     1
 10
176.8729247604693
 20
46.86018945282244
 11
178.0986897341212
 21
46.86018945282244
 72
     1
 10
178.0986897341212
 20
46.86018945282244
 11
178.0986897341212
 21
46.57286848935261
 72
     1
 10
178.0986897341212
 20
46.57286848935261
 11
176.8729247604693
 21
46.57286848935261
 72
     1
 10
176.8729247604693
 20
46.57286848935261
 11
176.8729247604693
 21
46.86018945282244
 97
        0
 75
     2
 76
     1
 98
        0
  0
POLYLINE
  5
D6
330
41
100
AcDbEntity
  8
_U+30EC_U+30A4_U+30E4_U+30FC 1
370
     0
100
AcDb2dPolyline
 66
     1
 10
0.0
 20
0.0
 30
0.0
  0
VERTEX
  5
D7
330
D6
100
AcDbEntity
  8
_U+30EC_U+30A4_U+30E4_U+30FC 1
370
     0
100
AcDbVertex
100
AcDb2dVertex
 10
181.0111734573514
 20
45.34710351570071
 30
0.0
  0
VERTEX
  5
D8
330
D6
100
AcDbEntity
  8
_U+30EC_U+30A4_U+30E4_U+30FC 1
370
     0
100
AcDbVertex
100
AcDb2dVertex
 10
180.6387586353959
 20
45.34710351570071
 30
0.0
  0
VERTEX
  5
D9
330
D6
100
AcDbEntity
  8
_U+30EC_U+30A4_U+30E4_U+30FC 1
370
     0
100
AcDbVertex
100
AcDb2dVertex
 10
180.6387586353959
 20
46.98111230435471
 30
0.0
  0
VERTEX
  5
DA
330
D6
100
AcDbEntity
  8
_U+30EC_U+30A4_U+30E4_U+30FC 1
370
     0
100
AcDbVertex
100
AcDb2dVertex
 10
179.0044053371934
 20
46.98111230435471
 30
0.0
  0
VERTEX
  5
DB
330
D6
100
AcDbEntity
  8
_U+30EC_U+30A4_U+30E4_U+30FC 1
370
     0
100
AcDbVertex
100
AcDb2dVertex
 10
179.0044053371934
 20
45.34710351570071
 30
0.0
  0
VERTEX
  5
DC
330
D6
100
AcDbEntity
  8
_U+30EC_U+30A4_U+30E4_U+30FC 1
370
     0
100
AcDbVertex
100
AcDb2dVertex
 10
178.6319905152378
 20
45.34710351570071
 30
0.0
  0
VERTEX
  5
DD
330
D6
100
AcDbEntity
  8
_U+30EC_U+30A4_U+30E4_U+30FC 1
370
     0
100
AcDbVertex
100
AcDb2dVertex
 10
178.6319905152378
 20
48.76360470842297
 30
0.0
  0
VERTEX
  5
DE
330
D6
100
AcDbEntity
  8
_U+30EC_U+30A4_U+30E4_U+30FC 1
370
     0
100
AcDbVertex
100
AcDb2dVertex
 10
179.0044053371934
 20
48.76360470842297
 30
0.0
  0
VERTEX
  5
DF
330
D6
100
AcDbEntity
  8
_U+30EC_U+30A4_U+30E4_U+30FC 1
370
     0
100
AcDbVertex
100
AcDb2dVertex
 10
179.0044053371934
 20
47.30460677041967
 30
0.0
  0
VERTEX
  5
E0
330
D6
100
AcDbEntity
  8
_U+30EC_U+30A4_U+30E4_U+30FC 1
370
     0
100
AcDbVertex
100
AcDb2dVertex
 10
180.6387586353959
 20
47.30460677041967
 30
0.0
  0
VERTEX
  5
E1
330
D6
100
AcDbEntity
  8
_U+30EC_U+30A4_U+30E4_U+30FC 1
370
     0
100
AcDbVertex
100
AcDb2dVertex
 10
180.6387586353959
 20
48.76360470842297
 30
0.0
  0
VERTEX
  5
E2
330
D6
100
AcDbEntity
  8
_U+30EC_U+30A4_U+30E4_U+30FC 1
370
     0
100
AcDbVertex
100
AcDb2dVertex
 10
181.0111734573514
 20
48.76360470842297
 30
0.0
  0
VERTEX
  5
E3
330
D6
100
AcDbEntity
  8
_U+30EC_U+30A4_U+30E4_U+30FC 1
370
     0
100
AcDbVertex
100
AcDb2dVertex
 10
181.0111734573514
 20
45.34710351570071
 30
0.0
  0
SEQEND
  5
E4
330
D6
100
AcDbEntity
  8
_U+30EC_U+30A4_U+30E4_U+30FC 1
370
     0
  0
HATCH
  5
E5
330
41
100
AcDbEntity
  8
_U+30EC_U+30A4_U+30E4_U+30FC 1
 62
     7
100
AcDbHatch
 10
0.0
 20
0.0
 30
0.0
210
0.0
220
0.0
230
1.0
  2
SOLID
 70
     1
 71
     0
 91
        1
 92
        1
 93
       12
 72
     1
 10
181.0111734573514
 20
45.34710351570071
 11
180.6387586353959
 21
45.34710351570071
 72
     1
 10
180.6387586353959
 20
45.34710351570071
 11
180.6387586353959
 21
46.98111230435471
 72
     1
 10
180.6387586353959
 20
46.98111230435471
 11
179.0044053371934
 21
46.98111230435471
 72
     1
 10
179.0044053371934
 20
46.98111230435471
 11
179.0044053371934
 21
45.34710351570071
 72
     1
 10
179.0044053371934
 20
45.34710351570071
 11
178.6319905152378
 21
45.34710351570071
 72
     1
 10
178.6319905152378
 20
45.34710351570071
 11
178.6319905152378
 21
48.76360470842297
 72
     1
 10
178.6319905152378
 20
48.76360470842297
 11
179.0044053371934
 21
48.76360470842297
 72
     1
 10
179.0044053371934
 20
48.76360470842297
 11
179.0044053371934
 21
47.30460677041967
 72
     1
 10
179.0044053371934
 20
47.30460677041967
 11
180.6387586353959
 21
47.30460677041967
 72
     1
 10
180.6387586353959
 20
47.30460677041967
 11
180.6387586353959
 21
48.76360470842297
 72
     1
 10
180.6387586353959
 20
48.76360470842297
 11
181.0111734573514
 21
48.76360470842297
 72
     1
 10
181.0111734573514
 20
48.76360470842297
 11
181.0111734573514
 21
45.34710351570071
 97
        0
 75
     2
 76
     1
 98
        0
  0
SPLINE
  5
E6
330
41
100
AcDbEntity
  8
_U+30EC_U+30A4_U+30E4_U+30FC 1
370
     0
100
AcDbSpline
210
0.0
220
0.0
230
1.0
 70
    11
 71
     3
 72
    17
 73
    13
 74
     0
 42
0.0000000001
 43
0.0000000001
 12
1.0
 22
0.0
 32
0.0
 13
1.0
 23
0.0
 33
0.0
 40
0.0
 40
0.0
 40
0.0
 40
0.0
 40
1.0
 40
1.0
 40
1.0
 40
2.0
 40
2.0
 40
2.0
 40
3.0
 40
3.0
 40
3.0
 40
4.0
 40
4.0
 40
4.0
 40
4.0
 10
181.5710014737045
 20
47.01728580694984
 30
0.0
 10
181.5710014737045
 20
48.19344140561413
 30
0.0
 10
182.0288546636942
 20
48.76360470842297
 30
0.0
 10
182.6575845897523
 20
48.76360470842297
 30
0.0
 10
183.2949272545235
 20
48.76360470842297
 30
0.0
 10
183.6856010825508
 20
48.16209103669836
 30
0.0
 10
183.6856010825508
 20
47.06207204825808
 30
0.0
 10
183.6856010825508
 20
45.89487369785544
 30
0.0
 10
183.2770127580002
 20
45.29336002613081
 30
0.0
 10
182.6079752147647
 20
45.29336002613081
 30
0.0
 10
181.9975042947784
 20
45.29336002613081
 30
0.0
 10
181.5710014737045
 20
45.89487369785544
 30
0.0
 10
181.5710014737045
 20
47.01728580694984
 30
0.0
  0
SPLINE
  5
E7
330
41
100
AcDbEntity
  8
_U+30EC_U+30A4_U+30E4_U+30FC 1
370
     0
100
AcDbSpline
210
0.0
220
0.0
230
1.0
 70
    11
 71
     3
 72
    17
 73
    13
 74
     0
 42
0.0000000001
 43
0.0000000001
 12
1.0
 22
0.0
 32
0.0
 13
1.0
 23
0.0
 33
0.0
 40
0.0
 40
0.0
 40
0.0
 40
0.0
 40
1.0
 40
1.0
 40
1.0
 40
2.0
 40
2.0
 40
2.0
 40
3.0
 40
3.0
 40
3.0
 40
4.0
 40
4.0
 40
4.0
 40
4.0
 10
183.308363126916
 20
47.04415755173478
 30
0.0
 10
183.308363126916
 20
47.88372732149017
 30
0.0
 10
183.1064805314803
 20
48.46284787256067
 30
0.0
 10
182.6351914690981
 20
48.46284787256067
 30
0.0
 10
182.2355603928092
 20
48.46284787256067
 30
0.0
 10
181.9527180534702
 20
47.92851356279841
 30
0.0
 10
181.9527180534702
 20
47.04415755173478
 30
0.0
 10
181.9527180534702
 20
46.15980154067115
 30
0.0
 10
182.1997313997626
 20
45.59859548612395
 30
0.0
 10
182.6217555967057
 20
45.59859548612395
 30
0.0
 10
183.1199164038728
 20
45.59859548612395
 30
0.0
 10
183.308363126916
 20
46.24489539915682
 30
0.0
 10
183.308363126916
 20
47.04415755173478
 30
0.0
  0
HATCH
  5
E8
330
41
100
AcDbEntity
  8
_U+30EC_U+30A4_U+30E4_U+30FC 1
 62
     7
100
AcDbHatch
 10
0.0
 20
0.0
 30
0.0
210
0.0
220
0.0
230
1.0
  2
SOLID
 70
     1
 71
     0
 91
        2
 92
        1
 93
        1
 72
     4
 94
        3
 73
     0
 74
     1
 95
       17
 96
       13
 40
0.0
 40
0.0
 40
0.0
 40
0.0
 40
1.0
 40
1.0
 40
1.0
 40
2.0
 40
2.0
 40
2.0
 40
3.0
 40
3.0
 40
3.0
 40
4.0
 40
4.0
 40
4.0
 40
4.0
 10
181.5710014737045
 20
47.01728580694984
 10
181.5710014737045
 20
48.19344140561413
 10
182.0288546636942
 20
48.76360470842297
 10
182.6575845897523
 20
48.76360470842297
 10
183.2949272545235
 20
48.76360470842297
 10
183.6856010825508
 20
48.16209103669836
 10
183.6856010825508
 20
47.06207204825808
 10
183.6856010825508
 20
45.89487369785544
 10
183.2770127580002
 20
45.29336002613081
 10
182.6079752147647
 20
45.29336002613081
 10
181.9975042947784
 20
45.29336002613081
 10
181.5710014737045
 20
45.89487369785544
 10
181.5710014737045
 20
47.01728580694984
 97
        0
 92
        1
 93
        1
 72
     4
 94
        3
 73
     0
 74
     1
 95
       17
 96
       13
 40
0.0
 40
0.0
 40
0.0
 40
0.0
 40
1.0
 40
1.0
 40
1.0
 40
2.0
 40
2.0
 40
2.0
 40
3.0
 40
3.0
 40
3.0
 40
4.0
 40
4.0
 40
4.0
 40
4.0
 10
183.308363126916
 20
47.04415755173478
 10
183.308363126916
 20
47.88372732149017
 10
183.1064805314803
 20
48.46284787256067
 10
182.6351914690981
 20
48.46284787256067
 10
182.2355603928092
 20
48.46284787256067
 10
181.9527180534702
 20
47.92851356279841
 10
181.9527180534702
 20
47.04415755173478
 10
181.9527180534702
 20
46.15980154067115
 10
182.1997313997626
 20
45.59859548612395
 10
182.6217555967057
 20
45.59859548612395
 10
183.1199164038728
 20
45.59859548612395
 10
183.308363126916
 20
46.24489539915682
 10
183.308363126916
 20
47.04415755173478
 97
        0
 75
     2
 76
     1
 98
        0
  0
SPLINE
  5
E9
330
41
100
AcDbEntity
  8
_U+30EC_U+30A4_U+30E4_U+30FC 1
370
     0
100
AcDbSpline
210
0.0
220
0.0
230
1.0
 70
    11
 71
     3
 72
    17
 73
    13
 74
     0
 42
0.0000000001
 43
0.0000000001
 12
1.0
 22
0.0
 32
0.0
 13
1.0
 23
0.0
 33
0.0
 40
0.0
 40
0.0
 40
0.0
 40
0.0
 40
1.0
 40
1.0
 40
1.0
 40
2.0
 40
2.0
 40
2.0
 40
3.0
 40
3.0
 40
3.0
 40
4.0
 40
4.0
 40
4.0
 40
4.0
 10
184.0435465034683
 20
47.01728580694984
 30
0.0
 10
184.0435465034683
 20
48.19344140561413
 30
0.0
 10
184.501399693458
 20
48.76360470842297
 30
0.0
 10
185.1301296195161
 20
48.76360470842297
 30
0.0
 10
185.7674722842873
 20
48.76360470842297
 30
0.0
 10
186.1581461123146
 20
48.16209103669836
 30
0.0
 10
186.1581461123146
 20
47.06207204825808
 30
0.0
 10
186.1581461123146
 20
45.89487369785544
 30
0.0
 10
185.749557787764
 20
45.29336002613081
 30
0.0
 10
185.0805202445285
 20
45.29336002613081
 30
0.0
 10
184.4700493245422
 20
45.29336002613081
 30
0.0
 10
184.0435465034683
 20
45.89487369785544
 30
0.0
 10
184.0435465034683
 20
47.01728580694984
 30
0.0
  0
SPLINE
  5
EA
330
41
100
AcDbEntity
  8
_U+30EC_U+30A4_U+30E4_U+30FC 1
370
     0
100
AcDbSpline
210
0.0
220
0.0
230
1.0
 70
    11
 71
     3
 72
    17
 73
    13
 74
     0
 42
0.0000000001
 43
0.0000000001
 12
1.0
 22
0.0
 32
0.0
 13
1.0
 23
0.0
 33
0.0
 40
0.0
 40
0.0
 40
0.0
 40
0.0
 40
1.0
 40
1.0
 40
1.0
 40
2.0
 40
2.0
 40
2.0
 40
3.0
 40
3.0
 40
3.0
 40
4.0
 40
4.0
 40
4.0
 40
4.0
 10
185.7809081566798
 20
47.04415755173478
 30
0.0
 10
185.7809081566798
 20
47.88372732149017
 30
0.0
 10
185.5790255612442
 20
48.46284787256067
 30
0.0
 10
185.107736498862
 20
48.46284787256067
 30
0.0
 10
184.708105422573
 20
48.46284787256067
 30
0.0
 10
184.425263083234
 20
47.92851356279841
 30
0.0
 10
184.425263083234
 20
47.04415755173478
 30
0.0
 10
184.425263083234
 20
46.15980154067115
 30
0.0
 10
184.6722764295264
 20
45.59859548612395
 30
0.0
 10
185.0943006264695
 20
45.59859548612395
 30
0.0
 10
185.5924614336366
 20
45.59859548612395
 30
0.0
 10
185.7809081566798
 20
46.24489539915682
 30
0.0
 10
185.7809081566798
 20
47.04415755173478
 30
0.0
  0
HATCH
  5
EB
330
41
100
AcDbEntity
  8
_U+30EC_U+30A4_U+30E4_U+30FC 1
 62
     7
100
AcDbHatch
 10
0.0
 20
0.0
 30
0.0
210
0.0
220
0.0
230
1.0
  2
SOLID
 70
     1
 71
     0
 91
        2
 92
        1
 93
        1
 72
     4
 94
        3
 73
     0
 74
     1
 95
       17
 96
       13
 40
0.0
 40
0.0
 40
0.0
 40
0.0
 40
1.0
 40
1.0
 40
1.0
 40
2.0
 40
2.0
 40
2.0
 40
3.0
 40
3.0
 40
3.0
 40
4.0
 40
4.0
 40
4.0
 40
4.0
 10
184.0435465034683
 20
47.01728580694984
 10
184.0435465034683
 20
48.19344140561413
 10
184.501399693458
 20
48.76360470842297
 10
185.1301296195161
 20
48.76360470842297
 10
185.7674722842873
 20
48.76360470842297
 10
186.1581461123146
 20
48.16209103669836
 10
186.1581461123146
 20
47.06207204825808
 10
186.1581461123146
 20
45.89487369785544
 10
185.749557787764
 20
45.29336002613081
 10
185.0805202445285
 20
45.29336002613081
 10
184.4700493245422
 20
45.29336002613081
 10
184.0435465034683
 20
45.89487369785544
 10
184.0435465034683
 20
47.01728580694984
 97
        0
 92
        1
 93
        1
 72
     4
 94
        3
 73
     0
 74
     1
 95
       17
 96
       13
 40
0.0
 40
0.0
 40
0.0
 40
0.0
 40
1.0
 40
1.0
 40
1.0
 40
2.0
 40
2.0
 40
2.0
 40
3.0
 40
3.0
 40
3.0
 40
4.0
 40
4.0
 40
4.0
 40
4.0
 10
185.7809081566798
 20
47.04415755173478
 10
185.7809081566798
 20
47.88372732149017
 10
185.5790255612442
 20
48.46284787256067
 10
185.107736498862
 20
48.46284787256067
 10
184.708105422573
 20
48.46284787256067
 10
184.425263083234
 20
47.92851356279841
 10
184.425263083234
 20
47.04415755173478
 10
184.425263083234
 20
46.15980154067115
 10
184.6722764295264
 20
45.59859548612395
 10
185.0943006264695
 20
45.59859548612395
 10
185.5924614336366
 20
45.59859548612395
 10
185.7809081566798
 20
46.24489539915682
 10
185.7809081566798
 20
47.04415755173478
 97
        0
 75
     2
 76
     1
 98
        0
  0
POLYLINE
  5
EC
330
41
100
AcDbEntity
  8
_U+30EC_U+30A4_U+30E4_U+30FC 1
370
     0
100
AcDb2dPolyline
 66
     1
 10
0.0
 20
0.0
 30
0.0
  0
VERTEX
  5
ED
330
EC
100
AcDbEntity
  8
_U+30EC_U+30A4_U+30E4_U+30FC 1
370
     0
100
AcDbVertex
100
AcDb2dVertex
 10
186.6194443977896
 20
48.70951670930455
 30
0.0
  0
VERTEX
  5
EE
330
EC
100
AcDbEntity
  8
_U+30EC_U+30A4_U+30E4_U+30FC 1
370
     0
100
AcDbVertex
100
AcDb2dVertex
 10
188.590383524901
 20
48.70951670930455
 30
0.0
  0
VERTEX
  5
EF
330
EC
100
AcDbEntity
  8
_U+30EC_U+30A4_U+30E4_U+30FC 1
370
     0
100
AcDbVertex
100
AcDb2dVertex
 10
188.590383524901
 20
48.47180512082232
 30
0.0
  0
VERTEX
  5
F0
330
EC
100
AcDbEntity
  8
_U+30EC_U+30A4_U+30E4_U+30FC 1
370
     0
100
AcDbVertex
100
AcDb2dVertex
 10
187.1851290764676
 20
45.34710351570071
 30
0.0
  0
VERTEX
  5
F1
330
EC
100
AcDbEntity
  8
_U+30EC_U+30A4_U+30E4_U+30FC 1
370
     0
100
AcDbVertex
100
AcDb2dVertex
 10
186.8034124967019
 20
45.34710351570071
 30
0.0
  0
VERTEX
  5
F2
330
EC
100
AcDbEntity
  8
_U+30EC_U+30A4_U+30E4_U+30FC 1
370
     0
100
AcDbVertex
100
AcDb2dVertex
 10
188.2086669451353
 20
48.39084537691895
 30
0.0
  0
VERTEX
  5
F3
330
EC
100
AcDbEntity
  8
_U+30EC_U+30A4_U+30E4_U+30FC 1
370
     0
100
AcDbVertex
100
AcDb2dVertex
 10
188.2086669451353
 20
48.39980262518059
 30
0.0
  0
VERTEX
  5
F4
330
EC
100
AcDbEntity
  8
_U+30EC_U+30A4_U+30E4_U+30FC 1
370
     0
100
AcDbVertex
100
AcDb2dVertex
 10
186.6194443977896
 20
48.39980262518059
 30
0.0
  0
VERTEX
  5
F5
330
EC
100
AcDbEntity
  8
_U+30EC_U+30A4_U+30E4_U+30FC 1
370
     0
100
AcDbVertex
100
AcDb2dVertex
 10
186.6194443977896
 20
48.70951670930455
 30
0.0
  0
SEQEND
  5
F6
330
EC
100
AcDbEntity
  8
_U+30EC_U+30A4_U+30E4_U+30FC 1
370
     0
  0
HATCH
  5
F7
330
41
100
AcDbEntity
  8
_U+30EC_U+30A4_U+30E4_U+30FC 1
 62
     7
100
AcDbHatch
 10
0.0
 20
0.0
 30
0.0
210
0.0
220
0.0
230
1.0
  2
SOLID
 70
     1
 71
     0
 91
        1
 92
        1
 93
        8
 72
     1
 10
186.6194443977896
 20
48.70951670930455
 11
188.590383524901
 21
48.70951670930455
 72
     1
 10
188.590383524901
 20
48.70951670930455
 11
188.590383524901
 21
48.47180512082232
 72
     1
 10
188.590383524901
 20
48.47180512082232
 11
187.1851290764676
 21
45.34710351570071
 72
     1
 10
187.1851290764676
 20
45.34710351570071
 11
186.8034124967019
 21
45.34710351570071
 72
     1
 10
186.8034124967019
 20
45.34710351570071
 11
188.2086669451353
 21
48.39084537691895
 72
     1
 10
188.2086669451353
 20
48.39084537691895
 11
188.2086669451353
 21
48.39980262518059
 72
     1
 10
188.2086669451353
 20
48.39980262518059
 11
186.6194443977896
 21
48.39980262518059
 72
     1
 10
186.6194443977896
 20
48.39980262518059
 11
186.6194443977896
 21
48.70951670930455
 97
        0
 75
     2
 76
     1
 98
        0
  0
ENDBLK
  5
44
330
41
100
AcDbEntity
  8
0
100
AcDbBlockEnd
  0
BLOCK
  5
FA
330
F8
100
AcDbEntity
  8
0
100
AcDbBlockBegin
  2
block 3
 70
     0
 10
0.0
 20
0.0
 30
0.0
  3
block 3
  1

  0
SPLINE
  5
FC
330
F8
100
AcDbEntity
  8
_U+30EC_U+30A4_U+30E4_U+30FC 1
370
     0
100
AcDbSpline
210
0.0
220
0.0
230
1.0
 70
    11
 71
     3
 72
    68
 73
    64
 74
     0
 42
0.0000000001
 43
0.0000000001
 12
1.0
 22
0.0
 32
0.0
 13
1.0
 23
0.0
 33
0.0
 40
0.0
 40
0.0
 40
0.0
 40
0.0
 40
1.0
 40
1.0
 40
1.0
 40
2.0
 40
2.0
 40
2.0
 40
3.0
 40
3.0
 40
3.0
 40
4.0
 40
4.0
 40
4.0
 40
5.0
 40
5.0
 40
5.0
 40
6.0
 40
6.0
 40
6.0
 40
7.0
 40
7.0
 40
7.0
 40
8.0
 40
8.0
 40
8.0
 40
9.0
 40
9.0
 40
9.0
 40
10.0
 40
10.0
 40
10.0
 40
11.0
 40
11.0
 40
11.0
 40
12.0
 40
12.0
 40
12.0
 40
13.0
 40
13.0
 40
13.0
 40
14.0
 40
14.0
 40
14.0
 40
15.0
 40
15.0
 40
15.0
 40
16.0
 40
16.0
 40
16.0
 40
17.0
 40
17.0
 40
17.0
 40
18.0
 40
18.0
 40
18.0
 40
19.0
 40
19.0
 40
19.0
 40
20.0
 40
20.0
 40
20.0
 40
21.0
 40
21.0
 40
21.0
 40
21.0
 10
140.5557647003043
 20
106.9543519832382
 30
0.0
 10
140.5557647003043
 20
106.9061272622467
 30
0.0
 10
140.5182291457064
 20
106.8733894853038
 30
0.0
 10
140.4727208135341
 20
106.87889533016
 30
0.0
 10
140.4727208135341
 20
106.87889533016
 30
0.0
 10
138.1726097611037
 20
107.1579425523125
 30
0.0
 10
138.1726097611037
 20
107.1579425523125
 30
0.0
 10
137.4631031125384
 20
107.2440883647353
 30
0.0
 10
136.8865584050247
 20
107.897609181396
 30
0.0
 10
136.8851860768901
 20
108.6183341630087
 30
0.0
 10
136.8843359050814
 20
109.338353589084
 30
0.0
 10
137.4591555211911
 20
109.852350798193
 30
0.0
 10
138.1686586500934
 20
109.7662377448344
 30
0.0
 10
138.1686586500934
 20
109.7662377448344
 30
0.0
 10
139.0652433494418
 20
109.657725885021
 30
0.0
 10
139.0652433494418
 20
109.657725885021
 30
0.0
 10
139.1122721874444
 20
109.6522199699654
 30
0.0
 10
139.1491339028572
 20
109.6094985821665
 30
0.0
 10
139.1491339028572
 20
109.5615913611665
 30
0.0
 10
139.1491339028572
 20
109.5615913611665
 30
0.0
 10
139.150333347271
 20
108.7337277711759
 30
0.0
 10
139.150333347271
 20
108.7337277711759
 30
0.0
 10
139.1506861250398
 20
108.6872342185969
 30
0.0
 10
139.1136444593181
 20
108.653470828779
 30
0.0
 10
139.0666191827401
 20
108.6593269397407
 30
0.0
 10
139.0666191827401
 20
108.6593269397407
 30
0.0
 10
138.235157259508
 20
108.7592336038585
 30
0.0
 10
138.235157259508
 20
108.7592336038585
 30
0.0
 10
138.0708333748113
 20
108.7792361033482
 30
0.0
 10
137.9369894893371
 20
108.6596797175095
 30
0.0
 10
137.9369894893371
 20
108.4922513884476
 30
0.0
 10
137.937306989329
 20
108.3244702816169
 30
0.0
 10
138.0718564303408
 20
108.1715058410749
 30
0.0
 10
138.236003926153
 20
108.151856119354
 30
0.0
 10
138.236003926153
 20
108.151856119354
 30
0.0
 10
139.4004527853347
 20
108.0119797340337
 30
0.0
 10
139.4004527853347
 20
108.0119797340337
 30
0.0
 10
139.4004527853347
 20
108.0119797340337
 30
0.0
 10
139.3978775076223
 20
109.7614046894021
 30
0.0
 10
139.3978775076223
 20
109.7614046894021
 30
0.0
 10
139.3975247298535
 20
110.017733016196
 30
0.0
 10
139.1934110763129
 20
110.2492257880679
 30
0.0
 10
138.939654463757
 20
110.2802349539434
 30
0.0
 10
138.939654463757
 20
110.2802349539434
 30
0.0
 10
137.3041061721499
 20
110.478354948889
 30
0.0
 10
137.3041061721499
 20
110.478354948889
 30
0.0
 10
137.2565517289187
 20
110.4842110598507
 30
0.0
 10
137.219545340974
 20
110.5262268921121
 30
0.0
 10
137.2193689520896
 20
110.5737813353433
 30
0.0
 10
137.2193689520896
 20
110.5737813353433
 30
0.0
 10
137.2181695076757
 20
111.4054196474598
 30
0.0
 10
137.2181695076757
 20
111.4054196474598
 30
0.0
 10
137.2181695076757
 20
111.4519157573847
 30
0.0
 10
137.255034784513
 20
111.4863821453943
 30
0.0
 10
137.3023775610829
 20
111.4805286623429
 30
0.0
 10
137.3023775610829
 20
111.4805286623429
 30
0.0
 10
139.2609291777828
 20
111.2431418738221
 30
0.0
 10
139.2609291777828
 20
111.2431418738221
 30
0.0
 10
139.9750924928963
 20
111.156678662424
 30
0.0
 10
140.550084978227
 20
110.5007210594295
 30
0.0
 10
140.5512844226409
 20
109.775868577922
 30
0.0
 10
140.5512844226409
 20
109.775868577922
 30
0.0
 10
140.5557647003043
 20
106.9543519832382
 30
0.0
 10
140.5557647003043
 20
106.9543519832382
 30
0.0
  0
HATCH
  5
FD
330
F8
100
AcDbEntity
  8
_U+30EC_U+30A4_U+30E4_U+30FC 1
 62
     7
100
AcDbHatch
 10
0.0
 20
0.0
 30
0.0
210
0.0
220
0.0
230
1.0
  2
SOLID
 70
     1
 71
     0
 91
        1
 92
        1
 93
        1
 72
     4
 94
        3
 73
     0
 74
     1
 95
       68
 96
       64
 40
0.0
 40
0.0
 40
0.0
 40
0.0
 40
1.0
 40
1.0
 40
1.0
 40
2.0
 40
2.0
 40
2.0
 40
3.0
 40
3.0
 40
3.0
 40
4.0
 40
4.0
 40
4.0
 40
5.0
 40
5.0
 40
5.0
 40
6.0
 40
6.0
 40
6.0
 40
7.0
 40
7.0
 40
7.0
 40
8.0
 40
8.0
 40
8.0
 40
9.0
 40
9.0
 40
9.0
 40
10.0
 40
10.0
 40
10.0
 40
11.0
 40
11.0
 40
11.0
 40
12.0
 40
12.0
 40
12.0
 40
13.0
 40
13.0
 40
13.0
 40
14.0
 40
14.0
 40
14.0
 40
15.0
 40
15.0
 40
15.0
 40
16.0
 40
16.0
 40
16.0
 40
17.0
 40
17.0
 40
17.0
 40
18.0
 40
18.0
 40
18.0
 40
19.0
 40
19.0
 40
19.0
 40
20.0
 40
20.0
 40
20.0
 40
21.0
 40
21.0
 40
21.0
 40
21.0
 10
140.5557647003043
 20
106.9543519832382
 10
140.5557647003043
 20
106.9061272622467
 10
140.5182291457064
 20
106.8733894853038
 10
140.4727208135341
 20
106.87889533016
 10
140.4727208135341
 20
106.87889533016
 10
138.1726097611037
 20
107.1579425523125
 10
138.1726097611037
 20
107.1579425523125
 10
137.4631031125384
 20
107.2440883647353
 10
136.8865584050247
 20
107.897609181396
 10
136.8851860768901
 20
108.6183341630087
 10
136.8843359050814
 20
109.338353589084
 10
137.4591555211911
 20
109.852350798193
 10
138.1686586500934
 20
109.7662377448344
 10
138.1686586500934
 20
109.7662377448344
 10
139.0652433494418
 20
109.657725885021
 10
139.0652433494418
 20
109.657725885021
 10
139.1122721874444
 20
109.6522199699654
 10
139.1491339028572
 20
109.6094985821665
 10
139.1491339028572
 20
109.5615913611665
 10
139.1491339028572
 20
109.5615913611665
 10
139.150333347271
 20
108.7337277711759
 10
139.150333347271
 20
108.7337277711759
 10
139.1506861250398
 20
108.6872342185969
 10
139.1136444593181
 20
108.653470828779
 10
139.0666191827401
 20
108.6593269397407
 10
139.0666191827401
 20
108.6593269397407
 10
138.235157259508
 20
108.7592336038585
 10
138.235157259508
 20
108.7592336038585
 10
138.0708333748113
 20
108.7792361033482
 10
137.9369894893371
 20
108.6596797175095
 10
137.9369894893371
 20
108.4922513884476
 10
137.937306989329
 20
108.3244702816169
 10
138.0718564303408
 20
108.1715058410749
 10
138.236003926153
 20
108.151856119354
 10
138.236003926153
 20
108.151856119354
 10
139.4004527853347
 20
108.0119797340337
 10
139.4004527853347
 20
108.0119797340337
 10
139.4004527853347
 20
108.0119797340337
 10
139.3978775076223
 20
109.7614046894021
 10
139.3978775076223
 20
109.7614046894021
 10
139.3975247298535
 20
110.017733016196
 10
139.1934110763129
 20
110.2492257880679
 10
138.939654463757
 20
110.2802349539434
 10
138.939654463757
 20
110.2802349539434
 10
137.3041061721499
 20
110.478354948889
 10
137.3041061721499
 20
110.478354948889
 10
137.2565517289187
 20
110.4842110598507
 10
137.219545340974
 20
110.5262268921121
 10
137.2193689520896
 20
110.5737813353433
 10
137.2193689520896
 20
110.5737813353433
 10
137.2181695076757
 20
111.4054196474598
 10
137.2181695076757
 20
111.4054196474598
 10
137.2181695076757
 20
111.4519157573847
 10
137.255034784513
 20
111.4863821453943
 10
137.3023775610829
 20
111.4805286623429
 10
137.3023775610829
 20
111.4805286623429
 10
139.2609291777828
 20
111.2431418738221
 10
139.2609291777828
 20
111.2431418738221
 10
139.9750924928963
 20
111.156678662424
 10
140.550084978227
 20
110.5007210594295
 10
140.5512844226409
 20
109.775868577922
 10
140.5512844226409
 20
109.775868577922
 10
140.5557647003043
 20
106.9543519832382
 10
140.5557647003043
 20
106.9543519832382
 97
        0
 75
     2
 76
     1
 98
        0
  0
SPLINE
  5
FE
330
F8
100
AcDbEntity
  8
_U+30EC_U+30A4_U+30E4_U+30FC 1
370
     0
100
AcDbSpline
210
0.0
220
0.0
230
1.0
 70
    11
 71
     3
 72
    68
 73
    64
 74
     0
 42
0.0000000001
 43
0.0000000001
 12
1.0
 22
0.0
 32
0.0
 13
1.0
 23
0.0
 33
0.0
 40
0.0
 40
0.0
 40
0.0
 40
0.0
 40
1.0
 40
1.0
 40
1.0
 40
2.0
 40
2.0
 40
2.0
 40
3.0
 40
3.0
 40
3.0
 40
4.0
 40
4.0
 40
4.0
 40
5.0
 40
5.0
 40
5.0
 40
6.0
 40
6.0
 40
6.0
 40
7.0
 40
7.0
 40
7.0
 40
8.0
 40
8.0
 40
8.0
 40
9.0
 40
9.0
 40
9.0
 40
10.0
 40
10.0
 40
10.0
 40
11.0
 40
11.0
 40
11.0
 40
12.0
 40
12.0
 40
12.0
 40
13.0
 40
13.0
 40
13.0
 40
14.0
 40
14.0
 40
14.0
 40
15.0
 40
15.0
 40
15.0
 40
16.0
 40
16.0
 40
16.0
 40
17.0
 40
17.0
 40
17.0
 40
18.0
 40
18.0
 40
18.0
 40
19.0
 40
19.0
 40
19.0
 40
20.0
 40
20.0
 40
20.0
 40
21.0
 40
21.0
 40
21.0
 40
21.0
 10
148.2948270028644
 20
106.0158925627362
 30
0.0
 10
148.2944742250956
 20
105.9680231081654
 30
0.0
 10
148.2572914482665
 20
105.9349653425783
 30
0.0
 10
148.2104110740591
 20
105.94082145354
 30
0.0
 10
148.2104110740591
 20
105.94082145354
 30
0.0
 10
145.9104726192499
 20
106.2198686686431
 30
0.0
 10
145.9104726192499
 20
106.2198686686431
 30
0.0
 10
145.2018126373293
 20
106.3056314414144
 30
0.0
 10
144.6247777416219
 20
106.9595025386624
 30
0.0
 10
144.6237194082887
 20
107.6798747425064
 30
0.0
 10
144.6226926521039
 20
108.4002469463504
 30
0.0
 10
145.197336074812
 20
108.9142794332363
 30
0.0
 10
145.9061687304708
 20
108.8281311021008
 30
0.0
 10
145.9061687304708
 20
108.8281311021008
 30
0.0
 10
146.8027534298193
 20
108.7196166604248
 30
0.0
 10
146.8027534298193
 20
108.7196166604248
 30
0.0
 10
146.8492495397442
 20
108.7137605494631
 30
0.0
 10
146.8874944077232
 20
108.6713919394329
 30
0.0
 10
146.8874944077232
 20
108.6234847184329
 30
0.0
 10
146.8874944077232
 20
108.6234847184329
 30
0.0
 10
146.8885527410558
 20
107.7953036284504
 30
0.0
 10
146.8885527410558
 20
107.7953036284504
 30
0.0
 10
146.8885527410558
 20
107.7488075185255
 30
0.0
 10
146.850805518843
 20
107.7153641860454
 30
0.0
 10
146.8044820408863
 20
107.7209027970152
 30
0.0
 10
146.8044820408863
 20
107.7209027970152
 30
0.0
 10
145.9733376176461
 20
107.821126961125
 30
0.0
 10
145.9733376176461
 20
107.821126961125
 30
0.0
 10
145.8083471857706
 20
107.8411294606147
 30
0.0
 10
145.6749971858034
 20
107.7212202970071
 30
0.0
 10
145.6751698474752
 20
107.5541447457144
 30
0.0
 10
145.675702741359
 20
107.3863636388834
 30
0.0
 10
145.8091901218339
 20
107.2333991983414
 30
0.0
 10
145.9740431731836
 20
107.2134319766286
 30
0.0
 10
145.9740431731836
 20
107.2134319766286
 30
0.0
 10
147.138672185438
 20
107.073908369077
 30
0.0
 10
147.138672185438
 20
107.073908369077
 30
0.0
 10
147.138672185438
 20
107.073908369077
 30
0.0
 10
147.135881476876
 20
108.8233333244454
 30
0.0
 10
147.135881476876
 20
108.8233333244454
 30
0.0
 10
147.135881476876
 20
109.0792735956936
 30
0.0
 10
146.9305648154474
 20
109.3111544231115
 30
0.0
 10
146.6782228774408
 20
109.341810811218
 30
0.0
 10
146.6782228774408
 20
109.341810811218
 30
0.0
 10
145.0405931969979
 20
109.5406036628279
 30
0.0
 10
145.0405931969979
 20
109.5406036628279
 30
0.0
 10
144.9947673648337
 20
109.5461044171171
 30
0.0
 10
144.9570554213514
 20
109.5881202493785
 30
0.0
 10
144.9572318102358
 20
109.6356746926098
 30
0.0
 10
144.9572318102358
 20
109.6356746926098
 30
0.0
 10
144.9558559769376
 20
110.4673130047263
 30
0.0
 10
144.9558559769376
 20
110.4673130047263
 30
0.0
 10
144.955330519317
 20
110.5138091146511
 30
0.0
 10
144.9933915315355
 20
110.5479227248919
 30
0.0
 10
145.0392173636997
 20
110.5427721694678
 30
0.0
 10
145.0392173636997
 20
110.5427721694678
 30
0.0
 10
146.9986194076949
 20
110.3047203293033
 30
0.0
 10
146.9986194076949
 20
110.3047203293033
 30
0.0
 10
147.712249795505
 20
110.2185693999611
 30
0.0
 10
148.2893236696715
 20
109.562296916704
 30
0.0
 10
148.2906995029697
 20
108.8377972129653
 30
0.0
 10
148.2906995029697
 20
108.8377972129653
 30
0.0
 10
148.2948270028644
 20
106.0158925627362
 30
0.0
 10
148.2948270028644
 20
106.0158925627362
 30
0.0
  0
HATCH
  5
FF
330
F8
100
AcDbEntity
  8
_U+30EC_U+30A4_U+30E4_U+30FC 1
 62
     7
100
AcDbHatch
 10
0.0
 20
0.0
 30
0.0
210
0.0
220
0.0
230
1.0
  2
SOLID
 70
     1
 71
     0
 91
        1
 92
        1
 93
        1
 72
     4
 94
        3
 73
     0
 74
     1
 95
       68
 96
       64
 40
0.0
 40
0.0
 40
0.0
 40
0.0
 40
1.0
 40
1.0
 40
1.0
 40
2.0
 40
2.0
 40
2.0
 40
3.0
 40
3.0
 40
3.0
 40
4.0
 40
4.0
 40
4.0
 40
5.0
 40
5.0
 40
5.0
 40
6.0
 40
6.0
 40
6.0
 40
7.0
 40
7.0
 40
7.0
 40
8.0
 40
8.0
 40
8.0
 40
9.0
 40
9.0
 40
9.0
 40
10.0
 40
10.0
 40
10.0
 40
11.0
 40
11.0
 40
11.0
 40
12.0
 40
12.0
 40
12.0
 40
13.0
 40
13.0
 40
13.0
 40
14.0
 40
14.0
 40
14.0
 40
15.0
 40
15.0
 40
15.0
 40
16.0
 40
16.0
 40
16.0
 40
17.0
 40
17.0
 40
17.0
 40
18.0
 40
18.0
 40
18.0
 40
19.0
 40
19.0
 40
19.0
 40
20.0
 40
20.0
 40
20.0
 40
21.0
 40
21.0
 40
21.0
 40
21.0
 10
148.2948270028644
 20
106.0158925627362
 10
148.2944742250956
 20
105.9680231081654
 10
148.2572914482665
 20
105.9349653425783
 10
148.2104110740591
 20
105.94082145354
 10
148.2104110740591
 20
105.94082145354
 10
145.9104726192499
 20
106.2198686686431
 10
145.9104726192499
 20
106.2198686686431
 10
145.2018126373293
 20
106.3056314414144
 10
144.6247777416219
 20
106.9595025386624
 10
144.6237194082887
 20
107.6798747425064
 10
144.6226926521039
 20
108.4002469463504
 10
145.197336074812
 20
108.9142794332363
 10
145.9061687304708
 20
108.8281311021008
 10
145.9061687304708
 20
108.8281311021008
 10
146.8027534298193
 20
108.7196166604248
 10
146.8027534298193
 20
108.7196166604248
 10
146.8492495397442
 20
108.7137605494631
 10
146.8874944077232
 20
108.6713919394329
 10
146.8874944077232
 20
108.6234847184329
 10
146.8874944077232
 20
108.6234847184329
 10
146.8885527410558
 20
107.7953036284504
 10
146.8885527410558
 20
107.7953036284504
 10
146.8885527410558
 20
107.7488075185255
 10
146.850805518843
 20
107.7153641860454
 10
146.8044820408863
 20
107.7209027970152
 10
146.8044820408863
 20
107.7209027970152
 10
145.9733376176461
 20
107.821126961125
 10
145.9733376176461
 20
107.821126961125
 10
145.8083471857706
 20
107.8411294606147
 10
145.6749971858034
 20
107.7212202970071
 10
145.6751698474752
 20
107.5541447457144
 10
145.675702741359
 20
107.3863636388834
 10
145.8091901218339
 20
107.2333991983414
 10
145.9740431731836
 20
107.2134319766286
 10
145.9740431731836
 20
107.2134319766286
 10
147.138672185438
 20
107.073908369077
 10
147.138672185438
 20
107.073908369077
 10
147.138672185438
 20
107.073908369077
 10
147.135881476876
 20
108.8233333244454
 10
147.135881476876
 20
108.8233333244454
 10
147.135881476876
 20
109.0792735956936
 10
146.9305648154474
 20
109.3111544231115
 10
146.6782228774408
 20
109.341810811218
 10
146.6782228774408
 20
109.341810811218
 10
145.0405931969979
 20
109.5406036628279
 10
145.0405931969979
 20
109.5406036628279
 10
144.9947673648337
 20
109.5461044171171
 10
144.9570554213514
 20
109.5881202493785
 10
144.9572318102358
 20
109.6356746926098
 10
144.9572318102358
 20
109.6356746926098
 10
144.9558559769376
 20
110.4673130047263
 10
144.9558559769376
 20
110.4673130047263
 10
144.955330519317
 20
110.5138091146511
 10
144.9933915315355
 20
110.5479227248919
 10
145.0392173636997
 20
110.5427721694678
 10
145.0392173636997
 20
110.5427721694678
 10
146.9986194076949
 20
110.3047203293033
 10
146.9986194076949
 20
110.3047203293033
 10
147.712249795505
 20
110.2185693999611
 10
148.2893236696715
 20
109.562296916704
 10
148.2906995029697
 20
108.8377972129653
 10
148.2906995029697
 20
108.8377972129653
 10
148.2948270028644
 20
106.0158925627362
 10
148.2948270028644
 20
106.0158925627362
 97
        0
 75
     2
 76
     1
 98
        0
  0
SPLINE
  5
100
330
F8
100
AcDbEntity
  8
_U+30EC_U+30A4_U+30E4_U+30FC 1
370
     0
100
AcDbSpline
210
0.0
220
0.0
230
1.0
 70
    11
 71
     3
 72
    65
 73
    61
 74
     0
 42
0.0000000001
 43
0.0000000001
 12
1.0
 22
0.0
 32
0.0
 13
1.0
 23
0.0
 33
0.0
 40
0.0
 40
0.0
 40
0.0
 40
0.0
 40
1.0
 40
1.0
 40
1.0
 40
2.0
 40
2.0
 40
2.0
 40
3.0
 40
3.0
 40
3.0
 40
4.0
 40
4.0
 40
4.0
 40
5.0
 40
5.0
 40
5.0
 40
6.0
 40
6.0
 40
6.0
 40
7.0
 40
7.0
 40
7.0
 40
8.0
 40
8.0
 40
8.0
 40
9.0
 40
9.0
 40
9.0
 40
10.0
 40
10.0
 40
10.0
 40
11.0
 40
11.0
 40
11.0
 40
12.0
 40
12.0
 40
12.0
 40
13.0
 40
13.0
 40
13.0
 40
14.0
 40
14.0
 40
14.0
 40
15.0
 40
15.0
 40
15.0
 40
16.0
 40
16.0
 40
16.0
 40
17.0
 40
17.0
 40
17.0
 40
18.0
 40
18.0
 40
18.0
 40
19.0
 40
19.0
 40
19.0
 40
20.0
 40
20.0
 40
20.0
 40
20.0
 10
148.783000879299
 20
105.8670908998655
 30
0.0
 10
148.7371750471351
 20
105.8725942330584
 30
0.0
 10
148.6999569925287
 20
105.9139397875591
 30
0.0
 10
148.7003097702975
 20
105.960435897484
 30
0.0
 10
148.7003097702975
 20
105.960435897484
 30
0.0
 10
148.6985811592305
 20
106.7927797651381
 30
0.0
 10
148.6985811592305
 20
106.7927797651381
 30
0.0
 10
148.6985811592305
 20
106.8396286528317
 30
0.0
 10
148.7354464360677
 20
106.8751180963708
 30
0.0
 10
148.7812722682319
 20
106.8696147631778
 30
0.0
 10
148.7812722682319
 20
106.8696147631778
 30
0.0
 10
150.7356611072602
 20
106.6325833803361
 30
0.0
 10
150.7356611072602
 20
106.6325833803361
 30
0.0
 10
150.9006944067193
 20
106.6125808808464
 30
0.0
 10
151.0343580440843
 20
106.734218655521
 30
0.0
 10
151.0343580440843
 20
106.9030228178811
 30
0.0
 10
151.0343580440843
 20
107.0697481078901
 30
0.0
 10
150.9003416289422
 20
107.2237683652541
 30
0.0
 10
150.7353436072683
 20
107.2433828091978
 30
0.0
 10
150.7353436072683
 20
107.2433828091978
 30
0.0
 10
149.8685333516047
 20
107.3725700281242
 30
0.0
 10
149.8685333516047
 20
107.3725700281242
 30
0.0
 10
149.1623075362887
 20
107.4583655814909
 30
0.0
 10
148.5886908842562
 20
108.1050072316604
 30
0.0
 10
148.5880206064955
 20
108.817124435715
 30
0.0
 10
148.5862919954285
 20
109.5288888620008
 30
0.0
 10
149.1584975363859
 20
110.0373827379169
 30
0.0
 10
149.8647586294788
 20
109.9519425516137
 30
0.0
 10
149.8647586294788
 20
109.9519425516137
 30
0.0
 10
151.8325883014975
 20
109.7135327461793
 30
0.0
 10
151.8325883014975
 20
109.7135327461793
 30
0.0
 10
151.8794371891912
 20
109.7076766352173
 30
0.0
 10
151.9159496882597
 20
109.6659783029478
 30
0.0
 10
151.9163024660284
 20
109.6198349707917
 30
0.0
 10
151.9163024660284
 20
109.6198349707917
 30
0.0
 10
151.9176782993267
 20
108.7964516584646
 30
0.0
 10
151.9176782993267
 20
108.7964516584646
 30
0.0
 10
151.9173607993348
 20
108.7485444374646
 30
0.0
 10
151.8808130224894
 20
108.7130902717024
 30
0.0
 10
151.8346696903333
 20
108.7189463826641
 30
0.0
 10
151.8346696903333
 20
108.7189463826641
 30
0.0
 10
149.9873841819059
 20
108.9425016547385
 30
0.0
 10
149.9873841819059
 20
108.9425016547385
 30
0.0
 10
149.8230602972093
 20
108.9621513764594
 30
0.0
 10
149.68836974509
 20
108.8409016573306
 30
0.0
 10
149.6890400228506
 20
108.6737908282606
 30
0.0
 10
149.6890400228506
 20
108.505692221438
 30
0.0
 10
149.8241186305156
 20
108.3541036141943
 30
0.0
 10
149.9884425152122
 20
108.3341036631295
 30
0.0
 10
149.9884425152122
 20
108.3341036631295
 30
0.0
 10
150.8659066594929
 20
108.2007863958835
 30
0.0
 10
150.8659066594929
 20
108.2007863958835
 30
0.0
 10
151.571814974817
 20
108.1149908425168
 30
0.0
 10
152.1467721823709
 20
107.4673286633461
 30
0.0
 10
152.1485007934379
 20
106.7552089327632
 30
0.0
 10
152.1485007934379
 20
106.041400885925
 30
0.0
 10
151.5762952524805
 20
105.5287770196077
 30
0.0
 10
150.8700341593876
 20
105.6142197952056
 30
0.0
 10
150.8700341593876
 20
105.6142197952056
 30
0.0
 10
148.783000879299
 20
105.8670908998655
 30
0.0
 10
148.783000879299
 20
105.8670908998655
 30
0.0
  0
HATCH
  5
101
330
F8
100
AcDbEntity
  8
_U+30EC_U+30A4_U+30E4_U+30FC 1
 62
     7
100
AcDbHatch
 10
0.0
 20
0.0
 30
0.0
210
0.0
220
0.0
230
1.0
  2
SOLID
 70
     1
 71
     0
 91
        1
 92
        1
 93
        1
 72
     4
 94
        3
 73
     0
 74
     1
 95
       65
 96
       61
 40
0.0
 40
0.0
 40
0.0
 40
0.0
 40
1.0
 40
1.0
 40
1.0
 40
2.0
 40
2.0
 40
2.0
 40
3.0
 40
3.0
 40
3.0
 40
4.0
 40
4.0
 40
4.0
 40
5.0
 40
5.0
 40
5.0
 40
6.0
 40
6.0
 40
6.0
 40
7.0
 40
7.0
 40
7.0
 40
8.0
 40
8.0
 40
8.0
 40
9.0
 40
9.0
 40
9.0
 40
10.0
 40
10.0
 40
10.0
 40
11.0
 40
11.0
 40
11.0
 40
12.0
 40
12.0
 40
12.0
 40
13.0
 40
13.0
 40
13.0
 40
14.0
 40
14.0
 40
14.0
 40
15.0
 40
15.0
 40
15.0
 40
16.0
 40
16.0
 40
16.0
 40
17.0
 40
17.0
 40
17.0
 40
18.0
 40
18.0
 40
18.0
 40
19.0
 40
19.0
 40
19.0
 40
20.0
 40
20.0
 40
20.0
 40
20.0
 10
148.783000879299
 20
105.8670908998655
 10
148.7371750471351
 20
105.8725942330584
 10
148.6999569925287
 20
105.9139397875591
 10
148.7003097702975
 20
105.960435897484
 10
148.7003097702975
 20
105.960435897484
 10
148.6985811592305
 20
106.7927797651381
 10
148.6985811592305
 20
106.7927797651381
 10
148.6985811592305
 20
106.8396286528317
 10
148.7354464360677
 20
106.8751180963708
 10
148.7812722682319
 20
106.8696147631778
 10
148.7812722682319
 20
106.8696147631778
 10
150.7356611072602
 20
106.6325833803361
 10
150.7356611072602
 20
106.6325833803361
 10
150.9006944067193
 20
106.6125808808464
 10
151.0343580440843
 20
106.734218655521
 10
151.0343580440843
 20
106.9030228178811
 10
151.0343580440843
 20
107.0697481078901
 10
150.9003416289422
 20
107.2237683652541
 10
150.7353436072683
 20
107.2433828091978
 10
150.7353436072683
 20
107.2433828091978
 10
149.8685333516047
 20
107.3725700281242
 10
149.8685333516047
 20
107.3725700281242
 10
149.1623075362887
 20
107.4583655814909
 10
148.5886908842562
 20
108.1050072316604
 10
148.5880206064955
 20
108.817124435715
 10
148.5862919954285
 20
109.5288888620008
 10
149.1584975363859
 20
110.0373827379169
 10
149.8647586294788
 20
109.9519425516137
 10
149.8647586294788
 20
109.9519425516137
 10
151.8325883014975
 20
109.7135327461793
 10
151.8325883014975
 20
109.7135327461793
 10
151.8794371891912
 20
109.7076766352173
 10
151.9159496882597
 20
109.6659783029478
 10
151.9163024660284
 20
109.6198349707917
 10
151.9163024660284
 20
109.6198349707917
 10
151.9176782993267
 20
108.7964516584646
 10
151.9176782993267
 20
108.7964516584646
 10
151.9173607993348
 20
108.7485444374646
 10
151.8808130224894
 20
108.7130902717024
 10
151.8346696903333
 20
108.7189463826641
 10
151.8346696903333
 20
108.7189463826641
 10
149.9873841819059
 20
108.9425016547385
 10
149.9873841819059
 20
108.9425016547385
 10
149.8230602972093
 20
108.9621513764594
 10
149.68836974509
 20
108.8409016573306
 10
149.6890400228506
 20
108.6737908282606
 10
149.6890400228506
 20
108.505692221438
 10
149.8241186305156
 20
108.3541036141943
 10
149.9884425152122
 20
108.3341036631295
 10
149.9884425152122
 20
108.3341036631295
 10
150.8659066594929
 20
108.2007863958835
 10
150.8659066594929
 20
108.2007863958835
 10
151.571814974817
 20
108.1149908425168
 10
152.1467721823709
 20
107.4673286633461
 10
152.1485007934379
 20
106.7552089327632
 10
152.1485007934379
 20
106.041400885925
 10
151.5762952524805
 20
105.5287770196077
 10
150.8700341593876
 20
105.6142197952056
 10
150.8700341593876
 20
105.6142197952056
 10
148.783000879299
 20
105.8670908998655
 10
148.783000879299
 20
105.8670908998655
 97
        0
 75
     2
 76
     1
 98
        0
  0
SPLINE
  5
102
330
F8
100
AcDbEntity
  8
_U+30EC_U+30A4_U+30E4_U+30FC 1
370
     0
100
AcDbSpline
210
0.0
220
0.0
230
1.0
 70
    11
 71
     3
 72
    65
 73
    61
 74
     0
 42
0.0000000001
 43
0.0000000001
 12
1.0
 22
0.0
 32
0.0
 13
1.0
 23
0.0
 33
0.0
 40
0.0
 40
0.0
 40
0.0
 40
0.0
 40
1.0
 40
1.0
 40
1.0
 40
2.0
 40
2.0
 40
2.0
 40
3.0
 40
3.0
 40
3.0
 40
4.0
 40
4.0
 40
4.0
 40
5.0
 40
5.0
 40
5.0
 40
6.0
 40
6.0
 40
6.0
 40
7.0
 40
7.0
 40
7.0
 40
8.0
 40
8.0
 40
8.0
 40
9.0
 40
9.0
 40
9.0
 40
10.0
 40
10.0
 40
10.0
 40
11.0
 40
11.0
 40
11.0
 40
12.0
 40
12.0
 40
12.0
 40
13.0
 40
13.0
 40
13.0
 40
14.0
 40
14.0
 40
14.0
 40
15.0
 40
15.0
 40
15.0
 40
16.0
 40
16.0
 40
16.0
 40
17.0
 40
17.0
 40
17.0
 40
18.0
 40
18.0
 40
18.0
 40
19.0
 40
19.0
 40
19.0
 40
20.0
 40
20.0
 40
20.0
 40
20.0
 10
155.7834170895923
 20
109.2384469249661
 30
0.0
 10
155.7834170895923
 20
109.2384469249661
 30
0.0
 10
154.8594568353868
 20
109.3504185887762
 30
0.0
 10
154.8594568353868
 20
109.3504185887762
 30
0.0
 10
154.8136310032225
 20
109.3562746997379
 30
0.0
 10
154.7171815612387
 20
109.329393033757
 30
0.0
 10
154.7168287834699
 20
109.2832497016009
 30
0.0
 10
154.7168287834699
 20
109.2832497016009
 30
0.0
 10
154.7189101723057
 20
107.7650000181124
 30
0.0
 10
154.7189101723057
 20
107.7650000181124
 30
0.0
 10
154.7189101723057
 20
107.7650000181124
 30
0.0
 10
153.5616971838323
 20
107.9051939034247
 30
0.0
 10
153.5616971838323
 20
107.9051939034247
 30
0.0
 10
153.5616971838323
 20
107.9051939034247
 30
0.0
 10
153.5592590907798
 20
109.4234435869131
 30
0.0
 10
153.5592590907798
 20
109.4234435869131
 30
0.0
 10
153.5596118685486
 20
109.4696221968461
 30
0.0
 10
153.5210532584212
 20
109.5130138624061
 30
0.0
 10
153.4758977040176
 20
109.5185524733756
 30
0.0
 10
153.4758977040176
 20
109.5185524733756
 30
0.0
 10
152.4920005068967
 20
109.6374033036768
 30
0.0
 10
152.4920005068967
 20
109.6374033036768
 30
0.0
 10
152.4461746747325
 20
109.6432619961353
 30
0.0
 10
152.4086038423577
 20
109.6094985821665
 30
0.0
 10
152.4086038423577
 20
109.5633199722335
 30
0.0
 10
152.4086038423577
 20
109.5633199722335
 30
0.0
 10
152.4144638507857
 20
105.5167120199155
 30
0.0
 10
152.4144638507857
 20
105.5167120199155
 30
0.0
 10
152.4148166285634
 20
105.4684897749572
 30
0.0
 10
152.4527010634549
 20
105.4261186888934
 30
0.0
 10
152.4988796733879
 20
105.4205800779236
 30
0.0
 10
152.4988796733879
 20
105.4205800779236
 30
0.0
 10
153.4824593705169
 20
105.3014117476305
 30
0.0
 10
153.4824593705169
 20
105.3014117476305
 30
0.0
 10
153.5279324249123
 20
105.295873136661
 30
0.0
 10
153.5651504795184
 20
105.3286109136032
 30
0.0
 10
153.5654679795103
 20
105.3768356345951
 30
0.0
 10
153.5654679795103
 20
105.3768356345951
 30
0.0
 10
153.5630690906826
 20
106.9040458734105
 30
0.0
 10
153.5630690906826
 20
106.9040458734105
 30
0.0
 10
153.5630690906826
 20
106.9040458734105
 30
0.0
 10
154.7206035055959
 20
106.7634992103295
 30
0.0
 10
154.7206035055959
 20
106.7634992103295
 30
0.0
 10
154.7206035055959
 20
106.7634992103295
 30
0.0
 10
154.7230416279862
 20
105.2366417492829
 30
0.0
 10
154.7230416279862
 20
105.2366417492829
 30
0.0
 10
154.7226888502085
 20
105.1883842194717
 30
0.0
 10
154.7609260045672
 20
105.1467186960215
 30
0.0
 10
154.8063990589626
 20
105.1408625850598
 30
0.0
 10
154.8063990589626
 20
105.1408625850598
 30
0.0
 10
155.789273200554
 20
105.0216589769898
 30
0.0
 10
155.789273200554
 20
105.0216589769898
 30
0.0
 10
155.8354518104871
 20
105.0161556437968
 30
0.0
 10
155.8726698650931
 20
105.0492109207313
 30
0.0
 10
155.872987365085
 20
105.0971181417313
 30
0.0
 10
155.872987365085
 20
105.0971181417313
 30
0.0
 10
155.8668137541314
 20
109.1437286629271
 30
0.0
 10
155.8668137541314
 20
109.1437286629271
 30
0.0
 10
155.8671312541233
 20
109.1902222039742
 30
0.0
 10
155.8295956995253
 20
109.2329435917732
 30
0.0
 10
155.7834170895923
 20
109.2384469249661
 30
0.0
  0
HATCH
  5
103
330
F8
100
AcDbEntity
  8
_U+30EC_U+30A4_U+30E4_U+30FC 1
 62
     7
100
AcDbHatch
 10
0.0
 20
0.0
 30
0.0
210
0.0
220
0.0
230
1.0
  2
SOLID
 70
     1
 71
     0
 91
        1
 92
        1
 93
        1
 72
     4
 94
        3
 73
     0
 74
     1
 95
       65
 96
       61
 40
0.0
 40
0.0
 40
0.0
 40
0.0
 40
1.0
 40
1.0
 40
1.0
 40
2.0
 40
2.0
 40
2.0
 40
3.0
 40
3.0
 40
3.0
 40
4.0
 40
4.0
 40
4.0
 40
5.0
 40
5.0
 40
5.0
 40
6.0
 40
6.0
 40
6.0
 40
7.0
 40
7.0
 40
7.0
 40
8.0
 40
8.0
 40
8.0
 40
9.0
 40
9.0
 40
9.0
 40
10.0
 40
10.0
 40
10.0
 40
11.0
 40
11.0
 40
11.0
 40
12.0
 40
12.0
 40
12.0
 40
13.0
 40
13.0
 40
13.0
 40
14.0
 40
14.0
 40
14.0
 40
15.0
 40
15.0
 40
15.0
 40
16.0
 40
16.0
 40
16.0
 40
17.0
 40
17.0
 40
17.0
 40
18.0
 40
18.0
 40
18.0
 40
19.0
 40
19.0
 40
19.0
 40
20.0
 40
20.0
 40
20.0
 40
20.0
 10
155.7834170895923
 20
109.2384469249661
 10
155.7834170895923
 20
109.2384469249661
 10
154.8594568353868
 20
109.3504185887762
 10
154.8594568353868
 20
109.3504185887762
 10
154.8136310032225
 20
109.3562746997379
 10
154.7171815612387
 20
109.329393033757
 10
154.7168287834699
 20
109.2832497016009
 10
154.7168287834699
 20
109.2832497016009
 10
154.7189101723057
 20
107.7650000181124
 10
154.7189101723057
 20
107.7650000181124
 10
154.7189101723057
 20
107.7650000181124
 10
153.5616971838323
 20
107.9051939034247
 10
153.5616971838323
 20
107.9051939034247
 10
153.5616971838323
 20
107.9051939034247
 10
153.5592590907798
 20
109.4234435869131
 10
153.5592590907798
 20
109.4234435869131
 10
153.5596118685486
 20
109.4696221968461
 10
153.5210532584212
 20
109.5130138624061
 10
153.4758977040176
 20
109.5185524733756
 10
153.4758977040176
 20
109.5185524733756
 10
152.4920005068967
 20
109.6374033036768
 10
152.4920005068967
 20
109.6374033036768
 10
152.4461746747325
 20
109.6432619961353
 10
152.4086038423577
 20
109.6094985821665
 10
152.4086038423577
 20
109.5633199722335
 10
152.4086038423577
 20
109.5633199722335
 10
152.4144638507857
 20
105.5167120199155
 10
152.4144638507857
 20
105.5167120199155
 10
152.4148166285634
 20
105.4684897749572
 10
152.4527010634549
 20
105.4261186888934
 10
152.4988796733879
 20
105.4205800779236
 10
152.4988796733879
 20
105.4205800779236
 10
153.4824593705169
 20
105.3014117476305
 10
153.4824593705169
 20
105.3014117476305
 10
153.5279324249123
 20
105.295873136661
 10
153.5651504795184
 20
105.3286109136032
 10
153.5654679795103
 20
105.3768356345951
 10
153.5654679795103
 20
105.3768356345951
 10
153.5630690906826
 20
106.9040458734105
 10
153.5630690906826
 20
106.9040458734105
 10
153.5630690906826
 20
106.9040458734105
 10
154.7206035055959
 20
106.7634992103295
 10
154.7206035055959
 20
106.7634992103295
 10
154.7206035055959
 20
106.7634992103295
 10
154.7230416279862
 20
105.2366417492829
 10
154.7230416279862
 20
105.2366417492829
 10
154.7226888502085
 20
105.1883842194717
 10
154.7609260045672
 20
105.1467186960215
 10
154.8063990589626
 20
105.1408625850598
 10
154.8063990589626
 20
105.1408625850598
 10
155.789273200554
 20
105.0216589769898
 10
155.789273200554
 20
105.0216589769898
 10
155.8354518104871
 20
105.0161556437968
 10
155.8726698650931
 20
105.0492109207313
 10
155.872987365085
 20
105.0971181417313
 10
155.872987365085
 20
105.0971181417313
 10
155.8668137541314
 20
109.1437286629271
 10
155.8668137541314
 20
109.1437286629271
 10
155.8671312541233
 20
109.1902222039742
 10
155.8295956995253
 20
109.2329435917732
 10
155.7834170895923
 20
109.2384469249661
 97
        0
 75
     2
 76
     1
 98
        0
  0
SPLINE
  5
104
330
F8
100
AcDbEntity
  8
_U+30EC_U+30A4_U+30E4_U+30FC 1
370
     0
100
AcDbSpline
210
0.0
220
0.0
230
1.0
 70
    11
 71
     3
 72
    29
 73
    25
 74
     0
 42
0.0000000001
 43
0.0000000001
 12
1.0
 22
0.0
 32
0.0
 13
1.0
 23
0.0
 33
0.0
 40
0.0
 40
0.0
 40
0.0
 40
0.0
 40
1.0
 40
1.0
 40
1.0
 40
2.0
 40
2.0
 40
2.0
 40
3.0
 40
3.0
 40
3.0
 40
4.0
 40
4.0
 40
4.0
 40
5.0
 40
5.0
 40
5.0
 40
6.0
 40
6.0
 40
6.0
 40
7.0
 40
7.0
 40
7.0
 40
8.0
 40
8.0
 40
8.0
 40
8.0
 10
158.9208814539934
 20
108.8587874902076
 30
0.0
 10
158.9208814539934
 20
108.8587874902076
 30
0.0
 10
157.3781489933518
 20
109.0458655409904
 30
0.0
 10
157.3781489933518
 20
109.0458655409904
 30
0.0
 10
156.7273798432876
 20
109.1244291500972
 30
0.0
 10
156.1992362456506
 20
108.6524477732495
 30
0.0
 10
156.1995890234193
 20
107.9913422345602
 30
0.0
 10
156.1995890234193
 20
107.9913422345602
 30
0.0
 10
156.2023406900158
 20
106.1726670031807
 30
0.0
 10
156.2023406900158
 20
106.1726670031807
 30
0.0
 10
156.2033990233222
 20
105.5115614644913
 30
0.0
 10
156.7332359542493
 20
104.9114159242468
 30
0.0
 10
157.3843578820823
 20
104.83285231514
 30
0.0
 10
157.3843578820823
 20
104.83285231514
 30
0.0
 10
158.9270944047128
 20
104.645811997385
 30
0.0
 10
158.9270944047128
 20
104.645811997385
 30
0.0
 10
159.5785297705487
 20
104.5665403774897
 30
0.0
 10
160.1052975348875
 20
105.0385217543374
 30
0.0
 10
160.1039217015893
 20
105.6996625708036
 30
0.0
 10
160.1039217015893
 20
105.6996625708036
 30
0.0
 10
160.1015228127616
 20
107.5179850244143
 30
0.0
 10
160.1015228127616
 20
107.5179850244143
 30
0.0
 10
160.1008172572241
 20
108.1797608408643
 30
0.0
 10
159.5716506040576
 20
108.7795536033401
 30
0.0
 10
158.9208814539934
 20
108.8587874902076
 30
0.0
  0
SPLINE
  5
105
330
F8
100
AcDbEntity
  8
_U+30EC_U+30A4_U+30E4_U+30FC 1
370
     0
100
AcDbSpline
210
0.0
220
0.0
230
1.0
 70
    11
 71
     3
 72
    29
 73
    25
 74
     0
 42
0.0000000001
 43
0.0000000001
 12
1.0
 22
0.0
 32
0.0
 13
1.0
 23
0.0
 33
0.0
 40
0.0
 40
0.0
 40
0.0
 40
0.0
 40
1.0
 40
1.0
 40
1.0
 40
2.0
 40
2.0
 40
2.0
 40
3.0
 40
3.0
 40
3.0
 40
4.0
 40
4.0
 40
4.0
 40
5.0
 40
5.0
 40
5.0
 40
6.0
 40
6.0
 40
6.0
 40
7.0
 40
7.0
 40
7.0
 40
8.0
 40
8.0
 40
8.0
 40
8.0
 10
158.951890619869
 20
106.0748064501218
 30
0.0
 10
158.951890619869
 20
105.8391861783551
 30
0.0
 10
158.7637895135567
 20
105.6710522937557
 30
0.0
 10
158.5312384083785
 20
105.698957015266
 30
0.0
 10
158.5312384083785
 20
105.698957015266
 30
0.0
 10
157.7757295387642
 20
105.7906086795945
 30
0.0
 10
157.7757295387642
 20
105.7906086795945
 30
0.0
 10
157.5435312113547
 20
105.8191836788655
 30
0.0
 10
157.3550773272737
 20
106.0327906178603
 30
0.0
 10
157.3550773272737
 20
106.2684461674038
 30
0.0
 10
157.3550773272737
 20
106.2684461674038
 30
0.0
 10
157.3523256606773
 20
107.6161630774651
 30
0.0
 10
157.3523256606773
 20
107.6161630774651
 30
0.0
 10
157.352678438446
 20
107.8517833492317
 30
0.0
 10
157.5400739892207
 20
108.0192469560705
 30
0.0
 10
157.7729778721678
 20
107.9913422345602
 30
0.0
 10
157.7729778721678
 20
107.9913422345602
 30
0.0
 10
158.528486741782
 20
107.8996905702318
 30
0.0
 10
158.528486741782
 20
107.8996905702318
 30
0.0
 10
158.7603322914227
 20
107.8717858487218
 30
0.0
 10
158.9494564532644
 20
107.6578286632988
 30
0.0
 10
158.9498092310332
 20
107.4225258855797
 30
0.0
 10
158.9498092310332
 20
107.4225258855797
 30
0.0
 10
158.951890619869
 20
106.0748064501218
 30
0.0
 10
158.951890619869
 20
106.0748064501218
 30
0.0
  0
HATCH
  5
106
330
F8
100
AcDbEntity
  8
_U+30EC_U+30A4_U+30E4_U+30FC 1
 62
     7
100
AcDbHatch
 10
0.0
 20
0.0
 30
0.0
210
0.0
220
0.0
230
1.0
  2
SOLID
 70
     1
 71
     0
 91
        2
 92
        1
 93
        1
 72
     4
 94
        3
 73
     0
 74
     1
 95
       29
 96
       25
 40
0.0
 40
0.0
 40
0.0
 40
0.0
 40
1.0
 40
1.0
 40
1.0
 40
2.0
 40
2.0
 40
2.0
 40
3.0
 40
3.0
 40
3.0
 40
4.0
 40
4.0
 40
4.0
 40
5.0
 40
5.0
 40
5.0
 40
6.0
 40
6.0
 40
6.0
 40
7.0
 40
7.0
 40
7.0
 40
8.0
 40
8.0
 40
8.0
 40
8.0
 10
158.951890619869
 20
106.0748064501218
 10
158.951890619869
 20
105.8391861783551
 10
158.7637895135567
 20
105.6710522937557
 10
158.5312384083785
 20
105.698957015266
 10
158.5312384083785
 20
105.698957015266
 10
157.7757295387642
 20
105.7906086795945
 10
157.7757295387642
 20
105.7906086795945
 10
157.5435312113547
 20
105.8191836788655
 10
157.3550773272737
 20
106.0327906178603
 10
157.3550773272737
 20
106.2684461674038
 10
157.3550773272737
 20
106.2684461674038
 10
157.3523256606773
 20
107.6161630774651
 10
157.3523256606773
 20
107.6161630774651
 10
157.352678438446
 20
107.8517833492317
 10
157.5400739892207
 20
108.0192469560705
 10
157.7729778721678
 20
107.9913422345602
 10
157.7729778721678
 20
107.9913422345602
 10
158.528486741782
 20
107.8996905702318
 10
158.528486741782
 20
107.8996905702318
 10
158.7603322914227
 20
107.8717858487218
 10
158.9494564532644
 20
107.6578286632988
 10
158.9498092310332
 20
107.4225258855797
 10
158.9498092310332
 20
107.4225258855797
 10
158.951890619869
 20
106.0748064501218
 10
158.951890619869
 20
106.0748064501218
 97
        0
 92
        1
 93
        2
 72
     4
 94
        3
 73
     0
 74
     0
 95
       29
 96
       25
 40
0.0
 40
0.0
 40
0.0
 40
0.0
 40
0.3527777776895833
 40
0.3527777776895833
 40
0.3527777776895833
 40
0.7055555553791667
 40
0.7055555553791667
 40
0.7055555553791667
 40
1.05833333306875
 40
1.05833333306875
 40
1.05833333306875
 40
1.411111110758333
 40
1.411111110758333
 40
1.411111110758333
 40
1.763888888447917
 40
1.763888888447917
 40
1.763888888447917
 40
2.1166666661375
 40
2.1166666661375
 40
2.1166666661375
 40
2.469444443827083
 40
2.469444443827083
 40
2.469444443827083
 40
2.822222221516667
 40
2.822222221516667
 40
2.822222221516667
 40
2.822222221516667
 10
158.9208814539934
 20
108.8587874902076
 10
158.9208814539934
 20
108.8587874902076
 10
157.3781489933518
 20
109.0458655409904
 10
157.3781489933518
 20
109.0458655409904
 10
156.7273798432876
 20
109.1244291500972
 10
156.1992362456506
 20
108.6524477732495
 10
156.1995890234193
 20
107.9913422345602
 10
156.1995890234193
 20
107.9913422345602
 10
156.2023406900158
 20
106.1726670031807
 10
156.2023406900158
 20
106.1726670031807
 10
156.2033990233222
 20
105.5115614644913
 10
156.7332359542493
 20
104.9114159242468
 10
157.3843578820823
 20
104.83285231514
 10
157.3843578820823
 20
104.83285231514
 10
158.9270944047128
 20
104.645811997385
 10
158.9270944047128
 20
104.645811997385
 10
159.5785297705487
 20
104.5665403774897
 10
160.1052975348875
 20
105.0385217543374
 10
160.1039217015893
 20
105.6996625708036
 10
160.1039217015893
 20
105.6996625708036
 10
160.1015228127616
 20
107.5179850244143
 10
160.1015228127616
 20
107.5179850244143
 10
160.1008172572241
 20
108.1797608408643
 10
159.5716506040576
 20
108.7795536033401
 10
158.9208814539934
 20
108.8587874902076
 72
     1
 10
158.9208814539934
 20
108.8587874902076
 11
158.9208814539934
 21
108.8587874902076
 97
        0
 75
     2
 76
     1
 98
        0
  0
SPLINE
  5
107
330
F8
100
AcDbEntity
  8
_U+30EC_U+30A4_U+30E4_U+30FC 1
370
     0
100
AcDbSpline
210
0.0
220
0.0
230
1.0
 70
    11
 71
     3
 72
    47
 73
    43
 74
     0
 42
0.0000000001
 43
0.0000000001
 12
1.0
 22
0.0
 32
0.0
 13
1.0
 23
0.0
 33
0.0
 40
0.0
 40
0.0
 40
0.0
 40
0.0
 40
1.0
 40
1.0
 40
1.0
 40
2.0
 40
2.0
 40
2.0
 40
3.0
 40
3.0
 40
3.0
 40
4.0
 40
4.0
 40
4.0
 40
5.0
 40
5.0
 40
5.0
 40
6.0
 40
6.0
 40
6.0
 40
7.0
 40
7.0
 40
7.0
 40
8.0
 40
8.0
 40
8.0
 40
9.0
 40
9.0
 40
9.0
 40
10.0
 40
10.0
 40
10.0
 40
11.0
 40
11.0
 40
11.0
 40
12.0
 40
12.0
 40
12.0
 40
13.0
 40
13.0
 40
13.0
 40
14.0
 40
14.0
 40
14.0
 40
14.0
 10
138.0089914319446
 20
113.0177198841044
 30
0.0
 10
138.0089914319446
 20
113.0177198841044
 30
0.0
 10
133.5129446022039
 20
113.562726259089
 30
0.0
 10
133.5129446022039
 20
113.562726259089
 30
0.0
 10
133.4715990477031
 20
113.5677357034056
 30
0.0
 10
133.4380146041155
 20
113.5377495930599
 30
0.0
 10
133.4380146041155
 20
113.4953809830297
 30
0.0
 10
133.4380146041155
 20
113.4953809830297
 30
0.0
 10
133.4395668262981
 20
112.4873564398687
 30
0.0
 10
133.4395668262981
 20
112.4873564398687
 30
0.0
 10
133.4395668262981
 20
112.4446323987251
 30
0.0
 10
133.4735040476545
 20
112.4060385108208
 30
0.0
 10
133.5146732132709
 20
112.4013818442729
 30
0.0
 10
133.5146732132709
 20
112.4013818442729
 30
0.0
 10
135.0973401173381
 20
112.2093296269504
 30
0.0
 10
135.0973401173381
 20
112.2093296269504
 30
0.0
 10
135.0973401173381
 20
112.2093296269504
 30
0.0
 10
135.1042545616062
 20
107.6154575219276
 30
0.0
 10
135.1042545616062
 20
107.6154575219276
 30
0.0
 10
135.1044309504906
 20
107.5672328009357
 30
0.0
 10
135.1412962273278
 20
107.5255369966652
 30
0.0
 10
135.1879721884256
 20
107.5196783577044
 30
0.0
 10
135.1879721884256
 20
107.5196783577044
 30
0.0
 10
136.3511828631277
 20
107.3787814411459
 30
0.0
 10
136.3511828631277
 20
107.3787814411459
 30
0.0
 10
136.3980670285983
 20
107.3729228058929
 30
0.0
 10
136.4340503610136
 20
107.4060133606043
 30
0.0
 10
136.4338739721292
 20
107.4542380815962
 30
0.0
 10
136.4338739721292
 20
107.4542380815962
 30
0.0
 10
136.426994805638
 20
112.048110186619
 30
0.0
 10
136.426994805638
 20
112.048110186619
 30
0.0
 10
136.426994805638
 20
112.048110186619
 30
0.0
 10
138.0108611541191
 20
111.8560226915195
 30
0.0
 10
138.0108611541191
 20
111.8560226915195
 30
0.0
 10
138.0525594863886
 20
111.8512249138642
 30
0.0
 10
138.0851208744468
 20
111.8815285242022
 30
0.0
 10
138.0851208744468
 20
111.9242499120011
 30
0.0
 10
138.0851208744468
 20
111.9242499120011
 30
0.0
 10
138.0835721877012
 20
112.9321007196224
 30
0.0
 10
138.0835721877012
 20
112.9321007196224
 30
0.0
 10
138.0835721877012
 20
112.9744693296523
 30
0.0
 10
138.0508308753217
 20
113.0123929397958
 30
0.0
 10
138.0089914319446
 20
113.0177198841044
 30
0.0
  0
HATCH
  5
108
330
F8
100
AcDbEntity
  8
_U+30EC_U+30A4_U+30E4_U+30FC 1
 62
     7
100
AcDbHatch
 10
0.0
 20
0.0
 30
0.0
210
0.0
220
0.0
230
1.0
  2
SOLID
 70
     1
 71
     0
 91
        1
 92
        1
 93
        1
 72
     4
 94
        3
 73
     0
 74
     1
 95
       47
 96
       43
 40
0.0
 40
0.0
 40
0.0
 40
0.0
 40
1.0
 40
1.0
 40
1.0
 40
2.0
 40
2.0
 40
2.0
 40
3.0
 40
3.0
 40
3.0
 40
4.0
 40
4.0
 40
4.0
 40
5.0
 40
5.0
 40
5.0
 40
6.0
 40
6.0
 40
6.0
 40
7.0
 40
7.0
 40
7.0
 40
8.0
 40
8.0
 40
8.0
 40
9.0
 40
9.0
 40
9.0
 40
10.0
 40
10.0
 40
10.0
 40
11.0
 40
11.0
 40
11.0
 40
12.0
 40
12.0
 40
12.0
 40
13.0
 40
13.0
 40
13.0
 40
14.0
 40
14.0
 40
14.0
 40
14.0
 10
138.0089914319446
 20
113.0177198841044
 10
138.0089914319446
 20
113.0177198841044
 10
133.5129446022039
 20
113.562726259089
 10
133.5129446022039
 20
113.562726259089
 10
133.4715990477031
 20
113.5677357034056
 10
133.4380146041155
 20
113.5377495930599
 10
133.4380146041155
 20
113.4953809830297
 10
133.4380146041155
 20
113.4953809830297
 10
133.4395668262981
 20
112.4873564398687
 10
133.4395668262981
 20
112.4873564398687
 10
133.4395668262981
 20
112.4446323987251
 10
133.4735040476545
 20
112.4060385108208
 10
133.5146732132709
 20
112.4013818442729
 10
133.5146732132709
 20
112.4013818442729
 10
135.0973401173381
 20
112.2093296269504
 10
135.0973401173381
 20
112.2093296269504
 10
135.0973401173381
 20
112.2093296269504
 10
135.1042545616062
 20
107.6154575219276
 10
135.1042545616062
 20
107.6154575219276
 10
135.1044309504906
 20
107.5672328009357
 10
135.1412962273278
 20
107.5255369966652
 10
135.1879721884256
 20
107.5196783577044
 10
135.1879721884256
 20
107.5196783577044
 10
136.3511828631277
 20
107.3787814411459
 10
136.3511828631277
 20
107.3787814411459
 10
136.3980670285983
 20
107.3729228058929
 10
136.4340503610136
 20
107.4060133606043
 10
136.4338739721292
 20
107.4542380815962
 10
136.4338739721292
 20
107.4542380815962
 10
136.426994805638
 20
112.048110186619
 10
136.426994805638
 20
112.048110186619
 10
136.426994805638
 20
112.048110186619
 10
138.0108611541191
 20
111.8560226915195
 10
138.0108611541191
 20
111.8560226915195
 10
138.0525594863886
 20
111.8512249138642
 10
138.0851208744468
 20
111.8815285242022
 10
138.0851208744468
 20
111.9242499120011
 10
138.0851208744468
 20
111.9242499120011
 10
138.0835721877012
 20
112.9321007196224
 10
138.0835721877012
 20
112.9321007196224
 10
138.0835721877012
 20
112.9744693296523
 10
138.0508308753217
 20
113.0123929397958
 10
138.0089914319446
 20
113.0177198841044
 97
        0
 75
     2
 76
     1
 98
        0
  0
SPLINE
  5
109
330
F8
100
AcDbEntity
  8
_U+30EC_U+30A4_U+30E4_U+30FC 1
370
     0
100
AcDbSpline
210
0.0
220
0.0
230
1.0
 70
    11
 71
     3
 72
    29
 73
    25
 74
     0
 42
0.0000000001
 43
0.0000000001
 12
1.0
 22
0.0
 32
0.0
 13
1.0
 23
0.0
 33
0.0
 40
0.0
 40
0.0
 40
0.0
 40
0.0
 40
1.0
 40
1.0
 40
1.0
 40
2.0
 40
2.0
 40
2.0
 40
3.0
 40
3.0
 40
3.0
 40
4.0
 40
4.0
 40
4.0
 40
5.0
 40
5.0
 40
5.0
 40
6.0
 40
6.0
 40
6.0
 40
7.0
 40
7.0
 40
7.0
 40
8.0
 40
8.0
 40
8.0
 40
8.0
 10
141.9720263308392
 20
106.6973533786837
 30
0.0
 10
142.0180285518878
 20
106.691497267722
 30
0.0
 10
142.0564460509077
 20
106.7242350446646
 30
0.0
 10
142.0562696620233
 20
106.7731300434172
 30
0.0
 10
142.0562696620233
 20
106.7731300434172
 30
0.0
 10
142.0502371621772
 20
110.8252766067049
 30
0.0
 10
142.0502371621772
 20
110.8252766067049
 30
0.0
 10
142.0502371621772
 20
110.8721254943986
 30
0.0
 10
142.011325774281
 20
110.9144941044288
 30
0.0
 10
141.9654999421168
 20
110.9199974376217
 30
0.0
 10
141.9654999421168
 20
110.9199974376217
 30
0.0
 10
140.9786394117381
 20
111.0399092180087
 30
0.0
 10
140.9786394117381
 20
111.0399092180087
 30
0.0
 10
140.9317905240445
 20
111.045762712191
 30
0.0
 10
140.8944313583309
 20
111.0123193797112
 30
0.0
 10
140.8944313583309
 20
110.9654731069158
 30
0.0
 10
140.8944313583309
 20
110.9654731069158
 30
0.0
 10
140.9004285804001
 20
106.9133592065063
 30
0.0
 10
140.9004285804001
 20
106.9133592065063
 30
0.0
 10
140.9007813581689
 20
106.8644314412743
 30
0.0
 10
140.9381758016593
 20
106.8224130977154
 30
0.0
 10
140.9852010782374
 20
106.8169097645225
 30
0.0
 10
140.9852010782374
 20
106.8169097645225
 30
0.0
 10
141.9720263308392
 20
106.6973533786837
 30
0.0
 10
141.9720263308392
 20
106.6973533786837
 30
0.0
  0
HATCH
  5
10A
330
F8
100
AcDbEntity
  8
_U+30EC_U+30A4_U+30E4_U+30FC 1
 62
     7
100
AcDbHatch
 10
0.0
 20
0.0
 30
0.0
210
0.0
220
0.0
230
1.0
  2
SOLID
 70
     1
 71
     0
 91
        1
 92
        1
 93
        1
 72
     4
 94
        3
 73
     0
 74
     1
 95
       29
 96
       25
 40
0.0
 40
0.0
 40
0.0
 40
0.0
 40
1.0
 40
1.0
 40
1.0
 40
2.0
 40
2.0
 40
2.0
 40
3.0
 40
3.0
 40
3.0
 40
4.0
 40
4.0
 40
4.0
 40
5.0
 40
5.0
 40
5.0
 40
6.0
 40
6.0
 40
6.0
 40
7.0
 40
7.0
 40
7.0
 40
8.0
 40
8.0
 40
8.0
 40
8.0
 10
141.9720263308392
 20
106.6973533786837
 10
142.0180285518878
 20
106.691497267722
 10
142.0564460509077
 20
106.7242350446646
 10
142.0562696620233
 20
106.7731300434172
 10
142.0562696620233
 20
106.7731300434172
 10
142.0502371621772
 20
110.8252766067049
 10
142.0502371621772
 20
110.8252766067049
 10
142.0502371621772
 20
110.8721254943986
 10
142.011325774281
 20
110.9144941044288
 10
141.9654999421168
 20
110.9199974376217
 10
141.9654999421168
 20
110.9199974376217
 10
140.9786394117381
 20
111.0399092180087
 10
140.9786394117381
 20
111.0399092180087
 10
140.9317905240445
 20
111.045762712191
 10
140.8944313583309
 20
111.0123193797112
 10
140.8944313583309
 20
110.9654731069158
 10
140.8944313583309
 20
110.9654731069158
 10
140.9004285804001
 20
106.9133592065063
 10
140.9004285804001
 20
106.9133592065063
 10
140.9007813581689
 20
106.8644314412743
 10
140.9381758016593
 20
106.8224130977154
 10
140.9852010782374
 20
106.8169097645225
 10
140.9852010782374
 20
106.8169097645225
 10
141.9720263308392
 20
106.6973533786837
 10
141.9720263308392
 20
106.6973533786837
 97
        0
 75
     2
 76
     1
 98
        0
  0
SPLINE
  5
10B
330
F8
100
AcDbEntity
  8
_U+30EC_U+30A4_U+30E4_U+30FC 1
370
     0
100
AcDbSpline
210
0.0
220
0.0
230
1.0
 70
    11
 71
     3
 72
    29
 73
    25
 74
     0
 42
0.0000000001
 43
0.0000000001
 12
1.0
 22
0.0
 32
0.0
 13
1.0
 23
0.0
 33
0.0
 40
0.0
 40
0.0
 40
0.0
 40
0.0
 40
1.0
 40
1.0
 40
1.0
 40
2.0
 40
2.0
 40
2.0
 40
3.0
 40
3.0
 40
3.0
 40
4.0
 40
4.0
 40
4.0
 40
5.0
 40
5.0
 40
5.0
 40
6.0
 40
6.0
 40
6.0
 40
7.0
 40
7.0
 40
7.0
 40
8.0
 40
8.0
 40
8.0
 40
8.0
 10
143.5941690672326
 20
110.7198313316173
 30
0.0
 10
143.5156054581259
 20
110.7294974424818
 30
0.0
 10
143.4453321265853
 20
110.6981354988375
 30
0.0
 10
143.4031399054395
 20
110.6423286625524
 30
0.0
 10
143.4031399054395
 20
110.6423286625524
 30
0.0
 10
142.0535179954268
 20
108.7953933251582
 30
0.0
 10
142.0535179954268
 20
108.7953933251582
 30
0.0
 10
142.0535179954268
 20
108.7953933251582
 30
0.0
 10
143.4005646277274
 20
106.5285492163236
 30
0.0
 10
143.4005646277274
 20
106.5285492163236
 30
0.0
 10
143.4005646277274
 20
106.5285492163236
 30
0.0
 10
144.8140745916661
 20
106.3569581095901
 30
0.0
 10
144.8140745916661
 20
106.3569581095901
 30
0.0
 10
144.8140745916661
 20
106.3569581095901
 30
0.0
 10
143.2724004643308
 20
108.6479674955861
 30
0.0
 10
143.2724004643308
 20
108.6479674955861
 30
0.0
 10
143.2724004643308
 20
108.6479674955861
 30
0.0
 10
144.8064898696371
 20
110.5716999465076
 30
0.0
 10
144.8064898696371
 20
110.5716999465076
 30
0.0
 10
144.8064898696371
 20
110.5716999465076
 30
0.0
 10
143.5936399005795
 20
110.7188082760878
 30
0.0
 10
143.5936399005795
 20
110.7188082760878
 30
0.0
 10
143.5936399005795
 20
110.7188082760878
 30
0.0
 10
143.5941690672326
 20
110.7198313316173
 30
0.0
 10
143.5941690672326
 20
110.7198313316173
 30
0.0
  0
HATCH
  5
10C
330
F8
100
AcDbEntity
  8
_U+30EC_U+30A4_U+30E4_U+30FC 1
 62
     7
100
AcDbHatch
 10
0.0
 20
0.0
 30
0.0
210
0.0
220
0.0
230
1.0
  2
SOLID
 70
     1
 71
     0
 91
        1
 92
        1
 93
        1
 72
     4
 94
        3
 73
     0
 74
     1
 95
       29
 96
       25
 40
0.0
 40
0.0
 40
0.0
 40
0.0
 40
1.0
 40
1.0
 40
1.0
 40
2.0
 40
2.0
 40
2.0
 40
3.0
 40
3.0
 40
3.0
 40
4.0
 40
4.0
 40
4.0
 40
5.0
 40
5.0
 40
5.0
 40
6.0
 40
6.0
 40
6.0
 40
7.0
 40
7.0
 40
7.0
 40
8.0
 40
8.0
 40
8.0
 40
8.0
 10
143.5941690672326
 20
110.7198313316173
 10
143.5156054581259
 20
110.7294974424818
 10
143.4453321265853
 20
110.6981354988375
 10
143.4031399054395
 20
110.6423286625524
 10
143.4031399054395
 20
110.6423286625524
 10
142.0535179954268
 20
108.7953933251582
 10
142.0535179954268
 20
108.7953933251582
 10
142.0535179954268
 20
108.7953933251582
 10
143.4005646277274
 20
106.5285492163236
 10
143.4005646277274
 20
106.5285492163236
 10
143.4005646277274
 20
106.5285492163236
 10
144.8140745916661
 20
106.3569581095901
 10
144.8140745916661
 20
106.3569581095901
 10
144.8140745916661
 20
106.3569581095901
 10
143.2724004643308
 20
108.6479674955861
 10
143.2724004643308
 20
108.6479674955861
 10
143.2724004643308
 20
108.6479674955861
 10
144.8064898696371
 20
110.5716999465076
 10
144.8064898696371
 20
110.5716999465076
 10
144.8064898696371
 20
110.5716999465076
 10
143.5936399005795
 20
110.7188082760878
 10
143.5936399005795
 20
110.7188082760878
 10
143.5936399005795
 20
110.7188082760878
 10
143.5941690672326
 20
110.7198313316173
 10
143.5941690672326
 20
110.7198313316173
 97
        0
 75
     2
 76
     1
 98
        0
  0
SPLINE
  5
10D
330
F8
100
AcDbEntity
  8
_U+30EC_U+30A4_U+30E4_U+30FC 1
370
     0
100
AcDbSpline
210
0.0
220
0.0
230
1.0
 70
    11
 71
     3
 72
    29
 73
    25
 74
     0
 42
0.0000000001
 43
0.0000000001
 12
1.0
 22
0.0
 32
0.0
 13
1.0
 23
0.0
 33
0.0
 40
0.0
 40
0.0
 40
0.0
 40
0.0
 40
1.0
 40
1.0
 40
1.0
 40
2.0
 40
2.0
 40
2.0
 40
3.0
 40
3.0
 40
3.0
 40
4.0
 40
4.0
 40
4.0
 40
5.0
 40
5.0
 40
5.0
 40
6.0
 40
6.0
 40
6.0
 40
7.0
 40
7.0
 40
7.0
 40
8.0
 40
8.0
 40
8.0
 40
8.0
 10
125.9766236833603
 20
111.5590543657625
 30
0.0
 10
126.0823864584399
 20
111.5463190883096
 30
0.0
 10
126.1673353451615
 20
111.6231540863494
 30
0.0
 10
126.1669825673928
 20
111.7299425511695
 30
0.0
 10
126.1669825673928
 20
111.7299425511695
 30
0.0
 10
126.16317256749
 20
114.2577690191351
 30
0.0
 10
126.16317256749
 20
114.2577690191351
 30
0.0
 10
126.16317256749
 20
114.3656131830501
 30
0.0
 10
126.0779061807764
 20
114.4622390139183
 30
0.0
 10
125.9723197945812
 20
114.4751506802556
 30
0.0
 10
125.9723197945812
 20
114.4751506802556
 30
0.0
 10
123.4815323581265
 20
114.7771284503292
 30
0.0
 10
123.4815323581265
 20
114.7771284503292
 30
0.0
 10
123.3747112497406
 20
114.7900401166665
 30
0.0
 10
123.2899740296803
 20
114.714089772646
 30
0.0
 10
123.2899740296803
 20
114.606066510249
 30
0.0
 10
123.2899740296803
 20
114.606066510249
 30
0.0
 10
123.2937840295831
 20
112.0782374080726
 30
0.0
 10
123.2937840295831
 20
112.0782374080726
 30
0.0
 10
123.2939251406906
 20
111.9718043552324
 30
0.0
 10
123.3790504162966
 20
111.8742965799422
 30
0.0
 10
123.4858362469056
 20
111.8608557469521
 30
0.0
 10
123.4858362469056
 20
111.8608557469521
 30
0.0
 10
125.9766236833603
 20
111.5590543657625
 30
0.0
 10
125.9766236833603
 20
111.5590543657625
 30
0.0
  0
HATCH
  5
10E
330
F8
100
AcDbEntity
  8
_U+30EC_U+30A4_U+30E4_U+30FC 1
 62
     7
100
AcDbHatch
 10
0.0
 20
0.0
 30
0.0
210
0.0
220
0.0
230
1.0
  2
SOLID
 70
     1
 71
     0
 91
        1
 92
        1
 93
        1
 72
     4
 94
        3
 73
     0
 74
     1
 95
       29
 96
       25
 40
0.0
 40
0.0
 40
0.0
 40
0.0
 40
1.0
 40
1.0
 40
1.0
 40
2.0
 40
2.0
 40
2.0
 40
3.0
 40
3.0
 40
3.0
 40
4.0
 40
4.0
 40
4.0
 40
5.0
 40
5.0
 40
5.0
 40
6.0
 40
6.0
 40
6.0
 40
7.0
 40
7.0
 40
7.0
 40
8.0
 40
8.0
 40
8.0
 40
8.0
 10
125.9766236833603
 20
111.5590543657625
 10
126.0823864584399
 20
111.5463190883096
 10
126.1673353451615
 20
111.6231540863494
 10
126.1669825673928
 20
111.7299425511695
 10
126.1669825673928
 20
111.7299425511695
 10
126.16317256749
 20
114.2577690191351
 10
126.16317256749
 20
114.2577690191351
 10
126.16317256749
 20
114.3656131830501
 10
126.0779061807764
 20
114.4622390139183
 10
125.9723197945812
 20
114.4751506802556
 10
125.9723197945812
 20
114.4751506802556
 10
123.4815323581265
 20
114.7771284503292
 10
123.4815323581265
 20
114.7771284503292
 10
123.3747112497406
 20
114.7900401166665
 10
123.2899740296803
 20
114.714089772646
 10
123.2899740296803
 20
114.606066510249
 10
123.2899740296803
 20
114.606066510249
 10
123.2937840295831
 20
112.0782374080726
 10
123.2937840295831
 20
112.0782374080726
 10
123.2939251406906
 20
111.9718043552324
 10
123.3790504162966
 20
111.8742965799422
 10
123.4858362469056
 20
111.8608557469521
 10
123.4858362469056
 20
111.8608557469521
 10
125.9766236833603
 20
111.5590543657625
 10
125.9766236833603
 20
111.5590543657625
 97
        0
 75
     2
 76
     1
 98
        0
  0
SPLINE
  5
10F
330
F8
100
AcDbEntity
  8
_U+30EC_U+30A4_U+30E4_U+30FC 1
370
     0
100
AcDbSpline
210
0.0
220
0.0
230
1.0
 70
    11
 71
     3
 72
    29
 73
    25
 74
     0
 42
0.0000000001
 43
0.0000000001
 12
1.0
 22
0.0
 32
0.0
 13
1.0
 23
0.0
 33
0.0
 40
0.0
 40
0.0
 40
0.0
 40
0.0
 40
1.0
 40
1.0
 40
1.0
 40
2.0
 40
2.0
 40
2.0
 40
3.0
 40
3.0
 40
3.0
 40
4.0
 40
4.0
 40
4.0
 40
5.0
 40
5.0
 40
5.0
 40
6.0
 40
6.0
 40
6.0
 40
7.0
 40
7.0
 40
7.0
 40
8.0
 40
8.0
 40
8.0
 40
8.0
 10
128.8565602765537
 20
108.2927555602038
 30
0.0
 10
128.9616527738726
 20
108.2803730605197
 30
0.0
 10
129.0465663828173
 20
108.356502503022
 30
0.0
 10
129.046389993933
 20
108.465016944698
 30
0.0
 10
129.046389993933
 20
108.465016944698
 30
0.0
 10
129.0424388829227
 20
110.9916466024605
 30
0.0
 10
129.0424388829227
 20
110.9916466024605
 30
0.0
 10
129.0424388829227
 20
111.0984703291049
 30
0.0
 10
128.9573488850935
 20
111.1959402083596
 30
0.0
 10
128.852083301121
 20
111.2083579858206
 30
0.0
 10
128.852083301121
 20
111.2083579858206
 30
0.0
 10
126.3609397846667
 20
111.5104768670018
 30
0.0
 10
126.3609397846667
 20
111.5104768670018
 30
0.0
 10
126.2551770095872
 20
111.5232474222316
 30
0.0
 10
126.1680056229222
 20
111.4474354797212
 30
0.0
 10
126.1681820118066
 20
111.3399440935747
 30
0.0
 10
126.1681820118066
 20
111.3399440935747
 30
0.0
 10
126.1719567339325
 20
108.8133144358122
 30
0.0
 10
126.1719567339325
 20
108.8133144358122
 30
0.0
 10
126.1721331228169
 20
108.705505549674
 30
0.0
 10
126.2594808983663
 20
108.6076449966148
 30
0.0
 10
126.3650672845614
 20
108.5949097191619
 30
0.0
 10
126.3650672845614
 20
108.5949097191619
 30
0.0
 10
128.8565602765537
 20
108.2927555602038
 30
0.0
 10
128.8565602765537
 20
108.2927555602038
 30
0.0
  0
HATCH
  5
110
330
F8
100
AcDbEntity
  8
_U+30EC_U+30A4_U+30E4_U+30FC 1
 62
     7
100
AcDbHatch
 10
0.0
 20
0.0
 30
0.0
210
0.0
220
0.0
230
1.0
  2
SOLID
 70
     1
 71
     0
 91
        1
 92
        1
 93
        1
 72
     4
 94
        3
 73
     0
 74
     1
 95
       29
 96
       25
 40
0.0
 40
0.0
 40
0.0
 40
0.0
 40
1.0
 40
1.0
 40
1.0
 40
2.0
 40
2.0
 40
2.0
 40
3.0
 40
3.0
 40
3.0
 40
4.0
 40
4.0
 40
4.0
 40
5.0
 40
5.0
 40
5.0
 40
6.0
 40
6.0
 40
6.0
 40
7.0
 40
7.0
 40
7.0
 40
8.0
 40
8.0
 40
8.0
 40
8.0
 10
128.8565602765537
 20
108.2927555602038
 10
128.9616527738726
 20
108.2803730605197
 10
129.0465663828173
 20
108.356502503022
 10
129.046389993933
 20
108.465016944698
 10
129.046389993933
 20
108.465016944698
 10
129.0424388829227
 20
110.9916466024605
 10
129.0424388829227
 20
110.9916466024605
 10
129.0424388829227
 20
111.0984703291049
 10
128.9573488850935
 20
111.1959402083596
 10
128.852083301121
 20
111.2083579858206
 10
128.852083301121
 20
111.2083579858206
 10
126.3609397846667
 20
111.5104768670018
 10
126.3609397846667
 20
111.5104768670018
 10
126.2551770095872
 20
111.5232474222316
 10
126.1680056229222
 20
111.4474354797212
 10
126.1681820118066
 20
111.3399440935747
 10
126.1681820118066
 20
111.3399440935747
 10
126.1719567339325
 20
108.8133144358122
 10
126.1719567339325
 20
108.8133144358122
 10
126.1721331228169
 20
108.705505549674
 10
126.2594808983663
 20
108.6076449966148
 10
126.3650672845614
 20
108.5949097191619
 10
126.3650672845614
 20
108.5949097191619
 10
128.8565602765537
 20
108.2927555602038
 10
128.8565602765537
 20
108.2927555602038
 97
        0
 75
     2
 76
     1
 98
        0
  0
SPLINE
  5
111
330
F8
100
AcDbEntity
  8
_U+30EC_U+30A4_U+30E4_U+30FC 1
370
     0
100
AcDbSpline
210
0.0
220
0.0
230
1.0
 70
    11
 71
     3
 72
    29
 73
    25
 74
     0
 42
0.0000000001
 43
0.0000000001
 12
1.0
 22
0.0
 32
0.0
 13
1.0
 23
0.0
 33
0.0
 40
0.0
 40
0.0
 40
0.0
 40
0.0
 40
1.0
 40
1.0
 40
1.0
 40
2.0
 40
2.0
 40
2.0
 40
3.0
 40
3.0
 40
3.0
 40
4.0
 40
4.0
 40
4.0
 40
5.0
 40
5.0
 40
5.0
 40
6.0
 40
6.0
 40
6.0
 40
7.0
 40
7.0
 40
7.0
 40
8.0
 40
8.0
 40
8.0
 40
8.0
 10
131.7270071477669
 20
110.8617891057734
 30
0.0
 10
131.8319232562014
 20
110.8490185505437
 30
0.0
 10
131.9180363095601
 20
110.9258535485835
 30
0.0
 10
131.9178599206757
 20
111.0323218792006
 30
0.0
 10
131.9178599206757
 20
111.0323218792006
 30
0.0
 10
131.9140851985497
 20
113.5603273702613
 30
0.0
 10
131.9140851985497
 20
113.5603273702613
 30
0.0
 10
131.9139088096653
 20
113.6683126452842
 30
0.0
 10
131.8276193674223
 20
113.7647973650449
 30
0.0
 10
131.7227032589878
 20
113.7777090313821
 30
0.0
 10
131.7227032589878
 20
113.7777090313821
 30
0.0
 10
129.2312102669956
 20
114.0798279125633
 30
0.0
 10
129.2312102669956
 20
114.0798279125633
 30
0.0
 10
129.1256238808007
 20
114.0925984677931
 30
0.0
 10
129.0405338829713
 20
114.0166101363984
 30
0.0
 10
129.0407102718556
 20
113.9091540280287
 30
0.0
 10
129.0407102718556
 20
113.9091540280287
 30
0.0
 10
129.0446613828659
 20
111.3809721480835
 30
0.0
 10
129.0446613828659
 20
111.3809721480835
 30
0.0
 10
129.0450141606347
 20
111.2741536623941
 30
0.0
 10
129.1299277695795
 20
111.1766432644075
 30
0.0
 10
129.2355141557747
 20
111.1639079869546
 30
0.0
 10
129.2355141557747
 20
111.1639079869546
 30
0.0
 10
131.7270071477669
 20
110.8617891057734
 30
0.0
 10
131.7270071477669
 20
110.8617891057734
 30
0.0
  0
HATCH
  5
112
330
F8
100
AcDbEntity
  8
_U+30EC_U+30A4_U+30E4_U+30FC 1
 62
     7
100
AcDbHatch
 10
0.0
 20
0.0
 30
0.0
210
0.0
220
0.0
230
1.0
  2
SOLID
 70
     1
 71
     0
 91
        1
 92
        1
 93
        1
 72
     4
 94
        3
 73
     0
 74
     1
 95
       29
 96
       25
 40
0.0
 40
0.0
 40
0.0
 40
0.0
 40
1.0
 40
1.0
 40
1.0
 40
2.0
 40
2.0
 40
2.0
 40
3.0
 40
3.0
 40
3.0
 40
4.0
 40
4.0
 40
4.0
 40
5.0
 40
5.0
 40
5.0
 40
6.0
 40
6.0
 40
6.0
 40
7.0
 40
7.0
 40
7.0
 40
8.0
 40
8.0
 40
8.0
 40
8.0
 10
131.7270071477669
 20
110.8617891057734
 10
131.8319232562014
 20
110.8490185505437
 10
131.9180363095601
 20
110.9258535485835
 10
131.9178599206757
 20
111.0323218792006
 10
131.9178599206757
 20
111.0323218792006
 10
131.9140851985497
 20
113.5603273702613
 10
131.9140851985497
 20
113.5603273702613
 10
131.9139088096653
 20
113.6683126452842
 10
131.8276193674223
 20
113.7647973650449
 10
131.7227032589878
 20
113.7777090313821
 10
131.7227032589878
 20
113.7777090313821
 10
129.2312102669956
 20
114.0798279125633
 10
129.2312102669956
 20
114.0798279125633
 10
129.1256238808007
 20
114.0925984677931
 10
129.0405338829713
 20
114.0166101363984
 10
129.0407102718556
 20
113.9091540280287
 10
129.0407102718556
 20
113.9091540280287
 10
129.0446613828659
 20
111.3809721480835
 10
129.0446613828659
 20
111.3809721480835
 10
129.0450141606347
 20
111.2741536623941
 10
129.1299277695795
 20
111.1766432644075
 10
129.2355141557747
 20
111.1639079869546
 10
129.2355141557747
 20
111.1639079869546
 10
131.7270071477669
 20
110.8617891057734
 10
131.7270071477669
 20
110.8617891057734
 97
        0
 75
     2
 76
     1
 98
        0
  0
SPLINE
  5
113
330
F8
100
AcDbEntity
  8
_U+30EC_U+30A4_U+30E4_U+30FC 1
370
     0
100
AcDbSpline
210
0.0
220
0.0
230
1.0
 70
    11
 71
     3
 72
    29
 73
    25
 74
     0
 42
0.0000000001
 43
0.0000000001
 12
1.0
 22
0.0
 32
0.0
 13
1.0
 23
0.0
 33
0.0
 40
0.0
 40
0.0
 40
0.0
 40
0.0
 40
1.0
 40
1.0
 40
1.0
 40
2.0
 40
2.0
 40
2.0
 40
3.0
 40
3.0
 40
3.0
 40
4.0
 40
4.0
 40
4.0
 40
5.0
 40
5.0
 40
5.0
 40
6.0
 40
6.0
 40
6.0
 40
7.0
 40
7.0
 40
7.0
 40
8.0
 40
8.0
 40
8.0
 40
8.0
 10
125.9854110796153
 20
105.7237572924111
 30
0.0
 10
126.0911706248824
 20
105.7110220149582
 30
0.0
 10
126.1761195116041
 20
105.7875042352292
 30
0.0
 10
126.1757667338353
 20
105.8953131213677
 30
0.0
 10
126.1757667338353
 20
105.8953131213677
 30
0.0
 10
126.1721331228169
 20
108.4226508853297
 30
0.0
 10
126.1721331228169
 20
108.4226508853297
 30
0.0
 10
126.1719567339325
 20
108.5294341652768
 30
0.0
 10
126.086690347219
 20
108.6269419405669
 30
0.0
 10
125.9809275721394
 20
108.6396772180198
 30
0.0
 10
125.9809275721394
 20
108.6396772180198
 30
0.0
 10
123.4903165245691
 20
108.9414785992091
 30
0.0
 10
123.4903165245691
 20
108.9414785992091
 30
0.0
 10
123.3835306939601
 20
108.9545666544307
 30
0.0
 10
123.2987581961228
 20
108.8777342185492
 30
0.0
 10
123.2987581961228
 20
108.770945825782
 30
0.0
 10
123.2987581961228
 20
108.770945825782
 30
0.0
 10
123.3025681960256
 20
106.2436458902587
 30
0.0
 10
123.3025681960256
 20
106.2436458902587
 30
0.0
 10
123.3028888580633
 20
106.1361545041122
 30
0.0
 10
123.3878345827392
 20
106.038646728822
 30
0.0
 10
123.4946204133482
 20
106.0255586736004
 30
0.0
 10
123.4946204133482
 20
106.0255586736004
 30
0.0
 10
125.9854110796153
 20
105.7237572924111
 30
0.0
 10
125.9854110796153
 20
105.7237572924111
 30
0.0
  0
HATCH
  5
114
330
F8
100
AcDbEntity
  8
_U+30EC_U+30A4_U+30E4_U+30FC 1
 62
     7
100
AcDbHatch
 10
0.0
 20
0.0
 30
0.0
210
0.0
220
0.0
230
1.0
  2
SOLID
 70
     1
 71
     0
 91
        1
 92
        1
 93
        1
 72
     4
 94
        3
 73
     0
 74
     1
 95
       29
 96
       25
 40
0.0
 40
0.0
 40
0.0
 40
0.0
 40
1.0
 40
1.0
 40
1.0
 40
2.0
 40
2.0
 40
2.0
 40
3.0
 40
3.0
 40
3.0
 40
4.0
 40
4.0
 40
4.0
 40
5.0
 40
5.0
 40
5.0
 40
6.0
 40
6.0
 40
6.0
 40
7.0
 40
7.0
 40
7.0
 40
8.0
 40
8.0
 40
8.0
 40
8.0
 10
125.9854110796153
 20
105.7237572924111
 10
126.0911706248824
 20
105.7110220149582
 10
126.1761195116041
 20
105.7875042352292
 10
126.1757667338353
 20
105.8953131213677
 10
126.1757667338353
 20
105.8953131213677
 10
126.1721331228169
 20
108.4226508853297
 10
126.1721331228169
 20
108.4226508853297
 10
126.1719567339325
 20
108.5294341652768
 10
126.086690347219
 20
108.6269419405669
 10
125.9809275721394
 20
108.6396772180198
 10
125.9809275721394
 20
108.6396772180198
 10
123.4903165245691
 20
108.9414785992091
 10
123.4903165245691
 20
108.9414785992091
 10
123.3835306939601
 20
108.9545666544307
 10
123.2987581961228
 20
108.8777342185492
 10
123.2987581961228
 20
108.770945825782
 10
123.2987581961228
 20
108.770945825782
 10
123.3025681960256
 20
106.2436458902587
 10
123.3025681960256
 20
106.2436458902587
 10
123.3028888580633
 20
106.1361545041122
 10
123.3878345827392
 20
106.038646728822
 10
123.4946204133482
 20
106.0255586736004
 10
123.4946204133482
 20
106.0255586736004
 10
125.9854110796153
 20
105.7237572924111
 10
125.9854110796153
 20
105.7237572924111
 97
        0
 75
     2
 76
     1
 98
        0
  0
ENDBLK
  5
FB
330
F8
100
AcDbEntity
  8
0
100
AcDbBlockEnd
  0
ENDSEC
  0
SECTION
  2
ENTITIES
  0
INSERT
  5
42
330
1F
100
AcDbEntity
  8
_U+30EC_U+30A4_U+30E4_U+30FC 1
100
AcDbBlockReference
  2
block 2
 10
0.0
 20
0.0
 30
0.0
  0
INSERT
  5
F9
330
1F
100
AcDbEntity
  8
_U+30EC_U+30A4_U+30E4_U+30FC 1
100
AcDbBlockReference
  2
block 3
 10
0.0
 20
0.0
 30
0.0
  0
SPLINE
  5
115
330
1F
100
AcDbEntity
  8
_U+30EC_U+30A4_U+30E4_U+30FC 1
 62
     7
370
     5
100
AcDbSpline
210
0.0
220
0.0
230
1.0
 70
     8
 71
     3
 72
    23
 73
    19
 74
     0
 42
0.0000000001
 43
0.0000000001
 12
1.0
 22
0.0
 32
0.0
 13
1.0
 23
0.0
 33
0.0
 40
0.0
 40
0.0
 40
0.0
 40
0.0
 40
1.0
 40
1.0
 40
1.0
 40
2.0
 40
2.0
 40
2.0
 40
3.0
 40
3.0
 40
3.0
 40
4.0
 40
4.0
 40
4.0
 40
5.0
 40
5.0
 40
5.0
 40
6.0
 40
6.0
 40
6.0
 40
6.0
 10
172.6271797154277
 20
88.19408885074131
 30
0.0
 10
172.6271797154277
 20
88.19408885074131
 30
0.0
 10
172.8693969314705
 20
88.14896857411465
 30
0.0
 10
172.8693969314705
 20
88.14896857411465
 30
0.0
 10
173.990771625084
 20
88.14896857411465
 30
0.0
 10
174.8992449352403
 20
89.05536049543511
 30
0.0
 10
174.8992449352403
 20
90.1702088003263
 30
0.0
 10
174.8992449352403
 20
90.1702088003263
 30
0.0
 10
174.8992449352403
 20
135.0708107103721
 30
0.0
 10
174.8992449352403
 20
135.0708107103721
 30
0.0
 10
174.8992449352403
 20
136.188904570736
 30
0.0
 10
173.990771625084
 20
137.0939592114949
 30
0.0
 10
172.8693969314705
 20
137.0939592114949
 30
0.0
 10
172.8693969314705
 20
137.0939592114949
 30
0.0
 10
134.1709809743049
 20
140.6645961232183
 30
0.0
 10
134.1709809743049
 20
140.6645961232183
 30
0.0
 10
133.1842968328106
 20
140.6645961232183
 30
0.0
 10
132.3643707426179
 20
139.959925877445
 30
0.0
 10
132.1845246360947
 20
139.025943387246
 30
0.0
  0
SPLINE
  5
116
330
1F
100
AcDbEntity
  8
_U+30EC_U+30A4_U+30E4_U+30FC 1
 62
     7
370
     5
100
AcDbSpline
210
0.0
220
0.0
230
1.0
 70
     8
 71
     3
 72
    23
 73
    19
 74
     0
 42
0.0000000001
 43
0.0000000001
 12
1.0
 22
0.0
 32
0.0
 13
1.0
 23
0.0
 33
0.0
 40
0.0
 40
0.0
 40
0.0
 40
0.0
 40
1.0
 40
1.0
 40
1.0
 40
2.0
 40
2.0
 40
2.0
 40
3.0
 40
3.0
 40
3.0
 40
4.0
 40
4.0
 40
4.0
 40
5.0
 40
5.0
 40
5.0
 40
6.0
 40
6.0
 40
6.0
 40
6.0
 10
164.0916157665214
 20
84.8643958801333
 30
0.0
 10
164.7241463059398
 20
85.15688392822686
 30
0.0
 10
168.0338367770581
 20
86.68204805598336
 30
0.0
 10
170.2897138463169
 20
87.64354386478689
 30
0.0
 10
170.2897138463169
 20
87.64354386478689
 30
0.0
 10
173.6059263571245
 20
88.19994496170303
 30
0.0
 10
173.6755294109043
 20
88.82591383462211
 30
0.0
 10
173.7451324646841
 20
89.4518827075412
 30
0.0
 10
173.6755294109043
 20
133.6810426902724
 30
0.0
 10
173.6755294109043
 20
133.6810426902724
 30
0.0
 10
173.6755294109043
 20
133.6810426902724
 30
0.0
 10
173.766828297464
 20
135.6738843060975
 30
0.0
 10
172.0067141757015
 20
135.7672293037161
 30
0.0
 10
172.0067141757015
 20
135.7672293037161
 30
0.0
 10
133.8970843146259
 20
139.661754759914
 30
0.0
 10
133.8970843146259
 20
139.661754759914
 30
0.0
 10
133.8970843146259
 20
139.661754759914
 30
0.0
 10
131.8910135324717
 20
138.6587017299484
 30
0.0
 10
127.4802330894445
 20
137.9822536557173
 30
0.0
  0
POLYLINE
  5
117
330
1F
100
AcDbEntity
  8
_U+30EC_U+30A4_U+30E4_U+30FC 1
 62
     7
370
     5
100
AcDb2dPolyline
 66
     1
 10
0.0
 20
0.0
 30
0.0
  0
VERTEX
  5
118
330
117
100
AcDbEntity
  8
_U+30EC_U+30A4_U+30E4_U+30FC 1
 62
     7
370
     5
100
AcDbVertex
100
AcDb2dVertex
 10
169.6702670130871
 20
98.20451081757639
 30
0.0
  0
VERTEX
  5
119
330
117
100
AcDbEntity
  8
_U+30EC_U+30A4_U+30E4_U+30FC 1
 62
     7
370
     5
100
AcDbVertex
100
AcDb2dVertex
 10
169.7488306221939
 20
88.38596467917948
 30
0.0
  0
SEQEND
  5
11A
330
117
100
AcDbEntity
  8
_U+30EC_U+30A4_U+30E4_U+30FC 1
 62
     7
370
     5
  0
POLYLINE
  5
11B
330
1F
100
AcDbEntity
  8
_U+30EC_U+30A4_U+30E4_U+30FC 1
 62
     7
370
     5
100
AcDb2dPolyline
 66
     1
 10
0.0
 20
0.0
 30
0.0
  0
VERTEX
  5
11C
330
11B
100
AcDbEntity
  8
_U+30EC_U+30A4_U+30E4_U+30FC 1
 62
     7
370
     5
100
AcDbVertex
100
AcDb2dVertex
 10
169.6702670130871
 20
128.9597119773906
 30
0.0
  0
VERTEX
  5
11D
330
11B
100
AcDbEntity
  8
_U+30EC_U+30A4_U+30E4_U+30FC 1
 62
     7
370
     5
100
AcDbVertex
100
AcDb2dVertex
 10
169.6702670130871
 20
100.8448054724391
 30
0.0
  0
SEQEND
  5
11E
330
11B
100
AcDbEntity
  8
_U+30EC_U+30A4_U+30E4_U+30FC 1
 62
     7
370
     5
  0
SPLINE
  5
11F
330
1F
100
AcDbEntity
  8
_U+30EC_U+30A4_U+30E4_U+30FC 1
 62
     7
370
     5
100
AcDbSpline
210
0.0
220
0.0
230
1.0
 70
     8
 71
     3
 72
    11
 73
     7
 74
     0
 42
0.0000000001
 43
0.0000000001
 12
1.0
 22
0.0
 32
0.0
 13
1.0
 23
0.0
 33
0.0
 40
0.0
 40
0.0
 40
0.0
 40
0.0
 40
1.0
 40
1.0
 40
1.0
 40
2.0
 40
2.0
 40
2.0
 40
2.0
 10
164.2177027367239
 20
132.5682757742171
 30
0.0
 10
164.2177027367239
 20
132.5682757742171
 30
0.0
 10
166.9996334701095
 20
132.7074818817767
 30
0.0
 10
168.807619535095
 20
133.4028774195912
 30
0.0
 10
170.6159583778494
 20
134.0982729574058
 30
0.0
 10
172.1455675054924
 20
134.7936332174434
 30
0.0
 10
172.1455675054924
 20
134.7936332174434
 30
0.0
  0
SPLINE
  5
120
330
1F
100
AcDbEntity
  8
_U+30EC_U+30A4_U+30E4_U+30FC 1
 62
     7
370
     5
100
AcDbSpline
210
0.0
220
0.0
230
1.0
 70
    11
 71
     3
 72
    29
 73
    25
 74
     0
 42
0.0000000001
 43
0.0000000001
 12
1.0
 22
0.0
 32
0.0
 13
1.0
 23
0.0
 33
0.0
 40
0.0
 40
0.0
 40
0.0
 40
0.0
 40
1.0
 40
1.0
 40
1.0
 40
2.0
 40
2.0
 40
2.0
 40
3.0
 40
3.0
 40
3.0
 40
4.0
 40
4.0
 40
4.0
 40
5.0
 40
5.0
 40
5.0
 40
6.0
 40
6.0
 40
6.0
 40
7.0
 40
7.0
 40
7.0
 40
8.0
 40
8.0
 40
8.0
 40
8.0
 10
119.6757305107762
 20
92.18693347109757
 30
0.0
 10
119.6757305107762
 20
90.9894314452431
 30
0.0
 10
120.6448463193853
 20
90.01791463754498
 30
0.0
 10
121.8423504555011
 20
90.01791463754498
 30
0.0
 10
121.8423504555011
 20
90.01791463754498
 30
0.0
 10
161.9249999595187
 20
82.29437455681112
 30
0.0
 10
161.9249999595187
 20
82.29437455681112
 30
0.0
 10
163.1204538468534
 20
82.29437455681112
 30
0.0
 10
164.0916157665214
 20
83.26345508764337
 30
0.0
 10
164.0916157665214
 20
84.46099450153604
 30
0.0
 10
164.0916157665214
 20
84.46099450153604
 30
0.0
 10
164.0916157665214
 20
132.5302110529659
 30
0.0
 10
164.0916157665214
 20
132.5302110529659
 30
0.0
 10
164.0916157665214
 20
133.7277536567811
 30
0.0
 10
163.1204538468534
 20
134.699088775411
 30
0.0
 10
161.9249999595187
 20
134.699088775411
 30
0.0
 10
161.9249999595187
 20
134.699088775411
 30
0.0
 10
121.8423504555011
 20
138.51970728905
 30
0.0
 10
121.8423504555011
 20
138.51970728905
 30
0.0
 10
120.6448463193853
 20
138.51970728905
 30
0.0
 10
119.6757305107762
 20
137.5504150915565
 30
0.0
 10
119.6757305107762
 20
136.3529109554407
 30
0.0
 10
119.6757305107762
 20
136.3529109554407
 30
0.0
 10
119.6757305107762
 20
92.18693347109757
 30
0.0
 10
119.6757305107762
 20
92.18693347109757
 30
0.0
  0
SPLINE
  5
121
330
1F
100
AcDbEntity
  8
_U+30EC_U+30A4_U+30E4_U+30FC 1
370
     0
100
AcDbSpline
210
0.0
220
0.0
230
1.0
 70
    11
 71
     3
 72
    29
 73
    25
 74
     0
 42
0.0000000001
 43
0.0000000001
 12
1.0
 22
0.0
 32
0.0
 13
1.0
 23
0.0
 33
0.0
 40
0.0
 40
0.0
 40
0.0
 40
0.0
 40
1.0
 40
1.0
 40
1.0
 40
2.0
 40
2.0
 40
2.0
 40
3.0
 40
3.0
 40
3.0
 40
4.0
 40
4.0
 40
4.0
 40
5.0
 40
5.0
 40
5.0
 40
6.0
 40
6.0
 40
6.0
 40
7.0
 40
7.0
 40
7.0
 40
8.0
 40
8.0
 40
8.0
 40
8.0
 10
122.4249276628605
 20
92.89319456419047
 30
0.0
 10
122.4249276628605
 20
92.4942381854798
 30
0.0
 10
122.7463434879942
 20
92.17144652704825
 30
0.0
 10
123.1442415333982
 20
92.17144652704825
 30
0.0
 10
123.1442415333982
 20
92.17144652704825
 30
0.0
 10
160.4060758605474
 20
85.66710641521
 30
0.0
 10
160.4060758605474
 20
85.66710641521
 30
0.0
 10
160.8036211281829
 20
85.66710641521
 30
0.0
 10
161.1274711199208
 20
85.9909564069479
 30
0.0
 10
161.1274711199208
 20
86.38987750788169
 30
0.0
 10
161.1274711199208
 20
86.38987750788169
 30
0.0
 10
161.1274711199208
 20
130.6503994342573
 30
0.0
 10
161.1274711199208
 20
130.6503994342573
 30
0.0
 10
161.1274711199208
 20
131.0503788684974
 30
0.0
 10
160.8036211281829
 20
131.3742288602353
 30
0.0
 10
160.4060758605474
 20
131.3742288602353
 30
0.0
 10
160.4060758605474
 20
131.3742288602353
 30
0.0
 10
123.1442415333982
 20
135.5021520882565
 30
0.0
 10
123.1442415333982
 20
135.5021520882565
 30
0.0
 10
122.7463434879942
 20
135.5021520882565
 30
0.0
 10
122.4249276628605
 20
135.1795015409328
 30
0.0
 10
122.4249276628605
 20
134.7795221066923
 30
0.0
 10
122.4249276628605
 20
134.7795221066923
 30
0.0
 10
122.4249276628605
 20
92.89319456419047
 30
0.0
 10
122.4249276628605
 20
92.89319456419047
 30
0.0
  0
SPLINE
  5
122
330
1F
100
AcDbEntity
  8
_U+30EC_U+30A4_U+30E4_U+30FC 1
 62
     7
370
     5
100
AcDbSpline
210
0.0
220
0.0
230
1.0
 70
    11
 71
     3
 72
    29
 73
    25
 74
     0
 42
0.0000000001
 43
0.0000000001
 12
1.0
 22
0.0
 32
0.0
 13
1.0
 23
0.0
 33
0.0
 40
0.0
 40
0.0
 40
0.0
 40
0.0
 40
1.0
 40
1.0
 40
1.0
 40
2.0
 40
2.0
 40
2.0
 40
3.0
 40
3.0
 40
3.0
 40
4.0
 40
4.0
 40
4.0
 40
5.0
 40
5.0
 40
5.0
 40
6.0
 40
6.0
 40
6.0
 40
7.0
 40
7.0
 40
7.0
 40
8.0
 40
8.0
 40
8.0
 40
8.0
 10
122.4249276628605
 20
92.89319456419047
 30
0.0
 10
122.4249276628605
 20
92.4942381854798
 30
0.0
 10
122.7463434879942
 20
92.17144652704825
 30
0.0
 10
123.1442415333982
 20
92.17144652704825
 30
0.0
 10
123.1442415333982
 20
92.17144652704825
 30
0.0
 10
160.4060758605474
 20
85.66710641521
 30
0.0
 10
160.4060758605474
 20
85.66710641521
 30
0.0
 10
160.8036211281829
 20
85.66710641521
 30
0.0
 10
161.1274711199208
 20
85.9909564069479
 30
0.0
 10
161.1274711199208
 20
86.38987750788169
 30
0.0
 10
161.1274711199208
 20
86.38987750788169
 30
0.0
 10
161.1274711199208
 20
130.6503994342573
 30
0.0
 10
161.1274711199208
 20
130.6503994342573
 30
0.0
 10
161.1274711199208
 20
131.0503788684974
 30
0.0
 10
160.8036211281829
 20
131.3742288602353
 30
0.0
 10
160.4060758605474
 20
131.3742288602353
 30
0.0
 10
160.4060758605474
 20
131.3742288602353
 30
0.0
 10
123.1442415333982
 20
135.5021520882565
 30
0.0
 10
123.1442415333982
 20
135.5021520882565
 30
0.0
 10
122.7463434879942
 20
135.5021520882565
 30
0.0
 10
122.4249276628605
 20
135.1795015409328
 30
0.0
 10
122.4249276628605
 20
134.7795221066923
 30
0.0
 10
122.4249276628605
 20
134.7795221066923
 30
0.0
 10
122.4249276628605
 20
92.89319456419047
 30
0.0
 10
122.4249276628605
 20
92.89319456419047
 30
0.0
  0
ENDSEC
  0
SECTION
  2
OBJECTS
  0
DICTIONARY
  5
C
330
0
100
AcDbDictionary
281
     1
  3
ACAD_GROUP
350
D
  3
ACAD_LAYOUT
350
1A
  3
ACAD_MATERIAL
350
3B
  3
ACAD_MLEADERSTYLE
350
144
  3
ACAD_MLINESTYLE
350
17
  3
ACAD_PLOTSETTINGS
350
19
  3
ACAD_PLOTSTYLENAME
350
E
  3
ACAD_TABLESTYLE
350
143
  3
ACAD_VISUALSTYLE
350
2A
  0
SUN
  5
3F
330
29
100
AcDbSun
 90
        1
290
     0
 63
     7
421
 16777215
 40
1.0
291
     1
 91
  2455826
 92
 54000000
292
     0
 70
     2
 71
   256
280
     1
  0
DICTIONARY
  5
D
102
{ACAD_REACTORS
330
C
102
}
330
C
100
AcDbDictionary
281
     1
  0
DICTIONARY
  5
1A
102
{ACAD_REACTORS
330
C
102
}
330
C
100
AcDbDictionary
281
     1
  3
Layout1
350
1E
  3
Layout2
350
26
  3
Model
350
22
  0
DICTIONARY
  5
3B
102
{ACAD_REACTORS
330
C
102
}
330
C
100
AcDbDictionary
281
     1
  3
ByBlock
350
3D
  3
ByLayer
350
3C
  3
Global
350
3E
  0
DICTIONARY
  5
144
102
{ACAD_REACTORS
330
C
102
}
330
C
100
AcDbDictionary
281
     1
  0
DICTIONARY
  5
17
102
{ACAD_REACTORS
330
C
102
}
330
C
100
AcDbDictionary
281
     1
  3
Standard
350
18
  0
DICTIONARY
  5
19
102
{ACAD_REACTORS
330
C
102
}
330
C
100
AcDbDictionary
281
     1
  0
ACDBDICTIONARYWDFLT
  5
E
102
{ACAD_REACTORS
330
C
102
}
330
C
100
AcDbDictionary
281
     1
  3
Normal
350
F
100
AcDbDictionaryWithDefault
340
F
  0
DICTIONARY
  5
143
102
{ACAD_REACTORS
330
C
102
}
330
C
100
AcDbDictionary
281
     1
  0
DICTIONARY
  5
2A
102
{ACAD_REACTORS
330
C
102
}
330
C
100
AcDbDictionary
281
     1
  3
2dWireframe
350
2F
  3
3D Hidden
350
31
  3
3dWireframe
350
30
  3
Basic
350
32
  3
Brighten
350
36
  3
ColorChange
350
3A
  3
Conceptual
350
34
  3
Dim
350
35
  3
Facepattern
350
39
  3
Flat
350
2B
  3
FlatWithEdges
350
2C
  3
Gouraud
350
2D
  3
GouraudWithEdges
350
2E
  3
Linepattern
350
38
  3
Realistic
350
33
  3
Thicken
350
37
  0
LAYOUT
  5
1E
102
{ACAD_REACTORS
330
1A
102
}
330
1A
100
AcDbPlotSettings
  1

  2
none_device
  4

  6

 40
0.0
 41
0.0
 42
0.0
 43
0.0
 44
0.0
 45
0.0
 46
0.0
 47
0.0
 48
0.0
 49
0.0
140
0.0
141
0.0
142
1.0
143
1.0
 70
   688
 72
     0
 73
     0
 74
     5
  7

 75
    16
 76
     0
 77
     2
 78
   300
147
1.0
148
0.0
149
0.0
100
AcDbLayout
  1
Layout1
 70
     1
 71
     1
 10
0.0
 20
0.0
 11
12.0
 21
9.0
 12
0.0
 22
0.0
 32
0.0
 14
1.000000000000000E+20
 24
1.000000000000000E+20
 34
1.000000000000000E+20
 15
-1.000000000000000E+20
 25
-1.000000000000000E+20
 35
-1.000000000000000E+20
146
0.0
 13
0.0
 23
0.0
 33
0.0
 16
1.0
 26
0.0
 36
0.0
 17
0.0
 27
1.0
 37
0.0
 76
     0
330
1B
  0
LAYOUT
  5
26
102
{ACAD_REACTORS
330
1A
102
}
330
1A
100
AcDbPlotSettings
  1

  2
none_device
  4

  6

 40
0.0
 41
0.0
 42
0.0
 43
0.0
 44
0.0
 45
0.0
 46
0.0
 47
0.0
 48
0.0
 49
0.0
140
0.0
141
0.0
142
1.0
143
1.0
 70
   688
 72
     0
 73
     0
 74
     5
  7

 75
    16
 76
     0
 77
     2
 78
   300
147
1.0
148
0.0
149
0.0
100
AcDbLayout
  1
Layout2
 70
     1
 71
     2
 10
0.0
 20
0.0
 11
0.0
 21
0.0
 12
0.0
 22
0.0
 32
0.0
 14
0.0
 24
0.0
 34
0.0
 15
0.0
 25
0.0
 35
0.0
146
0.0
 13
0.0
 23
0.0
 33
0.0
 16
1.0
 26
0.0
 36
0.0
 17
0.0
 27
1.0
 37
0.0
 76
     0
330
23
  0
LAYOUT
  5
22
102
{ACAD_REACTORS
330
1A
102
}
330
1A
100
AcDbPlotSettings
  1

  2
none_device
  4

  6

 40
0.0
 41
0.0
 42
0.0
 43
0.0
 44
0.0
 45
0.0
 46
0.0
 47
0.0
 48
0.0
 49
0.0
140
0.0
141
0.0
142
1.0
143
1.0
 70
  1712
 72
     0
 73
     0
 74
     0
  7

 75
     0
 76
     0
 77
     2
 78
   300
147
1.0
148
0.0
149
0.0
100
AcDbLayout
  1
Model
 70
     1
 71
     0
 10
0.0
 20
0.0
 11
12.0
 21
9.0
 12
0.0
 22
0.0
 32
0.0
 14
1.000000000000000E+20
 24
1.000000000000000E+20
 34
1.000000000000000E+20
 15
-1.000000000000000E+20
 25
-1.000000000000000E+20
 35
-1.000000000000000E+20
146
0.0
 13
0.0
 23
0.0
 33
0.0
 16
1.0
 26
0.0
 36
0.0
 17
0.0
 27
1.0
 37
0.0
 76
     0
330
1F
331
29
  0
MATERIAL
  5
3D
102
{ACAD_REACTORS
330
3B
102
}
330
3B
100
AcDbMaterial
  1
ByBlock
 72
     1
 94
      127
  0
MATERIAL
  5
3C
102
{ACAD_REACTORS
330
3B
102
}
330
3B
100
AcDbMaterial
  1
ByLayer
 72
     1
 94
      127
  0
MATERIAL
  5
3E
102
{ACAD_REACTORS
330
3B
102
}
330
3B
100
AcDbMaterial
  1
Global
 72
     1
 94
      127
  0
MLINESTYLE
  5
18
102
{ACAD_REACTORS
330
17
102
}
330
17
100
AcDbMlineStyle
  2
Standard
 70
     0
  3

 62
   256
 51
90.0
 52
90.0
 71
     2
 49
0.5
 62
   256
  6
BYLAYER
 49
-0.5
 62
   256
  6
BYLAYER
  0
ACDBPLACEHOLDER
  5
F
102
{ACAD_REACTORS
330
E
102
}
330
E
  0
VISUALSTYLE
  5
2F
102
{ACAD_REACTORS
330
2A
102
}
102
{ACAD_XDICTIONARY
360
12B
102
}
330
2A
100
AcDbVisualStyle
  2
2dWireframe
 70
     4
 71
     0
 72
     2
 73
     0
 90
        0
 40
-0.6
 41
-30.0
 62
     5
 63
     7
421
 16777215
 74
     1
 91
        4
 64
     7
 65
   257
 75
     1
175
     1
 42
1.0
 92
        0
 66
   257
 43
1.0
 76
     1
 77
     6
 78
     2
 67
     7
 79
     5
170
     0
171
     0
290
     0
174
     0
 93
        1
 44
0.0
173
     0
291
     0
 45
0.0
  0
VISUALSTYLE
  5
31
102
{ACAD_REACTORS
330
2A
102
}
102
{ACAD_XDICTIONARY
360
12F
102
}
330
2A
100
AcDbVisualStyle
  2
3D Hidden
 70
     6
 71
     1
 72
     2
 73
     2
 90
        0
 40
-0.6
 41
-30.0
 62
     5
 63
     7
421
 16777215
 74
     2
 91
        2
 64
     7
 65
   257
 75
     2
175
     1
 42
40.0
 92
        0
 66
   257
 43
1.0
 76
     1
 77
     6
 78
     2
 67
     7
 79
     3
170
     0
171
     0
290
     0
174
     0
 93
        1
 44
0.0
173
     0
291
     0
 45
0.0
  0
VISUALSTYLE
  5
30
102
{ACAD_REACTORS
330
2A
102
}
102
{ACAD_XDICTIONARY
360
12D
102
}
330
2A
100
AcDbVisualStyle
  2
3dWireframe
 70
     5
 71
     0
 72
     2
 73
     0
 90
        0
 40
-0.6
 41
-30.0
 62
     5
 63
     7
421
 16777215
 74
     1
 91
        4
 64
     7
 65
   257
 75
     1
175
     1
 42
1.0
 92
        0
 66
   257
 43
1.0
 76
     1
 77
     6
 78
     2
 67
     7
 79
     5
170
     0
171
     0
290
     0
174
     0
 93
        1
 44
0.0
173
     0
291
     0
 45
0.0
  0
VISUALSTYLE
  5
32
102
{ACAD_REACTORS
330
2A
102
}
102
{ACAD_XDICTIONARY
360
131
102
}
330
2A
100
AcDbVisualStyle
  2
Basic
 70
     7
 71
     1
 72
     0
 73
     1
 90
        0
 40
-0.6
 41
-30.0
 62
     5
 63
     7
421
 16777215
 74
     0
 91
        4
 64
     7
 65
   257
 75
     1
175
     1
 42
1.0
 92
        8
 66
     7
 43
1.0
 76
     1
 77
     6
 78
     2
 67
     7
 79
     5
170
     0
171
     0
290
     0
174
     0
 93
        1
 44
0.0
173
     0
291
     1
 45
0.0
  0
VISUALSTYLE
  5
36
102
{ACAD_REACTORS
330
2A
102
}
102
{ACAD_XDICTIONARY
360
139
102
}
330
2A
100
AcDbVisualStyle
  2
Brighten
 70
    12
 71
     2
 72
     2
 73
     0
 90
        0
 40
-0.6
 41
-30.0
 62
     5
 63
     7
421
 16777215
 74
     1
 91
        4
 64
     7
 65
   257
 75
     1
175
     1
 42
1.0
 92
        8
 66
     7
 43
1.0
 76
     1
 77
     6
 78
     2
 67
     7
 79
     5
170
     0
171
     0
290
     0
174
     0
 93
        1
 44
50.0
173
     0
291
     1
 45
0.0
  0
VISUALSTYLE
  5
3A
102
{ACAD_REACTORS
330
2A
102
}
102
{ACAD_XDICTIONARY
360
141
102
}
330
2A
100
AcDbVisualStyle
  2
ColorChange
 70
    16
 71
     2
 72
     2
 73
     3
 90
        0
 40
-0.6
 41
-30.0
 62
     5
 63
     8
421
  8421504
 74
     1
 91
        4
 64
     7
 65
   257
 75
     1
175
     1
 42
1.0
 92
        8
 66
     8
424
  8421504
 43
1.0
 76
     1
 77
     6
 78
     2
 67
     7
 79
     5
170
     0
171
     0
290
     0
174
     0
 93
        1
 44
0.0
173
     0
291
     1
 45
0.0
  0
VISUALSTYLE
  5
34
102
{ACAD_REACTORS
330
2A
102
}
102
{ACAD_XDICTIONARY
360
135
102
}
330
2A
100
AcDbVisualStyle
  2
Conceptual
 70
     9
 71
     3
 72
     2
 73
     0
 90
        0
 40
-0.6
 41
-30.0
 62
     5
 63
     7
421
 16777215
 74
     2
 91
        2
 64
     7
 65
   257
 75
     1
175
     1
 42
40.0
 92
        8
 66
     7
 43
1.0
 76
     1
 77
     6
 78
     2
 67
     7
 79
     3
170
     0
171
     0
290
     0
174
     0
 93
        1
 44
0.0
173
     0
291
     0
 45
0.0
  0
VISUALSTYLE
  5
35
102
{ACAD_REACTORS
330
2A
102
}
102
{ACAD_XDICTIONARY
360
137
102
}
330
2A
100
AcDbVisualStyle
  2
Dim
 70
    11
 71
     2
 72
     2
 73
     0
 90
        0
 40
-0.6
 41
-30.0
 62
     5
 63
     7
421
 16777215
 74
     1
 91
        4
 64
     7
 65
   257
 75
     1
175
     1
 42
1.0
 92
        8
 66
     7
 43
1.0
 76
     1
 77
     6
 78
     2
 67
     7
 79
     5
170
     0
171
     0
290
     0
174
     0
 93
        1
 44
-50.0
173
     0
291
     1
 45
0.0
  0
VISUALSTYLE
  5
39
102
{ACAD_REACTORS
330
2A
102
}
102
{ACAD_XDICTIONARY
360
13F
102
}
330
2A
100
AcDbVisualStyle
  2
Facepattern
 70
    15
 71
     2
 72
     2
 73
     0
 90
        0
 40
-0.6
 41
-30.0
 62
     5
 63
     7
421
 16777215
 74
     1
 91
        4
 64
     7
 65
   257
 75
     1
175
     1
 42
1.0
 92
        8
 66
     7
 43
1.0
 76
     1
 77
     6
 78
     2
 67
     7
 79
     5
170
     0
171
     0
290
     0
174
     0
 93
        1
 44
0.0
173
     0
291
     1
 45
0.0
  0
VISUALSTYLE
  5
2B
102
{ACAD_REACTORS
330
2A
102
}
102
{ACAD_XDICTIONARY
360
123
102
}
330
2A
100
AcDbVisualStyle
  2
Flat
 70
     0
 71
     2
 72
     1
 73
     1
 90
        2
 40
-0.6
 41
30.0
 62
     5
 63
     7
421
 16777215
 74
     0
 91
        4
 64
     7
 65
   257
 75
     1
175
     1
 42
1.0
 92
        8
 66
     7
 43
1.0
 76
     1
 77
     6
 78
     2
 67
     7
 79
     5
170
     0
171
     0
290
     0
174
     0
 93
       13
 44
0.0
173
     0
291
     1
 45
0.0
  0
VISUALSTYLE
  5
2C
102
{ACAD_REACTORS
330
2A
102
}
102
{ACAD_XDICTIONARY
360
125
102
}
330
2A
100
AcDbVisualStyle
  2
FlatWithEdges
 70
     1
 71
     2
 72
     1
 73
     1
 90
        2
 40
-0.6
 41
30.0
 62
     5
 63
     7
421
 16777215
 74
     1
 91
        4
 64
     7
 65
   257
 75
     1
175
     1
 42
1.0
 92
        0
 66
   257
 43
1.0
 76
     1
 77
     6
 78
     2
 67
     7
 79
     5
170
     0
171
     0
290
     0
174
     0
 93
       13
 44
0.0
173
     0
291
     1
 45
0.0
  0
VISUALSTYLE
  5
2D
102
{ACAD_REACTORS
330
2A
102
}
102
{ACAD_XDICTIONARY
360
127
102
}
330
2A
100
AcDbVisualStyle
  2
Gouraud
 70
     2
 71
     2
 72
     2
 73
     1
 90
        2
 40
-0.6
 41
30.0
 62
     5
 63
     7
421
 16777215
 74
     0
 91
        4
 64
     7
 65
   257
 75
     1
175
     1
 42
1.0
 92
        0
 66
     7
 43
1.0
 76
     1
 77
     6
 78
     2
 67
     7
 79
     5
170
     0
171
     0
290
     0
174
     0
 93
       13
 44
0.0
173
     0
291
     1
 45
0.0
  0
VISUALSTYLE
  5
2E
102
{ACAD_REACTORS
330
2A
102
}
102
{ACAD_XDICTIONARY
360
129
102
}
330
2A
100
AcDbVisualStyle
  2
GouraudWithEdges
 70
     3
 71
     2
 72
     2
 73
     1
 90
        2
 40
-0.6
 41
30.0
 62
     5
 63
     7
421
 16777215
 74
     1
 91
        4
 64
     7
 65
   257
 75
     1
175
     1
 42
1.0
 92
        0
 66
   257
 43
1.0
 76
     1
 77
     6
 78
     2
 67
     7
 79
     5
170
     0
171
     0
290
     0
174
     0
 93
       13
 44
0.0
173
     0
291
     1
 45
0.0
  0
VISUALSTYLE
  5
38
102
{ACAD_REACTORS
330
2A
102
}
102
{ACAD_XDICTIONARY
360
13D
102
}
330
2A
100
AcDbVisualStyle
  2
Linepattern
 70
    14
 71
     2
 72
     2
 73
     0
 90
        0
 40
-0.6
 41
-30.0
 62
     5
 63
     7
421
 16777215
 74
     1
 91
        4
 64
     7
 65
   257
 75
     7
175
     7
 42
1.0
 92
        8
 66
     7
 43
1.0
 76
     1
 77
     6
 78
     2
 67
     7
 79
     5
170
     0
171
     0
290
     0
174
     0
 93
        1
 44
0.0
173
     0
291
     1
 45
0.0
  0
VISUALSTYLE
  5
33
102
{ACAD_REACTORS
330
2A
102
}
102
{ACAD_XDICTIONARY
360
133
102
}
330
2A
100
AcDbVisualStyle
  2
Realistic
 70
     8
 71
     2
 72
     2
 73
     0
 90
        0
 40
-0.6
 41
-30.0
 62
     5
 63
     7
421
 16777215
 74
     1
 91
        0
 64
     7
 65
   257
 75
     1
175
     1
 42
1.0
 92
        8
 66
     8
424
  7895160
 43
1.0
 76
     1
 77
     6
 78
     2
 67
     7
 79
     5
170
     0
171
     0
290
     0
174
     0
 93
       13
 44
0.0
173
     0
291
     0
 45
0.0
  0
VISUALSTYLE
  5
37
102
{ACAD_REACTORS
330
2A
102
}
102
{ACAD_XDICTIONARY
360
13B
102
}
330
2A
100
AcDbVisualStyle
  2
Thicken
 70
    13
 71
     2
 72
     2
 73
     0
 90
        0
 40
-0.6
 41
-30.0
 62
     5
 63
     7
421
 16777215
 74
     1
 91
        4
 64
     7
 65
   257
 75
     1
175
     1
 42
1.0
 92
       12
 66
     7
 43
1.0
 76
     1
 77
     6
 78
     2
 67
     7
 79
     5
170
     0
171
     0
290
     0
174
     0
 93
        1
 44
0.0
173
     0
291
     1
 45
0.0
  0
DICTIONARY
  5
12B
330
2F
100
AcDbDictionary
280
     1
281
     1
  3
ACAD_XREC_ROUNDTRIP
360
12C
  0
DICTIONARY
  5
12F
330
31
100
AcDbDictionary
280
     1
281
     1
  3
ACAD_XREC_ROUNDTRIP
360
130
  0
DICTIONARY
  5
12D
330
30
100
AcDbDictionary
280
     1
281
     1
  3
ACAD_XREC_ROUNDTRIP
360
12E
  0
DICTIONARY
  5
131
330
32
100
AcDbDictionary
280
     1
281
     1
  3
ACAD_XREC_ROUNDTRIP
360
132
  0
DICTIONARY
  5
139
330
36
100
AcDbDictionary
280
     1
281
     1
  3
ACAD_XREC_ROUNDTRIP
360
13A
  0
DICTIONARY
  5
141
330
3A
100
AcDbDictionary
280
     1
281
     1
  3
ACAD_XREC_ROUNDTRIP
360
142
  0
DICTIONARY
  5
135
330
34
100
AcDbDictionary
280
     1
281
     1
  3
ACAD_XREC_ROUNDTRIP
360
136
  0
DICTIONARY
  5
137
330
35
100
AcDbDictionary
280
     1
281
     1
  3
ACAD_XREC_ROUNDTRIP
360
138
  0
DICTIONARY
  5
13F
330
39
100
AcDbDictionary
280
     1
281
     1
  3
ACAD_XREC_ROUNDTRIP
360
140
  0
DICTIONARY
  5
123
330
2B
100
AcDbDictionary
280
     1
281
     1
  3
ACAD_XREC_ROUNDTRIP
360
124
  0
DICTIONARY
  5
125
330
2C
100
AcDbDictionary
280
     1
281
     1
  3
ACAD_XREC_ROUNDTRIP
360
126
  0
DICTIONARY
  5
127
330
2D
100
AcDbDictionary
280
     1
281
     1
  3
ACAD_XREC_ROUNDTRIP
360
128
  0
DICTIONARY
  5
129
330
2E
100
AcDbDictionary
280
     1
281
     1
  3
ACAD_XREC_ROUNDTRIP
360
12A
  0
DICTIONARY
  5
13D
330
38
100
AcDbDictionary
280
     1
281
     1
  3
ACAD_XREC_ROUNDTRIP
360
13E
  0
DICTIONARY
  5
133
330
33
100
AcDbDictionary
280
     1
281
     1
  3
ACAD_XREC_ROUNDTRIP
360
134
  0
DICTIONARY
  5
13B
330
37
100
AcDbDictionary
280
     1
281
     1
  3
ACAD_XREC_ROUNDTRIP
360
13C
  0
XRECORD
  5
12C
102
{ACAD_REACTORS
330
12B
102
}
330
12B
100
AcDbXrecord
280
     1
102
RTVSPropertyOp0
 70
     1
102
RTVSPropertyOp1
 70
     1
102
RTVSPropertyOp2
 70
     1
102
RTVSPropertyOp3
 70
     1
102
RTVSPropertyOp4
 70
     1
102
RTVSPropertyOp5
 70
     1
102
RTVSPropertyOp6
 70
     1
102
RTVSPropertyOp7
 70
     1
102
RTVSPropertyOp8
 70
     1
102
RTVSPropertyOp9
 70
     1
102
RTVSPropertyOp10
 70
     1
102
RTVSPropertyOp11
 70
     1
102
RTVSPropertyOp12
 70
     1
102
RTVSPropertyOp13
 70
     1
102
RTVSPropertyOp14
 70
     1
102
RTVSPropertyOp15
 70
     1
102
RTVSPropertyOp16
 70
     1
102
RTVSPropertyOp17
 70
     1
102
RTVSPropertyOp18
 70
     1
102
RTVSPropertyOp19
 70
     1
102
RTVSPropertyOp20
 70
     1
102
RTVSPropertyOp21
 70
     1
102
RTVSPropertyOp22
 70
     1
102
RTVSPropertyOp23
 70
     1
102
RTVSPropertyOp24
 70
     1
102
RTVSPropertyOp25
 70
     1
102
RTVSPropertyOp26
 70
     1
102
RTVSPropertyOp27
 70
     1
102
RTVSPropertyOp28
 70
     1
102
RTVSPropertyOp29
 70
     1
102
RTVSPropertyOp30
 70
     1
102
RTVSPropertyOp31
 70
     1
102
RTVSPropertyOp32
 70
     1
  0
XRECORD
  5
130
102
{ACAD_REACTORS
330
12F
102
}
330
12F
100
AcDbXrecord
280
     1
102
RTVSPropertyOp0
 70
     1
102
RTVSPropertyOp1
 70
     1
102
RTVSPropertyOp2
 70
     1
102
RTVSPropertyOp3
 70
     1
102
RTVSPropertyOp4
 70
     1
102
RTVSPropertyOp5
 70
     1
102
RTVSPropertyOp6
 70
     1
102
RTVSPropertyOp7
 70
     1
102
RTVSPropertyOp8
 70
     1
102
RTVSPropertyOp9
 70
     1
102
RTVSPropertyOp10
 70
     1
102
RTVSPropertyOp11
 70
     1
102
RTVSPropertyOp12
 70
     1
102
RTVSPropertyOp13
 70
     1
102
RTVSPropertyOp14
 70
     1
102
RTVSPropertyOp15
 70
     1
102
RTVSPropertyOp16
 70
     1
102
RTVSPropertyOp17
 70
     1
102
RTVSPropertyOp18
 70
     1
102
RTVSPropertyOp19
 70
     1
102
RTVSPropertyOp20
 70
     1
102
RTVSPropertyOp21
 70
     1
102
RTVSPropertyOp22
 70
     1
102
RTVSPropertyOp23
 70
     1
102
RTVSPropertyOp24
 70
     1
102
RTVSPropertyOp25
 70
     1
102
RTVSPropertyOp26
 70
     1
102
RTVSPropertyOp27
 70
     1
102
RTVSPropertyOp28
 70
     1
102
RTVSPropertyOp29
 70
     1
102
RTVSPropertyOp30
 70
     1
102
RTVSPropertyOp31
 70
     1
102
RTVSPropertyOp32
 70
     1
  0
XRECORD
  5
12E
102
{ACAD_REACTORS
330
12D
102
}
330
12D
100
AcDbXrecord
280
     1
102
RTVSPropertyOp0
 70
     1
102
RTVSPropertyOp1
 70
     1
102
RTVSPropertyOp2
 70
     1
102
RTVSPropertyOp3
 70
     1
102
RTVSPropertyOp4
 70
     1
102
RTVSPropertyOp5
 70
     1
102
RTVSPropertyOp6
 70
     1
102
RTVSPropertyOp7
 70
     1
102
RTVSPropertyOp8
 70
     1
102
RTVSPropertyOp9
 70
     1
102
RTVSPropertyOp10
 70
     1
102
RTVSPropertyOp11
 70
     1
102
RTVSPropertyOp12
 70
     1
102
RTVSPropertyOp13
 70
     1
102
RTVSPropertyOp14
 70
     1
102
RTVSPropertyOp15
 70
     1
102
RTVSPropertyOp16
 70
     1
102
RTVSPropertyOp17
 70
     1
102
RTVSPropertyOp18
 70
     1
102
RTVSPropertyOp19
 70
     1
102
RTVSPropertyOp20
 70
     1
102
RTVSPropertyOp21
 70
     1
102
RTVSPropertyOp22
 70
     1
102
RTVSPropertyOp23
 70
     1
102
RTVSPropertyOp24
 70
     1
102
RTVSPropertyOp25
 70
     1
102
RTVSPropertyOp26
 70
     1
102
RTVSPropertyOp27
 70
     1
102
RTVSPropertyOp28
 70
     1
102
RTVSPropertyOp29
 70
     1
102
RTVSPropertyOp30
 70
     1
102
RTVSPropertyOp31
 70
     1
102
RTVSPropertyOp32
 70
     1
  0
XRECORD
  5
132
102
{ACAD_REACTORS
330
131
102
}
330
131
100
AcDbXrecord
280
     1
102
RTVSPropertyOp0
 70
     1
102
RTVSPropertyOp1
 70
     1
102
RTVSPropertyOp2
 70
     1
102
RTVSPropertyOp3
 70
     1
102
RTVSPropertyOp4
 70
     1
102
RTVSPropertyOp5
 70
     1
102
RTVSPropertyOp6
 70
     1
102
RTVSPropertyOp7
 70
     1
102
RTVSPropertyOp8
 70
     1
102
RTVSPropertyOp9
 70
     1
102
RTVSPropertyOp10
 70
     1
102
RTVSPropertyOp11
 70
     1
102
RTVSPropertyOp12
 70
     1
102
RTVSPropertyOp13
 70
     1
102
RTVSPropertyOp14
 70
     1
102
RTVSPropertyOp15
 70
     1
102
RTVSPropertyOp16
 70
     1
102
RTVSPropertyOp17
 70
     1
102
RTVSPropertyOp18
 70
     1
102
RTVSPropertyOp19
 70
     1
102
RTVSPropertyOp20
 70
     1
102
RTVSPropertyOp21
 70
     1
102
RTVSPropertyOp22
 70
     1
102
RTVSPropertyOp23
 70
     1
102
RTVSPropertyOp24
 70
     1
102
RTVSPropertyOp25
 70
     1
102
RTVSPropertyOp26
 70
     1
102
RTVSPropertyOp27
 70
     1
102
RTVSPropertyOp28
 70
     1
102
RTVSPropertyOp29
 70
     1
102
RTVSPropertyOp30
 70
     1
102
RTVSPropertyOp31
 70
     1
102
RTVSPropertyOp32
 70
     1
  0
XRECORD
  5
13A
102
{ACAD_REACTORS
330
139
102
}
330
139
100
AcDbXrecord
280
     1
102
RTVSPropertyOp0
 70
     1
102
RTVSPropertyOp1
 70
     1
102
RTVSPropertyOp2
 70
     1
102
RTVSPropertyOp3
 70
     1
102
RTVSPropertyOp4
 70
     1
102
RTVSPropertyOp5
 70
     1
102
RTVSPropertyOp6
 70
     1
102
RTVSPropertyOp7
 70
     1
102
RTVSPropertyOp8
 70
     1
102
RTVSPropertyOp9
 70
     1
102
RTVSPropertyOp10
 70
     1
102
RTVSPropertyOp11
 70
     1
102
RTVSPropertyOp12
 70
     1
102
RTVSPropertyOp13
 70
     1
102
RTVSPropertyOp14
 70
     1
102
RTVSPropertyOp15
 70
     1
102
RTVSPropertyOp16
 70
     1
102
RTVSPropertyOp17
 70
     1
102
RTVSPropertyOp18
 70
     1
102
RTVSPropertyOp19
 70
     1
102
RTVSPropertyOp20
 70
     1
102
RTVSPropertyOp21
 70
     1
102
RTVSPropertyOp22
 70
     1
102
RTVSPropertyOp23
 70
     1
102
RTVSPropertyOp24
 70
     1
102
RTVSPropertyOp25
 70
     1
102
RTVSPropertyOp26
 70
     1
102
RTVSPropertyOp27
 70
     1
102
RTVSPropertyOp28
 70
     1
102
RTVSPropertyOp29
 70
     1
102
RTVSPropertyOp30
 70
     1
102
RTVSPropertyOp31
 70
     1
102
RTVSPropertyOp32
 70
     1
  0
XRECORD
  5
142
102
{ACAD_REACTORS
330
141
102
}
330
141
100
AcDbXrecord
280
     1
102
RTVSPropertyOp0
 70
     1
102
RTVSPropertyOp1
 70
     1
102
RTVSPropertyOp2
 70
     1
102
RTVSPropertyOp3
 70
     1
102
RTVSPropertyOp4
 70
     1
102
RTVSPropertyOp5
 70
     1
102
RTVSPropertyOp6
 70
     1
102
RTVSPropertyOp7
 70
     1
102
RTVSPropertyOp8
 70
     1
102
RTVSPropertyOp9
 70
     1
102
RTVSPropertyOp10
 70
     1
102
RTVSPropertyOp11
 70
     1
102
RTVSPropertyOp12
 70
     1
102
RTVSPropertyOp13
 70
     1
102
RTVSPropertyOp14
 70
     1
102
RTVSPropertyOp15
 70
     1
102
RTVSPropertyOp16
 70
     1
102
RTVSPropertyOp17
 70
     1
102
RTVSPropertyOp18
 70
     1
102
RTVSPropertyOp19
 70
     1
102
RTVSPropertyOp20
 70
     1
102
RTVSPropertyOp21
 70
     1
102
RTVSPropertyOp22
 70
     1
102
RTVSPropertyOp23
 70
     1
102
RTVSPropertyOp24
 70
     1
102
RTVSPropertyOp25
 70
     1
102
RTVSPropertyOp26
 70
     1
102
RTVSPropertyOp27
 70
     1
102
RTVSPropertyOp28
 70
     1
102
RTVSPropertyOp29
 70
     1
102
RTVSPropertyOp30
 70
     1
102
RTVSPropertyOp31
 70
     1
102
RTVSPropertyOp32
 70
     1
  0
XRECORD
  5
136
102
{ACAD_REACTORS
330
135
102
}
330
135
100
AcDbXrecord
280
     1
102
RTVSPropertyOp0
 70
     1
102
RTVSPropertyOp1
 70
     1
102
RTVSPropertyOp2
 70
     1
102
RTVSPropertyOp3
 70
     1
102
RTVSPropertyOp4
 70
     1
102
RTVSPropertyOp5
 70
     1
102
RTVSPropertyOp6
 70
     1
102
RTVSPropertyOp7
 70
     1
102
RTVSPropertyOp8
 70
     1
102
RTVSPropertyOp9
 70
     1
102
RTVSPropertyOp10
 70
     1
102
RTVSPropertyOp11
 70
     1
102
RTVSPropertyOp12
 70
     1
102
RTVSPropertyOp13
 70
     1
102
RTVSPropertyOp14
 70
     1
102
RTVSPropertyOp15
 70
     1
102
RTVSPropertyOp16
 70
     1
102
RTVSPropertyOp17
 70
     1
102
RTVSPropertyOp18
 70
     1
102
RTVSPropertyOp19
 70
     1
102
RTVSPropertyOp20
 70
     1
102
RTVSPropertyOp21
 70
     1
102
RTVSPropertyOp22
 70
     1
102
RTVSPropertyOp23
 70
     1
102
RTVSPropertyOp24
 70
     1
102
RTVSPropertyOp25
 70
     1
102
RTVSPropertyOp26
 70
     1
102
RTVSPropertyOp27
 70
     1
102
RTVSPropertyOp28
 70
     1
102
RTVSPropertyOp29
 70
     1
102
RTVSPropertyOp30
 70
     1
102
RTVSPropertyOp31
 70
     1
102
RTVSPropertyOp32
 70
     1
  0
XRECORD
  5
138
102
{ACAD_REACTORS
330
137
102
}
330
137
100
AcDbXrecord
280
     1
102
RTVSPropertyOp0
 70
     1
102
RTVSPropertyOp1
 70
     1
102
RTVSPropertyOp2
 70
     1
102
RTVSPropertyOp3
 70
     1
102
RTVSPropertyOp4
 70
     1
102
RTVSPropertyOp5
 70
     1
102
RTVSPropertyOp6
 70
     1
102
RTVSPropertyOp7
 70
     1
102
RTVSPropertyOp8
 70
     1
102
RTVSPropertyOp9
 70
     1
102
RTVSPropertyOp10
 70
     1
102
RTVSPropertyOp11
 70
     1
102
RTVSPropertyOp12
 70
     1
102
RTVSPropertyOp13
 70
     1
102
RTVSPropertyOp14
 70
     1
102
RTVSPropertyOp15
 70
     1
102
RTVSPropertyOp16
 70
     1
102
RTVSPropertyOp17
 70
     1
102
RTVSPropertyOp18
 70
     1
102
RTVSPropertyOp19
 70
     1
102
RTVSPropertyOp20
 70
     1
102
RTVSPropertyOp21
 70
     1
102
RTVSPropertyOp22
 70
     1
102
RTVSPropertyOp23
 70
     1
102
RTVSPropertyOp24
 70
     1
102
RTVSPropertyOp25
 70
     1
102
RTVSPropertyOp26
 70
     1
102
RTVSPropertyOp27
 70
     1
102
RTVSPropertyOp28
 70
     1
102
RTVSPropertyOp29
 70
     1
102
RTVSPropertyOp30
 70
     1
102
RTVSPropertyOp31
 70
     1
102
RTVSPropertyOp32
 70
     1
  0
XRECORD
  5
140
102
{ACAD_REACTORS
330
13F
102
}
330
13F
100
AcDbXrecord
280
     1
102
RTVSPropertyOp0
 70
     1
102
RTVSPropertyOp1
 70
     1
102
RTVSPropertyOp2
 70
     1
102
RTVSPropertyOp3
 70
     1
102
RTVSPropertyOp4
 70
     1
102
RTVSPropertyOp5
 70
     1
102
RTVSPropertyOp6
 70
     1
102
RTVSPropertyOp7
 70
     1
102
RTVSPropertyOp8
 70
     1
102
RTVSPropertyOp9
 70
     1
102
RTVSPropertyOp10
 70
     1
102
RTVSPropertyOp11
 70
     1
102
RTVSPropertyOp12
 70
     1
102
RTVSPropertyOp13
 70
     1
102
RTVSPropertyOp14
 70
     1
102
RTVSPropertyOp15
 70
     1
102
RTVSPropertyOp16
 70
     1
102
RTVSPropertyOp17
 70
     1
102
RTVSPropertyOp18
 70
     1
102
RTVSPropertyOp19
 70
     1
102
RTVSPropertyOp20
 70
     1
102
RTVSPropertyOp21
 70
     1
102
RTVSPropertyOp22
 70
     1
102
RTVSPropertyOp23
 70
     1
102
RTVSPropertyOp24
 70
     1
102
RTVSPropertyOp25
 70
     1
102
RTVSPropertyOp26
 70
     1
102
RTVSPropertyOp27
 70
     1
102
RTVSPropertyOp28
 70
     1
102
RTVSPropertyOp29
 70
     1
102
RTVSPropertyOp30
 70
     1
102
RTVSPropertyOp31
 70
     1
102
RTVSPropertyOp32
 70
     1
  0
XRECORD
  5
124
102
{ACAD_REACTORS
330
123
102
}
330
123
100
AcDbXrecord
280
     1
102
RTVSPropertyOp0
 70
     1
102
RTVSPropertyOp1
 70
     1
102
RTVSPropertyOp2
 70
     1
102
RTVSPropertyOp3
 70
     1
102
RTVSPropertyOp4
 70
     1
102
RTVSPropertyOp5
 70
     1
102
RTVSPropertyOp6
 70
     1
102
RTVSPropertyOp7
 70
     1
102
RTVSPropertyOp8
 70
     1
102
RTVSPropertyOp9
 70
     1
102
RTVSPropertyOp10
 70
     1
102
RTVSPropertyOp11
 70
     1
102
RTVSPropertyOp12
 70
     1
102
RTVSPropertyOp13
 70
     1
102
RTVSPropertyOp14
 70
     1
102
RTVSPropertyOp15
 70
     1
102
RTVSPropertyOp16
 70
     1
102
RTVSPropertyOp17
 70
     1
102
RTVSPropertyOp18
 70
     1
102
RTVSPropertyOp19
 70
     1
102
RTVSPropertyOp20
 70
     1
102
RTVSPropertyOp21
 70
     1
102
RTVSPropertyOp22
 70
     1
102
RTVSPropertyOp23
 70
     1
102
RTVSPropertyOp24
 70
     1
102
RTVSPropertyOp25
 70
     1
102
RTVSPropertyOp26
 70
     1
102
RTVSPropertyOp27
 70
     1
102
RTVSPropertyOp28
 70
     1
102
RTVSPropertyOp29
 70
     1
102
RTVSPropertyOp30
 70
     1
102
RTVSPropertyOp31
 70
     1
102
RTVSPropertyOp32
 70
     1
  0
XRECORD
  5
126
102
{ACAD_REACTORS
330
125
102
}
330
125
100
AcDbXrecord
280
     1
102
RTVSPropertyOp0
 70
     1
102
RTVSPropertyOp1
 70
     1
102
RTVSPropertyOp2
 70
     1
102
RTVSPropertyOp3
 70
     1
102
RTVSPropertyOp4
 70
     1
102
RTVSPropertyOp5
 70
     1
102
RTVSPropertyOp6
 70
     1
102
RTVSPropertyOp7
 70
     1
102
RTVSPropertyOp8
 70
     1
102
RTVSPropertyOp9
 70
     1
102
RTVSPropertyOp10
 70
     1
102
RTVSPropertyOp11
 70
     1
102
RTVSPropertyOp12
 70
     1
102
RTVSPropertyOp13
 70
     1
102
RTVSPropertyOp14
 70
     1
102
RTVSPropertyOp15
 70
     1
102
RTVSPropertyOp16
 70
     1
102
RTVSPropertyOp17
 70
     1
102
RTVSPropertyOp18
 70
     1
102
RTVSPropertyOp19
 70
     1
102
RTVSPropertyOp20
 70
     1
102
RTVSPropertyOp21
 70
     1
102
RTVSPropertyOp22
 70
     1
102
RTVSPropertyOp23
 70
     1
102
RTVSPropertyOp24
 70
     1
102
RTVSPropertyOp25
 70
     1
102
RTVSPropertyOp26
 70
     1
102
RTVSPropertyOp27
 70
     1
102
RTVSPropertyOp28
 70
     1
102
RTVSPropertyOp29
 70
     1
102
RTVSPropertyOp30
 70
     1
102
RTVSPropertyOp31
 70
     1
102
RTVSPropertyOp32
 70
     1
  0
XRECORD
  5
128
102
{ACAD_REACTORS
330
127
102
}
330
127
100
AcDbXrecord
280
     1
102
RTVSPropertyOp0
 70
     1
102
RTVSPropertyOp1
 70
     1
102
RTVSPropertyOp2
 70
     1
102
RTVSPropertyOp3
 70
     1
102
RTVSPropertyOp4
 70
     1
102
RTVSPropertyOp5
 70
     1
102
RTVSPropertyOp6
 70
     1
102
RTVSPropertyOp7
 70
     1
102
RTVSPropertyOp8
 70
     1
102
RTVSPropertyOp9
 70
     1
102
RTVSPropertyOp10
 70
     1
102
RTVSPropertyOp11
 70
     1
102
RTVSPropertyOp12
 70
     1
102
RTVSPropertyOp13
 70
     1
102
RTVSPropertyOp14
 70
     1
102
RTVSPropertyOp15
 70
     1
102
RTVSPropertyOp16
 70
     1
102
RTVSPropertyOp17
 70
     1
102
RTVSPropertyOp18
 70
     1
102
RTVSPropertyOp19
 70
     1
102
RTVSPropertyOp20
 70
     1
102
RTVSPropertyOp21
 70
     1
102
RTVSPropertyOp22
 70
     1
102
RTVSPropertyOp23
 70
     1
102
RTVSPropertyOp24
 70
     1
102
RTVSPropertyOp25
 70
     1
102
RTVSPropertyOp26
 70
     1
102
RTVSPropertyOp27
 70
     1
102
RTVSPropertyOp28
 70
     1
102
RTVSPropertyOp29
 70
     1
102
RTVSPropertyOp30
 70
     1
102
RTVSPropertyOp31
 70
     1
102
RTVSPropertyOp32
 70
     1
  0
XRECORD
  5
12A
102
{ACAD_REACTORS
330
129
102
}
330
129
100
AcDbXrecord
280
     1
102
RTVSPropertyOp0
 70
     1
102
RTVSPropertyOp1
 70
     1
102
RTVSPropertyOp2
 70
     1
102
RTVSPropertyOp3
 70
     1
102
RTVSPropertyOp4
 70
     1
102
RTVSPropertyOp5
 70
     1
102
RTVSPropertyOp6
 70
     1
102
RTVSPropertyOp7
 70
     1
102
RTVSPropertyOp8
 70
     1
102
RTVSPropertyOp9
 70
     1
102
RTVSPropertyOp10
 70
     1
102
RTVSPropertyOp11
 70
     1
102
RTVSPropertyOp12
 70
     1
102
RTVSPropertyOp13
 70
     1
102
RTVSPropertyOp14
 70
     1
102
RTVSPropertyOp15
 70
     1
102
RTVSPropertyOp16
 70
     1
102
RTVSPropertyOp17
 70
     1
102
RTVSPropertyOp18
 70
     1
102
RTVSPropertyOp19
 70
     1
102
RTVSPropertyOp20
 70
     1
102
RTVSPropertyOp21
 70
     1
102
RTVSPropertyOp22
 70
     1
102
RTVSPropertyOp23
 70
     1
102
RTVSPropertyOp24
 70
     1
102
RTVSPropertyOp25
 70
     1
102
RTVSPropertyOp26
 70
     1
102
RTVSPropertyOp27
 70
     1
102
RTVSPropertyOp28
 70
     1
102
RTVSPropertyOp29
 70
     1
102
RTVSPropertyOp30
 70
     1
102
RTVSPropertyOp31
 70
     1
102
RTVSPropertyOp32
 70
     1
  0
XRECORD
  5
13E
102
{ACAD_REACTORS
330
13D
102
}
330
13D
100
AcDbXrecord
280
     1
102
RTVSPropertyOp0
 70
     1
102
RTVSPropertyOp1
 70
     1
102
RTVSPropertyOp2
 70
     1
102
RTVSPropertyOp3
 70
     1
102
RTVSPropertyOp4
 70
     1
102
RTVSPropertyOp5
 70
     1
102
RTVSPropertyOp6
 70
     1
102
RTVSPropertyOp7
 70
     1
102
RTVSPropertyOp8
 70
     1
102
RTVSPropertyOp9
 70
     1
102
RTVSPropertyOp10
 70
     1
102
RTVSPropertyOp11
 70
     1
102
RTVSPropertyOp12
 70
     1
102
RTVSPropertyOp13
 70
     1
102
RTVSPropertyOp14
 70
     1
102
RTVSPropertyOp15
 70
     1
102
RTVSPropertyOp16
 70
     1
102
RTVSPropertyOp17
 70
     1
102
RTVSPropertyOp18
 70
     1
102
RTVSPropertyOp19
 70
     1
102
RTVSPropertyOp20
 70
     1
102
RTVSPropertyOp21
 70
     1
102
RTVSPropertyOp22
 70
     1
102
RTVSPropertyOp23
 70
     1
102
RTVSPropertyOp24
 70
     1
102
RTVSPropertyOp25
 70
     1
102
RTVSPropertyOp26
 70
     1
102
RTVSPropertyOp27
 70
     1
102
RTVSPropertyOp28
 70
     1
102
RTVSPropertyOp29
 70
     1
102
RTVSPropertyOp30
 70
     1
102
RTVSPropertyOp31
 70
     1
102
RTVSPropertyOp32
 70
     1
  0
XRECORD
  5
134
102
{ACAD_REACTORS
330
133
102
}
330
133
100
AcDbXrecord
280
     1
102
RTVSPropertyOp0
 70
     1
102
RTVSPropertyOp1
 70
     1
102
RTVSPropertyOp2
 70
     1
102
RTVSPropertyOp3
 70
     1
102
RTVSPropertyOp4
 70
     1
102
RTVSPropertyOp5
 70
     1
102
RTVSPropertyOp6
 70
     1
102
RTVSPropertyOp7
 70
     1
102
RTVSPropertyOp8
 70
     1
102
RTVSPropertyOp9
 70
     1
102
RTVSPropertyOp10
 70
     1
102
RTVSPropertyOp11
 70
     1
102
RTVSPropertyOp12
 70
     1
102
RTVSPropertyOp13
 70
     1
102
RTVSPropertyOp14
 70
     1
102
RTVSPropertyOp15
 70
     1
102
RTVSPropertyOp16
 70
     1
102
RTVSPropertyOp17
 70
     1
102
RTVSPropertyOp18
 70
     1
102
RTVSPropertyOp19
 70
     1
102
RTVSPropertyOp20
 70
     1
102
RTVSPropertyOp21
 70
     1
102
RTVSPropertyOp22
 70
     1
102
RTVSPropertyOp23
 70
     1
102
RTVSPropertyOp24
 70
     1
102
RTVSPropertyOp25
 70
     1
102
RTVSPropertyOp26
 70
     1
102
RTVSPropertyOp27
 70
     1
102
RTVSPropertyOp28
 70
     1
102
RTVSPropertyOp29
 70
     1
102
RTVSPropertyOp30
 70
     1
102
RTVSPropertyOp31
 70
     1
102
RTVSPropertyOp32
 70
     1
  0
XRECORD
  5
13C
102
{ACAD_REACTORS
330
13B
102
}
330
13B
100
AcDbXrecord
280
     1
102
RTVSPropertyOp0
 70
     1
102
RTVSPropertyOp1
 70
     1
102
RTVSPropertyOp2
 70
     1
102
RTVSPropertyOp3
 70
     1
102
RTVSPropertyOp4
 70
     1
102
RTVSPropertyOp5
 70
     1
102
RTVSPropertyOp6
 70
     1
102
RTVSPropertyOp7
 70
     1
102
RTVSPropertyOp8
 70
     1
102
RTVSPropertyOp9
 70
     1
102
RTVSPropertyOp10
 70
     1
102
RTVSPropertyOp11
 70
     1
102
RTVSPropertyOp12
 70
     1
102
RTVSPropertyOp13
 70
     1
102
RTVSPropertyOp14
 70
     1
102
RTVSPropertyOp15
 70
     1
102
RTVSPropertyOp16
 70
     1
102
RTVSPropertyOp17
 70
     1
102
RTVSPropertyOp18
 70
     1
102
RTVSPropertyOp19
 70
     1
102
RTVSPropertyOp20
 70
     1
102
RTVSPropertyOp21
 70
     1
102
RTVSPropertyOp22
 70
     1
102
RTVSPropertyOp23
 70
     1
102
RTVSPropertyOp24
 70
     1
102
RTVSPropertyOp25
 70
     1
102
RTVSPropertyOp26
 70
     1
102
RTVSPropertyOp27
 70
     1
102
RTVSPropertyOp28
 70
     1
102
RTVSPropertyOp29
 70
     1
102
RTVSPropertyOp30
 70
     1
102
RTVSPropertyOp31
 70
     1
102
RTVSPropertyOp32
 70
     1
  0
ENDSEC
  0
EOF
