  0
SECTION
  2
HEADER
  9
$ACADVER
  1
AC1021
  9
$ACADMAINTVER
 70
    25
  9
$DWGCODEPAGE
  3
ANSI_932
  9
$INSBASE
 10
0.0
 20
0.0
 30
0.0
  9
$EXTMIN
 10
1.000000000000000E+20
 20
1.000000000000000E+20
 30
1.000000000000000E+20
  9
$EXTMAX
 10
-1.000000000000000E+20
 20
-1.000000000000000E+20
 30
-1.000000000000000E+20
  9
$LIMMIN
 10
0.0
 20
0.0
  9
$LIMMAX
 10
12.0
 20
9.0
  9
$ORTHOMODE
 70
     0
  9
$REGENMODE
 70
     1
  9
$FILLMODE
 70
     1
  9
$QTEXTMODE
 70
     0
  9
$MIRRTEXT
 70
     1
  9
$LTSCALE
 40
1.0
  9
$ATTMODE
 70
     1
  9
$TEXTSIZE
 40
0.2
  9
$TRACEWID
 40
0.05
  9
$TEXTSTYLE
  7
Standard
  9
$CLAYER
  8
0
  9
$CELTYPE
  6
ByLayer
  9
$CECOLOR
 62
   256
  9
$CELTSCALE
 40
1.0
  9
$DISPSILH
 70
     0
  9
$DIMSCALE
 40
1.0
  9
$DIMASZ
 40
0.18
  9
$DIMEXO
 40
0.0625
  9
$DIMDLI
 40
0.38
  9
$DIMRND
 40
0.0
  9
$DIMDLE
 40
0.0
  9
$DIMEXE
 40
0.18
  9
$DIMTP
 40
0.0
  9
$DIMTM
 40
0.0
  9
$DIMTXT
 40
0.18
  9
$DIMCEN
 40
0.09
  9
$DIMTSZ
 40
0.0
  9
$DIMTOL
 70
     0
  9
$DIMLIM
 70
     0
  9
$DIMTIH
 70
     1
  9
$DIMTOH
 70
     1
  9
$DIMSE1
 70
     0
  9
$DIMSE2
 70
     0
  9
$DIMTAD
 70
     0
  9
$DIMZIN
 70
     0
  9
$DIMBLK
  1

  9
$DIMASO
 70
     1
  9
$DIMSHO
 70
     1
  9
$DIMPOST
  1

  9
$DIMAPOST
  1

  9
$DIMALT
 70
     0
  9
$DIMALTD
 70
     2
  9
$DIMALTF
 40
25.4
  9
$DIMLFAC
 40
1.0
  9
$DIMTOFL
 70
     0
  9
$DIMTVP
 40
0.0
  9
$DIMTIX
 70
     0
  9
$DIMSOXD
 70
     0
  9
$DIMSAH
 70
     0
  9
$DIMBLK1
  1

  9
$DIMBLK2
  1

  9
$DIMSTYLE
  2
Standard
  9
$DIMCLRD
 70
     0
  9
$DIMCLRE
 70
     0
  9
$DIMCLRT
 70
     0
  9
$DIMTFAC
 40
1.0
  9
$DIMGAP
 40
0.09
  9
$DIMJUST
 70
     0
  9
$DIMSD1
 70
     0
  9
$DIMSD2
 70
     0
  9
$DIMTOLJ
 70
     1
  9
$DIMTZIN
 70
     0
  9
$DIMALTZ
 70
     0
  9
$DIMALTTZ
 70
     0
  9
$DIMUPT
 70
     0
  9
$DIMDEC
 70
     4
  9
$DIMTDEC
 70
     4
  9
$DIMALTU
 70
     2
  9
$DIMALTTD
 70
     2
  9
$DIMTXSTY
  7
Standard
  9
$DIMAUNIT
 70
     0
  9
$DIMADEC
 70
     0
  9
$DIMALTRND
 40
0.0
  9
$DIMAZIN
 70
     0
  9
$DIMDSEP
 70
    46
  9
$DIMATFIT
 70
     3
  9
$DIMFRAC
 70
     0
  9
$DIMLDRBLK
  1

  9
$DIMLUNIT
 70
     2
  9
$DIMLWD
 70
    -2
  9
$DIMLWE
 70
    -2
  9
$DIMTMOVE
 70
     0
  9
$DIMFXL
 40
1.0
  9
$DIMFXLON
 70
     0
  9
$DIMJOGANG
 40
0.7853981633974483
  9
$DIMTFILL
 70
     0
  9
$DIMTFILLCLR
 70
     0
  9
$DIMARCSYM
 70
     0
  9
$DIMLTYPE
  6

  9
$DIMLTEX1
  6

  9
$DIMLTEX2
  6

  9
$LUNITS
 70
     2
  9
$LUPREC
 70
     4
  9
$SKETCHINC
 40
0.1
  9
$FILLETRAD
 40
0.5
  9
$AUNITS
 70
     0
  9
$AUPREC
 70
     0
  9
$MENU
  1
.
  9
$ELEVATION
 40
0.0
  9
$PELEVATION
 40
0.0
  9
$THICKNESS
 40
0.0
  9
$LIMCHECK
 70
     0
  9
$CHAMFERA
 40
0.5
  9
$CHAMFERB
 40
0.5
  9
$CHAMFERC
 40
1.0
  9
$CHAMFERD
 40
0.0
  9
$SKPOLY
 70
     0
  9
$TDCREATE
 40
2458515.579879629
  9
$TDUCREATE
 40
2458515.204879629
  9
$TDUPDATE
 40
2458515.57987971
  9
$TDUUPDATE
 40
2458515.20487971
  9
$TDINDWG
 40
0.0000000116
  9
$TDUSRTIMER
 40
0.0000000116
  9
$USRTIMER
 70
     1
  9
$ANGBASE
 50
0.0
  9
$ANGDIR
 70
     0
  9
$PDMODE
 70
     0
  9
$PDSIZE
 40
0.0
  9
$PLINEWID
 40
0.0
  9
$SPLFRAME
 70
     0
  9
$SPLINETYPE
 70
     6
  9
$SPLINESEGS
 70
     8
  9
$HANDSEED
  5
13D
  9
$SURFTAB1
 70
     6
  9
$SURFTAB2
 70
     6
  9
$SURFTYPE
 70
     6
  9
$SURFU
 70
     6
  9
$SURFV
 70
     6
  9
$UCSBASE
  2

  9
$UCSNAME
  2

  9
$UCSORG
 10
0.0
 20
0.0
 30
0.0
  9
$UCSXDIR
 10
1.0
 20
0.0
 30
0.0
  9
$UCSYDIR
 10
0.0
 20
1.0
 30
0.0
  9
$UCSORTHOREF
  2

  9
$UCSORTHOVIEW
 70
     0
  9
$UCSORGTOP
 10
0.0
 20
0.0
 30
0.0
  9
$UCSORGBOTTOM
 10
0.0
 20
0.0
 30
0.0
  9
$UCSORGLEFT
 10
0.0
 20
0.0
 30
0.0
  9
$UCSORGRIGHT
 10
0.0
 20
0.0
 30
0.0
  9
$UCSORGFRONT
 10
0.0
 20
0.0
 30
0.0
  9
$UCSORGBACK
 10
0.0
 20
0.0
 30
0.0
  9
$PUCSBASE
  2

  9
$PUCSNAME
  2

  9
$PUCSORG
 10
0.0
 20
0.0
 30
0.0
  9
$PUCSXDIR
 10
1.0
 20
0.0
 30
0.0
  9
$PUCSYDIR
 10
0.0
 20
1.0
 30
0.0
  9
$PUCSORTHOREF
  2

  9
$PUCSORTHOVIEW
 70
     0
  9
$PUCSORGTOP
 10
0.0
 20
0.0
 30
0.0
  9
$PUCSORGBOTTOM
 10
0.0
 20
0.0
 30
0.0
  9
$PUCSORGLEFT
 10
0.0
 20
0.0
 30
0.0
  9
$PUCSORGRIGHT
 10
0.0
 20
0.0
 30
0.0
  9
$PUCSORGFRONT
 10
0.0
 20
0.0
 30
0.0
  9
$PUCSORGBACK
 10
0.0
 20
0.0
 30
0.0
  9
$USERI1
 70
     0
  9
$USERI2
 70
     0
  9
$USERI3
 70
     0
  9
$USERI4
 70
     0
  9
$USERI5
 70
     0
  9
$USERR1
 40
0.0
  9
$USERR2
 40
0.0
  9
$USERR3
 40
0.0
  9
$USERR4
 40
0.0
  9
$USERR5
 40
0.0
  9
$WORLDVIEW
 70
     1
  9
$SHADEDGE
 70
     3
  9
$SHADEDIF
 70
    70
  9
$TILEMODE
 70
     1
  9
$MAXACTVP
 70
    64
  9
$PINSBASE
 10
0.0
 20
0.0
 30
0.0
  9
$PLIMCHECK
 70
     0
  9
$PEXTMIN
 10
1.000000000000000E+20
 20
1.000000000000000E+20
 30
1.000000000000000E+20
  9
$PEXTMAX
 10
-1.000000000000000E+20
 20
-1.000000000000000E+20
 30
-1.000000000000000E+20
  9
$PLIMMIN
 10
0.0
 20
0.0
  9
$PLIMMAX
 10
12.0
 20
9.0
  9
$UNITMODE
 70
     0
  9
$VISRETAIN
 70
     1
  9
$PLINEGEN
 70
     0
  9
$PSLTSCALE
 70
     1
  9
$TREEDEPTH
 70
  3020
  9
$CMLSTYLE
  2
Standard
  9
$CMLJUST
 70
     0
  9
$CMLSCALE
 40
1.0
  9
$PROXYGRAPHICS
 70
     1
  9
$MEASUREMENT
 70
     0
  9
$CELWEIGHT
370
    -1
  9
$ENDCAPS
280
     0
  9
$JOINSTYLE
280
     0
  9
$LWDISPLAY
290
     1
  9
$INSUNITS
 70
     1
  9
$HYPERLINKBASE
  1

  9
$STYLESHEET
  1

  9
$XEDIT
290
     1
  9
$CEPSNTYPE
380
     0
  9
$PSTYLEMODE
290
     1
  9
$FINGERPRINTGUID
  2
{0B406EF2-EC03-460B-B745-221E16DDE949}
  9
$VERSIONGUID
  2
{FAEB1C32-E019-11D5-929B-00C0DF256EC4}
  9
$EXTNAMES
290
     1
  9
$PSVPSCALE
 40
0.0
  9
$OLESTARTUP
290
     0
  9
$SORTENTS
280
   127
  9
$INDEXCTL
280
     0
  9
$HIDETEXT
280
     1
  9
$XCLIPFRAME
290
     0
  9
$HALOGAP
280
     0
  9
$OBSCOLOR
 70
   257
  9
$OBSLTYPE
280
     0
  9
$INTERSECTIONDISPLAY
280
     0
  9
$INTERSECTIONCOLOR
 70
   257
  9
$DIMASSOC
280
     2
  9
$PROJECTNAME
  1

  9
$CAMERADISPLAY
290
     0
  9
$LENSLENGTH
 40
50.0
  9
$CAMERAHEIGHT
 40
0.0
  9
$STEPSPERSEC
 40
2.0
  9
$STEPSIZE
 40
6.0
  9
$3DDWFPREC
 40
2.0
  9
$PSOLWIDTH
 40
0.25
  9
$PSOLHEIGHT
 40
4.0
  9
$LOFTANG1
 40
1.570796326794897
  9
$LOFTANG2
 40
1.570796326794897
  9
$LOFTMAG1
 40
0.0
  9
$LOFTMAG2
 40
0.0
  9
$LOFTPARAM
 70
     7
  9
$LOFTNORMALS
280
     1
  9
$LATITUDE
 40
37.795
  9
$LONGITUDE
 40
-122.394
  9
$NORTHDIRECTION
 40
0.0
  9
$TIMEZONE
 70
 -8000
  9
$LIGHTGLYPHDISPLAY
280
     1
  9
$TILEMODELIGHTSYNCH
280
     1
  9
$CMATERIAL
347
3C
  9
$SOLIDHIST
280
     1
  9
$SHOWHIST
280
     1
  9
$DWFFRAME
280
     2
  9
$DGNFRAME
280
     2
  9
$REALWORLDSCALE
290
     1
  9
$INTERFERECOLOR
 62
   256
  9
$CSHADOW
280
     0
  9
$SHADOWPLANELOCATION
 40
0.0
  0
ENDSEC
  0
SECTION
  2
CLASSES
  0
CLASS
  1
ACDBDICTIONARYWDFLT
  2
AcDbDictionaryWithDefault
  3
ObjectDBX Classes
 90
        0
 91
        4
280
     0
281
     0
  0
CLASS
  1
VISUALSTYLE
  2
AcDbVisualStyle
  3
ObjectDBX Classes
 90
     4095
 91
        4
280
     0
281
     0
  0
CLASS
  1
MATERIAL
  2
AcDbMaterial
  3
ObjectDBX Classes
 90
     1153
 91
        4
280
     0
281
     0
  0
CLASS
  1
SUN
  2
AcDbSun
  3
SCENEOE
 90
     1024
 91
        4
280
     0
281
     0
  0
ENDSEC
  0
SECTION
  2
TABLES
  0
TABLE
  2
VPORT
  5
8
330
0
100
AcDbSymbolTable
 70
     1
  0
VPORT
  5
29
330
8
100
AcDbSymbolTableRecord
100
AcDbViewportTableRecord
  2
*Active
 70
     0
 10
0.0
 20
0.0
 11
1.0
 21
1.0
 12
0.0
 22
0.0
 13
0.0
 23
0.0
 14
0.5
 24
0.5
 15
0.5
 25
0.5
 16
0.0
 26
0.0
 36
1.0
 17
148.3916656437123
 27
104.8915941359208
 37
0.0
 40
297.0000052006764
 41
0.7070706878738762
 42
50.0
 43
0.0
 44
0.0
 50
0.0
 51
0.0
 71
     0
 72
   100
 73
     1
 74
     3
 75
     0
 76
     0
 77
     0
 78
     0
281
     0
 65
     1
110
0.0
120
0.0
130
0.0
111
1.0
121
0.0
131
0.0
112
0.0
122
1.0
132
0.0
 79
     0
146
0.0
 60
     3
 61
     5
292
     1
282
     1
141
0.0
142
0.0
 63
   250
361
3F
  0
ENDTAB
  0
TABLE
  2
LTYPE
  5
5
330
0
100
AcDbSymbolTable
 70
     1
  0
LTYPE
  5
14
330
5
100
AcDbSymbolTableRecord
100
AcDbLinetypeTableRecord
  2
ByBlock
 70
     0
  3

 72
    65
 73
     0
 40
0.0
  0
LTYPE
  5
15
330
5
100
AcDbSymbolTableRecord
100
AcDbLinetypeTableRecord
  2
ByLayer
 70
     0
  3

 72
    65
 73
     0
 40
0.0
  0
LTYPE
  5
16
330
5
100
AcDbSymbolTableRecord
100
AcDbLinetypeTableRecord
  2
Continuous
 70
     0
  3
Solid line
 72
    65
 73
     0
 40
0.0
  0
ENDTAB
  0
TABLE
  2
LAYER
  5
2
330
0
100
AcDbSymbolTable
 70
     2
  0
LAYER
  5
10
330
2
100
AcDbSymbolTableRecord
100
AcDbLayerTableRecord
  2
0
 70
     0
 62
     7
  6
Continuous
370
    -3
390
F
347
3E
  0
LAYER
  5
40
330
2
100
AcDbSymbolTableRecord
100
AcDbLayerTableRecord
  2
_U+30EC_U+30A4_U+30E4_U+30FC 1
 70
     0
 62
     7
  6
Continuous
370
    -3
390
F
347
3E
  0
ENDTAB
  0
TABLE
  2
STYLE
  5
3
330
0
100
AcDbSymbolTable
 70
     1
  0
STYLE
  5
11
330
3
100
AcDbSymbolTableRecord
100
AcDbTextStyleTableRecord
  2
Standard
 70
     0
 40
0.0
 41
1.0
 50
0.0
 71
     0
 42
0.2
  3
txt
  4

  0
ENDTAB
  0
TABLE
  2
VIEW
  5
6
330
0
100
AcDbSymbolTable
 70
     0
  0
ENDTAB
  0
TABLE
  2
UCS
  5
7
330
0
100
AcDbSymbolTable
 70
     0
  0
ENDTAB
  0
TABLE
  2
APPID
  5
9
330
0
100
AcDbSymbolTable
 70
     1
  0
APPID
  5
12
330
9
100
AcDbSymbolTableRecord
100
AcDbRegAppTableRecord
  2
ACAD
 70
     0
  0
ENDTAB
  0
TABLE
  2
DIMSTYLE
  5
A
330
0
100
AcDbSymbolTable
 70
     1
100
AcDbDimStyleTable
  0
DIMSTYLE
105
27
330
A
100
AcDbSymbolTableRecord
100
AcDbDimStyleTableRecord
  2
Standard
 70
     0
178
     0
340
11
  0
ENDTAB
  0
TABLE
  2
BLOCK_RECORD
  5
1
330
0
100
AcDbSymbolTable
 70
     3
  0
BLOCK_RECORD
  5
1F
330
1
100
AcDbSymbolTableRecord
100
AcDbBlockTableRecord
  2
*Model_Space
340
22
 70
     0
280
     1
281
     0
  0
BLOCK_RECORD
  5
1B
330
1
100
AcDbSymbolTableRecord
100
AcDbBlockTableRecord
  2
*Paper_Space
340
1E
 70
     0
280
     1
281
     0
  0
BLOCK_RECORD
  5
23
330
1
100
AcDbSymbolTableRecord
100
AcDbBlockTableRecord
  2
*Paper_Space0
340
26
 70
     0
280
     1
281
     0
  0
BLOCK_RECORD
  5
4F
330
1
100
AcDbSymbolTableRecord
100
AcDbBlockTableRecord
  2
block 2
340
0
102
{BLKREFS
331
50
102
}
 70
     0
280
     1
281
     0
  0
BLOCK_RECORD
  5
6C
330
1
100
AcDbSymbolTableRecord
100
AcDbBlockTableRecord
  2
block 3
340
0
102
{BLKREFS
331
6D
102
}
 70
     0
280
     1
281
     0
  0
ENDTAB
  0
ENDSEC
  0
SECTION
  2
BLOCKS
  0
BLOCK
  5
20
330
1F
100
AcDbEntity
  8
0
100
AcDbBlockBegin
  2
*Model_Space
 70
     0
 10
0.0
 20
0.0
 30
0.0
  3
*Model_Space
  1

  0
ENDBLK
  5
21
330
1F
100
AcDbEntity
  8
0
100
AcDbBlockEnd
  0
BLOCK
  5
1C
330
1B
100
AcDbEntity
 67
     1
  8
0
100
AcDbBlockBegin
  2
*Paper_Space
 70
     0
 10
0.0
 20
0.0
 30
0.0
  3
*Paper_Space
  1

  0
ENDBLK
  5
1D
330
1B
100
AcDbEntity
 67
     1
  8
0
100
AcDbBlockEnd
  0
BLOCK
  5
24
330
23
100
AcDbEntity
  8
0
100
AcDbBlockBegin
  2
*Paper_Space0
 70
     0
 10
0.0
 20
0.0
 30
0.0
  3
*Paper_Space0
  1

  0
ENDBLK
  5
25
330
23
100
AcDbEntity
  8
0
100
AcDbBlockEnd
  0
BLOCK
  5
51
330
4F
100
AcDbEntity
  8
0
100
AcDbBlockBegin
  2
block 2
 70
     0
 10
0.0
 20
0.0
 30
0.0
  3
block 2
  1

  0
SPLINE
  5
53
330
4F
100
AcDbEntity
  8
_U+30EC_U+30A4_U+30E4_U+30FC 1
370
     0
100
AcDbSpline
210
0.0
220
0.0
230
1.0
 70
    11
 71
     3
 72
    68
 73
    64
 74
     0
 42
0.0000000001
 43
0.0000000001
 12
1.0
 22
0.0
 32
0.0
 13
1.0
 23
0.0
 33
0.0
 40
0.0
 40
0.0
 40
0.0
 40
0.0
 40
1.0
 40
1.0
 40
1.0
 40
2.0
 40
2.0
 40
2.0
 40
3.0
 40
3.0
 40
3.0
 40
4.0
 40
4.0
 40
4.0
 40
5.0
 40
5.0
 40
5.0
 40
6.0
 40
6.0
 40
6.0
 40
7.0
 40
7.0
 40
7.0
 40
8.0
 40
8.0
 40
8.0
 40
9.0
 40
9.0
 40
9.0
 40
10.0
 40
10.0
 40
10.0
 40
11.0
 40
11.0
 40
11.0
 40
12.0
 40
12.0
 40
12.0
 40
13.0
 40
13.0
 40
13.0
 40
14.0
 40
14.0
 40
14.0
 40
15.0
 40
15.0
 40
15.0
 40
16.0
 40
16.0
 40
16.0
 40
17.0
 40
17.0
 40
17.0
 40
18.0
 40
18.0
 40
18.0
 40
19.0
 40
19.0
 40
19.0
 40
20.0
 40
20.0
 40
20.0
 40
21.0
 40
21.0
 40
21.0
 40
21.0
 10
139.8681303205556
 20
108.4037047343911
 30
0.0
 10
139.8681303205556
 20
108.3554800133995
 30
0.0
 10
139.8305594881808
 20
108.3227422364566
 30
0.0
 10
139.7850864337854
 20
108.3282808474264
 30
0.0
 10
139.7850864337854
 20
108.3282808474264
 30
0.0
 10
137.484975381355
 20
108.6073280625296
 30
0.0
 10
137.484975381355
 20
108.6073280625296
 30
0.0
 10
136.7754721880284
 20
108.6934411158882
 30
0.0
 10
136.1989240252763
 20
109.3469999726633
 30
0.0
 10
136.1975481919777
 20
110.0676869141616
 30
0.0
 10
136.1966662475558
 20
110.7877063402368
 30
0.0
 10
136.7714823440021
 20
111.3017416388413
 30
0.0
 10
137.4810277434075
 20
111.2155904959872
 30
0.0
 10
137.4810277434075
 20
111.2155904959872
 30
0.0
 10
138.3776089696931
 20
111.1070760543112
 30
0.0
 10
138.3776089696931
 20
111.1070760543112
 30
0.0
 10
138.4246342462712
 20
111.1015727211183
 30
0.0
 10
138.4614995231084
 20
111.0588513333193
 30
0.0
 10
138.4614995231084
 20
111.0109793900962
 30
0.0
 10
138.4614995231084
 20
111.0109793900962
 30
0.0
 10
138.4626989675222
 20
110.1831158001056
 30
0.0
 10
138.4626989675222
 20
110.1831158001056
 30
0.0
 10
138.463051745291
 20
110.1365844124039
 30
0.0
 10
138.4260100795694
 20
110.1028235799318
 30
0.0
 10
138.3789848029913
 20
110.1086796908936
 30
0.0
 10
138.3789848029913
 20
110.1086796908936
 30
0.0
 10
137.5474876019824
 20
110.2085863550114
 30
0.0
 10
137.5474876019824
 20
110.2085863550114
 30
0.0
 10
137.3831637172857
 20
110.2285916391095
 30
0.0
 10
137.2493198318118
 20
110.1090324686623
 30
0.0
 10
137.2493198318118
 20
109.9416041396008
 30
0.0
 10
137.2496726095802
 20
109.7738230327698
 30
0.0
 10
137.3841867728152
 20
109.6208585922278
 30
0.0
 10
137.5483695464043
 20
109.6012441482838
 30
0.0
 10
137.5483695464043
 20
109.6012441482838
 30
0.0
 10
138.7128184055856
 20
109.4613677629634
 30
0.0
 10
138.7128184055856
 20
109.4613677629634
 30
0.0
 10
138.7128184055856
 20
109.4613677629634
 30
0.0
 10
138.710207850097
 20
111.2107927183319
 30
0.0
 10
138.710207850097
 20
111.2107927183319
 30
0.0
 10
138.7098903501048
 20
111.4670857673488
 30
0.0
 10
138.5057378553131
 20
111.6986166387421
 30
0.0
 10
138.2520200840082
 20
111.7296229828732
 30
0.0
 10
138.2520200840082
 20
111.7296229828732
 30
0.0
 10
136.6164717924012
 20
111.9277077000418
 30
0.0
 10
136.6164717924012
 20
111.9277077000418
 30
0.0
 10
136.56891734917
 20
111.9335666386834
 30
0.0
 10
136.5318756834483
 20
111.975579643265
 30
0.0
 10
136.5317027436449
 20
112.0231340864962
 30
0.0
 10
136.5317027436449
 20
112.0231340864962
 30
0.0
 10
136.5304998501501
 20
112.8547723986127
 30
0.0
 10
136.5304998501501
 20
112.8547723986127
 30
0.0
 10
136.5304998501501
 20
112.9013037863144
 30
0.0
 10
136.5673651269874
 20
112.9357348965471
 30
0.0
 10
136.6147431813342
 20
112.9298787855854
 30
0.0
 10
136.6147431813342
 20
112.9298787855854
 30
0.0
 10
138.5732947980341
 20
112.6925299027518
 30
0.0
 10
138.5732947980341
 20
112.6925299027518
 30
0.0
 10
139.2874581131476
 20
112.6060287938475
 30
0.0
 10
139.8624153207014
 20
111.9501090883592
 30
0.0
 10
139.8636500428921
 20
111.2252566068517
 30
0.0
 10
139.8636500428921
 20
111.2252566068517
 30
0.0
 10
139.8681303205556
 20
108.4037047343911
 30
0.0
 10
139.8681303205556
 20
108.4037047343911
 30
0.0
  0
HATCH
  5
54
330
4F
100
AcDbEntity
  8
_U+30EC_U+30A4_U+30E4_U+30FC 1
 62
     7
100
AcDbHatch
 10
0.0
 20
0.0
 30
0.0
210
0.0
220
0.0
230
1.0
  2
SOLID
 70
     1
 71
     0
 91
        1
 92
        1
 93
        1
 72
     4
 94
        3
 73
     0
 74
     1
 95
       68
 96
       64
 40
0.0
 40
0.0
 40
0.0
 40
0.0
 40
1.0
 40
1.0
 40
1.0
 40
2.0
 40
2.0
 40
2.0
 40
3.0
 40
3.0
 40
3.0
 40
4.0
 40
4.0
 40
4.0
 40
5.0
 40
5.0
 40
5.0
 40
6.0
 40
6.0
 40
6.0
 40
7.0
 40
7.0
 40
7.0
 40
8.0
 40
8.0
 40
8.0
 40
9.0
 40
9.0
 40
9.0
 40
10.0
 40
10.0
 40
10.0
 40
11.0
 40
11.0
 40
11.0
 40
12.0
 40
12.0
 40
12.0
 40
13.0
 40
13.0
 40
13.0
 40
14.0
 40
14.0
 40
14.0
 40
15.0
 40
15.0
 40
15.0
 40
16.0
 40
16.0
 40
16.0
 40
17.0
 40
17.0
 40
17.0
 40
18.0
 40
18.0
 40
18.0
 40
19.0
 40
19.0
 40
19.0
 40
20.0
 40
20.0
 40
20.0
 40
21.0
 40
21.0
 40
21.0
 40
21.0
 10
139.8681303205556
 20
108.4037047343911
 10
139.8681303205556
 20
108.3554800133995
 10
139.8305594881808
 20
108.3227422364566
 10
139.7850864337854
 20
108.3282808474264
 10
139.7850864337854
 20
108.3282808474264
 10
137.484975381355
 20
108.6073280625296
 10
137.484975381355
 20
108.6073280625296
 10
136.7754721880284
 20
108.6934411158882
 10
136.1989240252763
 20
109.3469999726633
 10
136.1975481919777
 20
110.0676869141616
 10
136.1966662475558
 20
110.7877063402368
 10
136.7714823440021
 20
111.3017416388413
 10
137.4810277434075
 20
111.2155904959872
 10
137.4810277434075
 20
111.2155904959872
 10
138.3776089696931
 20
111.1070760543112
 10
138.3776089696931
 20
111.1070760543112
 10
138.4246342462712
 20
111.1015727211183
 10
138.4614995231084
 20
111.0588513333193
 10
138.4614995231084
 20
111.0109793900962
 10
138.4614995231084
 20
111.0109793900962
 10
138.4626989675222
 20
110.1831158001056
 10
138.4626989675222
 20
110.1831158001056
 10
138.463051745291
 20
110.1365844124039
 10
138.4260100795694
 20
110.1028235799318
 10
138.3789848029913
 20
110.1086796908936
 10
138.3789848029913
 20
110.1086796908936
 10
137.5474876019824
 20
110.2085863550114
 10
137.5474876019824
 20
110.2085863550114
 10
137.3831637172857
 20
110.2285916391095
 10
137.2493198318118
 20
110.1090324686623
 10
137.2493198318118
 20
109.9416041396008
 10
137.2496726095802
 20
109.7738230327698
 10
137.3841867728152
 20
109.6208585922278
 10
137.5483695464043
 20
109.6012441482838
 10
137.5483695464043
 20
109.6012441482838
 10
138.7128184055856
 20
109.4613677629634
 10
138.7128184055856
 20
109.4613677629634
 10
138.7128184055856
 20
109.4613677629634
 10
138.710207850097
 20
111.2107927183319
 10
138.710207850097
 20
111.2107927183319
 10
138.7098903501048
 20
111.4670857673488
 10
138.5057378553131
 20
111.6986166387421
 10
138.2520200840082
 20
111.7296229828732
 10
138.2520200840082
 20
111.7296229828732
 10
136.6164717924012
 20
111.9277077000418
 10
136.6164717924012
 20
111.9277077000418
 10
136.56891734917
 20
111.9335666386834
 10
136.5318756834483
 20
111.975579643265
 10
136.5317027436449
 20
112.0231340864962
 10
136.5317027436449
 20
112.0231340864962
 10
136.5304998501501
 20
112.8547723986127
 10
136.5304998501501
 20
112.8547723986127
 10
136.5304998501501
 20
112.9013037863144
 10
136.5673651269874
 20
112.9357348965471
 10
136.6147431813342
 20
112.9298787855854
 10
136.6147431813342
 20
112.9298787855854
 10
138.5732947980341
 20
112.6925299027518
 10
138.5732947980341
 20
112.6925299027518
 10
139.2874581131476
 20
112.6060287938475
 10
139.8624153207014
 20
111.9501090883592
 10
139.8636500428921
 20
111.2252566068517
 10
139.8636500428921
 20
111.2252566068517
 10
139.8681303205556
 20
108.4037047343911
 10
139.8681303205556
 20
108.4037047343911
 97
        0
 75
     2
 76
     1
 98
        0
  0
SPLINE
  5
55
330
4F
100
AcDbEntity
  8
_U+30EC_U+30A4_U+30E4_U+30FC 1
370
     0
100
AcDbSpline
210
0.0
220
0.0
230
1.0
 70
    11
 71
     3
 72
    68
 73
    64
 74
     0
 42
0.0000000001
 43
0.0000000001
 12
1.0
 22
0.0
 32
0.0
 13
1.0
 23
0.0
 33
0.0
 40
0.0
 40
0.0
 40
0.0
 40
0.0
 40
1.0
 40
1.0
 40
1.0
 40
2.0
 40
2.0
 40
2.0
 40
3.0
 40
3.0
 40
3.0
 40
4.0
 40
4.0
 40
4.0
 40
5.0
 40
5.0
 40
5.0
 40
6.0
 40
6.0
 40
6.0
 40
7.0
 40
7.0
 40
7.0
 40
8.0
 40
8.0
 40
8.0
 40
9.0
 40
9.0
 40
9.0
 40
10.0
 40
10.0
 40
10.0
 40
11.0
 40
11.0
 40
11.0
 40
12.0
 40
12.0
 40
12.0
 40
13.0
 40
13.0
 40
13.0
 40
14.0
 40
14.0
 40
14.0
 40
15.0
 40
15.0
 40
15.0
 40
16.0
 40
16.0
 40
16.0
 40
17.0
 40
17.0
 40
17.0
 40
18.0
 40
18.0
 40
18.0
 40
19.0
 40
19.0
 40
19.0
 40
20.0
 40
20.0
 40
20.0
 40
21.0
 40
21.0
 40
21.0
 40
21.0
 10
147.6071926231157
 20
107.4652833064671
 30
0.0
 10
147.6068398453469
 20
107.4173733706656
 30
0.0
 10
147.5696217907409
 20
107.3843180937311
 30
0.0
 10
147.5227729030472
 20
107.3901742046929
 30
0.0
 10
147.5227729030472
 20
107.3901742046929
 30
0.0
 10
145.2228382395012
 20
107.669221419796
 30
0.0
 10
145.2228382395012
 20
107.669221419796
 30
0.0
 10
144.5141782575806
 20
107.7550169731627
 30
0.0
 10
143.9371043834141
 20
108.4088905675921
 30
0.0
 10
143.9360813278846
 20
109.1292627714361
 30
0.0
 10
143.9350582723552
 20
109.8496349752801
 30
0.0
 10
144.5096979799171
 20
110.3636321843892
 30
0.0
 10
145.2185343507221
 20
110.2775191310305
 30
0.0
 10
145.2185343507221
 20
110.2775191310305
 30
0.0
 10
146.1151190500705
 20
110.16897219468
 30
0.0
 10
146.1151190500705
 20
110.16897219468
 30
0.0
 10
146.1616151599954
 20
110.1631133006159
 30
0.0
 10
146.1998562701309
 20
110.1207446905858
 30
0.0
 10
146.1998562701309
 20
110.0728727473626
 30
0.0
 10
146.1998562701309
 20
110.0728727473626
 30
0.0
 10
146.2008793256604
 20
109.2446563796033
 30
0.0
 10
146.2008793256604
 20
109.2446563796033
 30
0.0
 10
146.2008793256604
 20
109.1981602696784
 30
0.0
 10
146.163167382178
 20
109.1647522149752
 30
0.0
 10
146.1168476611375
 20
109.1702583060407
 30
0.0
 10
146.1168476611375
 20
109.1702583060407
 30
0.0
 10
145.2857032378974
 20
109.2705149900547
 30
0.0
 10
145.2857032378974
 20
109.2705149900547
 30
0.0
 10
145.1206737976632
 20
109.2904822117675
 30
0.0
 10
144.9873590788421
 20
109.1706110838185
 30
0.0
 10
144.9875354677265
 20
109.0034974968672
 30
0.0
 10
144.9880293566028
 20
108.8357163900362
 30
0.0
 10
145.1215557420851
 20
108.6827519494942
 30
0.0
 10
145.286373515658
 20
108.6627847277814
 30
0.0
 10
145.286373515658
 20
108.6627847277814
 30
0.0
 10
146.4509987637238
 20
108.5232638617581
 30
0.0
 10
146.4509987637238
 20
108.5232638617581
 30
0.0
 10
146.4509987637238
 20
108.5232638617581
 30
0.0
 10
146.4482470971273
 20
110.2726888613207
 30
0.0
 10
146.4482470971273
 20
110.2726888613207
 30
0.0
 10
146.4482470971273
 20
110.5286616246234
 30
0.0
 10
146.2429304356987
 20
110.7605071742644
 30
0.0
 10
145.9905532199151
 20
110.7911635623708
 30
0.0
 10
145.9905532199151
 20
110.7911635623708
 30
0.0
 10
144.3529588172492
 20
110.989953835077
 30
0.0
 10
144.3529588172492
 20
110.989953835077
 30
0.0
 10
144.307132985085
 20
110.99545716827
 30
0.0
 10
144.2693857638258
 20
111.0375110833519
 30
0.0
 10
144.2695621527102
 20
111.0850274437626
 30
0.0
 10
144.2695621527102
 20
111.0850274437626
 30
0.0
 10
144.2681863194119
 20
111.9166657558791
 30
0.0
 10
144.2681863194119
 20
111.9166657558791
 30
0.0
 10
144.2676924305356
 20
111.9631999720093
 30
0.0
 10
144.3057571517868
 20
111.9973107538217
 30
0.0
 10
144.3515477061741
 20
111.9921277497796
 30
0.0
 10
144.3515477061741
 20
111.9921277497796
 30
0.0
 10
146.310945989519
 20
111.7540704822495
 30
0.0
 10
146.310945989519
 20
111.7540704822495
 30
0.0
 10
147.0246154157562
 20
111.6679574288908
 30
0.0
 10
147.6016540121459
 20
111.0116496678569
 30
0.0
 10
147.6030298454441
 20
110.287152750206
 30
0.0
 10
147.6030298454441
 20
110.287152750206
 30
0.0
 10
147.6071926231157
 20
107.4652833064671
 30
0.0
 10
147.6071926231157
 20
107.4652833064671
 30
0.0
  0
HATCH
  5
56
330
4F
100
AcDbEntity
  8
_U+30EC_U+30A4_U+30E4_U+30FC 1
 62
     7
100
AcDbHatch
 10
0.0
 20
0.0
 30
0.0
210
0.0
220
0.0
230
1.0
  2
SOLID
 70
     1
 71
     0
 91
        1
 92
        1
 93
        1
 72
     4
 94
        3
 73
     0
 74
     1
 95
       68
 96
       64
 40
0.0
 40
0.0
 40
0.0
 40
0.0
 40
1.0
 40
1.0
 40
1.0
 40
2.0
 40
2.0
 40
2.0
 40
3.0
 40
3.0
 40
3.0
 40
4.0
 40
4.0
 40
4.0
 40
5.0
 40
5.0
 40
5.0
 40
6.0
 40
6.0
 40
6.0
 40
7.0
 40
7.0
 40
7.0
 40
8.0
 40
8.0
 40
8.0
 40
9.0
 40
9.0
 40
9.0
 40
10.0
 40
10.0
 40
10.0
 40
11.0
 40
11.0
 40
11.0
 40
12.0
 40
12.0
 40
12.0
 40
13.0
 40
13.0
 40
13.0
 40
14.0
 40
14.0
 40
14.0
 40
15.0
 40
15.0
 40
15.0
 40
16.0
 40
16.0
 40
16.0
 40
17.0
 40
17.0
 40
17.0
 40
18.0
 40
18.0
 40
18.0
 40
19.0
 40
19.0
 40
19.0
 40
20.0
 40
20.0
 40
20.0
 40
21.0
 40
21.0
 40
21.0
 40
21.0
 10
147.6071926231157
 20
107.4652833064671
 10
147.6068398453469
 20
107.4173733706656
 10
147.5696217907409
 20
107.3843180937311
 10
147.5227729030472
 20
107.3901742046929
 10
147.5227729030472
 20
107.3901742046929
 10
145.2228382395012
 20
107.669221419796
 10
145.2228382395012
 20
107.669221419796
 10
144.5141782575806
 20
107.7550169731627
 10
143.9371043834141
 20
108.4088905675921
 10
143.9360813278846
 20
109.1292627714361
 10
143.9350582723552
 20
109.8496349752801
 10
144.5096979799171
 20
110.3636321843892
 10
145.2185343507221
 20
110.2775191310305
 10
145.2185343507221
 20
110.2775191310305
 10
146.1151190500705
 20
110.16897219468
 10
146.1151190500705
 20
110.16897219468
 10
146.1616151599954
 20
110.1631133006159
 10
146.1998562701309
 20
110.1207446905858
 10
146.1998562701309
 20
110.0728727473626
 10
146.1998562701309
 20
110.0728727473626
 10
146.2008793256604
 20
109.2446563796033
 10
146.2008793256604
 20
109.2446563796033
 10
146.2008793256604
 20
109.1981602696784
 10
146.163167382178
 20
109.1647522149752
 10
146.1168476611375
 20
109.1702583060407
 10
146.1168476611375
 20
109.1702583060407
 10
145.2857032378974
 20
109.2705149900547
 10
145.2857032378974
 20
109.2705149900547
 10
145.1206737976632
 20
109.2904822117675
 10
144.9873590788421
 20
109.1706110838185
 10
144.9875354677265
 20
109.0034974968672
 10
144.9880293566028
 20
108.8357163900362
 10
145.1215557420851
 20
108.6827519494942
 10
145.286373515658
 20
108.6627847277814
 10
145.286373515658
 20
108.6627847277814
 10
146.4509987637238
 20
108.5232638617581
 10
146.4509987637238
 20
108.5232638617581
 10
146.4509987637238
 20
108.5232638617581
 10
146.4482470971273
 20
110.2726888613207
 10
146.4482470971273
 20
110.2726888613207
 10
146.4482470971273
 20
110.5286616246234
 10
146.2429304356987
 20
110.7605071742644
 10
145.9905532199151
 20
110.7911635623708
 10
145.9905532199151
 20
110.7911635623708
 10
144.3529588172492
 20
110.989953835077
 10
144.3529588172492
 20
110.989953835077
 10
144.307132985085
 20
110.99545716827
 10
144.2693857638258
 20
111.0375110833519
 10
144.2695621527102
 20
111.0850274437626
 10
144.2695621527102
 20
111.0850274437626
 10
144.2681863194119
 20
111.9166657558791
 10
144.2681863194119
 20
111.9166657558791
 10
144.2676924305356
 20
111.9631999720093
 10
144.3057571517868
 20
111.9973107538217
 10
144.3515477061741
 20
111.9921277497796
 10
144.3515477061741
 20
111.9921277497796
 10
146.310945989519
 20
111.7540704822495
 10
146.310945989519
 20
111.7540704822495
 10
147.0246154157562
 20
111.6679574288908
 10
147.6016540121459
 20
111.0116496678569
 10
147.6030298454441
 20
110.287152750206
 10
147.6030298454441
 20
110.287152750206
 10
147.6071926231157
 20
107.4652833064671
 10
147.6071926231157
 20
107.4652833064671
 97
        0
 75
     2
 76
     1
 98
        0
  0
SPLINE
  5
57
330
4F
100
AcDbEntity
  8
_U+30EC_U+30A4_U+30E4_U+30FC 1
370
     0
100
AcDbSpline
210
0.0
220
0.0
230
1.0
 70
    11
 71
     3
 72
    65
 73
    61
 74
     0
 42
0.0000000001
 43
0.0000000001
 12
1.0
 22
0.0
 32
0.0
 13
1.0
 23
0.0
 33
0.0
 40
0.0
 40
0.0
 40
0.0
 40
0.0
 40
1.0
 40
1.0
 40
1.0
 40
2.0
 40
2.0
 40
2.0
 40
3.0
 40
3.0
 40
3.0
 40
4.0
 40
4.0
 40
4.0
 40
5.0
 40
5.0
 40
5.0
 40
6.0
 40
6.0
 40
6.0
 40
7.0
 40
7.0
 40
7.0
 40
8.0
 40
8.0
 40
8.0
 40
9.0
 40
9.0
 40
9.0
 40
10.0
 40
10.0
 40
10.0
 40
11.0
 40
11.0
 40
11.0
 40
12.0
 40
12.0
 40
12.0
 40
13.0
 40
13.0
 40
13.0
 40
14.0
 40
14.0
 40
14.0
 40
15.0
 40
15.0
 40
15.0
 40
16.0
 40
16.0
 40
16.0
 40
17.0
 40
17.0
 40
17.0
 40
18.0
 40
18.0
 40
18.0
 40
19.0
 40
19.0
 40
19.0
 40
20.0
 40
20.0
 40
20.0
 40
20.0
 10
148.0953664995502
 20
107.3164436510183
 30
0.0
 10
148.0495444074319
 20
107.3219469842113
 30
0.0
 10
148.0123226127799
 20
107.363292538712
 30
0.0
 10
148.012675390549
 20
107.4098239264138
 30
0.0
 10
148.012675390549
 20
107.4098239264138
 30
0.0
 10
148.0109467794817
 20
108.2421325162909
 30
0.0
 10
148.0109467794817
 20
108.2421325162909
 30
0.0
 10
148.0109467794817
 20
108.2889814039846
 30
0.0
 10
148.047812056319
 20
108.3244708475236
 30
0.0
 10
148.0936416296431
 20
108.3189675143307
 30
0.0
 10
148.0936416296431
 20
108.3189675143307
 30
0.0
 10
150.0480305180437
 20
108.0819388618683
 30
0.0
 10
150.0480305180437
 20
108.0819388618683
 30
0.0
 10
150.2130561677457
 20
108.0619689097762
 30
0.0
 10
150.3467236643355
 20
108.1835714066738
 30
0.0
 10
150.3467236643355
 20
108.3523755690339
 30
0.0
 10
150.3467236643355
 20
108.5191336203351
 30
0.0
 10
150.2127033899769
 20
108.6731211164069
 30
0.0
 10
150.047677740266
 20
108.6927708381275
 30
0.0
 10
150.047677740266
 20
108.6927708381275
 30
0.0
 10
149.1809027404826
 20
108.8219580570539
 30
0.0
 10
149.1809027404826
 20
108.8219580570539
 30
0.0
 10
148.4746416295479
 20
108.9077183326437
 30
0.0
 10
147.9010565045075
 20
109.5543952605901
 30
0.0
 10
147.9003509489699
 20
110.2664771868678
 30
0.0
 10
147.8986223379029
 20
110.9782444166998
 30
0.0
 10
148.4708631566372
 20
111.4867354890698
 30
0.0
 10
149.17712424973
 20
111.4012927134718
 30
0.0
 10
149.17712424973
 20
111.4012927134718
 30
0.0
 10
151.1449539217488
 20
111.1628854973319
 30
0.0
 10
151.1449539217488
 20
111.1628854973319
 30
0.0
 10
151.1918028094424
 20
111.1570293863701
 30
0.0
 10
151.2283153085109
 20
111.1153663318775
 30
0.0
 10
151.2286680862797
 20
111.0691877219445
 30
0.0
 10
151.2286680862797
 20
111.0691877219445
 30
0.0
 10
151.2300439195779
 20
110.2458044096174
 30
0.0
 10
151.2300439195779
 20
110.2458044096174
 30
0.0
 10
151.2296911418092
 20
110.1979324663943
 30
0.0
 10
151.1931786427407
 20
110.1624430228553
 30
0.0
 10
151.1470000328077
 20
110.168299133817
 30
0.0
 10
151.1470000328077
 20
110.168299133817
 30
0.0
 10
149.2997498021572
 20
110.3918896836683
 30
0.0
 10
149.2997498021572
 20
110.3918896836683
 30
0.0
 10
149.1354259174605
 20
110.4115041276123
 30
0.0
 10
149.0007353653412
 20
110.2902544084834
 30
0.0
 10
149.0014056431019
 20
110.1231788571903
 30
0.0
 10
149.0014056431019
 20
109.9550449725909
 30
0.0
 10
149.1364527404936
 20
109.8034563653471
 30
0.0
 10
149.3007728576866
 20
109.7834891436343
 30
0.0
 10
149.3007728576866
 20
109.7834891436343
 30
0.0
 10
150.1782370019673
 20
109.6501391470363
 30
0.0
 10
150.1782370019673
 20
109.6501391470363
 30
0.0
 10
150.8841453172914
 20
109.5643788714465
 30
0.0
 10
151.4591416288021
 20
108.9166788879707
 30
0.0
 10
151.4608664136892
 20
108.204596961693
 30
0.0
 10
151.4608664136892
 20
107.4907511465714
 30
0.0
 10
150.8886255949549
 20
106.9781297707605
 30
0.0
 10
150.1823997796389
 20
107.0635725463585
 30
0.0
 10
150.1823997796389
 20
107.0635725463585
 30
0.0
 10
148.0953664995502
 20
107.3164436510183
 30
0.0
 10
148.0953664995502
 20
107.3164436510183
 30
0.0
  0
HATCH
  5
58
330
4F
100
AcDbEntity
  8
_U+30EC_U+30A4_U+30E4_U+30FC 1
 62
     7
100
AcDbHatch
 10
0.0
 20
0.0
 30
0.0
210
0.0
220
0.0
230
1.0
  2
SOLID
 70
     1
 71
     0
 91
        1
 92
        1
 93
        1
 72
     4
 94
        3
 73
     0
 74
     1
 95
       65
 96
       61
 40
0.0
 40
0.0
 40
0.0
 40
0.0
 40
1.0
 40
1.0
 40
1.0
 40
2.0
 40
2.0
 40
2.0
 40
3.0
 40
3.0
 40
3.0
 40
4.0
 40
4.0
 40
4.0
 40
5.0
 40
5.0
 40
5.0
 40
6.0
 40
6.0
 40
6.0
 40
7.0
 40
7.0
 40
7.0
 40
8.0
 40
8.0
 40
8.0
 40
9.0
 40
9.0
 40
9.0
 40
10.0
 40
10.0
 40
10.0
 40
11.0
 40
11.0
 40
11.0
 40
12.0
 40
12.0
 40
12.0
 40
13.0
 40
13.0
 40
13.0
 40
14.0
 40
14.0
 40
14.0
 40
15.0
 40
15.0
 40
15.0
 40
16.0
 40
16.0
 40
16.0
 40
17.0
 40
17.0
 40
17.0
 40
18.0
 40
18.0
 40
18.0
 40
19.0
 40
19.0
 40
19.0
 40
20.0
 40
20.0
 40
20.0
 40
20.0
 10
148.0953664995502
 20
107.3164436510183
 10
148.0495444074319
 20
107.3219469842113
 10
148.0123226127799
 20
107.363292538712
 10
148.012675390549
 20
107.4098239264138
 10
148.012675390549
 20
107.4098239264138
 10
148.0109467794817
 20
108.2421325162909
 10
148.0109467794817
 20
108.2421325162909
 10
148.0109467794817
 20
108.2889814039846
 10
148.047812056319
 20
108.3244708475236
 10
148.0936416296431
 20
108.3189675143307
 10
148.0936416296431
 20
108.3189675143307
 10
150.0480305180437
 20
108.0819388618683
 10
150.0480305180437
 20
108.0819388618683
 10
150.2130561677457
 20
108.0619689097762
 10
150.3467236643355
 20
108.1835714066738
 10
150.3467236643355
 20
108.3523755690339
 10
150.3467236643355
 20
108.5191336203351
 10
150.2127033899769
 20
108.6731211164069
 10
150.047677740266
 20
108.6927708381275
 10
150.047677740266
 20
108.6927708381275
 10
149.1809027404826
 20
108.8219580570539
 10
149.1809027404826
 20
108.8219580570539
 10
148.4746416295479
 20
108.9077183326437
 10
147.9010565045075
 20
109.5543952605901
 10
147.9003509489699
 20
110.2664771868678
 10
147.8986223379029
 20
110.9782444166998
 10
148.4708631566372
 20
111.4867354890698
 10
149.17712424973
 20
111.4012927134718
 10
149.17712424973
 20
111.4012927134718
 10
151.1449539217488
 20
111.1628854973319
 10
151.1449539217488
 20
111.1628854973319
 10
151.1918028094424
 20
111.1570293863701
 10
151.2283153085109
 20
111.1153663318775
 10
151.2286680862797
 20
111.0691877219445
 10
151.2286680862797
 20
111.0691877219445
 10
151.2300439195779
 20
110.2458044096174
 10
151.2300439195779
 20
110.2458044096174
 10
151.2296911418092
 20
110.1979324663943
 10
151.1931786427407
 20
110.1624430228553
 10
151.1470000328077
 20
110.168299133817
 10
151.1470000328077
 20
110.168299133817
 10
149.2997498021572
 20
110.3918896836683
 10
149.2997498021572
 20
110.3918896836683
 10
149.1354259174605
 20
110.4115041276123
 10
149.0007353653412
 20
110.2902544084834
 10
149.0014056431019
 20
110.1231788571903
 10
149.0014056431019
 20
109.9550449725909
 10
149.1364527404936
 20
109.8034563653471
 10
149.3007728576866
 20
109.7834891436343
 10
149.3007728576866
 20
109.7834891436343
 10
150.1782370019673
 20
109.6501391470363
 10
150.1782370019673
 20
109.6501391470363
 10
150.8841453172914
 20
109.5643788714465
 10
151.4591416288021
 20
108.9166788879707
 10
151.4608664136892
 20
108.204596961693
 10
151.4608664136892
 20
107.4907511465714
 10
150.8886255949549
 20
106.9781297707605
 10
150.1823997796389
 20
107.0635725463585
 10
150.1823997796389
 20
107.0635725463585
 10
148.0953664995502
 20
107.3164436510183
 10
148.0953664995502
 20
107.3164436510183
 97
        0
 75
     2
 76
     1
 98
        0
  0
SPLINE
  5
59
330
4F
100
AcDbEntity
  8
_U+30EC_U+30A4_U+30E4_U+30FC 1
370
     0
100
AcDbSpline
210
0.0
220
0.0
230
1.0
 70
    11
 71
     3
 72
    65
 73
    61
 74
     0
 42
0.0000000001
 43
0.0000000001
 12
1.0
 22
0.0
 32
0.0
 13
1.0
 23
0.0
 33
0.0
 40
0.0
 40
0.0
 40
0.0
 40
0.0
 40
1.0
 40
1.0
 40
1.0
 40
2.0
 40
2.0
 40
2.0
 40
3.0
 40
3.0
 40
3.0
 40
4.0
 40
4.0
 40
4.0
 40
5.0
 40
5.0
 40
5.0
 40
6.0
 40
6.0
 40
6.0
 40
7.0
 40
7.0
 40
7.0
 40
8.0
 40
8.0
 40
8.0
 40
9.0
 40
9.0
 40
9.0
 40
10.0
 40
10.0
 40
10.0
 40
11.0
 40
11.0
 40
11.0
 40
12.0
 40
12.0
 40
12.0
 40
13.0
 40
13.0
 40
13.0
 40
14.0
 40
14.0
 40
14.0
 40
15.0
 40
15.0
 40
15.0
 40
16.0
 40
16.0
 40
16.0
 40
17.0
 40
17.0
 40
17.0
 40
18.0
 40
18.0
 40
18.0
 40
19.0
 40
19.0
 40
19.0
 40
20.0
 40
20.0
 40
20.0
 40
20.0
 10
155.0957827098436
 20
110.687799676119
 30
0.0
 10
155.0957827098436
 20
110.687799676119
 30
0.0
 10
154.171822455638
 20
110.799771339929
 30
0.0
 10
154.171822455638
 20
110.799771339929
 30
0.0
 10
154.1259966234738
 20
110.805627450891
 30
0.0
 10
154.0295119037131
 20
110.7787810626867
 30
0.0
 10
154.0291944037212
 20
110.7326024527537
 30
0.0
 10
154.0291944037212
 20
110.7326024527537
 30
0.0
 10
154.0312444059366
 20
109.2143555282519
 30
0.0
 10
154.0312444059366
 20
109.2143555282519
 30
0.0
 10
154.0312444059366
 20
109.2143555282519
 30
0.0
 10
152.8740588776356
 20
109.3545466545775
 30
0.0
 10
152.8740588776356
 20
109.3545466545775
 30
0.0
 10
152.8740588776356
 20
109.3545466545775
 30
0.0
 10
152.871624711031
 20
110.8728316158429
 30
0.0
 10
152.871624711031
 20
110.8728316158429
 30
0.0
 10
152.8719774887998
 20
110.9189777500481
 30
0.0
 10
152.8333836008956
 20
110.9624018913355
 30
0.0
 10
152.7882633242689
 20
110.9679052245284
 30
0.0
 10
152.7882633242689
 20
110.9679052245284
 30
0.0
 10
151.8043308493711
 20
111.0867560548296
 30
0.0
 10
151.8043308493711
 20
111.0867560548296
 30
0.0
 10
151.7585050172069
 20
111.0926121657913
 30
0.0
 10
151.7209694626089
 20
111.0588513333193
 30
0.0
 10
151.7209694626089
 20
111.0126727233863
 30
0.0
 10
151.7209694626089
 20
111.0126727233863
 30
0.0
 10
151.7268255735706
 20
106.9660647710683
 30
0.0
 10
151.7268255735706
 20
106.9660647710683
 30
0.0
 10
151.7271783513394
 20
106.9178400500764
 30
0.0
 10
151.7650666837061
 20
106.8754714400462
 30
0.0
 10
151.8112452936391
 20
106.8699681068533
 30
0.0
 10
151.8112452936391
 20
106.8699681068533
 30
0.0
 10
152.7947897129913
 20
106.7507644987833
 30
0.0
 10
152.7947897129913
 20
106.7507644987833
 30
0.0
 10
152.8402666284565
 20
106.7452638622026
 30
0.0
 10
152.8774808219927
 20
106.7779636647561
 30
0.0
 10
152.8778335997615
 20
106.8262236635249
 30
0.0
 10
152.8778335997615
 20
106.8262236635249
 30
0.0
 10
152.8754347109338
 20
108.3534339023403
 30
0.0
 10
152.8754347109338
 20
108.3534339023403
 30
0.0
 10
152.8754347109338
 20
108.3534339023403
 30
0.0
 10
154.0329691258471
 20
108.2128519614824
 30
0.0
 10
154.0329691258471
 20
108.2128519614824
 30
0.0
 10
154.0329691258471
 20
108.2128519614824
 30
0.0
 10
154.0353680146748
 20
106.6859971955509
 30
0.0
 10
154.0353680146748
 20
106.6859971955509
 30
0.0
 10
154.0350505146829
 20
106.6377697794438
 30
0.0
 10
154.0732916248184
 20
106.5960714471743
 30
0.0
 10
154.1187646792139
 20
106.5902153362126
 30
0.0
 10
154.1187646792139
 20
106.5902153362126
 30
0.0
 10
155.1016388208053
 20
106.4710117281426
 30
0.0
 10
155.1016388208053
 20
106.4710117281426
 30
0.0
 10
155.1478174307383
 20
106.4655110844949
 30
0.0
 10
155.1850002075675
 20
106.4985636718842
 30
0.0
 10
155.1853529853363
 20
106.5464708928842
 30
0.0
 10
155.1853529853363
 20
106.5464708928842
 30
0.0
 10
155.1791440966058
 20
110.5930788452022
 30
0.0
 10
155.1791440966058
 20
110.5930788452022
 30
0.0
 10
155.1794968743745
 20
110.6395777501178
 30
0.0
 10
155.1419613197766
 20
110.682296342926
 30
0.0
 10
155.0957827098436
 20
110.687799676119
 30
0.0
  0
HATCH
  5
5A
330
4F
100
AcDbEntity
  8
_U+30EC_U+30A4_U+30E4_U+30FC 1
 62
     7
100
AcDbHatch
 10
0.0
 20
0.0
 30
0.0
210
0.0
220
0.0
230
1.0
  2
SOLID
 70
     1
 71
     0
 91
        1
 92
        1
 93
        1
 72
     4
 94
        3
 73
     0
 74
     1
 95
       65
 96
       61
 40
0.0
 40
0.0
 40
0.0
 40
0.0
 40
1.0
 40
1.0
 40
1.0
 40
2.0
 40
2.0
 40
2.0
 40
3.0
 40
3.0
 40
3.0
 40
4.0
 40
4.0
 40
4.0
 40
5.0
 40
5.0
 40
5.0
 40
6.0
 40
6.0
 40
6.0
 40
7.0
 40
7.0
 40
7.0
 40
8.0
 40
8.0
 40
8.0
 40
9.0
 40
9.0
 40
9.0
 40
10.0
 40
10.0
 40
10.0
 40
11.0
 40
11.0
 40
11.0
 40
12.0
 40
12.0
 40
12.0
 40
13.0
 40
13.0
 40
13.0
 40
14.0
 40
14.0
 40
14.0
 40
15.0
 40
15.0
 40
15.0
 40
16.0
 40
16.0
 40
16.0
 40
17.0
 40
17.0
 40
17.0
 40
18.0
 40
18.0
 40
18.0
 40
19.0
 40
19.0
 40
19.0
 40
20.0
 40
20.0
 40
20.0
 40
20.0
 10
155.0957827098436
 20
110.687799676119
 10
155.0957827098436
 20
110.687799676119
 10
154.171822455638
 20
110.799771339929
 10
154.171822455638
 20
110.799771339929
 10
154.1259966234738
 20
110.805627450891
 10
154.0295119037131
 20
110.7787810626867
 10
154.0291944037212
 20
110.7326024527537
 10
154.0291944037212
 20
110.7326024527537
 10
154.0312444059366
 20
109.2143555282519
 10
154.0312444059366
 20
109.2143555282519
 10
154.0312444059366
 20
109.2143555282519
 10
152.8740588776356
 20
109.3545466545775
 10
152.8740588776356
 20
109.3545466545775
 10
152.8740588776356
 20
109.3545466545775
 10
152.871624711031
 20
110.8728316158429
 10
152.871624711031
 20
110.8728316158429
 10
152.8719774887998
 20
110.9189777500481
 10
152.8333836008956
 20
110.9624018913355
 10
152.7882633242689
 20
110.9679052245284
 10
152.7882633242689
 20
110.9679052245284
 10
151.8043308493711
 20
111.0867560548296
 10
151.8043308493711
 20
111.0867560548296
 10
151.7585050172069
 20
111.0926121657913
 10
151.7209694626089
 20
111.0588513333193
 10
151.7209694626089
 20
111.0126727233863
 10
151.7209694626089
 20
111.0126727233863
 10
151.7268255735706
 20
106.9660647710683
 10
151.7268255735706
 20
106.9660647710683
 10
151.7271783513394
 20
106.9178400500764
 10
151.7650666837061
 20
106.8754714400462
 10
151.8112452936391
 20
106.8699681068533
 10
151.8112452936391
 20
106.8699681068533
 10
152.7947897129913
 20
106.7507644987833
 10
152.7947897129913
 20
106.7507644987833
 10
152.8402666284565
 20
106.7452638622026
 10
152.8774808219927
 20
106.7779636647561
 10
152.8778335997615
 20
106.8262236635249
 10
152.8778335997615
 20
106.8262236635249
 10
152.8754347109338
 20
108.3534339023403
 10
152.8754347109338
 20
108.3534339023403
 10
152.8754347109338
 20
108.3534339023403
 10
154.0329691258471
 20
108.2128519614824
 10
154.0329691258471
 20
108.2128519614824
 10
154.0329691258471
 20
108.2128519614824
 10
154.0353680146748
 20
106.6859971955509
 10
154.0353680146748
 20
106.6859971955509
 10
154.0350505146829
 20
106.6377697794438
 10
154.0732916248184
 20
106.5960714471743
 10
154.1187646792139
 20
106.5902153362126
 10
154.1187646792139
 20
106.5902153362126
 10
155.1016388208053
 20
106.4710117281426
 10
155.1016388208053
 20
106.4710117281426
 10
155.1478174307383
 20
106.4655110844949
 10
155.1850002075675
 20
106.4985636718842
 10
155.1853529853363
 20
106.5464708928842
 10
155.1853529853363
 20
106.5464708928842
 10
155.1791440966058
 20
110.5930788452022
 10
155.1791440966058
 20
110.5930788452022
 10
155.1794968743745
 20
110.6395777501178
 10
155.1419613197766
 20
110.682296342926
 10
155.0957827098436
 20
110.687799676119
 97
        0
 75
     2
 76
     1
 98
        0
  0
SPLINE
  5
5B
330
4F
100
AcDbEntity
  8
_U+30EC_U+30A4_U+30E4_U+30FC 1
370
     0
100
AcDbSpline
210
0.0
220
0.0
230
1.0
 70
    11
 71
     3
 72
    29
 73
    25
 74
     0
 42
0.0000000001
 43
0.0000000001
 12
1.0
 22
0.0
 32
0.0
 13
1.0
 23
0.0
 33
0.0
 40
0.0
 40
0.0
 40
0.0
 40
0.0
 40
1.0
 40
1.0
 40
1.0
 40
2.0
 40
2.0
 40
2.0
 40
3.0
 40
3.0
 40
3.0
 40
4.0
 40
4.0
 40
4.0
 40
5.0
 40
5.0
 40
5.0
 40
6.0
 40
6.0
 40
6.0
 40
7.0
 40
7.0
 40
7.0
 40
8.0
 40
8.0
 40
8.0
 40
8.0
 10
158.2332470742447
 20
110.3081755191373
 30
0.0
 10
158.2332470742447
 20
110.3081755191373
 30
0.0
 10
156.6905146136031
 20
110.4952182921432
 30
0.0
 10
156.6905146136031
 20
110.4952182921432
 30
0.0
 10
156.0397454635389
 20
110.57378190125
 30
0.0
 10
155.5116018659018
 20
110.1018005244024
 30
0.0
 10
155.5119546436706
 20
109.440694985713
 30
0.0
 10
155.5119546436706
 20
109.440694985713
 30
0.0
 10
155.5147063102671
 20
107.6220197543335
 30
0.0
 10
155.5147063102671
 20
107.6220197543335
 30
0.0
 10
155.5157332944545
 20
106.9609142156442
 30
0.0
 10
156.0456055165444
 20
106.3607686753996
 30
0.0
 10
156.6967235023335
 20
106.28224034407
 30
0.0
 10
156.6967235023335
 20
106.28224034407
 30
0.0
 10
158.2394206851983
 20
106.0951622932869
 30
0.0
 10
158.2394206851983
 20
106.0951622932869
 30
0.0
 10
158.8908953908
 20
106.0159284064194
 30
0.0
 10
159.4176631551388
 20
106.4879097832671
 30
0.0
 10
159.4162873218406
 20
107.1490153219564
 30
0.0
 10
159.4162873218406
 20
107.1490153219564
 30
0.0
 10
159.413853155236
 20
108.9673377755672
 30
0.0
 10
159.413853155236
 20
108.9673377755672
 30
0.0
 10
159.4131828774753
 20
109.6291488697941
 30
0.0
 10
158.8840162243088
 20
110.2289444168872
 30
0.0
 10
158.2332470742447
 20
110.3081755191373
 30
0.0
  0
SPLINE
  5
5C
330
4F
100
AcDbEntity
  8
_U+30EC_U+30A4_U+30E4_U+30FC 1
370
     0
100
AcDbSpline
210
0.0
220
0.0
230
1.0
 70
    11
 71
     3
 72
    29
 73
    25
 74
     0
 42
0.0000000001
 43
0.0000000001
 12
1.0
 22
0.0
 32
0.0
 13
1.0
 23
0.0
 33
0.0
 40
0.0
 40
0.0
 40
0.0
 40
0.0
 40
1.0
 40
1.0
 40
1.0
 40
2.0
 40
2.0
 40
2.0
 40
3.0
 40
3.0
 40
3.0
 40
4.0
 40
4.0
 40
4.0
 40
5.0
 40
5.0
 40
5.0
 40
6.0
 40
6.0
 40
6.0
 40
7.0
 40
7.0
 40
7.0
 40
8.0
 40
8.0
 40
8.0
 40
8.0
 10
158.2642249604338
 20
107.5241971953411
 30
0.0
 10
158.2642249604338
 20
107.2885416398445
 30
0.0
 10
158.0761198560311
 20
107.1204050449086
 30
0.0
 10
157.8436040286297
 20
107.1483097664189
 30
0.0
 10
157.8436040286297
 20
107.1483097664189
 30
0.0
 10
157.0880951590155
 20
107.2399614307473
 30
0.0
 10
157.0880951590155
 20
107.2399614307473
 30
0.0
 10
156.855896831606
 20
107.2685717077952
 30
0.0
 10
156.667442947525
 20
107.4821433690132
 30
0.0
 10
156.667442947525
 20
107.7177989185567
 30
0.0
 10
156.667442947525
 20
107.7177989185567
 30
0.0
 10
156.6646912809285
 20
109.065515828618
 30
0.0
 10
156.6646912809285
 20
109.065515828618
 30
0.0
 10
156.6650087809204
 20
109.3011713781615
 30
0.0
 10
156.852439609472
 20
109.4685997072233
 30
0.0
 10
157.085343492419
 20
109.440694985713
 30
0.0
 10
157.085343492419
 20
109.440694985713
 30
0.0
 10
157.8408523620333
 20
109.3490433213846
 30
0.0
 10
157.8408523620333
 20
109.3490433213846
 30
0.0
 10
158.0726979116739
 20
109.3211385998746
 30
0.0
 10
158.2618220735156
 20
109.1072141608875
 30
0.0
 10
158.2621748512844
 20
108.8719113891128
 30
0.0
 10
158.2621748512844
 20
108.8719113891128
 30
0.0
 10
158.2642249604338
 20
107.5241971953411
 30
0.0
 10
158.2642249604338
 20
107.5241971953411
 30
0.0
  0
HATCH
  5
5D
330
4F
100
AcDbEntity
  8
_U+30EC_U+30A4_U+30E4_U+30FC 1
 62
     7
100
AcDbHatch
 10
0.0
 20
0.0
 30
0.0
210
0.0
220
0.0
230
1.0
  2
SOLID
 70
     1
 71
     0
 91
        2
 92
        1
 93
        1
 72
     4
 94
        3
 73
     0
 74
     1
 95
       29
 96
       25
 40
0.0
 40
0.0
 40
0.0
 40
0.0
 40
1.0
 40
1.0
 40
1.0
 40
2.0
 40
2.0
 40
2.0
 40
3.0
 40
3.0
 40
3.0
 40
4.0
 40
4.0
 40
4.0
 40
5.0
 40
5.0
 40
5.0
 40
6.0
 40
6.0
 40
6.0
 40
7.0
 40
7.0
 40
7.0
 40
8.0
 40
8.0
 40
8.0
 40
8.0
 10
158.2642249604338
 20
107.5241971953411
 10
158.2642249604338
 20
107.2885416398445
 10
158.0761198560311
 20
107.1204050449086
 10
157.8436040286297
 20
107.1483097664189
 10
157.8436040286297
 20
107.1483097664189
 10
157.0880951590155
 20
107.2399614307473
 10
157.0880951590155
 20
107.2399614307473
 10
156.855896831606
 20
107.2685717077952
 10
156.667442947525
 20
107.4821433690132
 10
156.667442947525
 20
107.7177989185567
 10
156.667442947525
 20
107.7177989185567
 10
156.6646912809285
 20
109.065515828618
 10
156.6646912809285
 20
109.065515828618
 10
156.6650087809204
 20
109.3011713781615
 10
156.852439609472
 20
109.4685997072233
 10
157.085343492419
 20
109.440694985713
 10
157.085343492419
 20
109.440694985713
 10
157.8408523620333
 20
109.3490433213846
 10
157.8408523620333
 20
109.3490433213846
 10
158.0726979116739
 20
109.3211385998746
 10
158.2618220735156
 20
109.1072141608875
 10
158.2621748512844
 20
108.8719113891128
 10
158.2621748512844
 20
108.8719113891128
 10
158.2642249604338
 20
107.5241971953411
 10
158.2642249604338
 20
107.5241971953411
 97
        0
 92
        1
 93
        2
 72
     4
 94
        3
 73
     0
 74
     0
 95
       29
 96
       25
 40
0.0
 40
0.0
 40
0.0
 40
0.0
 40
0.3527777776895833
 40
0.3527777776895833
 40
0.3527777776895833
 40
0.7055555553791667
 40
0.7055555553791667
 40
0.7055555553791667
 40
1.05833333306875
 40
1.05833333306875
 40
1.05833333306875
 40
1.411111110758333
 40
1.411111110758333
 40
1.411111110758333
 40
1.763888888447917
 40
1.763888888447917
 40
1.763888888447917
 40
2.1166666661375
 40
2.1166666661375
 40
2.1166666661375
 40
2.469444443827083
 40
2.469444443827083
 40
2.469444443827083
 40
2.822222221516667
 40
2.822222221516667
 40
2.822222221516667
 40
2.822222221516667
 10
158.2332470742447
 20
110.3081755191373
 10
158.2332470742447
 20
110.3081755191373
 10
156.6905146136031
 20
110.4952182921432
 10
156.6905146136031
 20
110.4952182921432
 10
156.0397454635389
 20
110.57378190125
 10
155.5116018659018
 20
110.1018005244024
 10
155.5119546436706
 20
109.440694985713
 10
155.5119546436706
 20
109.440694985713
 10
155.5147063102671
 20
107.6220197543335
 10
155.5147063102671
 20
107.6220197543335
 10
155.5157332944545
 20
106.9609142156442
 10
156.0456055165444
 20
106.3607686753996
 10
156.6967235023335
 20
106.28224034407
 10
156.6967235023335
 20
106.28224034407
 10
158.2394206851983
 20
106.0951622932869
 10
158.2394206851983
 20
106.0951622932869
 10
158.8908953908
 20
106.0159284064194
 10
159.4176631551388
 20
106.4879097832671
 10
159.4162873218406
 20
107.1490153219564
 10
159.4162873218406
 20
107.1490153219564
 10
159.413853155236
 20
108.9673377755672
 10
159.413853155236
 20
108.9673377755672
 10
159.4131828774753
 20
109.6291488697941
 10
158.8840162243088
 20
110.2289444168872
 10
158.2332470742447
 20
110.3081755191373
 72
     1
 10
158.2332470742447
 20
110.3081755191373
 11
158.2332470742447
 21
110.3081755191373
 97
        0
 75
     2
 76
     1
 98
        0
  0
SPLINE
  5
5E
330
4F
100
AcDbEntity
  8
_U+30EC_U+30A4_U+30E4_U+30FC 1
370
     0
100
AcDbSpline
210
0.0
220
0.0
230
1.0
 70
    11
 71
     3
 72
    47
 73
    43
 74
     0
 42
0.0000000001
 43
0.0000000001
 12
1.0
 22
0.0
 32
0.0
 13
1.0
 23
0.0
 33
0.0
 40
0.0
 40
0.0
 40
0.0
 40
0.0
 40
1.0
 40
1.0
 40
1.0
 40
2.0
 40
2.0
 40
2.0
 40
3.0
 40
3.0
 40
3.0
 40
4.0
 40
4.0
 40
4.0
 40
5.0
 40
5.0
 40
5.0
 40
6.0
 40
6.0
 40
6.0
 40
7.0
 40
7.0
 40
7.0
 40
8.0
 40
8.0
 40
8.0
 40
9.0
 40
9.0
 40
9.0
 40
10.0
 40
10.0
 40
10.0
 40
11.0
 40
11.0
 40
11.0
 40
12.0
 40
12.0
 40
12.0
 40
13.0
 40
13.0
 40
13.0
 40
14.0
 40
14.0
 40
14.0
 40
14.0
 10
137.3213217744193
 20
114.4670726352572
 30
0.0
 10
137.3213217744193
 20
114.4670726352572
 30
0.0
 10
132.8253102224551
 20
115.0121142880187
 30
0.0
 10
132.8253102224551
 20
115.0121142880187
 30
0.0
 10
132.7839646679544
 20
115.0170884545585
 30
0.0
 10
132.7503802243668
 20
114.9871376219893
 30
0.0
 10
132.7503802243668
 20
114.9447337341825
 30
0.0
 10
132.7503802243668
 20
114.9447337341825
 30
0.0
 10
132.7519324465494
 20
113.9367065376772
 30
0.0
 10
132.7519324465494
 20
113.9367065376772
 30
0.0
 10
132.7519324465494
 20
113.8939851498779
 30
0.0
 10
132.7858696679061
 20
113.8553912619736
 30
0.0
 10
132.8270388335222
 20
113.8507698732027
 30
0.0
 10
132.8270388335222
 20
113.8507698732027
 30
0.0
 10
134.4097057375894
 20
113.6586823781032
 30
0.0
 10
134.4097057375894
 20
113.6586823781032
 30
0.0
 10
134.4097057375894
 20
113.6586823781032
 30
0.0
 10
134.4165849040806
 20
109.0648455508573
 30
0.0
 10
134.4165849040806
 20
109.0648455508573
 30
0.0
 10
134.4167612929649
 20
109.0165855520885
 30
0.0
 10
134.4536265698022
 20
108.9749224975959
 30
0.0
 10
134.5002990686115
 20
108.9690663866342
 30
0.0
 10
134.5002990686115
 20
108.9690663866342
 30
0.0
 10
135.663548483379
 20
108.8281669457844
 30
0.0
 10
135.663548483379
 20
108.8281669457844
 30
0.0
 10
135.7103973710726
 20
108.8223108348227
 30
0.0
 10
135.7464194105077
 20
108.8553661117571
 30
0.0
 10
135.7462395923805
 20
108.903590832749
 30
0.0
 10
135.7462395923805
 20
108.903590832749
 30
0.0
 10
135.7393251481124
 20
113.4974629377718
 30
0.0
 10
135.7393251481124
 20
113.4974629377718
 30
0.0
 10
135.7393251481124
 20
113.4974629377718
 30
0.0
 10
137.3232267743704
 20
113.3054107204493
 30
0.0
 10
137.3232267743704
 20
113.3054107204493
 30
0.0
 10
137.3649251066399
 20
113.3005805272306
 30
0.0
 10
137.3974512169212
 20
113.330881275355
 30
0.0
 10
137.3974512169212
 20
113.3736055272121
 30
0.0
 10
137.3974512169212
 20
113.3736055272121
 30
0.0
 10
137.3959342725155
 20
114.3814916380712
 30
0.0
 10
137.3959342725155
 20
114.3814916380712
 30
0.0
 10
137.3959342725155
 20
114.423857358582
 30
0.0
 10
137.3631999656593
 20
114.4617456909487
 30
0.0
 10
137.3213217744193
 20
114.4670726352572
 30
0.0
  0
HATCH
  5
5F
330
4F
100
AcDbEntity
  8
_U+30EC_U+30A4_U+30E4_U+30FC 1
 62
     7
100
AcDbHatch
 10
0.0
 20
0.0
 30
0.0
210
0.0
220
0.0
230
1.0
  2
SOLID
 70
     1
 71
     0
 91
        1
 92
        1
 93
        1
 72
     4
 94
        3
 73
     0
 74
     1
 95
       47
 96
       43
 40
0.0
 40
0.0
 40
0.0
 40
0.0
 40
1.0
 40
1.0
 40
1.0
 40
2.0
 40
2.0
 40
2.0
 40
3.0
 40
3.0
 40
3.0
 40
4.0
 40
4.0
 40
4.0
 40
5.0
 40
5.0
 40
5.0
 40
6.0
 40
6.0
 40
6.0
 40
7.0
 40
7.0
 40
7.0
 40
8.0
 40
8.0
 40
8.0
 40
9.0
 40
9.0
 40
9.0
 40
10.0
 40
10.0
 40
10.0
 40
11.0
 40
11.0
 40
11.0
 40
12.0
 40
12.0
 40
12.0
 40
13.0
 40
13.0
 40
13.0
 40
14.0
 40
14.0
 40
14.0
 40
14.0
 10
137.3213217744193
 20
114.4670726352572
 10
137.3213217744193
 20
114.4670726352572
 10
132.8253102224551
 20
115.0121142880187
 10
132.8253102224551
 20
115.0121142880187
 10
132.7839646679544
 20
115.0170884545585
 10
132.7503802243668
 20
114.9871376219893
 10
132.7503802243668
 20
114.9447337341825
 10
132.7503802243668
 20
114.9447337341825
 10
132.7519324465494
 20
113.9367065376772
 10
132.7519324465494
 20
113.9367065376772
 10
132.7519324465494
 20
113.8939851498779
 10
132.7858696679061
 20
113.8553912619736
 10
132.8270388335222
 20
113.8507698732027
 10
132.8270388335222
 20
113.8507698732027
 10
134.4097057375894
 20
113.6586823781032
 10
134.4097057375894
 20
113.6586823781032
 10
134.4097057375894
 20
113.6586823781032
 10
134.4165849040806
 20
109.0648455508573
 10
134.4165849040806
 20
109.0648455508573
 10
134.4167612929649
 20
109.0165855520885
 10
134.4536265698022
 20
108.9749224975959
 10
134.5002990686115
 20
108.9690663866342
 10
134.5002990686115
 20
108.9690663866342
 10
135.663548483379
 20
108.8281669457844
 10
135.663548483379
 20
108.8281669457844
 10
135.7103973710726
 20
108.8223108348227
 10
135.7464194105077
 20
108.8553661117571
 10
135.7462395923805
 20
108.903590832749
 10
135.7462395923805
 20
108.903590832749
 10
135.7393251481124
 20
113.4974629377718
 10
135.7393251481124
 20
113.4974629377718
 10
135.7393251481124
 20
113.4974629377718
 10
137.3232267743704
 20
113.3054107204493
 10
137.3232267743704
 20
113.3054107204493
 10
137.3649251066399
 20
113.3005805272306
 10
137.3974512169212
 20
113.330881275355
 10
137.3974512169212
 20
113.3736055272121
 10
137.3974512169212
 20
113.3736055272121
 10
137.3959342725155
 20
114.3814916380712
 10
137.3959342725155
 20
114.3814916380712
 10
137.3959342725155
 20
114.423857358582
 10
137.3631999656593
 20
114.4617456909487
 10
137.3213217744193
 20
114.4670726352572
 97
        0
 75
     2
 76
     1
 98
        0
  0
SPLINE
  5
60
330
4F
100
AcDbEntity
  8
_U+30EC_U+30A4_U+30E4_U+30FC 1
370
     0
100
AcDbSpline
210
0.0
220
0.0
230
1.0
 70
    11
 71
     3
 72
    29
 73
    25
 74
     0
 42
0.0000000001
 43
0.0000000001
 12
1.0
 22
0.0
 32
0.0
 13
1.0
 23
0.0
 33
0.0
 40
0.0
 40
0.0
 40
0.0
 40
0.0
 40
1.0
 40
1.0
 40
1.0
 40
2.0
 40
2.0
 40
2.0
 40
3.0
 40
3.0
 40
3.0
 40
4.0
 40
4.0
 40
4.0
 40
5.0
 40
5.0
 40
5.0
 40
6.0
 40
6.0
 40
6.0
 40
7.0
 40
7.0
 40
7.0
 40
8.0
 40
8.0
 40
8.0
 40
8.0
 10
141.2843919510904
 20
108.1467061298366
 30
0.0
 10
141.330394172139
 20
108.1408527507426
 30
0.0
 10
141.3688116711589
 20
108.1735877958174
 30
0.0
 10
141.3686388535466
 20
108.2225180723469
 30
0.0
 10
141.3686388535466
 20
108.2225180723469
 30
0.0
 10
141.3626027824284
 20
112.2746293578578
 30
0.0
 10
141.3626027824284
 20
112.2746293578578
 30
0.0
 10
141.3626027824284
 20
112.3214782455515
 30
0.0
 10
141.3236561167554
 20
112.3638468555817
 30
0.0
 10
141.277865562368
 20
112.3693501887746
 30
0.0
 10
141.277865562368
 20
112.3693501887746
 30
0.0
 10
140.2910050319894
 20
112.4892593523821
 30
0.0
 10
140.2910050319894
 20
112.4892593523821
 30
0.0
 10
140.2441561442957
 20
112.4951154633438
 30
0.0
 10
140.2067617008053
 20
112.4617074086406
 30
0.0
 10
140.2067617008053
 20
112.4148585209469
 30
0.0
 10
140.2067617008053
 20
112.4148585209469
 30
0.0
 10
140.2127942006514
 20
108.3627119576591
 30
0.0
 10
140.2127942006514
 20
108.3627119576591
 30
0.0
 10
140.2131469784202
 20
108.3138169589065
 30
0.0
 10
140.2505061441337
 20
108.2717658488682
 30
0.0
 10
140.2975314207118
 20
108.2662625156753
 30
0.0
 10
140.2975314207118
 20
108.2662625156753
 30
0.0
 10
141.2843919510904
 20
108.1467061298366
 30
0.0
 10
141.2843919510904
 20
108.1467061298366
 30
0.0
  0
HATCH
  5
61
330
4F
100
AcDbEntity
  8
_U+30EC_U+30A4_U+30E4_U+30FC 1
 62
     7
100
AcDbHatch
 10
0.0
 20
0.0
 30
0.0
210
0.0
220
0.0
230
1.0
  2
SOLID
 70
     1
 71
     0
 91
        1
 92
        1
 93
        1
 72
     4
 94
        3
 73
     0
 74
     1
 95
       29
 96
       25
 40
0.0
 40
0.0
 40
0.0
 40
0.0
 40
1.0
 40
1.0
 40
1.0
 40
2.0
 40
2.0
 40
2.0
 40
3.0
 40
3.0
 40
3.0
 40
4.0
 40
4.0
 40
4.0
 40
5.0
 40
5.0
 40
5.0
 40
6.0
 40
6.0
 40
6.0
 40
7.0
 40
7.0
 40
7.0
 40
8.0
 40
8.0
 40
8.0
 40
8.0
 10
141.2843919510904
 20
108.1467061298366
 10
141.330394172139
 20
108.1408527507426
 10
141.3688116711589
 20
108.1735877958174
 10
141.3686388535466
 20
108.2225180723469
 10
141.3686388535466
 20
108.2225180723469
 10
141.3626027824284
 20
112.2746293578578
 10
141.3626027824284
 20
112.2746293578578
 10
141.3626027824284
 20
112.3214782455515
 10
141.3236561167554
 20
112.3638468555817
 10
141.277865562368
 20
112.3693501887746
 10
141.277865562368
 20
112.3693501887746
 10
140.2910050319894
 20
112.4892593523821
 10
140.2910050319894
 20
112.4892593523821
 10
140.2441561442957
 20
112.4951154633438
 10
140.2067617008053
 20
112.4617074086406
 10
140.2067617008053
 20
112.4148585209469
 10
140.2067617008053
 20
112.4148585209469
 10
140.2127942006514
 20
108.3627119576591
 10
140.2127942006514
 20
108.3627119576591
 10
140.2131469784202
 20
108.3138169589065
 10
140.2505061441337
 20
108.2717658488682
 10
140.2975314207118
 20
108.2662625156753
 10
140.2975314207118
 20
108.2662625156753
 10
141.2843919510904
 20
108.1467061298366
 10
141.2843919510904
 20
108.1467061298366
 97
        0
 75
     2
 76
     1
 98
        0
  0
SPLINE
  5
62
330
4F
100
AcDbEntity
  8
_U+30EC_U+30A4_U+30E4_U+30FC 1
370
     0
100
AcDbSpline
210
0.0
220
0.0
230
1.0
 70
    11
 71
     3
 72
    29
 73
    25
 74
     0
 42
0.0000000001
 43
0.0000000001
 12
1.0
 22
0.0
 32
0.0
 13
1.0
 23
0.0
 33
0.0
 40
0.0
 40
0.0
 40
0.0
 40
0.0
 40
1.0
 40
1.0
 40
1.0
 40
2.0
 40
2.0
 40
2.0
 40
3.0
 40
3.0
 40
3.0
 40
4.0
 40
4.0
 40
4.0
 40
5.0
 40
5.0
 40
5.0
 40
6.0
 40
6.0
 40
6.0
 40
7.0
 40
7.0
 40
7.0
 40
8.0
 40
8.0
 40
8.0
 40
8.0
 10
142.9065346874839
 20
112.1692221941799
 30
0.0
 10
142.8279710783771
 20
112.1788501936347
 30
0.0
 10
142.7576977468366
 20
112.1474882499903
 30
0.0
 10
142.7155055256908
 20
112.0916788069697
 30
0.0
 10
142.7155055256908
 20
112.0916788069697
 30
0.0
 10
141.3658836156781
 20
110.244781354088
 30
0.0
 10
141.3658836156781
 20
110.244781354088
 30
0.0
 10
141.3658836156781
 20
110.244781354088
 30
0.0
 10
142.7128949702018
 20
107.9779019674764
 30
0.0
 10
142.7128949702018
 20
107.9779019674764
 30
0.0
 10
142.7128949702018
 20
107.9779019674764
 30
0.0
 10
144.1264402119171
 20
107.8063461385199
 30
0.0
 10
144.1264402119171
 20
107.8063461385199
 30
0.0
 10
144.1264402119171
 20
107.8063461385199
 30
0.0
 10
142.5847308068049
 20
110.0973202467389
 30
0.0
 10
142.5847308068049
 20
110.0973202467389
 30
0.0
 10
142.5847308068049
 20
110.0973202467389
 30
0.0
 10
144.1188554898883
 20
112.0210555275503
 30
0.0
 10
144.1188554898883
 20
112.0210555275503
 30
0.0
 10
144.1188554898883
 20
112.0210555275503
 30
0.0
 10
142.9060055208307
 20
112.168163860847
 30
0.0
 10
142.9060055208307
 20
112.168163860847
 30
0.0
 10
142.9060055208307
 20
112.168163860847
 30
0.0
 10
142.9065346874839
 20
112.1692221941799
 30
0.0
 10
142.9065346874839
 20
112.1692221941799
 30
0.0
  0
HATCH
  5
63
330
4F
100
AcDbEntity
  8
_U+30EC_U+30A4_U+30E4_U+30FC 1
 62
     7
100
AcDbHatch
 10
0.0
 20
0.0
 30
0.0
210
0.0
220
0.0
230
1.0
  2
SOLID
 70
     1
 71
     0
 91
        1
 92
        1
 93
        1
 72
     4
 94
        3
 73
     0
 74
     1
 95
       29
 96
       25
 40
0.0
 40
0.0
 40
0.0
 40
0.0
 40
1.0
 40
1.0
 40
1.0
 40
2.0
 40
2.0
 40
2.0
 40
3.0
 40
3.0
 40
3.0
 40
4.0
 40
4.0
 40
4.0
 40
5.0
 40
5.0
 40
5.0
 40
6.0
 40
6.0
 40
6.0
 40
7.0
 40
7.0
 40
7.0
 40
8.0
 40
8.0
 40
8.0
 40
8.0
 10
142.9065346874839
 20
112.1692221941799
 10
142.8279710783771
 20
112.1788501936347
 10
142.7576977468366
 20
112.1474882499903
 10
142.7155055256908
 20
112.0916788069697
 10
142.7155055256908
 20
112.0916788069697
 10
141.3658836156781
 20
110.244781354088
 10
141.3658836156781
 20
110.244781354088
 10
141.3658836156781
 20
110.244781354088
 10
142.7128949702018
 20
107.9779019674764
 10
142.7128949702018
 20
107.9779019674764
 10
142.7128949702018
 20
107.9779019674764
 10
144.1264402119171
 20
107.8063461385199
 10
144.1264402119171
 20
107.8063461385199
 10
144.1264402119171
 20
107.8063461385199
 10
142.5847308068049
 20
110.0973202467389
 10
142.5847308068049
 20
110.0973202467389
 10
142.5847308068049
 20
110.0973202467389
 10
144.1188554898883
 20
112.0210555275503
 10
144.1188554898883
 20
112.0210555275503
 10
144.1188554898883
 20
112.0210555275503
 10
142.9060055208307
 20
112.168163860847
 10
142.9060055208307
 20
112.168163860847
 10
142.9060055208307
 20
112.168163860847
 10
142.9065346874839
 20
112.1692221941799
 10
142.9065346874839
 20
112.1692221941799
 97
        0
 75
     2
 76
     1
 98
        0
  0
SPLINE
  5
64
330
4F
100
AcDbEntity
  8
_U+30EC_U+30A4_U+30E4_U+30FC 1
370
     0
100
AcDbSpline
210
0.0
220
0.0
230
1.0
 70
    11
 71
     3
 72
    29
 73
    25
 74
     0
 42
0.0000000001
 43
0.0000000001
 12
1.0
 22
0.0
 32
0.0
 13
1.0
 23
0.0
 33
0.0
 40
0.0
 40
0.0
 40
0.0
 40
0.0
 40
1.0
 40
1.0
 40
1.0
 40
2.0
 40
2.0
 40
2.0
 40
3.0
 40
3.0
 40
3.0
 40
4.0
 40
4.0
 40
4.0
 40
5.0
 40
5.0
 40
5.0
 40
6.0
 40
6.0
 40
6.0
 40
7.0
 40
7.0
 40
7.0
 40
8.0
 40
8.0
 40
8.0
 40
8.0
 10
125.2889893036116
 20
113.0084423946922
 30
0.0
 10
125.3947520786911
 20
112.9956718394625
 30
0.0
 10
125.4796656876359
 20
113.0725068375022
 30
0.0
 10
125.479348187644
 20
113.1792926681112
 30
0.0
 10
125.479348187644
 20
113.1792926681112
 30
0.0
 10
125.4755381877412
 20
115.7071570480645
 30
0.0
 10
125.4755381877412
 20
115.7071570480645
 30
0.0
 10
125.4755381877412
 20
115.8149659342029
 30
0.0
 10
125.3902749686524
 20
115.911627042848
 30
0.0
 10
125.2846854148325
 20
115.9245416376854
 30
0.0
 10
125.2846854148325
 20
115.9245416376854
 30
0.0
 10
122.7938627006009
 20
116.2264812014821
 30
0.0
 10
122.7938627006009
 20
116.2264812014821
 30
0.0
 10
122.6870768699919
 20
116.2394281455966
 30
0.0
 10
122.6023396499315
 20
116.1634398142015
 30
0.0
 10
122.6023396499315
 20
116.0554545391787
 30
0.0
 10
122.6023396499315
 20
116.0554545391787
 30
0.0
 10
122.6061143720574
 20
113.5275901592254
 30
0.0
 10
122.6061143720574
 20
113.5275901592254
 30
0.0
 10
122.6062907609418
 20
113.4211571063852
 30
0.0
 10
122.6913807587713
 20
113.3236493310951
 30
0.0
 10
122.7982018671569
 20
113.310208498105
 30
0.0
 10
122.7982018671569
 20
113.310208498105
 30
0.0
 10
125.2889893036116
 20
113.0084423946922
 30
0.0
 10
125.2889893036116
 20
113.0084423946922
 30
0.0
  0
HATCH
  5
65
330
4F
100
AcDbEntity
  8
_U+30EC_U+30A4_U+30E4_U+30FC 1
 62
     7
100
AcDbHatch
 10
0.0
 20
0.0
 30
0.0
210
0.0
220
0.0
230
1.0
  2
SOLID
 70
     1
 71
     0
 91
        1
 92
        1
 93
        1
 72
     4
 94
        3
 73
     0
 74
     1
 95
       29
 96
       25
 40
0.0
 40
0.0
 40
0.0
 40
0.0
 40
1.0
 40
1.0
 40
1.0
 40
2.0
 40
2.0
 40
2.0
 40
3.0
 40
3.0
 40
3.0
 40
4.0
 40
4.0
 40
4.0
 40
5.0
 40
5.0
 40
5.0
 40
6.0
 40
6.0
 40
6.0
 40
7.0
 40
7.0
 40
7.0
 40
8.0
 40
8.0
 40
8.0
 40
8.0
 10
125.2889893036116
 20
113.0084423946922
 10
125.3947520786911
 20
112.9956718394625
 10
125.4796656876359
 20
113.0725068375022
 10
125.479348187644
 20
113.1792926681112
 10
125.479348187644
 20
113.1792926681112
 10
125.4755381877412
 20
115.7071570480645
 10
125.4755381877412
 20
115.7071570480645
 10
125.4755381877412
 20
115.8149659342029
 10
125.3902749686524
 20
115.911627042848
 10
125.2846854148325
 20
115.9245416376854
 10
125.2846854148325
 20
115.9245416376854
 10
122.7938627006009
 20
116.2264812014821
 10
122.7938627006009
 20
116.2264812014821
 10
122.6870768699919
 20
116.2394281455966
 10
122.6023396499315
 20
116.1634398142015
 10
122.6023396499315
 20
116.0554545391787
 10
122.6023396499315
 20
116.0554545391787
 10
122.6061143720574
 20
113.5275901592254
 10
122.6061143720574
 20
113.5275901592254
 10
122.6062907609418
 20
113.4211571063852
 10
122.6913807587713
 20
113.3236493310951
 10
122.7982018671569
 20
113.310208498105
 10
122.7982018671569
 20
113.310208498105
 10
125.2889893036116
 20
113.0084423946922
 10
125.2889893036116
 20
113.0084423946922
 97
        0
 75
     2
 76
     1
 98
        0
  0
SPLINE
  5
66
330
4F
100
AcDbEntity
  8
_U+30EC_U+30A4_U+30E4_U+30FC 1
370
     0
100
AcDbSpline
210
0.0
220
0.0
230
1.0
 70
    11
 71
     3
 72
    29
 73
    25
 74
     0
 42
0.0000000001
 43
0.0000000001
 12
1.0
 22
0.0
 32
0.0
 13
1.0
 23
0.0
 33
0.0
 40
0.0
 40
0.0
 40
0.0
 40
0.0
 40
1.0
 40
1.0
 40
1.0
 40
2.0
 40
2.0
 40
2.0
 40
3.0
 40
3.0
 40
3.0
 40
4.0
 40
4.0
 40
4.0
 40
5.0
 40
5.0
 40
5.0
 40
6.0
 40
6.0
 40
6.0
 40
7.0
 40
7.0
 40
7.0
 40
8.0
 40
8.0
 40
8.0
 40
8.0
 10
128.168925896805
 20
109.7421435891336
 30
0.0
 10
128.273983116347
 20
109.7297258116726
 30
0.0
 10
128.3589320030686
 20
109.8058552541748
 30
0.0
 10
128.3587556141842
 20
109.9144049736277
 30
0.0
 10
128.3587556141842
 20
109.9144049736277
 30
0.0
 10
128.354769225397
 20
112.4410346313902
 30
0.0
 10
128.354769225397
 20
112.4410346313902
 30
0.0
 10
128.354769225397
 20
112.5478204619995
 30
0.0
 10
128.2696792275678
 20
112.6453282372894
 30
0.0
 10
128.1644456191415
 20
112.6577107369735
 30
0.0
 10
128.1644456191415
 20
112.6577107369735
 30
0.0
 10
125.673305404918
 20
112.9598648959315
 30
0.0
 10
125.673305404918
 20
112.9598648959315
 30
0.0
 10
125.5675426298384
 20
112.9726001733844
 30
0.0
 10
125.4803712431735
 20
112.896823508651
 30
0.0
 10
125.4805476320579
 20
112.7893321225044
 30
0.0
 10
125.4805476320579
 20
112.7893321225044
 30
0.0
 10
125.4843223541838
 20
110.2627024647419
 30
0.0
 10
125.4843223541838
 20
110.2627024647419
 30
0.0
 10
125.4844987430682
 20
110.1548610835724
 30
0.0
 10
125.5718465186175
 20
110.0570330255445
 30
0.0
 10
125.6774360796918
 20
110.0442624703147
 30
0.0
 10
125.6774360796918
 20
110.0442624703147
 30
0.0
 10
128.168925896805
 20
109.7421435891336
 30
0.0
 10
128.168925896805
 20
109.7421435891336
 30
0.0
  0
HATCH
  5
67
330
4F
100
AcDbEntity
  8
_U+30EC_U+30A4_U+30E4_U+30FC 1
 62
     7
100
AcDbHatch
 10
0.0
 20
0.0
 30
0.0
210
0.0
220
0.0
230
1.0
  2
SOLID
 70
     1
 71
     0
 91
        1
 92
        1
 93
        1
 72
     4
 94
        3
 73
     0
 74
     1
 95
       29
 96
       25
 40
0.0
 40
0.0
 40
0.0
 40
0.0
 40
1.0
 40
1.0
 40
1.0
 40
2.0
 40
2.0
 40
2.0
 40
3.0
 40
3.0
 40
3.0
 40
4.0
 40
4.0
 40
4.0
 40
5.0
 40
5.0
 40
5.0
 40
6.0
 40
6.0
 40
6.0
 40
7.0
 40
7.0
 40
7.0
 40
8.0
 40
8.0
 40
8.0
 40
8.0
 10
128.168925896805
 20
109.7421435891336
 10
128.273983116347
 20
109.7297258116726
 10
128.3589320030686
 20
109.8058552541748
 10
128.3587556141842
 20
109.9144049736277
 10
128.3587556141842
 20
109.9144049736277
 10
128.354769225397
 20
112.4410346313902
 10
128.354769225397
 20
112.4410346313902
 10
128.354769225397
 20
112.5478204619995
 10
128.2696792275678
 20
112.6453282372894
 10
128.1644456191415
 20
112.6577107369735
 10
128.1644456191415
 20
112.6577107369735
 10
125.673305404918
 20
112.9598648959315
 10
125.673305404918
 20
112.9598648959315
 10
125.5675426298384
 20
112.9726001733844
 10
125.4803712431735
 20
112.896823508651
 10
125.4805476320579
 20
112.7893321225044
 10
125.4805476320579
 20
112.7893321225044
 10
125.4843223541838
 20
110.2627024647419
 10
125.4843223541838
 20
110.2627024647419
 10
125.4844987430682
 20
110.1548610835724
 10
125.5718465186175
 20
110.0570330255445
 10
125.6774360796918
 20
110.0442624703147
 10
125.6774360796918
 20
110.0442624703147
 10
128.168925896805
 20
109.7421435891336
 10
128.168925896805
 20
109.7421435891336
 97
        0
 75
     2
 76
     1
 98
        0
  0
SPLINE
  5
68
330
4F
100
AcDbEntity
  8
_U+30EC_U+30A4_U+30E4_U+30FC 1
370
     0
100
AcDbSpline
210
0.0
220
0.0
230
1.0
 70
    11
 71
     3
 72
    29
 73
    25
 74
     0
 42
0.0000000001
 43
0.0000000001
 12
1.0
 22
0.0
 32
0.0
 13
1.0
 23
0.0
 33
0.0
 40
0.0
 40
0.0
 40
0.0
 40
0.0
 40
1.0
 40
1.0
 40
1.0
 40
2.0
 40
2.0
 40
2.0
 40
3.0
 40
3.0
 40
3.0
 40
4.0
 40
4.0
 40
4.0
 40
5.0
 40
5.0
 40
5.0
 40
6.0
 40
6.0
 40
6.0
 40
7.0
 40
7.0
 40
7.0
 40
8.0
 40
8.0
 40
8.0
 40
8.0
 10
131.0393727680182
 20
112.3111418569263
 30
0.0
 10
131.1442888764527
 20
112.2984065794734
 30
0.0
 10
131.2304019298113
 20
112.3752062997363
 30
0.0
 10
131.2302255409269
 20
112.4816746303534
 30
0.0
 10
131.2302255409269
 20
112.4816746303534
 30
0.0
 10
131.226450818801
 20
115.0096801214142
 30
0.0
 10
131.226450818801
 20
115.0096801214142
 30
0.0
 10
131.2262777449711
 20
115.1177006742142
 30
0.0
 10
131.1399849876736
 20
115.2141501161977
 30
0.0
 10
131.0350721894635
 20
115.227061782535
 30
0.0
 10
131.0350721894635
 20
115.227061782535
 30
0.0
 10
128.5435758872468
 20
115.529215941493
 30
0.0
 10
128.5435758872468
 20
115.529215941493
 30
0.0
 10
128.4379895010517
 20
115.5419512189459
 30
0.0
 10
128.3529027456896
 20
115.4659981653281
 30
0.0
 10
128.35304061433
 20
115.3585067791815
 30
0.0
 10
128.35304061433
 20
115.3585067791815
 30
0.0
 10
128.3570270031172
 20
112.8303277495701
 30
0.0
 10
128.3570270031172
 20
112.8303277495701
 30
0.0
 10
128.357379780886
 20
112.7235390686274
 30
0.0
 10
128.4422933898308
 20
112.6260312933372
 30
0.0
 10
128.5478797760259
 20
112.6132960158844
 30
0.0
 10
128.5478797760259
 20
112.6132960158844
 30
0.0
 10
131.0393727680182
 20
112.3111418569263
 30
0.0
 10
131.0393727680182
 20
112.3111418569263
 30
0.0
  0
HATCH
  5
69
330
4F
100
AcDbEntity
  8
_U+30EC_U+30A4_U+30E4_U+30FC 1
 62
     7
100
AcDbHatch
 10
0.0
 20
0.0
 30
0.0
210
0.0
220
0.0
230
1.0
  2
SOLID
 70
     1
 71
     0
 91
        1
 92
        1
 93
        1
 72
     4
 94
        3
 73
     0
 74
     1
 95
       29
 96
       25
 40
0.0
 40
0.0
 40
0.0
 40
0.0
 40
1.0
 40
1.0
 40
1.0
 40
2.0
 40
2.0
 40
2.0
 40
3.0
 40
3.0
 40
3.0
 40
4.0
 40
4.0
 40
4.0
 40
5.0
 40
5.0
 40
5.0
 40
6.0
 40
6.0
 40
6.0
 40
7.0
 40
7.0
 40
7.0
 40
8.0
 40
8.0
 40
8.0
 40
8.0
 10
131.0393727680182
 20
112.3111418569263
 10
131.1442888764527
 20
112.2984065794734
 10
131.2304019298113
 20
112.3752062997363
 10
131.2302255409269
 20
112.4816746303534
 10
131.2302255409269
 20
112.4816746303534
 10
131.226450818801
 20
115.0096801214142
 10
131.226450818801
 20
115.0096801214142
 10
131.2262777449711
 20
115.1177006742142
 10
131.1399849876736
 20
115.2141501161977
 10
131.0350721894635
 20
115.227061782535
 10
131.0350721894635
 20
115.227061782535
 10
128.5435758872468
 20
115.529215941493
 10
128.5435758872468
 20
115.529215941493
 10
128.4379895010517
 20
115.5419512189459
 10
128.3529027456896
 20
115.4659981653281
 10
128.35304061433
 20
115.3585067791815
 10
128.35304061433
 20
115.3585067791815
 10
128.3570270031172
 20
112.8303277495701
 10
128.3570270031172
 20
112.8303277495701
 10
128.357379780886
 20
112.7235390686274
 10
128.4422933898308
 20
112.6260312933372
 10
128.5478797760259
 20
112.6132960158844
 10
128.5478797760259
 20
112.6132960158844
 10
131.0393727680182
 20
112.3111418569263
 10
131.0393727680182
 20
112.3111418569263
 97
        0
 75
     2
 76
     1
 98
        0
  0
SPLINE
  5
6A
330
4F
100
AcDbEntity
  8
_U+30EC_U+30A4_U+30E4_U+30FC 1
370
     0
100
AcDbSpline
210
0.0
220
0.0
230
1.0
 70
    11
 71
     3
 72
    29
 73
    25
 74
     0
 42
0.0000000001
 43
0.0000000001
 12
1.0
 22
0.0
 32
0.0
 13
1.0
 23
0.0
 33
0.0
 40
0.0
 40
0.0
 40
0.0
 40
0.0
 40
1.0
 40
1.0
 40
1.0
 40
2.0
 40
2.0
 40
2.0
 40
3.0
 40
3.0
 40
3.0
 40
4.0
 40
4.0
 40
4.0
 40
5.0
 40
5.0
 40
5.0
 40
6.0
 40
6.0
 40
6.0
 40
7.0
 40
7.0
 40
7.0
 40
8.0
 40
8.0
 40
8.0
 40
8.0
 10
125.2977734700542
 20
107.1731453213408
 30
0.0
 10
125.4035362451337
 20
107.1603747661111
 30
0.0
 10
125.4884498540785
 20
107.2368569863821
 30
0.0
 10
125.4881323540866
 20
107.3447011502974
 30
0.0
 10
125.4881323540866
 20
107.3447011502974
 30
0.0
 10
125.4844987430682
 20
109.8720010858206
 30
0.0
 10
125.4844987430682
 20
109.8720010858206
 30
0.0
 10
125.4843223541838
 20
109.9788249725054
 30
0.0
 10
125.3990559674702
 20
110.0762946917198
 30
0.0
 10
125.2932931923907
 20
110.0890652469495
 30
0.0
 10
125.2932931923907
 20
110.0890652469495
 30
0.0
 10
122.8026821448204
 20
110.3908313503619
 30
0.0
 10
122.8026821448204
 20
110.3908313503619
 30
0.0
 10
122.6958610364345
 20
110.4039546833605
 30
0.0
 10
122.6111238163741
 20
110.3271196853207
 30
0.0
 10
122.6111238163741
 20
110.2202985769348
 30
0.0
 10
122.6111238163741
 20
110.2202985769348
 30
0.0
 10
122.6148985385
 20
107.6929986414116
 30
0.0
 10
122.6148985385
 20
107.6929986414116
 30
0.0
 10
122.6152513162688
 20
107.585507255265
 30
0.0
 10
122.7001649252136
 20
107.4879994799749
 30
0.0
 10
122.8069860335994
 20
107.4749114247532
 30
0.0
 10
122.8069860335994
 20
107.4749114247532
 30
0.0
 10
125.2977734700542
 20
107.1731453213408
 30
0.0
 10
125.2977734700542
 20
107.1731453213408
 30
0.0
  0
HATCH
  5
6B
330
4F
100
AcDbEntity
  8
_U+30EC_U+30A4_U+30E4_U+30FC 1
 62
     7
100
AcDbHatch
 10
0.0
 20
0.0
 30
0.0
210
0.0
220
0.0
230
1.0
  2
SOLID
 70
     1
 71
     0
 91
        1
 92
        1
 93
        1
 72
     4
 94
        3
 73
     0
 74
     1
 95
       29
 96
       25
 40
0.0
 40
0.0
 40
0.0
 40
0.0
 40
1.0
 40
1.0
 40
1.0
 40
2.0
 40
2.0
 40
2.0
 40
3.0
 40
3.0
 40
3.0
 40
4.0
 40
4.0
 40
4.0
 40
5.0
 40
5.0
 40
5.0
 40
6.0
 40
6.0
 40
6.0
 40
7.0
 40
7.0
 40
7.0
 40
8.0
 40
8.0
 40
8.0
 40
8.0
 10
125.2977734700542
 20
107.1731453213408
 10
125.4035362451337
 20
107.1603747661111
 10
125.4884498540785
 20
107.2368569863821
 10
125.4881323540866
 20
107.3447011502974
 10
125.4881323540866
 20
107.3447011502974
 10
125.4844987430682
 20
109.8720010858206
 10
125.4844987430682
 20
109.8720010858206
 10
125.4843223541838
 20
109.9788249725054
 10
125.3990559674702
 20
110.0762946917198
 10
125.2932931923907
 20
110.0890652469495
 10
125.2932931923907
 20
110.0890652469495
 10
122.8026821448204
 20
110.3908313503619
 10
122.8026821448204
 20
110.3908313503619
 10
122.6958610364345
 20
110.4039546833605
 10
122.6111238163741
 20
110.3271196853207
 10
122.6111238163741
 20
110.2202985769348
 10
122.6111238163741
 20
110.2202985769348
 10
122.6148985385
 20
107.6929986414116
 10
122.6148985385
 20
107.6929986414116
 10
122.6152513162688
 20
107.585507255265
 10
122.7001649252136
 20
107.4879994799749
 10
122.8069860335994
 20
107.4749114247532
 10
122.8069860335994
 20
107.4749114247532
 10
125.2977734700542
 20
107.1731453213408
 10
125.2977734700542
 20
107.1731453213408
 97
        0
 75
     2
 76
     1
 98
        0
  0
ENDBLK
  5
52
330
4F
100
AcDbEntity
  8
0
100
AcDbBlockEnd
  0
BLOCK
  5
6E
330
6C
100
AcDbEntity
  8
0
100
AcDbBlockBegin
  2
block 3
 70
     0
 10
0.0
 20
0.0
 30
0.0
  3
block 3
  1

  0
SPLINE
  5
70
330
6C
100
AcDbEntity
  8
_U+30EC_U+30A4_U+30E4_U+30FC 1
370
     0
100
AcDbSpline
210
0.0
220
0.0
230
1.0
 70
    11
 71
     3
 72
    23
 73
    19
 74
     0
 42
0.0000000001
 43
0.0000000001
 12
1.0
 22
0.0
 32
0.0
 13
1.0
 23
0.0
 33
0.0
 40
0.0
 40
0.0
 40
0.0
 40
0.0
 40
1.0
 40
1.0
 40
1.0
 40
2.0
 40
2.0
 40
2.0
 40
3.0
 40
3.0
 40
3.0
 40
4.0
 40
4.0
 40
4.0
 40
5.0
 40
5.0
 40
5.0
 40
6.0
 40
6.0
 40
6.0
 40
6.0
 10
167.9794107652968
 20
64.87734982158204
 30
0.0
 10
168.2305582261715
 20
64.91800194830799
 30
0.0
 10
168.5223578137722
 20
64.94935231722376
 30
0.0
 10
168.8413736557063
 20
64.94935231722376
 30
0.0
 10
170.2149332256755
 20
64.94935231722376
 30
0.0
 10
170.6100856778336
 20
64.13665429225333
 30
0.0
 10
170.6100856778336
 20
63.29742903204647
 30
0.0
 10
170.6100856778336
 20
62.75413747402256
 30
0.0
 10
170.4664251960987
 20
62.29146115035351
 30
0.0
 10
170.1432752395822
 20
61.9548753214446
 30
0.0
 10
169.8425184037199
 20
61.64516123732064
 30
0.0
 10
169.3440130870043
 20
61.47462901080078
 30
0.0
 10
168.7201062946255
 20
61.47462901080078
 30
0.0
 10
168.4372639552865
 20
61.47462901080078
 30
0.0
 10
168.1947292331249
 20
61.48358625906243
 30
0.0
 10
167.9794107652968
 20
61.51045800384738
 30
0.0
 10
167.9794107652968
 20
61.51045800384738
 30
0.0
 10
167.9794107652968
 20
64.87734982158204
 30
0.0
 10
167.9794107652968
 20
64.87734982158204
 30
0.0
  0
SPLINE
  5
71
330
6C
100
AcDbEntity
  8
_U+30EC_U+30A4_U+30E4_U+30FC 1
370
     0
100
AcDbSpline
210
0.0
220
0.0
230
1.0
 70
    11
 71
     3
 72
    20
 73
    16
 74
     0
 42
0.0000000001
 43
0.0000000001
 12
1.0
 22
0.0
 32
0.0
 13
1.0
 23
0.0
 33
0.0
 40
0.0
 40
0.0
 40
0.0
 40
0.0
 40
1.0
 40
1.0
 40
1.0
 40
2.0
 40
2.0
 40
2.0
 40
3.0
 40
3.0
 40
3.0
 40
4.0
 40
4.0
 40
4.0
 40
5.0
 40
5.0
 40
5.0
 40
5.0
 10
168.3518255872523
 20
61.79777896731721
 30
0.0
 10
168.4641357000715
 20
61.77986447079391
 30
0.0
 10
168.6257106783297
 20
61.77538584666308
 30
0.0
 10
168.7872856565879
 20
61.77538584666308
 30
0.0
 10
169.7122937943775
 20
61.77538584666308
 30
0.0
 10
170.2194118498063
 20
62.30076290816369
 30
0.0
 10
170.2194118498063
 20
63.27917002597464
 30
0.0
 10
170.2194118498063
 20
64.16834917071762
 30
0.0
 10
169.7436441632933
 20
64.64859548136145
 30
0.0
 10
168.8548095280988
 20
64.64859548136145
 30
0.0
 10
168.6391465507222
 20
64.64859548136145
 30
0.0
 10
168.4686143242023
 20
64.62620236070732
 30
0.0
 10
168.3518255872523
 20
64.60380924005321
 30
0.0
 10
168.3518255872523
 20
64.60380924005321
 30
0.0
 10
168.3518255872523
 20
61.79777896731721
 30
0.0
 10
168.3518255872523
 20
61.79777896731721
 30
0.0
  0
HATCH
  5
72
330
6C
100
AcDbEntity
  8
_U+30EC_U+30A4_U+30E4_U+30FC 1
 62
     7
100
AcDbHatch
 10
0.0
 20
0.0
 30
0.0
210
0.0
220
0.0
230
1.0
  2
SOLID
 70
     1
 71
     0
 91
        2
 92
        1
 93
        1
 72
     4
 94
        3
 73
     0
 74
     1
 95
       23
 96
       19
 40
0.0
 40
0.0
 40
0.0
 40
0.0
 40
1.0
 40
1.0
 40
1.0
 40
2.0
 40
2.0
 40
2.0
 40
3.0
 40
3.0
 40
3.0
 40
4.0
 40
4.0
 40
4.0
 40
5.0
 40
5.0
 40
5.0
 40
6.0
 40
6.0
 40
6.0
 40
6.0
 10
167.9794107652968
 20
64.87734982158204
 10
168.2305582261715
 20
64.91800194830799
 10
168.5223578137722
 20
64.94935231722376
 10
168.8413736557063
 20
64.94935231722376
 10
170.2149332256755
 20
64.94935231722376
 10
170.6100856778336
 20
64.13665429225333
 10
170.6100856778336
 20
63.29742903204647
 10
170.6100856778336
 20
62.75413747402256
 10
170.4664251960987
 20
62.29146115035351
 10
170.1432752395822
 20
61.9548753214446
 10
169.8425184037199
 20
61.64516123732064
 10
169.3440130870043
 20
61.47462901080078
 10
168.7201062946255
 20
61.47462901080078
 10
168.4372639552865
 20
61.47462901080078
 10
168.1947292331249
 20
61.48358625906243
 10
167.9794107652968
 20
61.51045800384738
 10
167.9794107652968
 20
61.51045800384738
 10
167.9794107652968
 20
64.87734982158204
 10
167.9794107652968
 20
64.87734982158204
 97
        0
 92
        1
 93
        1
 72
     4
 94
        3
 73
     0
 74
     1
 95
       20
 96
       16
 40
0.0
 40
0.0
 40
0.0
 40
0.0
 40
1.0
 40
1.0
 40
1.0
 40
2.0
 40
2.0
 40
2.0
 40
3.0
 40
3.0
 40
3.0
 40
4.0
 40
4.0
 40
4.0
 40
5.0
 40
5.0
 40
5.0
 40
5.0
 10
168.3518255872523
 20
61.79777896731721
 10
168.4641357000715
 20
61.77986447079391
 10
168.6257106783297
 20
61.77538584666308
 10
168.7872856565879
 20
61.77538584666308
 10
169.7122937943775
 20
61.77538584666308
 10
170.2194118498063
 20
62.30076290816369
 10
170.2194118498063
 20
63.27917002597464
 10
170.2194118498063
 20
64.16834917071762
 10
169.7436441632933
 20
64.64859548136145
 10
168.8548095280988
 20
64.64859548136145
 10
168.6391465507222
 20
64.64859548136145
 10
168.4686143242023
 20
64.62620236070732
 10
168.3518255872523
 20
64.60380924005321
 10
168.3518255872523
 20
64.60380924005321
 10
168.3518255872523
 20
61.79777896731721
 10
168.3518255872523
 20
61.79777896731721
 97
        0
 75
     2
 76
     1
 98
        0
  0
SPLINE
  5
73
330
6C
100
AcDbEntity
  8
_U+30EC_U+30A4_U+30E4_U+30FC 1
370
     0
100
AcDbSpline
210
0.0
220
0.0
230
1.0
 70
    11
 71
     3
 72
    35
 73
    31
 74
     0
 42
0.0000000001
 43
0.0000000001
 12
1.0
 22
0.0
 32
0.0
 13
1.0
 23
0.0
 33
0.0
 40
0.0
 40
0.0
 40
0.0
 40
0.0
 40
1.0
 40
1.0
 40
1.0
 40
2.0
 40
2.0
 40
2.0
 40
3.0
 40
3.0
 40
3.0
 40
4.0
 40
4.0
 40
4.0
 40
5.0
 40
5.0
 40
5.0
 40
6.0
 40
6.0
 40
6.0
 40
7.0
 40
7.0
 40
7.0
 40
8.0
 40
8.0
 40
8.0
 40
9.0
 40
9.0
 40
9.0
 40
10.0
 40
10.0
 40
10.0
 40
10.0
 10
173.4188720269578
 20
61.60485362014322
 30
0.0
 10
173.2617756728304
 20
61.52837250037067
 30
0.0
 10
172.9565402128373
 20
61.45223589014665
 30
0.0
 10
172.5658663848099
 20
61.45223589014665
 30
0.0
 10
171.6859889978771
 20
61.45223589014665
 30
0.0
 10
170.9766438374642
 20
62.0223991929555
 30
0.0
 10
170.9766438374642
 20
63.1806402950965
 30
0.0
 10
170.9766438374642
 20
64.28479339811906
 30
0.0
 10
171.663595877223
 20
64.97174543787789
 30
0.0
 10
172.6647406252366
 20
64.97174543787789
 30
0.0
 10
173.0733289497872
 20
64.97174543787789
 30
0.0
 10
173.311385047818
 20
64.88665157939222
 30
0.0
 10
173.4188720269578
 20
64.8325635802738
 30
0.0
 10
173.4188720269578
 20
64.8325635802738
 30
0.0
 10
173.3203422960796
 20
64.518370872019
 30
0.0
 10
173.3203422960796
 20
64.518370872019
 30
0.0
 10
173.1632459419523
 20
64.59485199179156
 30
0.0
 10
172.9431043404448
 20
64.6575527296231
 30
0.0
 10
172.6736978734982
 20
64.6575527296231
 30
0.0
 10
171.8971733511229
 20
64.6575527296231
 30
0.0
 10
171.3673176654915
 20
64.13665429225333
 30
0.0
 10
171.3673176654915
 20
63.19407616748897
 30
0.0
 10
171.3673176654915
 20
62.29628428403286
 30
0.0
 10
171.8520426002662
 20
61.76642859840144
 30
0.0
 10
172.6513047528441
 20
61.76642859840144
 30
0.0
 10
172.911753971529
 20
61.76642859840144
 30
0.0
 10
173.1677245660831
 20
61.82465071210216
 30
0.0
 10
173.3382567926029
 20
61.90561045600553
 30
0.0
 10
173.3382567926029
 20
61.90561045600553
 30
0.0
 10
173.4188720269578
 20
61.60485362014322
 30
0.0
 10
173.4188720269578
 20
61.60485362014322
 30
0.0
  0
HATCH
  5
74
330
6C
100
AcDbEntity
  8
_U+30EC_U+30A4_U+30E4_U+30FC 1
 62
     7
100
AcDbHatch
 10
0.0
 20
0.0
 30
0.0
210
0.0
220
0.0
230
1.0
  2
SOLID
 70
     1
 71
     0
 91
        1
 92
        1
 93
        1
 72
     4
 94
        3
 73
     0
 74
     1
 95
       35
 96
       31
 40
0.0
 40
0.0
 40
0.0
 40
0.0
 40
1.0
 40
1.0
 40
1.0
 40
2.0
 40
2.0
 40
2.0
 40
3.0
 40
3.0
 40
3.0
 40
4.0
 40
4.0
 40
4.0
 40
5.0
 40
5.0
 40
5.0
 40
6.0
 40
6.0
 40
6.0
 40
7.0
 40
7.0
 40
7.0
 40
8.0
 40
8.0
 40
8.0
 40
9.0
 40
9.0
 40
9.0
 40
10.0
 40
10.0
 40
10.0
 40
10.0
 10
173.4188720269578
 20
61.60485362014322
 10
173.2617756728304
 20
61.52837250037067
 10
172.9565402128373
 20
61.45223589014665
 10
172.5658663848099
 20
61.45223589014665
 10
171.6859889978771
 20
61.45223589014665
 10
170.9766438374642
 20
62.0223991929555
 10
170.9766438374642
 20
63.1806402950965
 10
170.9766438374642
 20
64.28479339811906
 10
171.663595877223
 20
64.97174543787789
 10
172.6647406252366
 20
64.97174543787789
 10
173.0733289497872
 20
64.97174543787789
 10
173.311385047818
 20
64.88665157939222
 10
173.4188720269578
 20
64.8325635802738
 10
173.4188720269578
 20
64.8325635802738
 10
173.3203422960796
 20
64.518370872019
 10
173.3203422960796
 20
64.518370872019
 10
173.1632459419523
 20
64.59485199179156
 10
172.9431043404448
 20
64.6575527296231
 10
172.6736978734982
 20
64.6575527296231
 10
171.8971733511229
 20
64.6575527296231
 10
171.3673176654915
 20
64.13665429225333
 10
171.3673176654915
 20
63.19407616748897
 10
171.3673176654915
 20
62.29628428403286
 10
171.8520426002662
 20
61.76642859840144
 10
172.6513047528441
 20
61.76642859840144
 10
172.911753971529
 20
61.76642859840144
 10
173.1677245660831
 20
61.82465071210216
 10
173.3382567926029
 20
61.90561045600553
 10
173.3382567926029
 20
61.90561045600553
 10
173.4188720269578
 20
61.60485362014322
 10
173.4188720269578
 20
61.60485362014322
 97
        0
 75
     2
 76
     1
 98
        0
  0
SPLINE
  5
75
330
6C
100
AcDbEntity
  8
_U+30EC_U+30A4_U+30E4_U+30FC 1
370
     0
100
AcDbSpline
210
0.0
220
0.0
230
1.0
 70
    11
 71
     3
 72
    35
 73
    31
 74
     0
 42
0.0000000001
 43
0.0000000001
 12
1.0
 22
0.0
 32
0.0
 13
1.0
 23
0.0
 33
0.0
 40
0.0
 40
0.0
 40
0.0
 40
0.0
 40
1.0
 40
1.0
 40
1.0
 40
2.0
 40
2.0
 40
2.0
 40
3.0
 40
3.0
 40
3.0
 40
4.0
 40
4.0
 40
4.0
 40
5.0
 40
5.0
 40
5.0
 40
6.0
 40
6.0
 40
6.0
 40
7.0
 40
7.0
 40
7.0
 40
8.0
 40
8.0
 40
8.0
 40
9.0
 40
9.0
 40
9.0
 40
10.0
 40
10.0
 40
10.0
 40
10.0
 10
175.276123003056
 20
63.33325802509307
 30
0.0
 10
175.5992729595724
 20
63.25677690532051
 30
0.0
 10
175.9809895393381
 20
62.98737043837398
 30
0.0
 10
175.9809895393381
 20
62.47129513468356
 30
0.0
 10
175.9809895393381
 20
62.16605967469042
 30
0.0
 10
175.8642008023881
 20
61.95039669731378
 30
0.0
 10
175.7071044482607
 20
61.79777896731721
 30
0.0
 10
175.4780055984916
 20
61.57350325122745
 30
0.0
 10
175.1100694006669
 20
61.47462901080078
 30
0.0
 10
174.593649587428
 20
61.47462901080078
 30
0.0
 10
174.310807248089
 20
61.47462901080078
 30
0.0
 10
174.0999674043917
 20
61.4970221314549
 30
0.0
 10
173.9607855467876
 20
61.51045800384738
 30
0.0
 10
173.9607855467876
 20
61.51045800384738
 30
0.0
 10
173.9607855467876
 20
64.87287119745122
 30
0.0
 10
173.9607855467876
 20
64.87287119745122
 30
0.0
 10
174.1492322698307
 20
64.91352332417716
 30
0.0
 10
174.4186387367773
 20
64.94487369309294
 30
0.0
 10
174.6970024519855
 20
64.94487369309294
 30
0.0
 10
175.1190266489286
 20
64.94487369309294
 30
0.0
 10
175.3973903641368
 20
64.86391394918957
 30
0.0
 10
175.5992729595724
 20
64.6933817226697
 30
0.0
 10
175.7608479378306
 20
64.55419986506561
 30
0.0
 10
175.8552435541265
 20
64.35679589376079
 30
0.0
 10
175.8552435541265
 20
64.10082529920673
 30
0.0
 10
175.8552435541265
 20
63.76423947029782
 30
0.0
 10
175.6261447043574
 20
63.47243988269716
 30
0.0
 10
175.276123003056
 20
63.34669389748554
 30
0.0
 10
175.276123003056
 20
63.34669389748554
 30
0.0
 10
175.276123003056
 20
63.33325802509307
 30
0.0
 10
175.276123003056
 20
63.33325802509307
 30
0.0
  0
SPLINE
  5
76
330
6C
100
AcDbEntity
  8
_U+30EC_U+30A4_U+30E4_U+30FC 1
370
     0
100
AcDbSpline
210
0.0
220
0.0
230
1.0
 70
    11
 71
     3
 72
    23
 73
    19
 74
     0
 42
0.0000000001
 43
0.0000000001
 12
1.0
 22
0.0
 32
0.0
 13
1.0
 23
0.0
 33
0.0
 40
0.0
 40
0.0
 40
0.0
 40
0.0
 40
1.0
 40
1.0
 40
1.0
 40
2.0
 40
2.0
 40
2.0
 40
3.0
 40
3.0
 40
3.0
 40
4.0
 40
4.0
 40
4.0
 40
5.0
 40
5.0
 40
5.0
 40
6.0
 40
6.0
 40
6.0
 40
6.0
 10
174.7328314450321
 20
63.45900401030468
 30
0.0
 10
175.186206010891
 20
63.45900401030468
 30
0.0
 10
175.4780055984916
 20
63.71910871944105
 30
0.0
 10
175.4780055984916
 20
64.06947493029095
 30
0.0
 10
175.4780055984916
 20
64.06947493029095
 30
0.0
 10
175.4780055984916
 20
64.07395355442178
 30
0.0
 10
175.4780055984916
 20
64.07395355442178
 30
0.0
 10
175.4780055984916
 20
64.47806325484159
 30
0.0
 10
175.1817273867601
 20
64.65307410549228
 30
0.0
 10
174.7149169485088
 20
64.65307410549228
 30
0.0
 10
174.5175129772039
 20
64.65307410549228
 30
0.0
 10
174.400724240254
 20
64.6396382330998
 30
0.0
 10
174.3332003687431
 20
64.6217237365765
 30
0.0
 10
174.3332003687431
 20
64.6217237365765
 30
0.0
 10
174.3332003687431
 20
63.45900401030468
 30
0.0
 10
174.3332003687431
 20
63.45900401030468
 30
0.0
 10
174.3332003687431
 20
63.45900401030468
 30
0.0
 10
174.7328314450321
 20
63.45900401030468
 30
0.0
 10
174.7328314450321
 20
63.45900401030468
 30
0.0
  0
SPLINE
  5
77
330
6C
100
AcDbEntity
  8
_U+30EC_U+30A4_U+30E4_U+30FC 1
370
     0
100
AcDbSpline
210
0.0
220
0.0
230
1.0
 70
    11
 71
     3
 72
    20
 73
    16
 74
     0
 42
0.0000000001
 43
0.0000000001
 12
1.0
 22
0.0
 32
0.0
 13
1.0
 23
0.0
 33
0.0
 40
0.0
 40
0.0
 40
0.0
 40
0.0
 40
1.0
 40
1.0
 40
1.0
 40
2.0
 40
2.0
 40
2.0
 40
3.0
 40
3.0
 40
3.0
 40
4.0
 40
4.0
 40
4.0
 40
5.0
 40
5.0
 40
5.0
 40
5.0
 10
174.3332003687431
 20
61.79330034318639
 30
0.0
 10
174.4186387367773
 20
61.77538584666308
 30
0.0
 10
174.5399060978581
 20
61.77090722253227
 30
0.0
 10
174.6970024519855
 20
61.77090722253227
 30
0.0
 10
175.1682915143677
 20
61.77090722253227
 30
0.0
 10
175.5903157113108
 20
61.9548753214446
 30
0.0
 10
175.5903157113108
 20
62.47129513468356
 30
0.0
 10
175.5903157113108
 20
62.98289181424315
 30
0.0
 10
175.1458983937135
 20
63.17168304683484
 30
0.0
 10
174.6925238278546
 20
63.17168304683484
 30
0.0
 10
174.6925238278546
 20
63.17168304683484
 30
0.0
 10
174.3332003687431
 20
63.17168304683484
 30
0.0
 10
174.3332003687431
 20
63.17168304683484
 30
0.0
 10
174.3332003687431
 20
63.17168304683484
 30
0.0
 10
174.3332003687431
 20
61.79330034318639
 30
0.0
 10
174.3332003687431
 20
61.79330034318639
 30
0.0
  0
HATCH
  5
78
330
6C
100
AcDbEntity
  8
_U+30EC_U+30A4_U+30E4_U+30FC 1
 62
     7
100
AcDbHatch
 10
0.0
 20
0.0
 30
0.0
210
0.0
220
0.0
230
1.0
  2
SOLID
 70
     1
 71
     0
 91
        3
 92
        1
 93
        1
 72
     4
 94
        3
 73
     0
 74
     1
 95
       35
 96
       31
 40
0.0
 40
0.0
 40
0.0
 40
0.0
 40
1.0
 40
1.0
 40
1.0
 40
2.0
 40
2.0
 40
2.0
 40
3.0
 40
3.0
 40
3.0
 40
4.0
 40
4.0
 40
4.0
 40
5.0
 40
5.0
 40
5.0
 40
6.0
 40
6.0
 40
6.0
 40
7.0
 40
7.0
 40
7.0
 40
8.0
 40
8.0
 40
8.0
 40
9.0
 40
9.0
 40
9.0
 40
10.0
 40
10.0
 40
10.0
 40
10.0
 10
175.276123003056
 20
63.33325802509307
 10
175.5992729595724
 20
63.25677690532051
 10
175.9809895393381
 20
62.98737043837398
 10
175.9809895393381
 20
62.47129513468356
 10
175.9809895393381
 20
62.16605967469042
 10
175.8642008023881
 20
61.95039669731378
 10
175.7071044482607
 20
61.79777896731721
 10
175.4780055984916
 20
61.57350325122745
 10
175.1100694006669
 20
61.47462901080078
 10
174.593649587428
 20
61.47462901080078
 10
174.310807248089
 20
61.47462901080078
 10
174.0999674043917
 20
61.4970221314549
 10
173.9607855467876
 20
61.51045800384738
 10
173.9607855467876
 20
61.51045800384738
 10
173.9607855467876
 20
64.87287119745122
 10
173.9607855467876
 20
64.87287119745122
 10
174.1492322698307
 20
64.91352332417716
 10
174.4186387367773
 20
64.94487369309294
 10
174.6970024519855
 20
64.94487369309294
 10
175.1190266489286
 20
64.94487369309294
 10
175.3973903641368
 20
64.86391394918957
 10
175.5992729595724
 20
64.6933817226697
 10
175.7608479378306
 20
64.55419986506561
 10
175.8552435541265
 20
64.35679589376079
 10
175.8552435541265
 20
64.10082529920673
 10
175.8552435541265
 20
63.76423947029782
 10
175.6261447043574
 20
63.47243988269716
 10
175.276123003056
 20
63.34669389748554
 10
175.276123003056
 20
63.34669389748554
 10
175.276123003056
 20
63.33325802509307
 10
175.276123003056
 20
63.33325802509307
 97
        0
 92
        1
 93
        1
 72
     4
 94
        3
 73
     0
 74
     1
 95
       23
 96
       19
 40
0.0
 40
0.0
 40
0.0
 40
0.0
 40
1.0
 40
1.0
 40
1.0
 40
2.0
 40
2.0
 40
2.0
 40
3.0
 40
3.0
 40
3.0
 40
4.0
 40
4.0
 40
4.0
 40
5.0
 40
5.0
 40
5.0
 40
6.0
 40
6.0
 40
6.0
 40
6.0
 10
174.7328314450321
 20
63.45900401030468
 10
175.186206010891
 20
63.45900401030468
 10
175.4780055984916
 20
63.71910871944105
 10
175.4780055984916
 20
64.06947493029095
 10
175.4780055984916
 20
64.06947493029095
 10
175.4780055984916
 20
64.07395355442178
 10
175.4780055984916
 20
64.07395355442178
 10
175.4780055984916
 20
64.47806325484159
 10
175.1817273867601
 20
64.65307410549228
 10
174.7149169485088
 20
64.65307410549228
 10
174.5175129772039
 20
64.65307410549228
 10
174.400724240254
 20
64.6396382330998
 10
174.3332003687431
 20
64.6217237365765
 10
174.3332003687431
 20
64.6217237365765
 10
174.3332003687431
 20
63.45900401030468
 10
174.3332003687431
 20
63.45900401030468
 10
174.3332003687431
 20
63.45900401030468
 10
174.7328314450321
 20
63.45900401030468
 10
174.7328314450321
 20
63.45900401030468
 97
        0
 92
        1
 93
        1
 72
     4
 94
        3
 73
     0
 74
     1
 95
       20
 96
       16
 40
0.0
 40
0.0
 40
0.0
 40
0.0
 40
1.0
 40
1.0
 40
1.0
 40
2.0
 40
2.0
 40
2.0
 40
3.0
 40
3.0
 40
3.0
 40
4.0
 40
4.0
 40
4.0
 40
5.0
 40
5.0
 40
5.0
 40
5.0
 10
174.3332003687431
 20
61.79330034318639
 10
174.4186387367773
 20
61.77538584666308
 10
174.5399060978581
 20
61.77090722253227
 10
174.6970024519855
 20
61.77090722253227
 10
175.1682915143677
 20
61.77090722253227
 10
175.5903157113108
 20
61.9548753214446
 10
175.5903157113108
 20
62.47129513468356
 10
175.5903157113108
 20
62.98289181424315
 10
175.1458983937135
 20
63.17168304683484
 10
174.6925238278546
 20
63.17168304683484
 10
174.6925238278546
 20
63.17168304683484
 10
174.3332003687431
 20
63.17168304683484
 10
174.3332003687431
 20
63.17168304683484
 10
174.3332003687431
 20
63.17168304683484
 10
174.3332003687431
 20
61.79330034318639
 10
174.3332003687431
 20
61.79330034318639
 97
        0
 75
     2
 76
     1
 98
        0
  0
POLYLINE
  5
79
330
6C
100
AcDbEntity
  8
_U+30EC_U+30A4_U+30E4_U+30FC 1
370
     0
100
AcDb2dPolyline
 66
     1
 10
0.0
 20
0.0
 30
0.0
  0
VERTEX
  5
7A
330
79
100
AcDbEntity
  8
_U+30EC_U+30A4_U+30E4_U+30FC 1
370
     0
100
AcDbVertex
100
AcDb2dVertex
 10
176.3344563361247
 20
63.01458669270745
 30
0.0
  0
VERTEX
  5
7B
330
79
100
AcDbEntity
  8
_U+30EC_U+30A4_U+30E4_U+30FC 1
370
     0
100
AcDbVertex
100
AcDb2dVertex
 10
177.5602213097766
 20
63.01458669270745
 30
0.0
  0
VERTEX
  5
7C
330
79
100
AcDbEntity
  8
_U+30EC_U+30A4_U+30E4_U+30FC 1
370
     0
100
AcDbVertex
100
AcDb2dVertex
 10
177.5602213097766
 20
62.72726572923762
 30
0.0
  0
VERTEX
  5
7D
330
79
100
AcDbEntity
  8
_U+30EC_U+30A4_U+30E4_U+30FC 1
370
     0
100
AcDbVertex
100
AcDb2dVertex
 10
176.3344563361247
 20
62.72726572923762
 30
0.0
  0
VERTEX
  5
7E
330
79
100
AcDbEntity
  8
_U+30EC_U+30A4_U+30E4_U+30FC 1
370
     0
100
AcDbVertex
100
AcDb2dVertex
 10
176.3344563361247
 20
63.01458669270745
 30
0.0
  0
SEQEND
  5
7F
330
79
100
AcDbEntity
  8
_U+30EC_U+30A4_U+30E4_U+30FC 1
370
     0
  0
HATCH
  5
80
330
6C
100
AcDbEntity
  8
_U+30EC_U+30A4_U+30E4_U+30FC 1
 62
     7
100
AcDbHatch
 10
0.0
 20
0.0
 30
0.0
210
0.0
220
0.0
230
1.0
  2
SOLID
 70
     1
 71
     0
 91
        1
 92
        1
 93
        4
 72
     1
 10
176.3344563361247
 20
63.01458669270745
 11
177.5602213097766
 21
63.01458669270745
 72
     1
 10
177.5602213097766
 20
63.01458669270745
 11
177.5602213097766
 21
62.72726572923762
 72
     1
 10
177.5602213097766
 20
62.72726572923762
 11
176.3344563361247
 21
62.72726572923762
 72
     1
 10
176.3344563361247
 20
62.72726572923762
 11
176.3344563361247
 21
63.01458669270745
 97
        0
 75
     2
 76
     1
 98
        0
  0
POLYLINE
  5
81
330
6C
100
AcDbEntity
  8
_U+30EC_U+30A4_U+30E4_U+30FC 1
370
     0
100
AcDb2dPolyline
 66
     1
 10
0.0
 20
0.0
 30
0.0
  0
VERTEX
  5
82
330
81
100
AcDbEntity
  8
_U+30EC_U+30A4_U+30E4_U+30FC 1
370
     0
100
AcDbVertex
100
AcDb2dVertex
 10
178.8790038615303
 20
61.50150075558572
 30
0.0
  0
VERTEX
  5
83
330
81
100
AcDbEntity
  8
_U+30EC_U+30A4_U+30E4_U+30FC 1
370
     0
100
AcDbVertex
100
AcDb2dVertex
 10
178.8790038615303
 20
64.51389224788818
 30
0.0
  0
VERTEX
  5
84
330
81
100
AcDbEntity
  8
_U+30EC_U+30A4_U+30E4_U+30FC 1
370
     0
100
AcDbVertex
100
AcDb2dVertex
 10
178.8700466132686
 20
64.51389224788818
 30
0.0
  0
VERTEX
  5
85
330
81
100
AcDbEntity
  8
_U+30EC_U+30A4_U+30E4_U+30FC 1
370
     0
100
AcDbVertex
100
AcDb2dVertex
 10
178.3177978069831
 20
64.19522091550257
 30
0.0
  0
VERTEX
  5
86
330
81
100
AcDbEntity
  8
_U+30EC_U+30A4_U+30E4_U+30FC 1
370
     0
100
AcDbVertex
100
AcDb2dVertex
 10
178.2282253243666
 20
64.47358463071076
 30
0.0
  0
VERTEX
  5
87
330
81
100
AcDbEntity
  8
_U+30EC_U+30A4_U+30E4_U+30FC 1
370
     0
100
AcDbVertex
100
AcDb2dVertex
 10
178.9237901028385
 20
64.86391394918957
 30
0.0
  0
VERTEX
  5
88
330
81
100
AcDbEntity
  8
_U+30EC_U+30A4_U+30E4_U+30FC 1
370
     0
100
AcDbVertex
100
AcDb2dVertex
 10
179.2428059447726
 20
64.86391394918957
 30
0.0
  0
VERTEX
  5
89
330
81
100
AcDbEntity
  8
_U+30EC_U+30A4_U+30E4_U+30FC 1
370
     0
100
AcDbVertex
100
AcDb2dVertex
 10
179.2428059447726
 20
61.50150075558572
 30
0.0
  0
VERTEX
  5
8A
330
81
100
AcDbEntity
  8
_U+30EC_U+30A4_U+30E4_U+30FC 1
370
     0
100
AcDbVertex
100
AcDb2dVertex
 10
178.8790038615303
 20
61.50150075558572
 30
0.0
  0
SEQEND
  5
8B
330
81
100
AcDbEntity
  8
_U+30EC_U+30A4_U+30E4_U+30FC 1
370
     0
  0
HATCH
  5
8C
330
6C
100
AcDbEntity
  8
_U+30EC_U+30A4_U+30E4_U+30FC 1
 62
     7
100
AcDbHatch
 10
0.0
 20
0.0
 30
0.0
210
0.0
220
0.0
230
1.0
  2
SOLID
 70
     1
 71
     0
 91
        1
 92
        1
 93
        8
 72
     1
 10
178.8790038615303
 20
61.50150075558572
 11
178.8790038615303
 21
64.51389224788818
 72
     1
 10
178.8790038615303
 20
64.51389224788818
 11
178.8700466132686
 21
64.51389224788818
 72
     1
 10
178.8700466132686
 20
64.51389224788818
 11
178.3177978069831
 21
64.19522091550257
 72
     1
 10
178.3177978069831
 20
64.19522091550257
 11
178.2282253243666
 21
64.47358463071076
 72
     1
 10
178.2282253243666
 20
64.47358463071076
 11
178.9237901028385
 21
64.86391394918957
 72
     1
 10
178.9237901028385
 20
64.86391394918957
 11
179.2428059447726
 21
64.86391394918957
 72
     1
 10
179.2428059447726
 20
64.86391394918957
 11
179.2428059447726
 21
61.50150075558572
 72
     1
 10
179.2428059447726
 20
61.50150075558572
 11
178.8790038615303
 21
61.50150075558572
 97
        0
 75
     2
 76
     1
 98
        0
  0
SPLINE
  5
8D
330
6C
100
AcDbEntity
  8
_U+30EC_U+30A4_U+30E4_U+30FC 1
370
     0
100
AcDbSpline
210
0.0
220
0.0
230
1.0
 70
    11
 71
     3
 72
    47
 73
    43
 74
     0
 42
0.0000000001
 43
0.0000000001
 12
1.0
 22
0.0
 32
0.0
 13
1.0
 23
0.0
 33
0.0
 40
0.0
 40
0.0
 40
0.0
 40
0.0
 40
1.0
 40
1.0
 40
1.0
 40
2.0
 40
2.0
 40
2.0
 40
3.0
 40
3.0
 40
3.0
 40
4.0
 40
4.0
 40
4.0
 40
5.0
 40
5.0
 40
5.0
 40
6.0
 40
6.0
 40
6.0
 40
7.0
 40
7.0
 40
7.0
 40
8.0
 40
8.0
 40
8.0
 40
9.0
 40
9.0
 40
9.0
 40
10.0
 40
10.0
 40
10.0
 40
11.0
 40
11.0
 40
11.0
 40
12.0
 40
12.0
 40
12.0
 40
13.0
 40
13.0
 40
13.0
 40
14.0
 40
14.0
 40
14.0
 40
14.0
 10
182.3930012564851
 20
61.50150075558572
 30
0.0
 10
182.3930012564851
 20
61.50150075558572
 30
0.0
 10
180.4044921423989
 20
61.50150075558572
 30
0.0
 10
180.4044921423989
 20
61.50150075558572
 30
0.0
 10
180.4044921423989
 20
61.50150075558572
 30
0.0
 10
180.4044921423989
 20
61.73059960535484
 30
0.0
 10
180.4044921423989
 20
61.73059960535484
 30
0.0
 10
180.4044921423989
 20
61.73059960535484
 30
0.0
 10
180.7321207230461
 20
62.0761426825254
 30
0.0
 10
180.7321207230461
 20
62.0761426825254
 30
0.0
 10
181.5310383660756
 20
62.88436208336501
 30
0.0
 10
181.9351480664954
 20
63.37356564227048
 30
0.0
 10
181.9351480664954
 20
63.92133582442521
 30
0.0
 10
181.9351480664954
 20
64.28031477398824
 30
0.0
 10
181.778051712368
 20
64.61276648831485
 30
0.0
 10
181.2933267775933
 20
64.61276648831485
 30
0.0
 10
181.0239203106468
 20
64.61276648831485
 30
0.0
 10
180.7813855884852
 20
64.46462738244911
 30
0.0
 10
180.619810610227
 20
64.33440277310666
 30
0.0
 10
180.619810610227
 20
64.33440277310666
 30
0.0
 10
180.4940646250154
 20
64.59485199179156
 30
0.0
 10
180.4940646250154
 20
64.59485199179156
 30
0.0
 10
180.7007703541304
 20
64.7788200907039
 30
0.0
 10
181.0060058141235
 20
64.92248057243881
 30
0.0
 10
181.3649847636866
 20
64.92248057243881
 30
0.0
 10
182.0429795551837
 20
64.92248057243881
 30
0.0
 10
182.3123860221303
 20
64.42845387985399
 30
0.0
 10
182.3123860221303
 20
63.96612206573346
 30
0.0
 10
182.3123860221303
 20
63.33325802509307
 30
0.0
 10
181.867968704533
 20
62.79444509119999
 30
0.0
 10
181.1720594165126
 20
62.0940571790487
 30
0.0
 10
181.1720594165126
 20
62.0940571790487
 30
0.0
 10
180.9071315736968
 20
61.81569346384051
 30
0.0
 10
180.9071315736968
 20
61.81569346384051
 30
0.0
 10
180.9071315736968
 20
61.81569346384051
 30
0.0
 10
180.9071315736968
 20
61.80673621557886
 30
0.0
 10
180.9071315736968
 20
61.80673621557886
 30
0.0
 10
180.9071315736968
 20
61.80673621557886
 30
0.0
 10
182.3930012564851
 20
61.80673621557886
 30
0.0
 10
182.3930012564851
 20
61.80673621557886
 30
0.0
 10
182.3930012564851
 20
61.80673621557886
 30
0.0
 10
182.3930012564851
 20
61.50150075558572
 30
0.0
 10
182.3930012564851
 20
61.50150075558572
 30
0.0
  0
HATCH
  5
8E
330
6C
100
AcDbEntity
  8
_U+30EC_U+30A4_U+30E4_U+30FC 1
 62
     7
100
AcDbHatch
 10
0.0
 20
0.0
 30
0.0
210
0.0
220
0.0
230
1.0
  2
SOLID
 70
     1
 71
     0
 91
        1
 92
        1
 93
        1
 72
     4
 94
        3
 73
     0
 74
     1
 95
       47
 96
       43
 40
0.0
 40
0.0
 40
0.0
 40
0.0
 40
1.0
 40
1.0
 40
1.0
 40
2.0
 40
2.0
 40
2.0
 40
3.0
 40
3.0
 40
3.0
 40
4.0
 40
4.0
 40
4.0
 40
5.0
 40
5.0
 40
5.0
 40
6.0
 40
6.0
 40
6.0
 40
7.0
 40
7.0
 40
7.0
 40
8.0
 40
8.0
 40
8.0
 40
9.0
 40
9.0
 40
9.0
 40
10.0
 40
10.0
 40
10.0
 40
11.0
 40
11.0
 40
11.0
 40
12.0
 40
12.0
 40
12.0
 40
13.0
 40
13.0
 40
13.0
 40
14.0
 40
14.0
 40
14.0
 40
14.0
 10
182.3930012564851
 20
61.50150075558572
 10
182.3930012564851
 20
61.50150075558572
 10
180.4044921423989
 20
61.50150075558572
 10
180.4044921423989
 20
61.50150075558572
 10
180.4044921423989
 20
61.50150075558572
 10
180.4044921423989
 20
61.73059960535484
 10
180.4044921423989
 20
61.73059960535484
 10
180.4044921423989
 20
61.73059960535484
 10
180.7321207230461
 20
62.0761426825254
 10
180.7321207230461
 20
62.0761426825254
 10
181.5310383660756
 20
62.88436208336501
 10
181.9351480664954
 20
63.37356564227048
 10
181.9351480664954
 20
63.92133582442521
 10
181.9351480664954
 20
64.28031477398824
 10
181.778051712368
 20
64.61276648831485
 10
181.2933267775933
 20
64.61276648831485
 10
181.0239203106468
 20
64.61276648831485
 10
180.7813855884852
 20
64.46462738244911
 10
180.619810610227
 20
64.33440277310666
 10
180.619810610227
 20
64.33440277310666
 10
180.4940646250154
 20
64.59485199179156
 10
180.4940646250154
 20
64.59485199179156
 10
180.7007703541304
 20
64.7788200907039
 10
181.0060058141235
 20
64.92248057243881
 10
181.3649847636866
 20
64.92248057243881
 10
182.0429795551837
 20
64.92248057243881
 10
182.3123860221303
 20
64.42845387985399
 10
182.3123860221303
 20
63.96612206573346
 10
182.3123860221303
 20
63.33325802509307
 10
181.867968704533
 20
62.79444509119999
 10
181.1720594165126
 20
62.0940571790487
 10
181.1720594165126
 20
62.0940571790487
 10
180.9071315736968
 20
61.81569346384051
 10
180.9071315736968
 20
61.81569346384051
 10
180.9071315736968
 20
61.81569346384051
 10
180.9071315736968
 20
61.80673621557886
 10
180.9071315736968
 20
61.80673621557886
 10
180.9071315736968
 20
61.80673621557886
 10
182.3930012564851
 20
61.80673621557886
 10
182.3930012564851
 20
61.80673621557886
 10
182.3930012564851
 20
61.80673621557886
 10
182.3930012564851
 20
61.50150075558572
 10
182.3930012564851
 20
61.50150075558572
 97
        0
 75
     2
 76
     1
 98
        0
  0
SPLINE
  5
8F
330
6C
100
AcDbEntity
  8
_U+30EC_U+30A4_U+30E4_U+30FC 1
370
     0
100
AcDbSpline
210
0.0
220
0.0
230
1.0
 70
    11
 71
     3
 72
    23
 73
    19
 74
     0
 42
0.0000000001
 43
0.0000000001
 12
1.0
 22
0.0
 32
0.0
 13
1.0
 23
0.0
 33
0.0
 40
0.0
 40
0.0
 40
0.0
 40
0.0
 40
1.0
 40
1.0
 40
1.0
 40
2.0
 40
2.0
 40
2.0
 40
3.0
 40
3.0
 40
3.0
 40
4.0
 40
4.0
 40
4.0
 40
5.0
 40
5.0
 40
5.0
 40
6.0
 40
6.0
 40
6.0
 40
6.0
 10
167.9794107652968
 20
59.49266557813655
 30
0.0
 10
168.2305582261715
 20
59.53331770486249
 30
0.0
 10
168.5223578137722
 20
59.56466807377826
 30
0.0
 10
168.8413736557063
 20
59.56466807377826
 30
0.0
 10
170.2149332256755
 20
59.56466807377826
 30
0.0
 10
170.6100856778336
 20
58.75197004880783
 30
0.0
 10
170.6100856778336
 20
57.91274478860097
 30
0.0
 10
170.6100856778336
 20
57.36945323057707
 30
0.0
 10
170.4664251960987
 20
56.90677690690801
 30
0.0
 10
170.1432752395822
 20
56.57019107799911
 30
0.0
 10
169.8425184037199
 20
56.26047699387514
 30
0.0
 10
169.3440130870043
 20
56.08994476735528
 30
0.0
 10
168.7201062946255
 20
56.08994476735528
 30
0.0
 10
168.4372639552865
 20
56.08994476735528
 30
0.0
 10
168.1947292331249
 20
56.09890201561693
 30
0.0
 10
167.9794107652968
 20
56.12577376040188
 30
0.0
 10
167.9794107652968
 20
56.12577376040188
 30
0.0
 10
167.9794107652968
 20
59.49266557813655
 30
0.0
 10
167.9794107652968
 20
59.49266557813655
 30
0.0
  0
SPLINE
  5
90
330
6C
100
AcDbEntity
  8
_U+30EC_U+30A4_U+30E4_U+30FC 1
370
     0
100
AcDbSpline
210
0.0
220
0.0
230
1.0
 70
    11
 71
     3
 72
    20
 73
    16
 74
     0
 42
0.0000000001
 43
0.0000000001
 12
1.0
 22
0.0
 32
0.0
 13
1.0
 23
0.0
 33
0.0
 40
0.0
 40
0.0
 40
0.0
 40
0.0
 40
1.0
 40
1.0
 40
1.0
 40
2.0
 40
2.0
 40
2.0
 40
3.0
 40
3.0
 40
3.0
 40
4.0
 40
4.0
 40
4.0
 40
5.0
 40
5.0
 40
5.0
 40
5.0
 10
168.3518255872523
 20
56.41309472387172
 30
0.0
 10
168.4641357000715
 20
56.39518022734842
 30
0.0
 10
168.6257106783297
 20
56.39070160321759
 30
0.0
 10
168.7872856565879
 20
56.39070160321759
 30
0.0
 10
169.7122937943775
 20
56.39070160321759
 30
0.0
 10
170.2194118498063
 20
56.91607866471819
 30
0.0
 10
170.2194118498063
 20
57.89448578252915
 30
0.0
 10
170.2194118498063
 20
58.78366492727213
 30
0.0
 10
169.7436441632933
 20
59.26391123791596
 30
0.0
 10
168.8548095280988
 20
59.26391123791596
 30
0.0
 10
168.6391465507222
 20
59.26391123791596
 30
0.0
 10
168.4686143242023
 20
59.24151811726183
 30
0.0
 10
168.3518255872523
 20
59.21912499660771
 30
0.0
 10
168.3518255872523
 20
59.21912499660771
 30
0.0
 10
168.3518255872523
 20
56.41309472387172
 30
0.0
 10
168.3518255872523
 20
56.41309472387172
 30
0.0
  0
HATCH
  5
91
330
6C
100
AcDbEntity
  8
_U+30EC_U+30A4_U+30E4_U+30FC 1
 62
     7
100
AcDbHatch
 10
0.0
 20
0.0
 30
0.0
210
0.0
220
0.0
230
1.0
  2
SOLID
 70
     1
 71
     0
 91
        2
 92
        1
 93
        1
 72
     4
 94
        3
 73
     0
 74
     1
 95
       23
 96
       19
 40
0.0
 40
0.0
 40
0.0
 40
0.0
 40
1.0
 40
1.0
 40
1.0
 40
2.0
 40
2.0
 40
2.0
 40
3.0
 40
3.0
 40
3.0
 40
4.0
 40
4.0
 40
4.0
 40
5.0
 40
5.0
 40
5.0
 40
6.0
 40
6.0
 40
6.0
 40
6.0
 10
167.9794107652968
 20
59.49266557813655
 10
168.2305582261715
 20
59.53331770486249
 10
168.5223578137722
 20
59.56466807377826
 10
168.8413736557063
 20
59.56466807377826
 10
170.2149332256755
 20
59.56466807377826
 10
170.6100856778336
 20
58.75197004880783
 10
170.6100856778336
 20
57.91274478860097
 10
170.6100856778336
 20
57.36945323057707
 10
170.4664251960987
 20
56.90677690690801
 10
170.1432752395822
 20
56.57019107799911
 10
169.8425184037199
 20
56.26047699387514
 10
169.3440130870043
 20
56.08994476735528
 10
168.7201062946255
 20
56.08994476735528
 10
168.4372639552865
 20
56.08994476735528
 10
168.1947292331249
 20
56.09890201561693
 10
167.9794107652968
 20
56.12577376040188
 10
167.9794107652968
 20
56.12577376040188
 10
167.9794107652968
 20
59.49266557813655
 10
167.9794107652968
 20
59.49266557813655
 97
        0
 92
        1
 93
        1
 72
     4
 94
        3
 73
     0
 74
     1
 95
       20
 96
       16
 40
0.0
 40
0.0
 40
0.0
 40
0.0
 40
1.0
 40
1.0
 40
1.0
 40
2.0
 40
2.0
 40
2.0
 40
3.0
 40
3.0
 40
3.0
 40
4.0
 40
4.0
 40
4.0
 40
5.0
 40
5.0
 40
5.0
 40
5.0
 10
168.3518255872523
 20
56.41309472387172
 10
168.4641357000715
 20
56.39518022734842
 10
168.6257106783297
 20
56.39070160321759
 10
168.7872856565879
 20
56.39070160321759
 10
169.7122937943775
 20
56.39070160321759
 10
170.2194118498063
 20
56.91607866471819
 10
170.2194118498063
 20
57.89448578252915
 10
170.2194118498063
 20
58.78366492727213
 10
169.7436441632933
 20
59.26391123791596
 10
168.8548095280988
 20
59.26391123791596
 10
168.6391465507222
 20
59.26391123791596
 10
168.4686143242023
 20
59.24151811726183
 10
168.3518255872523
 20
59.21912499660771
 10
168.3518255872523
 20
59.21912499660771
 10
168.3518255872523
 20
56.41309472387172
 10
168.3518255872523
 20
56.41309472387172
 97
        0
 75
     2
 76
     1
 98
        0
  0
SPLINE
  5
92
330
6C
100
AcDbEntity
  8
_U+30EC_U+30A4_U+30E4_U+30FC 1
370
     0
100
AcDbSpline
210
0.0
220
0.0
230
1.0
 70
    11
 71
     3
 72
    35
 73
    31
 74
     0
 42
0.0000000001
 43
0.0000000001
 12
1.0
 22
0.0
 32
0.0
 13
1.0
 23
0.0
 33
0.0
 40
0.0
 40
0.0
 40
0.0
 40
0.0
 40
1.0
 40
1.0
 40
1.0
 40
2.0
 40
2.0
 40
2.0
 40
3.0
 40
3.0
 40
3.0
 40
4.0
 40
4.0
 40
4.0
 40
5.0
 40
5.0
 40
5.0
 40
6.0
 40
6.0
 40
6.0
 40
7.0
 40
7.0
 40
7.0
 40
8.0
 40
8.0
 40
8.0
 40
9.0
 40
9.0
 40
9.0
 40
10.0
 40
10.0
 40
10.0
 40
10.0
 10
173.4188720269578
 20
56.22016937669773
 30
0.0
 10
173.2617756728304
 20
56.14368825692518
 30
0.0
 10
172.9565402128373
 20
56.06755164670115
 30
0.0
 10
172.5658663848099
 20
56.06755164670115
 30
0.0
 10
171.6859889978771
 20
56.06755164670115
 30
0.0
 10
170.9766438374642
 20
56.63771494951001
 30
0.0
 10
170.9766438374642
 20
57.795956051651
 30
0.0
 10
170.9766438374642
 20
58.90010915467357
 30
0.0
 10
171.663595877223
 20
59.58706119443239
 30
0.0
 10
172.6647406252366
 20
59.58706119443239
 30
0.0
 10
173.0733289497872
 20
59.58706119443239
 30
0.0
 10
173.311385047818
 20
59.50196733594672
 30
0.0
 10
173.4188720269578
 20
59.4478793368283
 30
0.0
 10
173.4188720269578
 20
59.4478793368283
 30
0.0
 10
173.3203422960796
 20
59.13368662857351
 30
0.0
 10
173.3203422960796
 20
59.13368662857351
 30
0.0
 10
173.1632459419523
 20
59.21016774834606
 30
0.0
 10
172.9431043404448
 20
59.27286848617761
 30
0.0
 10
172.6736978734982
 20
59.27286848617761
 30
0.0
 10
171.8971733511229
 20
59.27286848617761
 30
0.0
 10
171.3673176654915
 20
58.75197004880783
 30
0.0
 10
171.3673176654915
 20
57.80939192404347
 30
0.0
 10
171.3673176654915
 20
56.91160004058737
 30
0.0
 10
171.8520426002662
 20
56.38174435495594
 30
0.0
 10
172.6513047528441
 20
56.38174435495594
 30
0.0
 10
172.911753971529
 20
56.38174435495594
 30
0.0
 10
173.1677245660831
 20
56.43996646865666
 30
0.0
 10
173.3382567926029
 20
56.52092621256003
 30
0.0
 10
173.3382567926029
 20
56.52092621256003
 30
0.0
 10
173.4188720269578
 20
56.22016937669773
 30
0.0
 10
173.4188720269578
 20
56.22016937669773
 30
0.0
  0
HATCH
  5
93
330
6C
100
AcDbEntity
  8
_U+30EC_U+30A4_U+30E4_U+30FC 1
 62
     7
100
AcDbHatch
 10
0.0
 20
0.0
 30
0.0
210
0.0
220
0.0
230
1.0
  2
SOLID
 70
     1
 71
     0
 91
        1
 92
        1
 93
        1
 72
     4
 94
        3
 73
     0
 74
     1
 95
       35
 96
       31
 40
0.0
 40
0.0
 40
0.0
 40
0.0
 40
1.0
 40
1.0
 40
1.0
 40
2.0
 40
2.0
 40
2.0
 40
3.0
 40
3.0
 40
3.0
 40
4.0
 40
4.0
 40
4.0
 40
5.0
 40
5.0
 40
5.0
 40
6.0
 40
6.0
 40
6.0
 40
7.0
 40
7.0
 40
7.0
 40
8.0
 40
8.0
 40
8.0
 40
9.0
 40
9.0
 40
9.0
 40
10.0
 40
10.0
 40
10.0
 40
10.0
 10
173.4188720269578
 20
56.22016937669773
 10
173.2617756728304
 20
56.14368825692518
 10
172.9565402128373
 20
56.06755164670115
 10
172.5658663848099
 20
56.06755164670115
 10
171.6859889978771
 20
56.06755164670115
 10
170.9766438374642
 20
56.63771494951001
 10
170.9766438374642
 20
57.795956051651
 10
170.9766438374642
 20
58.90010915467357
 10
171.663595877223
 20
59.58706119443239
 10
172.6647406252366
 20
59.58706119443239
 10
173.0733289497872
 20
59.58706119443239
 10
173.311385047818
 20
59.50196733594672
 10
173.4188720269578
 20
59.4478793368283
 10
173.4188720269578
 20
59.4478793368283
 10
173.3203422960796
 20
59.13368662857351
 10
173.3203422960796
 20
59.13368662857351
 10
173.1632459419523
 20
59.21016774834606
 10
172.9431043404448
 20
59.27286848617761
 10
172.6736978734982
 20
59.27286848617761
 10
171.8971733511229
 20
59.27286848617761
 10
171.3673176654915
 20
58.75197004880783
 10
171.3673176654915
 20
57.80939192404347
 10
171.3673176654915
 20
56.91160004058737
 10
171.8520426002662
 20
56.38174435495594
 10
172.6513047528441
 20
56.38174435495594
 10
172.911753971529
 20
56.38174435495594
 10
173.1677245660831
 20
56.43996646865666
 10
173.3382567926029
 20
56.52092621256003
 10
173.3382567926029
 20
56.52092621256003
 10
173.4188720269578
 20
56.22016937669773
 10
173.4188720269578
 20
56.22016937669773
 97
        0
 75
     2
 76
     1
 98
        0
  0
SPLINE
  5
94
330
6C
100
AcDbEntity
  8
_U+30EC_U+30A4_U+30E4_U+30FC 1
370
     0
100
AcDbSpline
210
0.0
220
0.0
230
1.0
 70
    11
 71
     3
 72
    35
 73
    31
 74
     0
 42
0.0000000001
 43
0.0000000001
 12
1.0
 22
0.0
 32
0.0
 13
1.0
 23
0.0
 33
0.0
 40
0.0
 40
0.0
 40
0.0
 40
0.0
 40
1.0
 40
1.0
 40
1.0
 40
2.0
 40
2.0
 40
2.0
 40
3.0
 40
3.0
 40
3.0
 40
4.0
 40
4.0
 40
4.0
 40
5.0
 40
5.0
 40
5.0
 40
6.0
 40
6.0
 40
6.0
 40
7.0
 40
7.0
 40
7.0
 40
8.0
 40
8.0
 40
8.0
 40
9.0
 40
9.0
 40
9.0
 40
10.0
 40
10.0
 40
10.0
 40
10.0
 10
175.276123003056
 20
57.94857378164757
 30
0.0
 10
175.5992729595724
 20
57.87209266187502
 30
0.0
 10
175.9809895393381
 20
57.60268619492849
 30
0.0
 10
175.9809895393381
 20
57.08661089123806
 30
0.0
 10
175.9809895393381
 20
56.78137543124492
 30
0.0
 10
175.8642008023881
 20
56.56571245386829
 30
0.0
 10
175.7071044482607
 20
56.41309472387172
 30
0.0
 10
175.4780055984916
 20
56.18881900778195
 30
0.0
 10
175.1100694006669
 20
56.08994476735528
 30
0.0
 10
174.593649587428
 20
56.08994476735528
 30
0.0
 10
174.310807248089
 20
56.08994476735528
 30
0.0
 10
174.0999674043917
 20
56.11233788800941
 30
0.0
 10
173.9607855467876
 20
56.12577376040188
 30
0.0
 10
173.9607855467876
 20
56.12577376040188
 30
0.0
 10
173.9607855467876
 20
59.48818695400572
 30
0.0
 10
173.9607855467876
 20
59.48818695400572
 30
0.0
 10
174.1492322698307
 20
59.52883908073167
 30
0.0
 10
174.4186387367773
 20
59.56018944964744
 30
0.0
 10
174.6970024519855
 20
59.56018944964744
 30
0.0
 10
175.1190266489286
 20
59.56018944964744
 30
0.0
 10
175.3973903641368
 20
59.47922970574407
 30
0.0
 10
175.5992729595724
 20
59.30869747922421
 30
0.0
 10
175.7608479378306
 20
59.16951562162011
 30
0.0
 10
175.8552435541265
 20
58.97211165031529
 30
0.0
 10
175.8552435541265
 20
58.71614105576123
 30
0.0
 10
175.8552435541265
 20
58.37955522685233
 30
0.0
 10
175.6261447043574
 20
58.08775563925166
 30
0.0
 10
175.276123003056
 20
57.96200965404005
 30
0.0
 10
175.276123003056
 20
57.96200965404005
 30
0.0
 10
175.276123003056
 20
57.94857378164757
 30
0.0
 10
175.276123003056
 20
57.94857378164757
 30
0.0
  0
SPLINE
  5
95
330
6C
100
AcDbEntity
  8
_U+30EC_U+30A4_U+30E4_U+30FC 1
370
     0
100
AcDbSpline
210
0.0
220
0.0
230
1.0
 70
    11
 71
     3
 72
    23
 73
    19
 74
     0
 42
0.0000000001
 43
0.0000000001
 12
1.0
 22
0.0
 32
0.0
 13
1.0
 23
0.0
 33
0.0
 40
0.0
 40
0.0
 40
0.0
 40
0.0
 40
1.0
 40
1.0
 40
1.0
 40
2.0
 40
2.0
 40
2.0
 40
3.0
 40
3.0
 40
3.0
 40
4.0
 40
4.0
 40
4.0
 40
5.0
 40
5.0
 40
5.0
 40
6.0
 40
6.0
 40
6.0
 40
6.0
 10
174.7328314450321
 20
58.07431976685919
 30
0.0
 10
175.186206010891
 20
58.07431976685919
 30
0.0
 10
175.4780055984916
 20
58.33442447599555
 30
0.0
 10
175.4780055984916
 20
58.68479068684546
 30
0.0
 10
175.4780055984916
 20
58.68479068684546
 30
0.0
 10
175.4780055984916
 20
58.68926931097629
 30
0.0
 10
175.4780055984916
 20
58.68926931097629
 30
0.0
 10
175.4780055984916
 20
59.09337901139609
 30
0.0
 10
175.1817273867601
 20
59.26838986204678
 30
0.0
 10
174.7149169485088
 20
59.26838986204678
 30
0.0
 10
174.5175129772039
 20
59.26838986204678
 30
0.0
 10
174.400724240254
 20
59.2549539896543
 30
0.0
 10
174.3332003687431
 20
59.23703949313101
 30
0.0
 10
174.3332003687431
 20
59.23703949313101
 30
0.0
 10
174.3332003687431
 20
58.07431976685919
 30
0.0
 10
174.3332003687431
 20
58.07431976685919
 30
0.0
 10
174.3332003687431
 20
58.07431976685919
 30
0.0
 10
174.7328314450321
 20
58.07431976685919
 30
0.0
 10
174.7328314450321
 20
58.07431976685919
 30
0.0
  0
SPLINE
  5
96
330
6C
100
AcDbEntity
  8
_U+30EC_U+30A4_U+30E4_U+30FC 1
370
     0
100
AcDbSpline
210
0.0
220
0.0
230
1.0
 70
    11
 71
     3
 72
    20
 73
    16
 74
     0
 42
0.0000000001
 43
0.0000000001
 12
1.0
 22
0.0
 32
0.0
 13
1.0
 23
0.0
 33
0.0
 40
0.0
 40
0.0
 40
0.0
 40
0.0
 40
1.0
 40
1.0
 40
1.0
 40
2.0
 40
2.0
 40
2.0
 40
3.0
 40
3.0
 40
3.0
 40
4.0
 40
4.0
 40
4.0
 40
5.0
 40
5.0
 40
5.0
 40
5.0
 10
174.3332003687431
 20
56.40861609974089
 30
0.0
 10
174.4186387367773
 20
56.39070160321759
 30
0.0
 10
174.5399060978581
 20
56.38622297908677
 30
0.0
 10
174.6970024519855
 20
56.38622297908677
 30
0.0
 10
175.1682915143677
 20
56.38622297908677
 30
0.0
 10
175.5903157113108
 20
56.57019107799911
 30
0.0
 10
175.5903157113108
 20
57.08661089123806
 30
0.0
 10
175.5903157113108
 20
57.59820757079766
 30
0.0
 10
175.1458983937135
 20
57.78699880338935
 30
0.0
 10
174.6925238278546
 20
57.78699880338935
 30
0.0
 10
174.6925238278546
 20
57.78699880338935
 30
0.0
 10
174.3332003687431
 20
57.78699880338935
 30
0.0
 10
174.3332003687431
 20
57.78699880338935
 30
0.0
 10
174.3332003687431
 20
57.78699880338935
 30
0.0
 10
174.3332003687431
 20
56.40861609974089
 30
0.0
 10
174.3332003687431
 20
56.40861609974089
 30
0.0
  0
HATCH
  5
97
330
6C
100
AcDbEntity
  8
_U+30EC_U+30A4_U+30E4_U+30FC 1
 62
     7
100
AcDbHatch
 10
0.0
 20
0.0
 30
0.0
210
0.0
220
0.0
230
1.0
  2
SOLID
 70
     1
 71
     0
 91
        3
 92
        1
 93
        1
 72
     4
 94
        3
 73
     0
 74
     1
 95
       35
 96
       31
 40
0.0
 40
0.0
 40
0.0
 40
0.0
 40
1.0
 40
1.0
 40
1.0
 40
2.0
 40
2.0
 40
2.0
 40
3.0
 40
3.0
 40
3.0
 40
4.0
 40
4.0
 40
4.0
 40
5.0
 40
5.0
 40
5.0
 40
6.0
 40
6.0
 40
6.0
 40
7.0
 40
7.0
 40
7.0
 40
8.0
 40
8.0
 40
8.0
 40
9.0
 40
9.0
 40
9.0
 40
10.0
 40
10.0
 40
10.0
 40
10.0
 10
175.276123003056
 20
57.94857378164757
 10
175.5992729595724
 20
57.87209266187502
 10
175.9809895393381
 20
57.60268619492849
 10
175.9809895393381
 20
57.08661089123806
 10
175.9809895393381
 20
56.78137543124492
 10
175.8642008023881
 20
56.56571245386829
 10
175.7071044482607
 20
56.41309472387172
 10
175.4780055984916
 20
56.18881900778195
 10
175.1100694006669
 20
56.08994476735528
 10
174.593649587428
 20
56.08994476735528
 10
174.310807248089
 20
56.08994476735528
 10
174.0999674043917
 20
56.11233788800941
 10
173.9607855467876
 20
56.12577376040188
 10
173.9607855467876
 20
56.12577376040188
 10
173.9607855467876
 20
59.48818695400572
 10
173.9607855467876
 20
59.48818695400572
 10
174.1492322698307
 20
59.52883908073167
 10
174.4186387367773
 20
59.56018944964744
 10
174.6970024519855
 20
59.56018944964744
 10
175.1190266489286
 20
59.56018944964744
 10
175.3973903641368
 20
59.47922970574407
 10
175.5992729595724
 20
59.30869747922421
 10
175.7608479378306
 20
59.16951562162011
 10
175.8552435541265
 20
58.97211165031529
 10
175.8552435541265
 20
58.71614105576123
 10
175.8552435541265
 20
58.37955522685233
 10
175.6261447043574
 20
58.08775563925166
 10
175.276123003056
 20
57.96200965404005
 10
175.276123003056
 20
57.96200965404005
 10
175.276123003056
 20
57.94857378164757
 10
175.276123003056
 20
57.94857378164757
 97
        0
 92
        1
 93
        1
 72
     4
 94
        3
 73
     0
 74
     1
 95
       23
 96
       19
 40
0.0
 40
0.0
 40
0.0
 40
0.0
 40
1.0
 40
1.0
 40
1.0
 40
2.0
 40
2.0
 40
2.0
 40
3.0
 40
3.0
 40
3.0
 40
4.0
 40
4.0
 40
4.0
 40
5.0
 40
5.0
 40
5.0
 40
6.0
 40
6.0
 40
6.0
 40
6.0
 10
174.7328314450321
 20
58.07431976685919
 10
175.186206010891
 20
58.07431976685919
 10
175.4780055984916
 20
58.33442447599555
 10
175.4780055984916
 20
58.68479068684546
 10
175.4780055984916
 20
58.68479068684546
 10
175.4780055984916
 20
58.68926931097629
 10
175.4780055984916
 20
58.68926931097629
 10
175.4780055984916
 20
59.09337901139609
 10
175.1817273867601
 20
59.26838986204678
 10
174.7149169485088
 20
59.26838986204678
 10
174.5175129772039
 20
59.26838986204678
 10
174.400724240254
 20
59.2549539896543
 10
174.3332003687431
 20
59.23703949313101
 10
174.3332003687431
 20
59.23703949313101
 10
174.3332003687431
 20
58.07431976685919
 10
174.3332003687431
 20
58.07431976685919
 10
174.3332003687431
 20
58.07431976685919
 10
174.7328314450321
 20
58.07431976685919
 10
174.7328314450321
 20
58.07431976685919
 97
        0
 92
        1
 93
        1
 72
     4
 94
        3
 73
     0
 74
     1
 95
       20
 96
       16
 40
0.0
 40
0.0
 40
0.0
 40
0.0
 40
1.0
 40
1.0
 40
1.0
 40
2.0
 40
2.0
 40
2.0
 40
3.0
 40
3.0
 40
3.0
 40
4.0
 40
4.0
 40
4.0
 40
5.0
 40
5.0
 40
5.0
 40
5.0
 10
174.3332003687431
 20
56.40861609974089
 10
174.4186387367773
 20
56.39070160321759
 10
174.5399060978581
 20
56.38622297908677
 10
174.6970024519855
 20
56.38622297908677
 10
175.1682915143677
 20
56.38622297908677
 10
175.5903157113108
 20
56.57019107799911
 10
175.5903157113108
 20
57.08661089123806
 10
175.5903157113108
 20
57.59820757079766
 10
175.1458983937135
 20
57.78699880338935
 10
174.6925238278546
 20
57.78699880338935
 10
174.6925238278546
 20
57.78699880338935
 10
174.3332003687431
 20
57.78699880338935
 10
174.3332003687431
 20
57.78699880338935
 10
174.3332003687431
 20
57.78699880338935
 10
174.3332003687431
 20
56.40861609974089
 10
174.3332003687431
 20
56.40861609974089
 97
        0
 75
     2
 76
     1
 98
        0
  0
POLYLINE
  5
98
330
6C
100
AcDbEntity
  8
_U+30EC_U+30A4_U+30E4_U+30FC 1
370
     0
100
AcDb2dPolyline
 66
     1
 10
0.0
 20
0.0
 30
0.0
  0
VERTEX
  5
99
330
98
100
AcDbEntity
  8
_U+30EC_U+30A4_U+30E4_U+30FC 1
370
     0
100
AcDbVertex
100
AcDb2dVertex
 10
176.3344563361247
 20
57.62990244926196
 30
0.0
  0
VERTEX
  5
9A
330
98
100
AcDbEntity
  8
_U+30EC_U+30A4_U+30E4_U+30FC 1
370
     0
100
AcDbVertex
100
AcDb2dVertex
 10
177.5602213097766
 20
57.62990244926196
 30
0.0
  0
VERTEX
  5
9B
330
98
100
AcDbEntity
  8
_U+30EC_U+30A4_U+30E4_U+30FC 1
370
     0
100
AcDbVertex
100
AcDb2dVertex
 10
177.5602213097766
 20
57.34258148579212
 30
0.0
  0
VERTEX
  5
9C
330
98
100
AcDbEntity
  8
_U+30EC_U+30A4_U+30E4_U+30FC 1
370
     0
100
AcDbVertex
100
AcDb2dVertex
 10
176.3344563361247
 20
57.34258148579212
 30
0.0
  0
VERTEX
  5
9D
330
98
100
AcDbEntity
  8
_U+30EC_U+30A4_U+30E4_U+30FC 1
370
     0
100
AcDbVertex
100
AcDb2dVertex
 10
176.3344563361247
 20
57.62990244926196
 30
0.0
  0
SEQEND
  5
9E
330
98
100
AcDbEntity
  8
_U+30EC_U+30A4_U+30E4_U+30FC 1
370
     0
  0
HATCH
  5
9F
330
6C
100
AcDbEntity
  8
_U+30EC_U+30A4_U+30E4_U+30FC 1
 62
     7
100
AcDbHatch
 10
0.0
 20
0.0
 30
0.0
210
0.0
220
0.0
230
1.0
  2
SOLID
 70
     1
 71
     0
 91
        1
 92
        1
 93
        4
 72
     1
 10
176.3344563361247
 20
57.62990244926196
 11
177.5602213097766
 21
57.62990244926196
 72
     1
 10
177.5602213097766
 20
57.62990244926196
 11
177.5602213097766
 21
57.34258148579212
 72
     1
 10
177.5602213097766
 20
57.34258148579212
 11
176.3344563361247
 21
57.34258148579212
 72
     1
 10
176.3344563361247
 20
57.34258148579212
 11
176.3344563361247
 21
57.62990244926196
 97
        0
 75
     2
 76
     1
 98
        0
  0
POLYLINE
  5
A0
330
6C
100
AcDbEntity
  8
_U+30EC_U+30A4_U+30E4_U+30FC 1
370
     0
100
AcDb2dPolyline
 66
     1
 10
0.0
 20
0.0
 30
0.0
  0
VERTEX
  5
A1
330
A0
100
AcDbEntity
  8
_U+30EC_U+30A4_U+30E4_U+30FC 1
370
     0
100
AcDbVertex
100
AcDb2dVertex
 10
178.8790038615303
 20
56.11681651214023
 30
0.0
  0
VERTEX
  5
A2
330
A0
100
AcDbEntity
  8
_U+30EC_U+30A4_U+30E4_U+30FC 1
370
     0
100
AcDbVertex
100
AcDb2dVertex
 10
178.8790038615303
 20
59.12920800444269
 30
0.0
  0
VERTEX
  5
A3
330
A0
100
AcDbEntity
  8
_U+30EC_U+30A4_U+30E4_U+30FC 1
370
     0
100
AcDbVertex
100
AcDb2dVertex
 10
178.8700466132686
 20
59.12920800444269
 30
0.0
  0
VERTEX
  5
A4
330
A0
100
AcDbEntity
  8
_U+30EC_U+30A4_U+30E4_U+30FC 1
370
     0
100
AcDbVertex
100
AcDb2dVertex
 10
178.3177978069831
 20
58.81053667205708
 30
0.0
  0
VERTEX
  5
A5
330
A0
100
AcDbEntity
  8
_U+30EC_U+30A4_U+30E4_U+30FC 1
370
     0
100
AcDbVertex
100
AcDb2dVertex
 10
178.2282253243666
 20
59.08890038726526
 30
0.0
  0
VERTEX
  5
A6
330
A0
100
AcDbEntity
  8
_U+30EC_U+30A4_U+30E4_U+30FC 1
370
     0
100
AcDbVertex
100
AcDb2dVertex
 10
178.9237901028385
 20
59.47922970574407
 30
0.0
  0
VERTEX
  5
A7
330
A0
100
AcDbEntity
  8
_U+30EC_U+30A4_U+30E4_U+30FC 1
370
     0
100
AcDbVertex
100
AcDb2dVertex
 10
179.2428059447726
 20
59.47922970574407
 30
0.0
  0
VERTEX
  5
A8
330
A0
100
AcDbEntity
  8
_U+30EC_U+30A4_U+30E4_U+30FC 1
370
     0
100
AcDbVertex
100
AcDb2dVertex
 10
179.2428059447726
 20
56.11681651214023
 30
0.0
  0
VERTEX
  5
A9
330
A0
100
AcDbEntity
  8
_U+30EC_U+30A4_U+30E4_U+30FC 1
370
     0
100
AcDbVertex
100
AcDb2dVertex
 10
178.8790038615303
 20
56.11681651214023
 30
0.0
  0
SEQEND
  5
AA
330
A0
100
AcDbEntity
  8
_U+30EC_U+30A4_U+30E4_U+30FC 1
370
     0
  0
HATCH
  5
AB
330
6C
100
AcDbEntity
  8
_U+30EC_U+30A4_U+30E4_U+30FC 1
 62
     7
100
AcDbHatch
 10
0.0
 20
0.0
 30
0.0
210
0.0
220
0.0
230
1.0
  2
SOLID
 70
     1
 71
     0
 91
        1
 92
        1
 93
        8
 72
     1
 10
178.8790038615303
 20
56.11681651214023
 11
178.8790038615303
 21
59.12920800444269
 72
     1
 10
178.8790038615303
 20
59.12920800444269
 11
178.8700466132686
 21
59.12920800444269
 72
     1
 10
178.8700466132686
 20
59.12920800444269
 11
178.3177978069831
 21
58.81053667205708
 72
     1
 10
178.3177978069831
 20
58.81053667205708
 11
178.2282253243666
 21
59.08890038726526
 72
     1
 10
178.2282253243666
 20
59.08890038726526
 11
178.9237901028385
 21
59.47922970574407
 72
     1
 10
178.9237901028385
 20
59.47922970574407
 11
179.2428059447726
 21
59.47922970574407
 72
     1
 10
179.2428059447726
 20
59.47922970574407
 11
179.2428059447726
 21
56.11681651214023
 72
     1
 10
179.2428059447726
 20
56.11681651214023
 11
178.8790038615303
 21
56.11681651214023
 97
        0
 75
     2
 76
     1
 98
        0
  0
SPLINE
  5
AC
330
6C
100
AcDbEntity
  8
_U+30EC_U+30A4_U+30E4_U+30FC 1
370
     0
100
AcDbSpline
210
0.0
220
0.0
230
1.0
 70
    11
 71
     3
 72
    47
 73
    43
 74
     0
 42
0.0000000001
 43
0.0000000001
 12
1.0
 22
0.0
 32
0.0
 13
1.0
 23
0.0
 33
0.0
 40
0.0
 40
0.0
 40
0.0
 40
0.0
 40
1.0
 40
1.0
 40
1.0
 40
2.0
 40
2.0
 40
2.0
 40
3.0
 40
3.0
 40
3.0
 40
4.0
 40
4.0
 40
4.0
 40
5.0
 40
5.0
 40
5.0
 40
6.0
 40
6.0
 40
6.0
 40
7.0
 40
7.0
 40
7.0
 40
8.0
 40
8.0
 40
8.0
 40
9.0
 40
9.0
 40
9.0
 40
10.0
 40
10.0
 40
10.0
 40
11.0
 40
11.0
 40
11.0
 40
12.0
 40
12.0
 40
12.0
 40
13.0
 40
13.0
 40
13.0
 40
14.0
 40
14.0
 40
14.0
 40
14.0
 10
182.2720784049528
 20
59.47922970574407
 30
0.0
 10
182.2720784049528
 20
59.47922970574407
 30
0.0
 10
182.2720784049528
 20
59.16951562162011
 30
0.0
 10
182.2720784049528
 20
59.16951562162011
 30
0.0
 10
182.2720784049528
 20
59.16951562162011
 30
0.0
 10
181.0642279278242
 20
59.16951562162011
 30
0.0
 10
181.0642279278242
 20
59.16951562162011
 30
0.0
 10
181.0642279278242
 20
59.16951562162011
 30
0.0
 10
180.9250460702201
 20
58.2179802485941
 30
0.0
 10
180.9250460702201
 20
58.2179802485941
 30
0.0
 10
180.9970485658619
 20
58.22693749685575
 30
0.0
 10
181.068706551955
 20
58.23589474511741
 30
0.0
 10
181.185495288905
 20
58.23589474511741
 30
0.0
 10
181.7825303364988
 20
58.23589474511741
 30
0.0
 10
182.3168646462611
 20
57.88104991013667
 30
0.0
 10
182.3168646462611
 20
57.20339962818803
 30
0.0
 10
182.3168646462611
 20
56.53884070908333
 30
0.0
 10
181.8228379536762
 20
56.06307302257033
 30
0.0
 10
181.1586235441201
 20
56.06307302257033
 30
0.0
 10
180.8216932056627
 20
56.06307302257033
 30
0.0
 10
180.5388508663236
 20
56.16160275344848
 30
0.0
 10
180.3862331363271
 20
56.26047699387514
 30
0.0
 10
180.3862331363271
 20
56.26047699387514
 30
0.0
 10
180.4940646250154
 20
56.55227658147581
 30
0.0
 10
180.4940646250154
 20
56.55227658147581
 30
0.0
 10
180.619810610227
 20
56.46683821344161
 30
0.0
 10
180.8668239565194
 20
56.36382985843264
 30
0.0
 10
181.1586235441201
 20
56.36382985843264
 30
0.0
 10
181.5806477410632
 20
56.36382985843264
 30
0.0
 10
181.944105314757
 20
56.67354394255661
 30
0.0
 10
181.9396266906262
 20
57.15826887733125
 30
0.0
 10
181.9396266906262
 20
57.62060069145178
 30
0.0
 10
181.6433484788947
 20
57.94409515751674
 30
0.0
 10
181.0149630623852
 20
57.94409515751674
 30
0.0
 10
180.8354735876036
 20
57.94409515751674
 30
0.0
 10
180.6962917299996
 20
57.93065928512427
 30
0.0
 10
180.5839816171804
 20
57.91274478860097
 30
0.0
 10
180.5839816171804
 20
57.91274478860097
 30
0.0
 10
180.7948214608777
 20
59.47922970574407
 30
0.0
 10
180.7948214608777
 20
59.47922970574407
 30
0.0
 10
180.7948214608777
 20
59.47922970574407
 30
0.0
 10
182.2720784049528
 20
59.47922970574407
 30
0.0
 10
182.2720784049528
 20
59.47922970574407
 30
0.0
  0
HATCH
  5
AD
330
6C
100
AcDbEntity
  8
_U+30EC_U+30A4_U+30E4_U+30FC 1
 62
     7
100
AcDbHatch
 10
0.0
 20
0.0
 30
0.0
210
0.0
220
0.0
230
1.0
  2
SOLID
 70
     1
 71
     0
 91
        1
 92
        1
 93
        1
 72
     4
 94
        3
 73
     0
 74
     1
 95
       47
 96
       43
 40
0.0
 40
0.0
 40
0.0
 40
0.0
 40
1.0
 40
1.0
 40
1.0
 40
2.0
 40
2.0
 40
2.0
 40
3.0
 40
3.0
 40
3.0
 40
4.0
 40
4.0
 40
4.0
 40
5.0
 40
5.0
 40
5.0
 40
6.0
 40
6.0
 40
6.0
 40
7.0
 40
7.0
 40
7.0
 40
8.0
 40
8.0
 40
8.0
 40
9.0
 40
9.0
 40
9.0
 40
10.0
 40
10.0
 40
10.0
 40
11.0
 40
11.0
 40
11.0
 40
12.0
 40
12.0
 40
12.0
 40
13.0
 40
13.0
 40
13.0
 40
14.0
 40
14.0
 40
14.0
 40
14.0
 10
182.2720784049528
 20
59.47922970574407
 10
182.2720784049528
 20
59.47922970574407
 10
182.2720784049528
 20
59.16951562162011
 10
182.2720784049528
 20
59.16951562162011
 10
182.2720784049528
 20
59.16951562162011
 10
181.0642279278242
 20
59.16951562162011
 10
181.0642279278242
 20
59.16951562162011
 10
181.0642279278242
 20
59.16951562162011
 10
180.9250460702201
 20
58.2179802485941
 10
180.9250460702201
 20
58.2179802485941
 10
180.9970485658619
 20
58.22693749685575
 10
181.068706551955
 20
58.23589474511741
 10
181.185495288905
 20
58.23589474511741
 10
181.7825303364988
 20
58.23589474511741
 10
182.3168646462611
 20
57.88104991013667
 10
182.3168646462611
 20
57.20339962818803
 10
182.3168646462611
 20
56.53884070908333
 10
181.8228379536762
 20
56.06307302257033
 10
181.1586235441201
 20
56.06307302257033
 10
180.8216932056627
 20
56.06307302257033
 10
180.5388508663236
 20
56.16160275344848
 10
180.3862331363271
 20
56.26047699387514
 10
180.3862331363271
 20
56.26047699387514
 10
180.4940646250154
 20
56.55227658147581
 10
180.4940646250154
 20
56.55227658147581
 10
180.619810610227
 20
56.46683821344161
 10
180.8668239565194
 20
56.36382985843264
 10
181.1586235441201
 20
56.36382985843264
 10
181.5806477410632
 20
56.36382985843264
 10
181.944105314757
 20
56.67354394255661
 10
181.9396266906262
 20
57.15826887733125
 10
181.9396266906262
 20
57.62060069145178
 10
181.6433484788947
 20
57.94409515751674
 10
181.0149630623852
 20
57.94409515751674
 10
180.8354735876036
 20
57.94409515751674
 10
180.6962917299996
 20
57.93065928512427
 10
180.5839816171804
 20
57.91274478860097
 10
180.5839816171804
 20
57.91274478860097
 10
180.7948214608777
 20
59.47922970574407
 10
180.7948214608777
 20
59.47922970574407
 10
180.7948214608777
 20
59.47922970574407
 10
182.2720784049528
 20
59.47922970574407
 10
182.2720784049528
 20
59.47922970574407
 97
        0
 75
     2
 76
     1
 98
        0
  0
POLYLINE
  5
AE
330
6C
100
AcDbEntity
  8
_U+30EC_U+30A4_U+30E4_U+30FC 1
370
     0
100
AcDb2dPolyline
 66
     1
 10
0.0
 20
0.0
 30
0.0
  0
VERTEX
  5
AF
330
AE
100
AcDbEntity
  8
_U+30EC_U+30A4_U+30E4_U+30FC 1
370
     0
100
AcDbVertex
100
AcDb2dVertex
 10
170.3585937074104
 20
50.73178775914621
 30
0.0
  0
VERTEX
  5
B0
330
AE
100
AcDbEntity
  8
_U+30EC_U+30A4_U+30E4_U+30FC 1
370
     0
100
AcDbVertex
100
AcDb2dVertex
 10
169.9861788854548
 20
50.73178775914621
 30
0.0
  0
VERTEX
  5
B1
330
AE
100
AcDbEntity
  8
_U+30EC_U+30A4_U+30E4_U+30FC 1
370
     0
100
AcDbVertex
100
AcDb2dVertex
 10
169.9861788854548
 20
52.36579654780021
 30
0.0
  0
VERTEX
  5
B2
330
AE
100
AcDbEntity
  8
_U+30EC_U+30A4_U+30E4_U+30FC 1
370
     0
100
AcDbVertex
100
AcDb2dVertex
 10
168.3518255872523
 20
52.36579654780021
 30
0.0
  0
VERTEX
  5
B3
330
AE
100
AcDbEntity
  8
_U+30EC_U+30A4_U+30E4_U+30FC 1
370
     0
100
AcDbVertex
100
AcDb2dVertex
 10
168.3518255872523
 20
50.73178775914621
 30
0.0
  0
VERTEX
  5
B4
330
AE
100
AcDbEntity
  8
_U+30EC_U+30A4_U+30E4_U+30FC 1
370
     0
100
AcDbVertex
100
AcDb2dVertex
 10
167.9794107652968
 20
50.73178775914621
 30
0.0
  0
VERTEX
  5
B5
330
AE
100
AcDbEntity
  8
_U+30EC_U+30A4_U+30E4_U+30FC 1
370
     0
100
AcDbVertex
100
AcDb2dVertex
 10
167.9794107652968
 20
54.14828895186847
 30
0.0
  0
VERTEX
  5
B6
330
AE
100
AcDbEntity
  8
_U+30EC_U+30A4_U+30E4_U+30FC 1
370
     0
100
AcDbVertex
100
AcDb2dVertex
 10
168.3518255872523
 20
54.14828895186847
 30
0.0
  0
VERTEX
  5
B7
330
AE
100
AcDbEntity
  8
_U+30EC_U+30A4_U+30E4_U+30FC 1
370
     0
100
AcDbVertex
100
AcDb2dVertex
 10
168.3518255872523
 20
52.68929101386517
 30
0.0
  0
VERTEX
  5
B8
330
AE
100
AcDbEntity
  8
_U+30EC_U+30A4_U+30E4_U+30FC 1
370
     0
100
AcDbVertex
100
AcDb2dVertex
 10
169.9861788854548
 20
52.68929101386517
 30
0.0
  0
VERTEX
  5
B9
330
AE
100
AcDbEntity
  8
_U+30EC_U+30A4_U+30E4_U+30FC 1
370
     0
100
AcDbVertex
100
AcDb2dVertex
 10
169.9861788854548
 20
54.14828895186847
 30
0.0
  0
VERTEX
  5
BA
330
AE
100
AcDbEntity
  8
_U+30EC_U+30A4_U+30E4_U+30FC 1
370
     0
100
AcDbVertex
100
AcDb2dVertex
 10
170.3585937074104
 20
54.14828895186847
 30
0.0
  0
VERTEX
  5
BB
330
AE
100
AcDbEntity
  8
_U+30EC_U+30A4_U+30E4_U+30FC 1
370
     0
100
AcDbVertex
100
AcDb2dVertex
 10
170.3585937074104
 20
50.73178775914621
 30
0.0
  0
SEQEND
  5
BC
330
AE
100
AcDbEntity
  8
_U+30EC_U+30A4_U+30E4_U+30FC 1
370
     0
  0
HATCH
  5
BD
330
6C
100
AcDbEntity
  8
_U+30EC_U+30A4_U+30E4_U+30FC 1
 62
     7
100
AcDbHatch
 10
0.0
 20
0.0
 30
0.0
210
0.0
220
0.0
230
1.0
  2
SOLID
 70
     1
 71
     0
 91
        1
 92
        1
 93
       12
 72
     1
 10
170.3585937074104
 20
50.73178775914621
 11
169.9861788854548
 21
50.73178775914621
 72
     1
 10
169.9861788854548
 20
50.73178775914621
 11
169.9861788854548
 21
52.36579654780021
 72
     1
 10
169.9861788854548
 20
52.36579654780021
 11
168.3518255872523
 21
52.36579654780021
 72
     1
 10
168.3518255872523
 20
52.36579654780021
 11
168.3518255872523
 21
50.73178775914621
 72
     1
 10
168.3518255872523
 20
50.73178775914621
 11
167.9794107652968
 21
50.73178775914621
 72
     1
 10
167.9794107652968
 20
50.73178775914621
 11
167.9794107652968
 21
54.14828895186847
 72
     1
 10
167.9794107652968
 20
54.14828895186847
 11
168.3518255872523
 21
54.14828895186847
 72
     1
 10
168.3518255872523
 20
54.14828895186847
 11
168.3518255872523
 21
52.68929101386517
 72
     1
 10
168.3518255872523
 20
52.68929101386517
 11
169.9861788854548
 21
52.68929101386517
 72
     1
 10
169.9861788854548
 20
52.68929101386517
 11
169.9861788854548
 21
54.14828895186847
 72
     1
 10
169.9861788854548
 20
54.14828895186847
 11
170.3585937074104
 21
54.14828895186847
 72
     1
 10
170.3585937074104
 20
54.14828895186847
 11
170.3585937074104
 21
50.73178775914621
 97
        0
 75
     2
 76
     1
 98
        0
  0
SPLINE
  5
BE
330
6C
100
AcDbEntity
  8
_U+30EC_U+30A4_U+30E4_U+30FC 1
370
     0
100
AcDbSpline
210
0.0
220
0.0
230
1.0
 70
    11
 71
     3
 72
    23
 73
    19
 74
     0
 42
0.0000000001
 43
0.0000000001
 12
1.0
 22
0.0
 32
0.0
 13
1.0
 23
0.0
 33
0.0
 40
0.0
 40
0.0
 40
0.0
 40
0.0
 40
1.0
 40
1.0
 40
1.0
 40
2.0
 40
2.0
 40
2.0
 40
3.0
 40
3.0
 40
3.0
 40
4.0
 40
4.0
 40
4.0
 40
5.0
 40
5.0
 40
5.0
 40
6.0
 40
6.0
 40
6.0
 40
6.0
 10
171.1206488287476
 20
54.10798133469105
 30
0.0
 10
171.3717962896223
 20
54.14828895186847
 30
0.0
 10
171.663595877223
 20
54.17963932078425
 30
0.0
 10
171.9826117191571
 20
54.17963932078425
 30
0.0
 10
173.3561712891263
 20
54.17963932078425
 30
0.0
 10
173.7513237412844
 20
53.36694129581381
 30
0.0
 10
173.7513237412844
 20
52.52737152605842
 30
0.0
 10
173.7513237412844
 20
51.98442447758305
 30
0.0
 10
173.6076632595495
 20
51.52209266346252
 30
0.0
 10
173.284513303033
 20
51.18516232500509
 30
0.0
 10
172.9837564671707
 20
50.87544824088113
 30
0.0
 10
172.4852511504551
 20
50.70491601436126
 30
0.0
 10
171.8613443580763
 20
50.70491601436126
 30
0.0
 10
171.5785020187373
 20
50.70491601436126
 30
0.0
 10
171.3359672965757
 20
50.71387326262291
 30
0.0
 10
171.1206488287476
 20
50.74074500740786
 30
0.0
 10
171.1206488287476
 20
50.74074500740786
 30
0.0
 10
171.1206488287476
 20
54.10798133469105
 30
0.0
 10
171.1206488287476
 20
54.10798133469105
 30
0.0
  0
SPLINE
  5
BF
330
6C
100
AcDbEntity
  8
_U+30EC_U+30A4_U+30E4_U+30FC 1
370
     0
100
AcDbSpline
210
0.0
220
0.0
230
1.0
 70
    11
 71
     3
 72
    20
 73
    16
 74
     0
 42
0.0000000001
 43
0.0000000001
 12
1.0
 22
0.0
 32
0.0
 13
1.0
 23
0.0
 33
0.0
 40
0.0
 40
0.0
 40
0.0
 40
0.0
 40
1.0
 40
1.0
 40
1.0
 40
2.0
 40
2.0
 40
2.0
 40
3.0
 40
3.0
 40
3.0
 40
4.0
 40
4.0
 40
4.0
 40
5.0
 40
5.0
 40
5.0
 40
5.0
 10
171.4930636507031
 20
51.0280659708777
 30
0.0
 10
171.6053737635223
 20
51.01015147435439
 30
0.0
 10
171.7669487417805
 20
51.00567285022357
 30
0.0
 10
171.9285237200387
 20
51.00567285022357
 30
0.0
 10
172.8535318578283
 20
51.00567285022357
 30
0.0
 10
173.3606499132571
 20
51.53104991172417
 30
0.0
 10
173.3606499132571
 20
52.50945702953513
 30
0.0
 10
173.3606499132571
 20
53.39863617427811
 30
0.0
 10
172.8848822267441
 20
53.87888248492194
 30
0.0
 10
171.9960475915496
 20
53.87888248492194
 30
0.0
 10
171.780384614173
 20
53.87888248492194
 30
0.0
 10
171.6098523876531
 20
53.85648936426781
 30
0.0
 10
171.4930636507031
 20
53.83409624361369
 30
0.0
 10
171.4930636507031
 20
53.83409624361369
 30
0.0
 10
171.4930636507031
 20
51.0280659708777
 30
0.0
 10
171.4930636507031
 20
51.0280659708777
 30
0.0
  0
HATCH
  5
C0
330
6C
100
AcDbEntity
  8
_U+30EC_U+30A4_U+30E4_U+30FC 1
 62
     7
100
AcDbHatch
 10
0.0
 20
0.0
 30
0.0
210
0.0
220
0.0
230
1.0
  2
SOLID
 70
     1
 71
     0
 91
        2
 92
        1
 93
        1
 72
     4
 94
        3
 73
     0
 74
     1
 95
       23
 96
       19
 40
0.0
 40
0.0
 40
0.0
 40
0.0
 40
1.0
 40
1.0
 40
1.0
 40
2.0
 40
2.0
 40
2.0
 40
3.0
 40
3.0
 40
3.0
 40
4.0
 40
4.0
 40
4.0
 40
5.0
 40
5.0
 40
5.0
 40
6.0
 40
6.0
 40
6.0
 40
6.0
 10
171.1206488287476
 20
54.10798133469105
 10
171.3717962896223
 20
54.14828895186847
 10
171.663595877223
 20
54.17963932078425
 10
171.9826117191571
 20
54.17963932078425
 10
173.3561712891263
 20
54.17963932078425
 10
173.7513237412844
 20
53.36694129581381
 10
173.7513237412844
 20
52.52737152605842
 10
173.7513237412844
 20
51.98442447758305
 10
173.6076632595495
 20
51.52209266346252
 10
173.284513303033
 20
51.18516232500509
 10
172.9837564671707
 20
50.87544824088113
 10
172.4852511504551
 20
50.70491601436126
 10
171.8613443580763
 20
50.70491601436126
 10
171.5785020187373
 20
50.70491601436126
 10
171.3359672965757
 20
50.71387326262291
 10
171.1206488287476
 20
50.74074500740786
 10
171.1206488287476
 20
50.74074500740786
 10
171.1206488287476
 20
54.10798133469105
 10
171.1206488287476
 20
54.10798133469105
 97
        0
 92
        1
 93
        1
 72
     4
 94
        3
 73
     0
 74
     1
 95
       20
 96
       16
 40
0.0
 40
0.0
 40
0.0
 40
0.0
 40
1.0
 40
1.0
 40
1.0
 40
2.0
 40
2.0
 40
2.0
 40
3.0
 40
3.0
 40
3.0
 40
4.0
 40
4.0
 40
4.0
 40
5.0
 40
5.0
 40
5.0
 40
5.0
 10
171.4930636507031
 20
51.0280659708777
 10
171.6053737635223
 20
51.01015147435439
 10
171.7669487417805
 20
51.00567285022357
 10
171.9285237200387
 20
51.00567285022357
 10
172.8535318578283
 20
51.00567285022357
 10
173.3606499132571
 20
51.53104991172417
 10
173.3606499132571
 20
52.50945702953513
 10
173.3606499132571
 20
53.39863617427811
 10
172.8848822267441
 20
53.87888248492194
 10
171.9960475915496
 20
53.87888248492194
 10
171.780384614173
 20
53.87888248492194
 10
171.6098523876531
 20
53.85648936426781
 10
171.4930636507031
 20
53.83409624361369
 10
171.4930636507031
 20
53.83409624361369
 10
171.4930636507031
 20
51.0280659708777
 10
171.4930636507031
 20
51.0280659708777
 97
        0
 75
     2
 76
     1
 98
        0
  0
SPLINE
  5
C1
330
6C
100
AcDbEntity
  8
_U+30EC_U+30A4_U+30E4_U+30FC 1
370
     0
100
AcDbSpline
210
0.0
220
0.0
230
1.0
 70
    11
 71
     3
 72
    35
 73
    31
 74
     0
 42
0.0000000001
 43
0.0000000001
 12
1.0
 22
0.0
 32
0.0
 13
1.0
 23
0.0
 33
0.0
 40
0.0
 40
0.0
 40
0.0
 40
0.0
 40
1.0
 40
1.0
 40
1.0
 40
2.0
 40
2.0
 40
2.0
 40
3.0
 40
3.0
 40
3.0
 40
4.0
 40
4.0
 40
4.0
 40
5.0
 40
5.0
 40
5.0
 40
6.0
 40
6.0
 40
6.0
 40
7.0
 40
7.0
 40
7.0
 40
8.0
 40
8.0
 40
8.0
 40
9.0
 40
9.0
 40
9.0
 40
10.0
 40
10.0
 40
10.0
 40
10.0
 10
176.5601100904086
 20
50.8351406237037
 30
0.0
 10
176.4030137362812
 20
50.75865950393116
 30
0.0
 10
176.0977782762881
 20
50.68252289370714
 30
0.0
 10
175.7071044482607
 20
50.68252289370714
 30
0.0
 10
174.8272270613279
 20
50.68252289370714
 30
0.0
 10
174.117881900915
 20
51.25268619651598
 30
0.0
 10
174.117881900915
 20
52.41092729865698
 30
0.0
 10
174.117881900915
 20
53.51508040167955
 30
0.0
 10
174.8048339406738
 20
54.20203244143837
 30
0.0
 10
175.8059786886874
 20
54.20203244143837
 30
0.0
 10
176.214567013238
 20
54.20203244143837
 30
0.0
 10
176.4526231112688
 20
54.1169385829527
 30
0.0
 10
176.5601100904086
 20
54.06285058383428
 30
0.0
 10
176.5601100904086
 20
54.06285058383428
 30
0.0
 10
176.4615803595304
 20
53.74865787557949
 30
0.0
 10
176.4615803595304
 20
53.74865787557949
 30
0.0
 10
176.3044840054031
 20
53.82513899535203
 30
0.0
 10
176.0843424038956
 20
53.88783973318358
 30
0.0
 10
175.814935936949
 20
53.88783973318358
 30
0.0
 10
175.0384114145737
 20
53.88783973318358
 30
0.0
 10
174.5085557289423
 20
53.36694129581381
 30
0.0
 10
174.5085557289423
 20
52.42436317104946
 30
0.0
 10
174.5085557289423
 20
51.52657128759335
 30
0.0
 10
174.993280663717
 20
50.99671560196192
 30
0.0
 10
175.7925428162949
 20
50.99671560196192
 30
0.0
 10
176.0529920349798
 20
50.99671560196192
 30
0.0
 10
176.3089626295339
 20
51.05493771566265
 30
0.0
 10
176.4794948560537
 20
51.13589745956602
 30
0.0
 10
176.4794948560537
 20
51.13589745956602
 30
0.0
 10
176.5601100904086
 20
50.8351406237037
 30
0.0
 10
176.5601100904086
 20
50.8351406237037
 30
0.0
  0
HATCH
  5
C2
330
6C
100
AcDbEntity
  8
_U+30EC_U+30A4_U+30E4_U+30FC 1
 62
     7
100
AcDbHatch
 10
0.0
 20
0.0
 30
0.0
210
0.0
220
0.0
230
1.0
  2
SOLID
 70
     1
 71
     0
 91
        1
 92
        1
 93
        1
 72
     4
 94
        3
 73
     0
 74
     1
 95
       35
 96
       31
 40
0.0
 40
0.0
 40
0.0
 40
0.0
 40
1.0
 40
1.0
 40
1.0
 40
2.0
 40
2.0
 40
2.0
 40
3.0
 40
3.0
 40
3.0
 40
4.0
 40
4.0
 40
4.0
 40
5.0
 40
5.0
 40
5.0
 40
6.0
 40
6.0
 40
6.0
 40
7.0
 40
7.0
 40
7.0
 40
8.0
 40
8.0
 40
8.0
 40
9.0
 40
9.0
 40
9.0
 40
10.0
 40
10.0
 40
10.0
 40
10.0
 10
176.5601100904086
 20
50.8351406237037
 10
176.4030137362812
 20
50.75865950393116
 10
176.0977782762881
 20
50.68252289370714
 10
175.7071044482607
 20
50.68252289370714
 10
174.8272270613279
 20
50.68252289370714
 10
174.117881900915
 20
51.25268619651598
 10
174.117881900915
 20
52.41092729865698
 10
174.117881900915
 20
53.51508040167955
 10
174.8048339406738
 20
54.20203244143837
 10
175.8059786886874
 20
54.20203244143837
 10
176.214567013238
 20
54.20203244143837
 10
176.4526231112688
 20
54.1169385829527
 10
176.5601100904086
 20
54.06285058383428
 10
176.5601100904086
 20
54.06285058383428
 10
176.4615803595304
 20
53.74865787557949
 10
176.4615803595304
 20
53.74865787557949
 10
176.3044840054031
 20
53.82513899535203
 10
176.0843424038956
 20
53.88783973318358
 10
175.814935936949
 20
53.88783973318358
 10
175.0384114145737
 20
53.88783973318358
 10
174.5085557289423
 20
53.36694129581381
 10
174.5085557289423
 20
52.42436317104946
 10
174.5085557289423
 20
51.52657128759335
 10
174.993280663717
 20
50.99671560196192
 10
175.7925428162949
 20
50.99671560196192
 10
176.0529920349798
 20
50.99671560196192
 10
176.3089626295339
 20
51.05493771566265
 10
176.4794948560537
 20
51.13589745956602
 10
176.4794948560537
 20
51.13589745956602
 10
176.5601100904086
 20
50.8351406237037
 10
176.5601100904086
 20
50.8351406237037
 97
        0
 75
     2
 76
     1
 98
        0
  0
POLYLINE
  5
C3
330
6C
100
AcDbEntity
  8
_U+30EC_U+30A4_U+30E4_U+30FC 1
370
     0
100
AcDb2dPolyline
 66
     1
 10
0.0
 20
0.0
 30
0.0
  0
VERTEX
  5
C4
330
C3
100
AcDbEntity
  8
_U+30EC_U+30A4_U+30E4_U+30FC 1
370
     0
100
AcDbVertex
100
AcDb2dVertex
 10
176.8729247604693
 20
52.24487369626794
 30
0.0
  0
VERTEX
  5
C5
330
C3
100
AcDbEntity
  8
_U+30EC_U+30A4_U+30E4_U+30FC 1
370
     0
100
AcDbVertex
100
AcDb2dVertex
 10
178.0986897341212
 20
52.24487369626794
 30
0.0
  0
VERTEX
  5
C6
330
C3
100
AcDbEntity
  8
_U+30EC_U+30A4_U+30E4_U+30FC 1
370
     0
100
AcDbVertex
100
AcDb2dVertex
 10
178.0986897341212
 20
51.9575527327981
 30
0.0
  0
VERTEX
  5
C7
330
C3
100
AcDbEntity
  8
_U+30EC_U+30A4_U+30E4_U+30FC 1
370
     0
100
AcDbVertex
100
AcDb2dVertex
 10
176.8729247604693
 20
51.9575527327981
 30
0.0
  0
VERTEX
  5
C8
330
C3
100
AcDbEntity
  8
_U+30EC_U+30A4_U+30E4_U+30FC 1
370
     0
100
AcDbVertex
100
AcDb2dVertex
 10
176.8729247604693
 20
52.24487369626794
 30
0.0
  0
SEQEND
  5
C9
330
C3
100
AcDbEntity
  8
_U+30EC_U+30A4_U+30E4_U+30FC 1
370
     0
  0
HATCH
  5
CA
330
6C
100
AcDbEntity
  8
_U+30EC_U+30A4_U+30E4_U+30FC 1
 62
     7
100
AcDbHatch
 10
0.0
 20
0.0
 30
0.0
210
0.0
220
0.0
230
1.0
  2
SOLID
 70
     1
 71
     0
 91
        1
 92
        1
 93
        4
 72
     1
 10
176.8729247604693
 20
52.24487369626794
 11
178.0986897341212
 21
52.24487369626794
 72
     1
 10
178.0986897341212
 20
52.24487369626794
 11
178.0986897341212
 21
51.9575527327981
 72
     1
 10
178.0986897341212
 20
51.9575527327981
 11
176.8729247604693
 21
51.9575527327981
 72
     1
 10
176.8729247604693
 20
51.9575527327981
 11
176.8729247604693
 21
52.24487369626794
 97
        0
 75
     2
 76
     1
 98
        0
  0
POLYLINE
  5
CB
330
6C
100
AcDbEntity
  8
_U+30EC_U+30A4_U+30E4_U+30FC 1
370
     0
100
AcDb2dPolyline
 66
     1
 10
0.0
 20
0.0
 30
0.0
  0
VERTEX
  5
CC
330
CB
100
AcDbEntity
  8
_U+30EC_U+30A4_U+30E4_U+30FC 1
370
     0
100
AcDbVertex
100
AcDb2dVertex
 10
181.0111734573514
 20
50.73178775914621
 30
0.0
  0
VERTEX
  5
CD
330
CB
100
AcDbEntity
  8
_U+30EC_U+30A4_U+30E4_U+30FC 1
370
     0
100
AcDbVertex
100
AcDb2dVertex
 10
180.6387586353959
 20
50.73178775914621
 30
0.0
  0
VERTEX
  5
CE
330
CB
100
AcDbEntity
  8
_U+30EC_U+30A4_U+30E4_U+30FC 1
370
     0
100
AcDbVertex
100
AcDb2dVertex
 10
180.6387586353959
 20
52.36579654780021
 30
0.0
  0
VERTEX
  5
CF
330
CB
100
AcDbEntity
  8
_U+30EC_U+30A4_U+30E4_U+30FC 1
370
     0
100
AcDbVertex
100
AcDb2dVertex
 10
179.0044053371934
 20
52.36579654780021
 30
0.0
  0
VERTEX
  5
D0
330
CB
100
AcDbEntity
  8
_U+30EC_U+30A4_U+30E4_U+30FC 1
370
     0
100
AcDbVertex
100
AcDb2dVertex
 10
179.0044053371934
 20
50.73178775914621
 30
0.0
  0
VERTEX
  5
D1
330
CB
100
AcDbEntity
  8
_U+30EC_U+30A4_U+30E4_U+30FC 1
370
     0
100
AcDbVertex
100
AcDb2dVertex
 10
178.6319905152378
 20
50.73178775914621
 30
0.0
  0
VERTEX
  5
D2
330
CB
100
AcDbEntity
  8
_U+30EC_U+30A4_U+30E4_U+30FC 1
370
     0
100
AcDbVertex
100
AcDb2dVertex
 10
178.6319905152378
 20
54.14828895186847
 30
0.0
  0
VERTEX
  5
D3
330
CB
100
AcDbEntity
  8
_U+30EC_U+30A4_U+30E4_U+30FC 1
370
     0
100
AcDbVertex
100
AcDb2dVertex
 10
179.0044053371934
 20
54.14828895186847
 30
0.0
  0
VERTEX
  5
D4
330
CB
100
AcDbEntity
  8
_U+30EC_U+30A4_U+30E4_U+30FC 1
370
     0
100
AcDbVertex
100
AcDb2dVertex
 10
179.0044053371934
 20
52.68929101386517
 30
0.0
  0
VERTEX
  5
D5
330
CB
100
AcDbEntity
  8
_U+30EC_U+30A4_U+30E4_U+30FC 1
370
     0
100
AcDbVertex
100
AcDb2dVertex
 10
180.6387586353959
 20
52.68929101386517
 30
0.0
  0
VERTEX
  5
D6
330
CB
100
AcDbEntity
  8
_U+30EC_U+30A4_U+30E4_U+30FC 1
370
     0
100
AcDbVertex
100
AcDb2dVertex
 10
180.6387586353959
 20
54.14828895186847
 30
0.0
  0
VERTEX
  5
D7
330
CB
100
AcDbEntity
  8
_U+30EC_U+30A4_U+30E4_U+30FC 1
370
     0
100
AcDbVertex
100
AcDb2dVertex
 10
181.0111734573514
 20
54.14828895186847
 30
0.0
  0
VERTEX
  5
D8
330
CB
100
AcDbEntity
  8
_U+30EC_U+30A4_U+30E4_U+30FC 1
370
     0
100
AcDbVertex
100
AcDb2dVertex
 10
181.0111734573514
 20
50.73178775914621
 30
0.0
  0
SEQEND
  5
D9
330
CB
100
AcDbEntity
  8
_U+30EC_U+30A4_U+30E4_U+30FC 1
370
     0
  0
HATCH
  5
DA
330
6C
100
AcDbEntity
  8
_U+30EC_U+30A4_U+30E4_U+30FC 1
 62
     7
100
AcDbHatch
 10
0.0
 20
0.0
 30
0.0
210
0.0
220
0.0
230
1.0
  2
SOLID
 70
     1
 71
     0
 91
        1
 92
        1
 93
       12
 72
     1
 10
181.0111734573514
 20
50.73178775914621
 11
180.6387586353959
 21
50.73178775914621
 72
     1
 10
180.6387586353959
 20
50.73178775914621
 11
180.6387586353959
 21
52.36579654780021
 72
     1
 10
180.6387586353959
 20
52.36579654780021
 11
179.0044053371934
 21
52.36579654780021
 72
     1
 10
179.0044053371934
 20
52.36579654780021
 11
179.0044053371934
 21
50.73178775914621
 72
     1
 10
179.0044053371934
 20
50.73178775914621
 11
178.6319905152378
 21
50.73178775914621
 72
     1
 10
178.6319905152378
 20
50.73178775914621
 11
178.6319905152378
 21
54.14828895186847
 72
     1
 10
178.6319905152378
 20
54.14828895186847
 11
179.0044053371934
 21
54.14828895186847
 72
     1
 10
179.0044053371934
 20
54.14828895186847
 11
179.0044053371934
 21
52.68929101386517
 72
     1
 10
179.0044053371934
 20
52.68929101386517
 11
180.6387586353959
 21
52.68929101386517
 72
     1
 10
180.6387586353959
 20
52.68929101386517
 11
180.6387586353959
 21
54.14828895186847
 72
     1
 10
180.6387586353959
 20
54.14828895186847
 11
181.0111734573514
 21
54.14828895186847
 72
     1
 10
181.0111734573514
 20
54.14828895186847
 11
181.0111734573514
 21
50.73178775914621
 97
        0
 75
     2
 76
     1
 98
        0
  0
SPLINE
  5
DB
330
6C
100
AcDbEntity
  8
_U+30EC_U+30A4_U+30E4_U+30FC 1
370
     0
100
AcDbSpline
210
0.0
220
0.0
230
1.0
 70
    11
 71
     3
 72
    17
 73
    13
 74
     0
 42
0.0000000001
 43
0.0000000001
 12
1.0
 22
0.0
 32
0.0
 13
1.0
 23
0.0
 33
0.0
 40
0.0
 40
0.0
 40
0.0
 40
0.0
 40
1.0
 40
1.0
 40
1.0
 40
2.0
 40
2.0
 40
2.0
 40
3.0
 40
3.0
 40
3.0
 40
4.0
 40
4.0
 40
4.0
 40
4.0
 10
181.5710014737045
 20
52.40197005039533
 30
0.0
 10
181.5710014737045
 20
53.57812564905962
 30
0.0
 10
182.0288546636942
 20
54.14828895186847
 30
0.0
 10
182.6575845897523
 20
54.14828895186847
 30
0.0
 10
183.2949272545235
 20
54.14828895186847
 30
0.0
 10
183.6856010825508
 20
53.54677528014385
 30
0.0
 10
183.6856010825508
 20
52.44675629170358
 30
0.0
 10
183.6856010825508
 20
51.27955794130094
 30
0.0
 10
183.2770127580002
 20
50.67804426957631
 30
0.0
 10
182.6079752147647
 20
50.67804426957631
 30
0.0
 10
181.9975042947784
 20
50.67804426957631
 30
0.0
 10
181.5710014737045
 20
51.27955794130094
 30
0.0
 10
181.5710014737045
 20
52.40197005039533
 30
0.0
  0
SPLINE
  5
DC
330
6C
100
AcDbEntity
  8
_U+30EC_U+30A4_U+30E4_U+30FC 1
370
     0
100
AcDbSpline
210
0.0
220
0.0
230
1.0
 70
    11
 71
     3
 72
    17
 73
    13
 74
     0
 42
0.0000000001
 43
0.0000000001
 12
1.0
 22
0.0
 32
0.0
 13
1.0
 23
0.0
 33
0.0
 40
0.0
 40
0.0
 40
0.0
 40
0.0
 40
1.0
 40
1.0
 40
1.0
 40
2.0
 40
2.0
 40
2.0
 40
3.0
 40
3.0
 40
3.0
 40
4.0
 40
4.0
 40
4.0
 40
4.0
 10
183.308363126916
 20
52.42884179518028
 30
0.0
 10
183.308363126916
 20
53.26841156493566
 30
0.0
 10
183.1064805314803
 20
53.84753211600616
 30
0.0
 10
182.6351914690981
 20
53.84753211600616
 30
0.0
 10
182.2355603928092
 20
53.84753211600616
 30
0.0
 10
181.9527180534702
 20
53.31319780624391
 30
0.0
 10
181.9527180534702
 20
52.42884179518028
 30
0.0
 10
181.9527180534702
 20
51.54448578411665
 30
0.0
 10
182.1997313997626
 20
50.98327972956945
 30
0.0
 10
182.6217555967057
 20
50.98327972956945
 30
0.0
 10
183.1199164038728
 20
50.98327972956945
 30
0.0
 10
183.308363126916
 20
51.62957964260232
 30
0.0
 10
183.308363126916
 20
52.42884179518028
 30
0.0
  0
HATCH
  5
DD
330
6C
100
AcDbEntity
  8
_U+30EC_U+30A4_U+30E4_U+30FC 1
 62
     7
100
AcDbHatch
 10
0.0
 20
0.0
 30
0.0
210
0.0
220
0.0
230
1.0
  2
SOLID
 70
     1
 71
     0
 91
        2
 92
        1
 93
        1
 72
     4
 94
        3
 73
     0
 74
     1
 95
       17
 96
       13
 40
0.0
 40
0.0
 40
0.0
 40
0.0
 40
1.0
 40
1.0
 40
1.0
 40
2.0
 40
2.0
 40
2.0
 40
3.0
 40
3.0
 40
3.0
 40
4.0
 40
4.0
 40
4.0
 40
4.0
 10
181.5710014737045
 20
52.40197005039533
 10
181.5710014737045
 20
53.57812564905962
 10
182.0288546636942
 20
54.14828895186847
 10
182.6575845897523
 20
54.14828895186847
 10
183.2949272545235
 20
54.14828895186847
 10
183.6856010825508
 20
53.54677528014385
 10
183.6856010825508
 20
52.44675629170358
 10
183.6856010825508
 20
51.27955794130094
 10
183.2770127580002
 20
50.67804426957631
 10
182.6079752147647
 20
50.67804426957631
 10
181.9975042947784
 20
50.67804426957631
 10
181.5710014737045
 20
51.27955794130094
 10
181.5710014737045
 20
52.40197005039533
 97
        0
 92
        1
 93
        1
 72
     4
 94
        3
 73
     0
 74
     1
 95
       17
 96
       13
 40
0.0
 40
0.0
 40
0.0
 40
0.0
 40
1.0
 40
1.0
 40
1.0
 40
2.0
 40
2.0
 40
2.0
 40
3.0
 40
3.0
 40
3.0
 40
4.0
 40
4.0
 40
4.0
 40
4.0
 10
183.308363126916
 20
52.42884179518028
 10
183.308363126916
 20
53.26841156493566
 10
183.1064805314803
 20
53.84753211600616
 10
182.6351914690981
 20
53.84753211600616
 10
182.2355603928092
 20
53.84753211600616
 10
181.9527180534702
 20
53.31319780624391
 10
181.9527180534702
 20
52.42884179518028
 10
181.9527180534702
 20
51.54448578411665
 10
182.1997313997626
 20
50.98327972956945
 10
182.6217555967057
 20
50.98327972956945
 10
183.1199164038728
 20
50.98327972956945
 10
183.308363126916
 20
51.62957964260232
 10
183.308363126916
 20
52.42884179518028
 97
        0
 75
     2
 76
     1
 98
        0
  0
SPLINE
  5
DE
330
6C
100
AcDbEntity
  8
_U+30EC_U+30A4_U+30E4_U+30FC 1
370
     0
100
AcDbSpline
210
0.0
220
0.0
230
1.0
 70
    11
 71
     3
 72
    17
 73
    13
 74
     0
 42
0.0000000001
 43
0.0000000001
 12
1.0
 22
0.0
 32
0.0
 13
1.0
 23
0.0
 33
0.0
 40
0.0
 40
0.0
 40
0.0
 40
0.0
 40
1.0
 40
1.0
 40
1.0
 40
2.0
 40
2.0
 40
2.0
 40
3.0
 40
3.0
 40
3.0
 40
4.0
 40
4.0
 40
4.0
 40
4.0
 10
184.0435465034683
 20
52.40197005039533
 30
0.0
 10
184.0435465034683
 20
53.57812564905962
 30
0.0
 10
184.501399693458
 20
54.14828895186847
 30
0.0
 10
185.1301296195161
 20
54.14828895186847
 30
0.0
 10
185.7674722842873
 20
54.14828895186847
 30
0.0
 10
186.1581461123146
 20
53.54677528014385
 30
0.0
 10
186.1581461123146
 20
52.44675629170358
 30
0.0
 10
186.1581461123146
 20
51.27955794130094
 30
0.0
 10
185.749557787764
 20
50.67804426957631
 30
0.0
 10
185.0805202445285
 20
50.67804426957631
 30
0.0
 10
184.4700493245422
 20
50.67804426957631
 30
0.0
 10
184.0435465034683
 20
51.27955794130094
 30
0.0
 10
184.0435465034683
 20
52.40197005039533
 30
0.0
  0
SPLINE
  5
DF
330
6C
100
AcDbEntity
  8
_U+30EC_U+30A4_U+30E4_U+30FC 1
370
     0
100
AcDbSpline
210
0.0
220
0.0
230
1.0
 70
    11
 71
     3
 72
    17
 73
    13
 74
     0
 42
0.0000000001
 43
0.0000000001
 12
1.0
 22
0.0
 32
0.0
 13
1.0
 23
0.0
 33
0.0
 40
0.0
 40
0.0
 40
0.0
 40
0.0
 40
1.0
 40
1.0
 40
1.0
 40
2.0
 40
2.0
 40
2.0
 40
3.0
 40
3.0
 40
3.0
 40
4.0
 40
4.0
 40
4.0
 40
4.0
 10
185.7809081566798
 20
52.42884179518028
 30
0.0
 10
185.7809081566798
 20
53.26841156493566
 30
0.0
 10
185.5790255612442
 20
53.84753211600616
 30
0.0
 10
185.107736498862
 20
53.84753211600616
 30
0.0
 10
184.708105422573
 20
53.84753211600616
 30
0.0
 10
184.425263083234
 20
53.31319780624391
 30
0.0
 10
184.425263083234
 20
52.42884179518028
 30
0.0
 10
184.425263083234
 20
51.54448578411665
 30
0.0
 10
184.6722764295264
 20
50.98327972956945
 30
0.0
 10
185.0943006264695
 20
50.98327972956945
 30
0.0
 10
185.5924614336366
 20
50.98327972956945
 30
0.0
 10
185.7809081566798
 20
51.62957964260232
 30
0.0
 10
185.7809081566798
 20
52.42884179518028
 30
0.0
  0
HATCH
  5
E0
330
6C
100
AcDbEntity
  8
_U+30EC_U+30A4_U+30E4_U+30FC 1
 62
     7
100
AcDbHatch
 10
0.0
 20
0.0
 30
0.0
210
0.0
220
0.0
230
1.0
  2
SOLID
 70
     1
 71
     0
 91
        2
 92
        1
 93
        1
 72
     4
 94
        3
 73
     0
 74
     1
 95
       17
 96
       13
 40
0.0
 40
0.0
 40
0.0
 40
0.0
 40
1.0
 40
1.0
 40
1.0
 40
2.0
 40
2.0
 40
2.0
 40
3.0
 40
3.0
 40
3.0
 40
4.0
 40
4.0
 40
4.0
 40
4.0
 10
184.0435465034683
 20
52.40197005039533
 10
184.0435465034683
 20
53.57812564905962
 10
184.501399693458
 20
54.14828895186847
 10
185.1301296195161
 20
54.14828895186847
 10
185.7674722842873
 20
54.14828895186847
 10
186.1581461123146
 20
53.54677528014385
 10
186.1581461123146
 20
52.44675629170358
 10
186.1581461123146
 20
51.27955794130094
 10
185.749557787764
 20
50.67804426957631
 10
185.0805202445285
 20
50.67804426957631
 10
184.4700493245422
 20
50.67804426957631
 10
184.0435465034683
 20
51.27955794130094
 10
184.0435465034683
 20
52.40197005039533
 97
        0
 92
        1
 93
        1
 72
     4
 94
        3
 73
     0
 74
     1
 95
       17
 96
       13
 40
0.0
 40
0.0
 40
0.0
 40
0.0
 40
1.0
 40
1.0
 40
1.0
 40
2.0
 40
2.0
 40
2.0
 40
3.0
 40
3.0
 40
3.0
 40
4.0
 40
4.0
 40
4.0
 40
4.0
 10
185.7809081566798
 20
52.42884179518028
 10
185.7809081566798
 20
53.26841156493566
 10
185.5790255612442
 20
53.84753211600616
 10
185.107736498862
 20
53.84753211600616
 10
184.708105422573
 20
53.84753211600616
 10
184.425263083234
 20
53.31319780624391
 10
184.425263083234
 20
52.42884179518028
 10
184.425263083234
 20
51.54448578411665
 10
184.6722764295264
 20
50.98327972956945
 10
185.0943006264695
 20
50.98327972956945
 10
185.5924614336366
 20
50.98327972956945
 10
185.7809081566798
 20
51.62957964260232
 10
185.7809081566798
 20
52.42884179518028
 97
        0
 75
     2
 76
     1
 98
        0
  0
SPLINE
  5
E1
330
6C
100
AcDbEntity
  8
_U+30EC_U+30A4_U+30E4_U+30FC 1
370
     0
100
AcDbSpline
210
0.0
220
0.0
230
1.0
 70
    11
 71
     3
 72
    32
 73
    28
 74
     0
 42
0.0000000001
 43
0.0000000001
 12
1.0
 22
0.0
 32
0.0
 13
1.0
 23
0.0
 33
0.0
 40
0.0
 40
0.0
 40
0.0
 40
0.0
 40
1.0
 40
1.0
 40
1.0
 40
2.0
 40
2.0
 40
2.0
 40
3.0
 40
3.0
 40
3.0
 40
4.0
 40
4.0
 40
4.0
 40
5.0
 40
5.0
 40
5.0
 40
6.0
 40
6.0
 40
6.0
 40
7.0
 40
7.0
 40
7.0
 40
8.0
 40
8.0
 40
8.0
 40
9.0
 40
9.0
 40
9.0
 40
9.0
 10
186.9022867371286
 20
52.51393565366595
 30
0.0
 10
187.0549044671252
 20
52.73855587930424
 30
0.0
 10
187.3287895582025
 20
52.92700260234741
 30
0.0
 10
187.6877685077656
 20
52.92700260234741
 30
0.0
 10
188.2579318105744
 20
52.92700260234741
 30
0.0
 10
188.6396483903401
 20
52.50049978127348
 30
0.0
 10
188.6396483903401
 20
51.85419986824061
 30
0.0
 10
188.6396483903401
 20
51.23925032412351
 30
0.0
 10
188.2624104347052
 20
50.67804426957631
 30
0.0
 10
187.6071532734107
 20
50.67804426957631
 30
0.0
 10
186.9515516025677
 20
50.67804426957631
 30
0.0
 10
186.5116129091013
 20
51.22099131805169
 30
0.0
 10
186.5116129091013
 20
52.09191145672285
 30
0.0
 10
186.5116129091013
 20
52.9945264738583
 30
0.0
 10
186.9336371060444
 20
53.93710459862266
 30
0.0
 10
188.024698846223
 20
54.1169385829527
 30
0.0
 10
188.1504448314346
 20
54.134853079476
 30
0.0
 10
188.2624104347052
 20
54.14828895186847
 30
0.0
 10
188.3388915544778
 20
54.14828895186847
 30
0.0
 10
188.3388915544778
 20
54.14828895186847
 30
0.0
 10
188.3433701786086
 20
53.83857486774451
 30
0.0
 10
188.3433701786086
 20
53.83857486774451
 30
0.0
 10
187.4094047925574
 20
53.83857486774451
 30
0.0
 10
186.9649874749601
 20
53.16058007624734
 30
0.0
 10
186.8888508647361
 20
52.51393565366595
 30
0.0
 10
186.8888508647361
 20
52.51393565366595
 30
0.0
 10
186.9022867371286
 20
52.51393565366595
 30
0.0
 10
186.9022867371286
 20
52.51393565366595
 30
0.0
  0
SPLINE
  5
E2
330
6C
100
AcDbEntity
  8
_U+30EC_U+30A4_U+30E4_U+30FC 1
370
     0
100
AcDbSpline
210
0.0
220
0.0
230
1.0
 70
    11
 71
     3
 72
    17
 73
    13
 74
     0
 42
0.0000000001
 43
0.0000000001
 12
1.0
 22
0.0
 32
0.0
 13
1.0
 23
0.0
 33
0.0
 40
0.0
 40
0.0
 40
0.0
 40
0.0
 40
1.0
 40
1.0
 40
1.0
 40
2.0
 40
2.0
 40
2.0
 40
3.0
 40
3.0
 40
3.0
 40
4.0
 40
4.0
 40
4.0
 40
4.0
 10
188.2624104347052
 20
51.82732812345566
 30
0.0
 10
188.2624104347052
 20
52.34340342714609
 30
0.0
 10
187.9840467194971
 20
52.64416026300839
 30
0.0
 10
187.5802815286258
 20
52.64416026300839
 30
0.0
 10
187.1851290764676
 20
52.64416026300839
 30
0.0
 10
186.8843722406053
 20
52.25830956866041
 30
0.0
 10
186.8843722406053
 20
52.00681759823718
 30
0.0
 10
186.8888508647361
 20
51.39186805412007
 30
0.0
 10
187.149300083421
 20
50.96984385717698
 30
0.0
 10
187.6161105216724
 20
50.96984385717698
 30
0.0
 10
188.0067843496997
 20
50.96984385717698
 30
0.0
 10
188.2624104347052
 20
51.31986555847836
 30
0.0
 10
188.2624104347052
 20
51.82732812345566
 30
0.0
  0
HATCH
  5
E3
330
6C
100
AcDbEntity
  8
_U+30EC_U+30A4_U+30E4_U+30FC 1
 62
     7
100
AcDbHatch
 10
0.0
 20
0.0
 30
0.0
210
0.0
220
0.0
230
1.0
  2
SOLID
 70
     1
 71
     0
 91
        2
 92
        1
 93
        1
 72
     4
 94
        3
 73
     0
 74
     1
 95
       32
 96
       28
 40
0.0
 40
0.0
 40
0.0
 40
0.0
 40
1.0
 40
1.0
 40
1.0
 40
2.0
 40
2.0
 40
2.0
 40
3.0
 40
3.0
 40
3.0
 40
4.0
 40
4.0
 40
4.0
 40
5.0
 40
5.0
 40
5.0
 40
6.0
 40
6.0
 40
6.0
 40
7.0
 40
7.0
 40
7.0
 40
8.0
 40
8.0
 40
8.0
 40
9.0
 40
9.0
 40
9.0
 40
9.0
 10
186.9022867371286
 20
52.51393565366595
 10
187.0549044671252
 20
52.73855587930424
 10
187.3287895582025
 20
52.92700260234741
 10
187.6877685077656
 20
52.92700260234741
 10
188.2579318105744
 20
52.92700260234741
 10
188.6396483903401
 20
52.50049978127348
 10
188.6396483903401
 20
51.85419986824061
 10
188.6396483903401
 20
51.23925032412351
 10
188.2624104347052
 20
50.67804426957631
 10
187.6071532734107
 20
50.67804426957631
 10
186.9515516025677
 20
50.67804426957631
 10
186.5116129091013
 20
51.22099131805169
 10
186.5116129091013
 20
52.09191145672285
 10
186.5116129091013
 20
52.9945264738583
 10
186.9336371060444
 20
53.93710459862266
 10
188.024698846223
 20
54.1169385829527
 10
188.1504448314346
 20
54.134853079476
 10
188.2624104347052
 20
54.14828895186847
 10
188.3388915544778
 20
54.14828895186847
 10
188.3388915544778
 20
54.14828895186847
 10
188.3433701786086
 20
53.83857486774451
 10
188.3433701786086
 20
53.83857486774451
 10
187.4094047925574
 20
53.83857486774451
 10
186.9649874749601
 20
53.16058007624734
 10
186.8888508647361
 20
52.51393565366595
 10
186.8888508647361
 20
52.51393565366595
 10
186.9022867371286
 20
52.51393565366595
 10
186.9022867371286
 20
52.51393565366595
 97
        0
 92
        1
 93
        1
 72
     4
 94
        3
 73
     0
 74
     1
 95
       17
 96
       13
 40
0.0
 40
0.0
 40
0.0
 40
0.0
 40
1.0
 40
1.0
 40
1.0
 40
2.0
 40
2.0
 40
2.0
 40
3.0
 40
3.0
 40
3.0
 40
4.0
 40
4.0
 40
4.0
 40
4.0
 10
188.2624104347052
 20
51.82732812345566
 10
188.2624104347052
 20
52.34340342714609
 10
187.9840467194971
 20
52.64416026300839
 10
187.5802815286258
 20
52.64416026300839
 10
187.1851290764676
 20
52.64416026300839
 10
186.8843722406053
 20
52.25830956866041
 10
186.8843722406053
 20
52.00681759823718
 10
186.8888508647361
 20
51.39186805412007
 10
187.149300083421
 20
50.96984385717698
 10
187.6161105216724
 20
50.96984385717698
 10
188.0067843496997
 20
50.96984385717698
 10
188.2624104347052
 20
51.31986555847836
 10
188.2624104347052
 20
51.82732812345566
 97
        0
 75
     2
 76
     1
 98
        0
  0
POLYLINE
  5
E4
330
6C
100
AcDbEntity
  8
_U+30EC_U+30A4_U+30E4_U+30FC 1
370
     0
100
AcDb2dPolyline
 66
     1
 10
0.0
 20
0.0
 30
0.0
  0
VERTEX
  5
E5
330
E4
100
AcDbEntity
  8
_U+30EC_U+30A4_U+30E4_U+30FC 1
370
     0
100
AcDbVertex
100
AcDb2dVertex
 10
170.3585937074104
 20
45.34710351570071
 30
0.0
  0
VERTEX
  5
E6
330
E4
100
AcDbEntity
  8
_U+30EC_U+30A4_U+30E4_U+30FC 1
370
     0
100
AcDbVertex
100
AcDb2dVertex
 10
169.9861788854548
 20
45.34710351570071
 30
0.0
  0
VERTEX
  5
E7
330
E4
100
AcDbEntity
  8
_U+30EC_U+30A4_U+30E4_U+30FC 1
370
     0
100
AcDbVertex
100
AcDb2dVertex
 10
169.9861788854548
 20
46.98111230435471
 30
0.0
  0
VERTEX
  5
E8
330
E4
100
AcDbEntity
  8
_U+30EC_U+30A4_U+30E4_U+30FC 1
370
     0
100
AcDbVertex
100
AcDb2dVertex
 10
168.3518255872523
 20
46.98111230435471
 30
0.0
  0
VERTEX
  5
E9
330
E4
100
AcDbEntity
  8
_U+30EC_U+30A4_U+30E4_U+30FC 1
370
     0
100
AcDbVertex
100
AcDb2dVertex
 10
168.3518255872523
 20
45.34710351570071
 30
0.0
  0
VERTEX
  5
EA
330
E4
100
AcDbEntity
  8
_U+30EC_U+30A4_U+30E4_U+30FC 1
370
     0
100
AcDbVertex
100
AcDb2dVertex
 10
167.9794107652968
 20
45.34710351570071
 30
0.0
  0
VERTEX
  5
EB
330
E4
100
AcDbEntity
  8
_U+30EC_U+30A4_U+30E4_U+30FC 1
370
     0
100
AcDbVertex
100
AcDb2dVertex
 10
167.9794107652968
 20
48.76360470842297
 30
0.0
  0
VERTEX
  5
EC
330
E4
100
AcDbEntity
  8
_U+30EC_U+30A4_U+30E4_U+30FC 1
370
     0
100
AcDbVertex
100
AcDb2dVertex
 10
168.3518255872523
 20
48.76360470842297
 30
0.0
  0
VERTEX
  5
ED
330
E4
100
AcDbEntity
  8
_U+30EC_U+30A4_U+30E4_U+30FC 1
370
     0
100
AcDbVertex
100
AcDb2dVertex
 10
168.3518255872523
 20
47.30460677041967
 30
0.0
  0
VERTEX
  5
EE
330
E4
100
AcDbEntity
  8
_U+30EC_U+30A4_U+30E4_U+30FC 1
370
     0
100
AcDbVertex
100
AcDb2dVertex
 10
169.9861788854548
 20
47.30460677041967
 30
0.0
  0
VERTEX
  5
EF
330
E4
100
AcDbEntity
  8
_U+30EC_U+30A4_U+30E4_U+30FC 1
370
     0
100
AcDbVertex
100
AcDb2dVertex
 10
169.9861788854548
 20
48.76360470842297
 30
0.0
  0
VERTEX
  5
F0
330
E4
100
AcDbEntity
  8
_U+30EC_U+30A4_U+30E4_U+30FC 1
370
     0
100
AcDbVertex
100
AcDb2dVertex
 10
170.3585937074104
 20
48.76360470842297
 30
0.0
  0
VERTEX
  5
F1
330
E4
100
AcDbEntity
  8
_U+30EC_U+30A4_U+30E4_U+30FC 1
370
     0
100
AcDbVertex
100
AcDb2dVertex
 10
170.3585937074104
 20
45.34710351570071
 30
0.0
  0
SEQEND
  5
F2
330
E4
100
AcDbEntity
  8
_U+30EC_U+30A4_U+30E4_U+30FC 1
370
     0
  0
HATCH
  5
F3
330
6C
100
AcDbEntity
  8
_U+30EC_U+30A4_U+30E4_U+30FC 1
 62
     7
100
AcDbHatch
 10
0.0
 20
0.0
 30
0.0
210
0.0
220
0.0
230
1.0
  2
SOLID
 70
     1
 71
     0
 91
        1
 92
        1
 93
       12
 72
     1
 10
170.3585937074104
 20
45.34710351570071
 11
169.9861788854548
 21
45.34710351570071
 72
     1
 10
169.9861788854548
 20
45.34710351570071
 11
169.9861788854548
 21
46.98111230435471
 72
     1
 10
169.9861788854548
 20
46.98111230435471
 11
168.3518255872523
 21
46.98111230435471
 72
     1
 10
168.3518255872523
 20
46.98111230435471
 11
168.3518255872523
 21
45.34710351570071
 72
     1
 10
168.3518255872523
 20
45.34710351570071
 11
167.9794107652968
 21
45.34710351570071
 72
     1
 10
167.9794107652968
 20
45.34710351570071
 11
167.9794107652968
 21
48.76360470842297
 72
     1
 10
167.9794107652968
 20
48.76360470842297
 11
168.3518255872523
 21
48.76360470842297
 72
     1
 10
168.3518255872523
 20
48.76360470842297
 11
168.3518255872523
 21
47.30460677041967
 72
     1
 10
168.3518255872523
 20
47.30460677041967
 11
169.9861788854548
 21
47.30460677041967
 72
     1
 10
169.9861788854548
 20
47.30460677041967
 11
169.9861788854548
 21
48.76360470842297
 72
     1
 10
169.9861788854548
 20
48.76360470842297
 11
170.3585937074104
 21
48.76360470842297
 72
     1
 10
170.3585937074104
 20
48.76360470842297
 11
170.3585937074104
 21
45.34710351570071
 97
        0
 75
     2
 76
     1
 98
        0
  0
SPLINE
  5
F4
330
6C
100
AcDbEntity
  8
_U+30EC_U+30A4_U+30E4_U+30FC 1
370
     0
100
AcDbSpline
210
0.0
220
0.0
230
1.0
 70
    11
 71
     3
 72
    23
 73
    19
 74
     0
 42
0.0000000001
 43
0.0000000001
 12
1.0
 22
0.0
 32
0.0
 13
1.0
 23
0.0
 33
0.0
 40
0.0
 40
0.0
 40
0.0
 40
0.0
 40
1.0
 40
1.0
 40
1.0
 40
2.0
 40
2.0
 40
2.0
 40
3.0
 40
3.0
 40
3.0
 40
4.0
 40
4.0
 40
4.0
 40
5.0
 40
5.0
 40
5.0
 40
6.0
 40
6.0
 40
6.0
 40
6.0
 10
171.1206488287476
 20
48.72329709124556
 30
0.0
 10
171.3717962896223
 20
48.76360470842297
 30
0.0
 10
171.663595877223
 20
48.79495507733875
 30
0.0
 10
171.9826117191571
 20
48.79495507733875
 30
0.0
 10
173.3561712891263
 20
48.79495507733875
 30
0.0
 10
173.7513237412844
 20
47.98225705236831
 30
0.0
 10
173.7513237412844
 20
47.14268728261293
 30
0.0
 10
173.7513237412844
 20
46.59974023413756
 30
0.0
 10
173.6076632595495
 20
46.13740842001702
 30
0.0
 10
173.284513303033
 20
45.80047808155959
 30
0.0
 10
172.9837564671707
 20
45.49076399743563
 30
0.0
 10
172.4852511504551
 20
45.32023177091576
 30
0.0
 10
171.8613443580763
 20
45.32023177091576
 30
0.0
 10
171.5785020187373
 20
45.32023177091576
 30
0.0
 10
171.3359672965757
 20
45.32918901917741
 30
0.0
 10
171.1206488287476
 20
45.35606076396236
 30
0.0
 10
171.1206488287476
 20
45.35606076396236
 30
0.0
 10
171.1206488287476
 20
48.72329709124556
 30
0.0
 10
171.1206488287476
 20
48.72329709124556
 30
0.0
  0
SPLINE
  5
F5
330
6C
100
AcDbEntity
  8
_U+30EC_U+30A4_U+30E4_U+30FC 1
370
     0
100
AcDbSpline
210
0.0
220
0.0
230
1.0
 70
    11
 71
     3
 72
    20
 73
    16
 74
     0
 42
0.0000000001
 43
0.0000000001
 12
1.0
 22
0.0
 32
0.0
 13
1.0
 23
0.0
 33
0.0
 40
0.0
 40
0.0
 40
0.0
 40
0.0
 40
1.0
 40
1.0
 40
1.0
 40
2.0
 40
2.0
 40
2.0
 40
3.0
 40
3.0
 40
3.0
 40
4.0
 40
4.0
 40
4.0
 40
5.0
 40
5.0
 40
5.0
 40
5.0
 10
171.4930636507031
 20
45.6433817274322
 30
0.0
 10
171.6053737635223
 20
45.6254672309089
 30
0.0
 10
171.7669487417805
 20
45.62098860677808
 30
0.0
 10
171.9285237200387
 20
45.62098860677808
 30
0.0
 10
172.8535318578283
 20
45.62098860677808
 30
0.0
 10
173.3606499132571
 20
46.14636566827868
 30
0.0
 10
173.3606499132571
 20
47.12477278608963
 30
0.0
 10
173.3606499132571
 20
48.01395193083261
 30
0.0
 10
172.8848822267441
 20
48.49419824147644
 30
0.0
 10
171.9960475915496
 20
48.49419824147644
 30
0.0
 10
171.780384614173
 20
48.49419824147644
 30
0.0
 10
171.6098523876531
 20
48.47180512082232
 30
0.0
 10
171.4930636507031
 20
48.44941200016819
 30
0.0
 10
171.4930636507031
 20
48.44941200016819
 30
0.0
 10
171.4930636507031
 20
45.6433817274322
 30
0.0
 10
171.4930636507031
 20
45.6433817274322
 30
0.0
  0
HATCH
  5
F6
330
6C
100
AcDbEntity
  8
_U+30EC_U+30A4_U+30E4_U+30FC 1
 62
     7
100
AcDbHatch
 10
0.0
 20
0.0
 30
0.0
210
0.0
220
0.0
230
1.0
  2
SOLID
 70
     1
 71
     0
 91
        2
 92
        1
 93
        1
 72
     4
 94
        3
 73
     0
 74
     1
 95
       23
 96
       19
 40
0.0
 40
0.0
 40
0.0
 40
0.0
 40
1.0
 40
1.0
 40
1.0
 40
2.0
 40
2.0
 40
2.0
 40
3.0
 40
3.0
 40
3.0
 40
4.0
 40
4.0
 40
4.0
 40
5.0
 40
5.0
 40
5.0
 40
6.0
 40
6.0
 40
6.0
 40
6.0
 10
171.1206488287476
 20
48.72329709124556
 10
171.3717962896223
 20
48.76360470842297
 10
171.663595877223
 20
48.79495507733875
 10
171.9826117191571
 20
48.79495507733875
 10
173.3561712891263
 20
48.79495507733875
 10
173.7513237412844
 20
47.98225705236831
 10
173.7513237412844
 20
47.14268728261293
 10
173.7513237412844
 20
46.59974023413756
 10
173.6076632595495
 20
46.13740842001702
 10
173.284513303033
 20
45.80047808155959
 10
172.9837564671707
 20
45.49076399743563
 10
172.4852511504551
 20
45.32023177091576
 10
171.8613443580763
 20
45.32023177091576
 10
171.5785020187373
 20
45.32023177091576
 10
171.3359672965757
 20
45.32918901917741
 10
171.1206488287476
 20
45.35606076396236
 10
171.1206488287476
 20
45.35606076396236
 10
171.1206488287476
 20
48.72329709124556
 10
171.1206488287476
 20
48.72329709124556
 97
        0
 92
        1
 93
        1
 72
     4
 94
        3
 73
     0
 74
     1
 95
       20
 96
       16
 40
0.0
 40
0.0
 40
0.0
 40
0.0
 40
1.0
 40
1.0
 40
1.0
 40
2.0
 40
2.0
 40
2.0
 40
3.0
 40
3.0
 40
3.0
 40
4.0
 40
4.0
 40
4.0
 40
5.0
 40
5.0
 40
5.0
 40
5.0
 10
171.4930636507031
 20
45.6433817274322
 10
171.6053737635223
 20
45.6254672309089
 10
171.7669487417805
 20
45.62098860677808
 10
171.9285237200387
 20
45.62098860677808
 10
172.8535318578283
 20
45.62098860677808
 10
173.3606499132571
 20
46.14636566827868
 10
173.3606499132571
 20
47.12477278608963
 10
173.3606499132571
 20
48.01395193083261
 10
172.8848822267441
 20
48.49419824147644
 10
171.9960475915496
 20
48.49419824147644
 10
171.780384614173
 20
48.49419824147644
 10
171.6098523876531
 20
48.47180512082232
 10
171.4930636507031
 20
48.44941200016819
 10
171.4930636507031
 20
48.44941200016819
 10
171.4930636507031
 20
45.6433817274322
 10
171.4930636507031
 20
45.6433817274322
 97
        0
 75
     2
 76
     1
 98
        0
  0
SPLINE
  5
F7
330
6C
100
AcDbEntity
  8
_U+30EC_U+30A4_U+30E4_U+30FC 1
370
     0
100
AcDbSpline
210
0.0
220
0.0
230
1.0
 70
    11
 71
     3
 72
    35
 73
    31
 74
     0
 42
0.0000000001
 43
0.0000000001
 12
1.0
 22
0.0
 32
0.0
 13
1.0
 23
0.0
 33
0.0
 40
0.0
 40
0.0
 40
0.0
 40
0.0
 40
1.0
 40
1.0
 40
1.0
 40
2.0
 40
2.0
 40
2.0
 40
3.0
 40
3.0
 40
3.0
 40
4.0
 40
4.0
 40
4.0
 40
5.0
 40
5.0
 40
5.0
 40
6.0
 40
6.0
 40
6.0
 40
7.0
 40
7.0
 40
7.0
 40
8.0
 40
8.0
 40
8.0
 40
9.0
 40
9.0
 40
9.0
 40
10.0
 40
10.0
 40
10.0
 40
10.0
 10
176.5601100904086
 20
45.45045638025821
 30
0.0
 10
176.4030137362812
 20
45.37397526048566
 30
0.0
 10
176.0977782762881
 20
45.29783865026164
 30
0.0
 10
175.7071044482607
 20
45.29783865026164
 30
0.0
 10
174.8272270613279
 20
45.29783865026164
 30
0.0
 10
174.117881900915
 20
45.86800195307049
 30
0.0
 10
174.117881900915
 20
47.02624305521148
 30
0.0
 10
174.117881900915
 20
48.13039615823406
 30
0.0
 10
174.8048339406738
 20
48.81734819799287
 30
0.0
 10
175.8059786886874
 20
48.81734819799287
 30
0.0
 10
176.214567013238
 20
48.81734819799287
 30
0.0
 10
176.4526231112688
 20
48.7322543395072
 30
0.0
 10
176.5601100904086
 20
48.67816634038878
 30
0.0
 10
176.5601100904086
 20
48.67816634038878
 30
0.0
 10
176.4615803595304
 20
48.363973632134
 30
0.0
 10
176.4615803595304
 20
48.363973632134
 30
0.0
 10
176.3044840054031
 20
48.44045475190654
 30
0.0
 10
176.0843424038956
 20
48.50315548973809
 30
0.0
 10
175.814935936949
 20
48.50315548973809
 30
0.0
 10
175.0384114145737
 20
48.50315548973809
 30
0.0
 10
174.5085557289423
 20
47.98225705236831
 30
0.0
 10
174.5085557289423
 20
47.03967892760396
 30
0.0
 10
174.5085557289423
 20
46.14188704414785
 30
0.0
 10
174.993280663717
 20
45.61203135851643
 30
0.0
 10
175.7925428162949
 20
45.61203135851643
 30
0.0
 10
176.0529920349798
 20
45.61203135851643
 30
0.0
 10
176.3089626295339
 20
45.67025347221715
 30
0.0
 10
176.4794948560537
 20
45.75121321612052
 30
0.0
 10
176.4794948560537
 20
45.75121321612052
 30
0.0
 10
176.5601100904086
 20
45.45045638025821
 30
0.0
 10
176.5601100904086
 20
45.45045638025821
 30
0.0
  0
HATCH
  5
F8
330
6C
100
AcDbEntity
  8
_U+30EC_U+30A4_U+30E4_U+30FC 1
 62
     7
100
AcDbHatch
 10
0.0
 20
0.0
 30
0.0
210
0.0
220
0.0
230
1.0
  2
SOLID
 70
     1
 71
     0
 91
        1
 92
        1
 93
        1
 72
     4
 94
        3
 73
     0
 74
     1
 95
       35
 96
       31
 40
0.0
 40
0.0
 40
0.0
 40
0.0
 40
1.0
 40
1.0
 40
1.0
 40
2.0
 40
2.0
 40
2.0
 40
3.0
 40
3.0
 40
3.0
 40
4.0
 40
4.0
 40
4.0
 40
5.0
 40
5.0
 40
5.0
 40
6.0
 40
6.0
 40
6.0
 40
7.0
 40
7.0
 40
7.0
 40
8.0
 40
8.0
 40
8.0
 40
9.0
 40
9.0
 40
9.0
 40
10.0
 40
10.0
 40
10.0
 40
10.0
 10
176.5601100904086
 20
45.45045638025821
 10
176.4030137362812
 20
45.37397526048566
 10
176.0977782762881
 20
45.29783865026164
 10
175.7071044482607
 20
45.29783865026164
 10
174.8272270613279
 20
45.29783865026164
 10
174.117881900915
 20
45.86800195307049
 10
174.117881900915
 20
47.02624305521148
 10
174.117881900915
 20
48.13039615823406
 10
174.8048339406738
 20
48.81734819799287
 10
175.8059786886874
 20
48.81734819799287
 10
176.214567013238
 20
48.81734819799287
 10
176.4526231112688
 20
48.7322543395072
 10
176.5601100904086
 20
48.67816634038878
 10
176.5601100904086
 20
48.67816634038878
 10
176.4615803595304
 20
48.363973632134
 10
176.4615803595304
 20
48.363973632134
 10
176.3044840054031
 20
48.44045475190654
 10
176.0843424038956
 20
48.50315548973809
 10
175.814935936949
 20
48.50315548973809
 10
175.0384114145737
 20
48.50315548973809
 10
174.5085557289423
 20
47.98225705236831
 10
174.5085557289423
 20
47.03967892760396
 10
174.5085557289423
 20
46.14188704414785
 10
174.993280663717
 20
45.61203135851643
 10
175.7925428162949
 20
45.61203135851643
 10
176.0529920349798
 20
45.61203135851643
 10
176.3089626295339
 20
45.67025347221715
 10
176.4794948560537
 20
45.75121321612052
 10
176.4794948560537
 20
45.75121321612052
 10
176.5601100904086
 20
45.45045638025821
 10
176.5601100904086
 20
45.45045638025821
 97
        0
 75
     2
 76
     1
 98
        0
  0
POLYLINE
  5
F9
330
6C
100
AcDbEntity
  8
_U+30EC_U+30A4_U+30E4_U+30FC 1
370
     0
100
AcDb2dPolyline
 66
     1
 10
0.0
 20
0.0
 30
0.0
  0
VERTEX
  5
FA
330
F9
100
AcDbEntity
  8
_U+30EC_U+30A4_U+30E4_U+30FC 1
370
     0
100
AcDbVertex
100
AcDb2dVertex
 10
176.8729247604693
 20
46.86018945282244
 30
0.0
  0
VERTEX
  5
FB
330
F9
100
AcDbEntity
  8
_U+30EC_U+30A4_U+30E4_U+30FC 1
370
     0
100
AcDbVertex
100
AcDb2dVertex
 10
178.0986897341212
 20
46.86018945282244
 30
0.0
  0
VERTEX
  5
FC
330
F9
100
AcDbEntity
  8
_U+30EC_U+30A4_U+30E4_U+30FC 1
370
     0
100
AcDbVertex
100
AcDb2dVertex
 10
178.0986897341212
 20
46.57286848935261
 30
0.0
  0
VERTEX
  5
FD
330
F9
100
AcDbEntity
  8
_U+30EC_U+30A4_U+30E4_U+30FC 1
370
     0
100
AcDbVertex
100
AcDb2dVertex
 10
176.8729247604693
 20
46.57286848935261
 30
0.0
  0
VERTEX
  5
FE
330
F9
100
AcDbEntity
  8
_U+30EC_U+30A4_U+30E4_U+30FC 1
370
     0
100
AcDbVertex
100
AcDb2dVertex
 10
176.8729247604693
 20
46.86018945282244
 30
0.0
  0
SEQEND
  5
FF
330
F9
100
AcDbEntity
  8
_U+30EC_U+30A4_U+30E4_U+30FC 1
370
     0
  0
HATCH
  5
100
330
6C
100
AcDbEntity
  8
_U+30EC_U+30A4_U+30E4_U+30FC 1
 62
     7
100
AcDbHatch
 10
0.0
 20
0.0
 30
0.0
210
0.0
220
0.0
230
1.0
  2
SOLID
 70
     1
 71
     0
 91
        1
 92
        1
 93
        4
 72
     1
 10
176.8729247604693
 20
46.86018945282244
 11
178.0986897341212
 21
46.86018945282244
 72
     1
 10
178.0986897341212
 20
46.86018945282244
 11
178.0986897341212
 21
46.57286848935261
 72
     1
 10
178.0986897341212
 20
46.57286848935261
 11
176.8729247604693
 21
46.57286848935261
 72
     1
 10
176.8729247604693
 20
46.57286848935261
 11
176.8729247604693
 21
46.86018945282244
 97
        0
 75
     2
 76
     1
 98
        0
  0
POLYLINE
  5
101
330
6C
100
AcDbEntity
  8
_U+30EC_U+30A4_U+30E4_U+30FC 1
370
     0
100
AcDb2dPolyline
 66
     1
 10
0.0
 20
0.0
 30
0.0
  0
VERTEX
  5
102
330
101
100
AcDbEntity
  8
_U+30EC_U+30A4_U+30E4_U+30FC 1
370
     0
100
AcDbVertex
100
AcDb2dVertex
 10
181.0111734573514
 20
45.34710351570071
 30
0.0
  0
VERTEX
  5
103
330
101
100
AcDbEntity
  8
_U+30EC_U+30A4_U+30E4_U+30FC 1
370
     0
100
AcDbVertex
100
AcDb2dVertex
 10
180.6387586353959
 20
45.34710351570071
 30
0.0
  0
VERTEX
  5
104
330
101
100
AcDbEntity
  8
_U+30EC_U+30A4_U+30E4_U+30FC 1
370
     0
100
AcDbVertex
100
AcDb2dVertex
 10
180.6387586353959
 20
46.98111230435471
 30
0.0
  0
VERTEX
  5
105
330
101
100
AcDbEntity
  8
_U+30EC_U+30A4_U+30E4_U+30FC 1
370
     0
100
AcDbVertex
100
AcDb2dVertex
 10
179.0044053371934
 20
46.98111230435471
 30
0.0
  0
VERTEX
  5
106
330
101
100
AcDbEntity
  8
_U+30EC_U+30A4_U+30E4_U+30FC 1
370
     0
100
AcDbVertex
100
AcDb2dVertex
 10
179.0044053371934
 20
45.34710351570071
 30
0.0
  0
VERTEX
  5
107
330
101
100
AcDbEntity
  8
_U+30EC_U+30A4_U+30E4_U+30FC 1
370
     0
100
AcDbVertex
100
AcDb2dVertex
 10
178.6319905152378
 20
45.34710351570071
 30
0.0
  0
VERTEX
  5
108
330
101
100
AcDbEntity
  8
_U+30EC_U+30A4_U+30E4_U+30FC 1
370
     0
100
AcDbVertex
100
AcDb2dVertex
 10
178.6319905152378
 20
48.76360470842297
 30
0.0
  0
VERTEX
  5
109
330
101
100
AcDbEntity
  8
_U+30EC_U+30A4_U+30E4_U+30FC 1
370
     0
100
AcDbVertex
100
AcDb2dVertex
 10
179.0044053371934
 20
48.76360470842297
 30
0.0
  0
VERTEX
  5
10A
330
101
100
AcDbEntity
  8
_U+30EC_U+30A4_U+30E4_U+30FC 1
370
     0
100
AcDbVertex
100
AcDb2dVertex
 10
179.0044053371934
 20
47.30460677041967
 30
0.0
  0
VERTEX
  5
10B
330
101
100
AcDbEntity
  8
_U+30EC_U+30A4_U+30E4_U+30FC 1
370
     0
100
AcDbVertex
100
AcDb2dVertex
 10
180.6387586353959
 20
47.30460677041967
 30
0.0
  0
VERTEX
  5
10C
330
101
100
AcDbEntity
  8
_U+30EC_U+30A4_U+30E4_U+30FC 1
370
     0
100
AcDbVertex
100
AcDb2dVertex
 10
180.6387586353959
 20
48.76360470842297
 30
0.0
  0
VERTEX
  5
10D
330
101
100
AcDbEntity
  8
_U+30EC_U+30A4_U+30E4_U+30FC 1
370
     0
100
AcDbVertex
100
AcDb2dVertex
 10
181.0111734573514
 20
48.76360470842297
 30
0.0
  0
VERTEX
  5
10E
330
101
100
AcDbEntity
  8
_U+30EC_U+30A4_U+30E4_U+30FC 1
370
     0
100
AcDbVertex
100
AcDb2dVertex
 10
181.0111734573514
 20
45.34710351570071
 30
0.0
  0
SEQEND
  5
10F
330
101
100
AcDbEntity
  8
_U+30EC_U+30A4_U+30E4_U+30FC 1
370
     0
  0
HATCH
  5
110
330
6C
100
AcDbEntity
  8
_U+30EC_U+30A4_U+30E4_U+30FC 1
 62
     7
100
AcDbHatch
 10
0.0
 20
0.0
 30
0.0
210
0.0
220
0.0
230
1.0
  2
SOLID
 70
     1
 71
     0
 91
        1
 92
        1
 93
       12
 72
     1
 10
181.0111734573514
 20
45.34710351570071
 11
180.6387586353959
 21
45.34710351570071
 72
     1
 10
180.6387586353959
 20
45.34710351570071
 11
180.6387586353959
 21
46.98111230435471
 72
     1
 10
180.6387586353959
 20
46.98111230435471
 11
179.0044053371934
 21
46.98111230435471
 72
     1
 10
179.0044053371934
 20
46.98111230435471
 11
179.0044053371934
 21
45.34710351570071
 72
     1
 10
179.0044053371934
 20
45.34710351570071
 11
178.6319905152378
 21
45.34710351570071
 72
     1
 10
178.6319905152378
 20
45.34710351570071
 11
178.6319905152378
 21
48.76360470842297
 72
     1
 10
178.6319905152378
 20
48.76360470842297
 11
179.0044053371934
 21
48.76360470842297
 72
     1
 10
179.0044053371934
 20
48.76360470842297
 11
179.0044053371934
 21
47.30460677041967
 72
     1
 10
179.0044053371934
 20
47.30460677041967
 11
180.6387586353959
 21
47.30460677041967
 72
     1
 10
180.6387586353959
 20
47.30460677041967
 11
180.6387586353959
 21
48.76360470842297
 72
     1
 10
180.6387586353959
 20
48.76360470842297
 11
181.0111734573514
 21
48.76360470842297
 72
     1
 10
181.0111734573514
 20
48.76360470842297
 11
181.0111734573514
 21
45.34710351570071
 97
        0
 75
     2
 76
     1
 98
        0
  0
SPLINE
  5
111
330
6C
100
AcDbEntity
  8
_U+30EC_U+30A4_U+30E4_U+30FC 1
370
     0
100
AcDbSpline
210
0.0
220
0.0
230
1.0
 70
    11
 71
     3
 72
    17
 73
    13
 74
     0
 42
0.0000000001
 43
0.0000000001
 12
1.0
 22
0.0
 32
0.0
 13
1.0
 23
0.0
 33
0.0
 40
0.0
 40
0.0
 40
0.0
 40
0.0
 40
1.0
 40
1.0
 40
1.0
 40
2.0
 40
2.0
 40
2.0
 40
3.0
 40
3.0
 40
3.0
 40
4.0
 40
4.0
 40
4.0
 40
4.0
 10
181.5710014737045
 20
47.01728580694984
 30
0.0
 10
181.5710014737045
 20
48.19344140561413
 30
0.0
 10
182.0288546636942
 20
48.76360470842297
 30
0.0
 10
182.6575845897523
 20
48.76360470842297
 30
0.0
 10
183.2949272545235
 20
48.76360470842297
 30
0.0
 10
183.6856010825508
 20
48.16209103669836
 30
0.0
 10
183.6856010825508
 20
47.06207204825808
 30
0.0
 10
183.6856010825508
 20
45.89487369785544
 30
0.0
 10
183.2770127580002
 20
45.29336002613081
 30
0.0
 10
182.6079752147647
 20
45.29336002613081
 30
0.0
 10
181.9975042947784
 20
45.29336002613081
 30
0.0
 10
181.5710014737045
 20
45.89487369785544
 30
0.0
 10
181.5710014737045
 20
47.01728580694984
 30
0.0
  0
SPLINE
  5
112
330
6C
100
AcDbEntity
  8
_U+30EC_U+30A4_U+30E4_U+30FC 1
370
     0
100
AcDbSpline
210
0.0
220
0.0
230
1.0
 70
    11
 71
     3
 72
    17
 73
    13
 74
     0
 42
0.0000000001
 43
0.0000000001
 12
1.0
 22
0.0
 32
0.0
 13
1.0
 23
0.0
 33
0.0
 40
0.0
 40
0.0
 40
0.0
 40
0.0
 40
1.0
 40
1.0
 40
1.0
 40
2.0
 40
2.0
 40
2.0
 40
3.0
 40
3.0
 40
3.0
 40
4.0
 40
4.0
 40
4.0
 40
4.0
 10
183.308363126916
 20
47.04415755173478
 30
0.0
 10
183.308363126916
 20
47.88372732149017
 30
0.0
 10
183.1064805314803
 20
48.46284787256067
 30
0.0
 10
182.6351914690981
 20
48.46284787256067
 30
0.0
 10
182.2355603928092
 20
48.46284787256067
 30
0.0
 10
181.9527180534702
 20
47.92851356279841
 30
0.0
 10
181.9527180534702
 20
47.04415755173478
 30
0.0
 10
181.9527180534702
 20
46.15980154067115
 30
0.0
 10
182.1997313997626
 20
45.59859548612395
 30
0.0
 10
182.6217555967057
 20
45.59859548612395
 30
0.0
 10
183.1199164038728
 20
45.59859548612395
 30
0.0
 10
183.308363126916
 20
46.24489539915682
 30
0.0
 10
183.308363126916
 20
47.04415755173478
 30
0.0
  0
HATCH
  5
113
330
6C
100
AcDbEntity
  8
_U+30EC_U+30A4_U+30E4_U+30FC 1
 62
     7
100
AcDbHatch
 10
0.0
 20
0.0
 30
0.0
210
0.0
220
0.0
230
1.0
  2
SOLID
 70
     1
 71
     0
 91
        2
 92
        1
 93
        1
 72
     4
 94
        3
 73
     0
 74
     1
 95
       17
 96
       13
 40
0.0
 40
0.0
 40
0.0
 40
0.0
 40
1.0
 40
1.0
 40
1.0
 40
2.0
 40
2.0
 40
2.0
 40
3.0
 40
3.0
 40
3.0
 40
4.0
 40
4.0
 40
4.0
 40
4.0
 10
181.5710014737045
 20
47.01728580694984
 10
181.5710014737045
 20
48.19344140561413
 10
182.0288546636942
 20
48.76360470842297
 10
182.6575845897523
 20
48.76360470842297
 10
183.2949272545235
 20
48.76360470842297
 10
183.6856010825508
 20
48.16209103669836
 10
183.6856010825508
 20
47.06207204825808
 10
183.6856010825508
 20
45.89487369785544
 10
183.2770127580002
 20
45.29336002613081
 10
182.6079752147647
 20
45.29336002613081
 10
181.9975042947784
 20
45.29336002613081
 10
181.5710014737045
 20
45.89487369785544
 10
181.5710014737045
 20
47.01728580694984
 97
        0
 92
        1
 93
        1
 72
     4
 94
        3
 73
     0
 74
     1
 95
       17
 96
       13
 40
0.0
 40
0.0
 40
0.0
 40
0.0
 40
1.0
 40
1.0
 40
1.0
 40
2.0
 40
2.0
 40
2.0
 40
3.0
 40
3.0
 40
3.0
 40
4.0
 40
4.0
 40
4.0
 40
4.0
 10
183.308363126916
 20
47.04415755173478
 10
183.308363126916
 20
47.88372732149017
 10
183.1064805314803
 20
48.46284787256067
 10
182.6351914690981
 20
48.46284787256067
 10
182.2355603928092
 20
48.46284787256067
 10
181.9527180534702
 20
47.92851356279841
 10
181.9527180534702
 20
47.04415755173478
 10
181.9527180534702
 20
46.15980154067115
 10
182.1997313997626
 20
45.59859548612395
 10
182.6217555967057
 20
45.59859548612395
 10
183.1199164038728
 20
45.59859548612395
 10
183.308363126916
 20
46.24489539915682
 10
183.308363126916
 20
47.04415755173478
 97
        0
 75
     2
 76
     1
 98
        0
  0
SPLINE
  5
114
330
6C
100
AcDbEntity
  8
_U+30EC_U+30A4_U+30E4_U+30FC 1
370
     0
100
AcDbSpline
210
0.0
220
0.0
230
1.0
 70
    11
 71
     3
 72
    17
 73
    13
 74
     0
 42
0.0000000001
 43
0.0000000001
 12
1.0
 22
0.0
 32
0.0
 13
1.0
 23
0.0
 33
0.0
 40
0.0
 40
0.0
 40
0.0
 40
0.0
 40
1.0
 40
1.0
 40
1.0
 40
2.0
 40
2.0
 40
2.0
 40
3.0
 40
3.0
 40
3.0
 40
4.0
 40
4.0
 40
4.0
 40
4.0
 10
184.0435465034683
 20
47.01728580694984
 30
0.0
 10
184.0435465034683
 20
48.19344140561413
 30
0.0
 10
184.501399693458
 20
48.76360470842297
 30
0.0
 10
185.1301296195161
 20
48.76360470842297
 30
0.0
 10
185.7674722842873
 20
48.76360470842297
 30
0.0
 10
186.1581461123146
 20
48.16209103669836
 30
0.0
 10
186.1581461123146
 20
47.06207204825808
 30
0.0
 10
186.1581461123146
 20
45.89487369785544
 30
0.0
 10
185.749557787764
 20
45.29336002613081
 30
0.0
 10
185.0805202445285
 20
45.29336002613081
 30
0.0
 10
184.4700493245422
 20
45.29336002613081
 30
0.0
 10
184.0435465034683
 20
45.89487369785544
 30
0.0
 10
184.0435465034683
 20
47.01728580694984
 30
0.0
  0
SPLINE
  5
115
330
6C
100
AcDbEntity
  8
_U+30EC_U+30A4_U+30E4_U+30FC 1
370
     0
100
AcDbSpline
210
0.0
220
0.0
230
1.0
 70
    11
 71
     3
 72
    17
 73
    13
 74
     0
 42
0.0000000001
 43
0.0000000001
 12
1.0
 22
0.0
 32
0.0
 13
1.0
 23
0.0
 33
0.0
 40
0.0
 40
0.0
 40
0.0
 40
0.0
 40
1.0
 40
1.0
 40
1.0
 40
2.0
 40
2.0
 40
2.0
 40
3.0
 40
3.0
 40
3.0
 40
4.0
 40
4.0
 40
4.0
 40
4.0
 10
185.7809081566798
 20
47.04415755173478
 30
0.0
 10
185.7809081566798
 20
47.88372732149017
 30
0.0
 10
185.5790255612442
 20
48.46284787256067
 30
0.0
 10
185.107736498862
 20
48.46284787256067
 30
0.0
 10
184.708105422573
 20
48.46284787256067
 30
0.0
 10
184.425263083234
 20
47.92851356279841
 30
0.0
 10
184.425263083234
 20
47.04415755173478
 30
0.0
 10
184.425263083234
 20
46.15980154067115
 30
0.0
 10
184.6722764295264
 20
45.59859548612395
 30
0.0
 10
185.0943006264695
 20
45.59859548612395
 30
0.0
 10
185.5924614336366
 20
45.59859548612395
 30
0.0
 10
185.7809081566798
 20
46.24489539915682
 30
0.0
 10
185.7809081566798
 20
47.04415755173478
 30
0.0
  0
HATCH
  5
116
330
6C
100
AcDbEntity
  8
_U+30EC_U+30A4_U+30E4_U+30FC 1
 62
     7
100
AcDbHatch
 10
0.0
 20
0.0
 30
0.0
210
0.0
220
0.0
230
1.0
  2
SOLID
 70
     1
 71
     0
 91
        2
 92
        1
 93
        1
 72
     4
 94
        3
 73
     0
 74
     1
 95
       17
 96
       13
 40
0.0
 40
0.0
 40
0.0
 40
0.0
 40
1.0
 40
1.0
 40
1.0
 40
2.0
 40
2.0
 40
2.0
 40
3.0
 40
3.0
 40
3.0
 40
4.0
 40
4.0
 40
4.0
 40
4.0
 10
184.0435465034683
 20
47.01728580694984
 10
184.0435465034683
 20
48.19344140561413
 10
184.501399693458
 20
48.76360470842297
 10
185.1301296195161
 20
48.76360470842297
 10
185.7674722842873
 20
48.76360470842297
 10
186.1581461123146
 20
48.16209103669836
 10
186.1581461123146
 20
47.06207204825808
 10
186.1581461123146
 20
45.89487369785544
 10
185.749557787764
 20
45.29336002613081
 10
185.0805202445285
 20
45.29336002613081
 10
184.4700493245422
 20
45.29336002613081
 10
184.0435465034683
 20
45.89487369785544
 10
184.0435465034683
 20
47.01728580694984
 97
        0
 92
        1
 93
        1
 72
     4
 94
        3
 73
     0
 74
     1
 95
       17
 96
       13
 40
0.0
 40
0.0
 40
0.0
 40
0.0
 40
1.0
 40
1.0
 40
1.0
 40
2.0
 40
2.0
 40
2.0
 40
3.0
 40
3.0
 40
3.0
 40
4.0
 40
4.0
 40
4.0
 40
4.0
 10
185.7809081566798
 20
47.04415755173478
 10
185.7809081566798
 20
47.88372732149017
 10
185.5790255612442
 20
48.46284787256067
 10
185.107736498862
 20
48.46284787256067
 10
184.708105422573
 20
48.46284787256067
 10
184.425263083234
 20
47.92851356279841
 10
184.425263083234
 20
47.04415755173478
 10
184.425263083234
 20
46.15980154067115
 10
184.6722764295264
 20
45.59859548612395
 10
185.0943006264695
 20
45.59859548612395
 10
185.5924614336366
 20
45.59859548612395
 10
185.7809081566798
 20
46.24489539915682
 10
185.7809081566798
 20
47.04415755173478
 97
        0
 75
     2
 76
     1
 98
        0
  0
SPLINE
  5
117
330
6C
100
AcDbEntity
  8
_U+30EC_U+30A4_U+30E4_U+30FC 1
370
     0
100
AcDbSpline
210
0.0
220
0.0
230
1.0
 70
    11
 71
     3
 72
    35
 73
    31
 74
     0
 42
0.0000000001
 43
0.0000000001
 12
1.0
 22
0.0
 32
0.0
 13
1.0
 23
0.0
 33
0.0
 40
0.0
 40
0.0
 40
0.0
 40
0.0
 40
1.0
 40
1.0
 40
1.0
 40
2.0
 40
2.0
 40
2.0
 40
3.0
 40
3.0
 40
3.0
 40
4.0
 40
4.0
 40
4.0
 40
5.0
 40
5.0
 40
5.0
 40
6.0
 40
6.0
 40
6.0
 40
7.0
 40
7.0
 40
7.0
 40
8.0
 40
8.0
 40
8.0
 40
9.0
 40
9.0
 40
9.0
 40
10.0
 40
10.0
 40
10.0
 40
10.0
 10
187.1806504523368
 20
47.12925141022045
 30
0.0
 10
186.8168483690944
 20
47.30460677041967
 30
0.0
 10
186.6552733908362
 20
47.60088498215116
 30
0.0
 10
186.6552733908362
 20
47.888205945621
 30
0.0
 10
186.6552733908362
 20
48.40875987344224
 30
0.0
 10
187.0638617153868
 20
48.76360470842297
 30
0.0
 10
187.6071532734107
 20
48.76360470842297
 30
0.0
 10
188.217624193397
 20
48.76360470842297
 30
0.0
 10
188.5094237809977
 20
48.35053775974152
 30
0.0
 10
188.5094237809977
 20
47.94642805932172
 30
0.0
 10
188.5094237809977
 20
47.65910709585188
 30
0.0
 10
188.3568060510011
 20
47.34491438759709
 30
0.0
 10
187.9571749747121
 20
47.1519890404231
 30
0.0
 10
187.9571749747121
 20
47.1519890404231
 30
0.0
 10
187.9571749747121
 20
47.13373003435128
 30
0.0
 10
187.9571749747121
 20
47.13373003435128
 30
0.0
 10
188.3702419233936
 20
46.95871918370059
 30
0.0
 10
188.6262125179476
 20
46.65796234783828
 30
0.0
 10
188.6262125179476
 20
46.25385264741847
 30
0.0
 10
188.6262125179476
 20
45.68368934460963
 30
0.0
 10
188.1594020796963
 20
45.29336002613081
 30
0.0
 10
187.5668456562333
 20
45.29336002613081
 30
0.0
 10
186.9246798577827
 20
45.29336002613081
 30
0.0
 10
186.5295274056246
 20
45.70160384113292
 30
0.0
 10
186.5295274056246
 20
46.1866732854561
 30
0.0
 10
186.5295274056246
 20
46.62213335479168
 30
0.0
 10
186.7899766243094
 20
46.93632606304647
 30
0.0
 10
187.1806504523368
 20
47.11133691369715
 30
0.0
 10
187.1806504523368
 20
47.11133691369715
 30
0.0
 10
187.1806504523368
 20
47.12925141022045
 30
0.0
 10
187.1806504523368
 20
47.12925141022045
 30
0.0
  0
SPLINE
  5
118
330
6C
100
AcDbEntity
  8
_U+30EC_U+30A4_U+30E4_U+30FC 1
370
     0
100
AcDbSpline
210
0.0
220
0.0
230
1.0
 70
    11
 71
     3
 72
    17
 73
    13
 74
     0
 42
0.0000000001
 43
0.0000000001
 12
1.0
 22
0.0
 32
0.0
 13
1.0
 23
0.0
 33
0.0
 40
0.0
 40
0.0
 40
0.0
 40
0.0
 40
1.0
 40
1.0
 40
1.0
 40
2.0
 40
2.0
 40
2.0
 40
3.0
 40
3.0
 40
3.0
 40
4.0
 40
4.0
 40
4.0
 40
4.0
 10
188.2444959381819
 20
46.21354503024105
 30
0.0
 10
188.2444959381819
 20
46.63556922718415
 30
0.0
 10
187.9616535988429
 20
46.85088769501227
 30
0.0
 10
187.5172362812457
 20
46.99454817674719
 30
0.0
 10
187.1220838290875
 20
46.86466807695327
 30
0.0
 10
186.9112439853903
 20
46.57734711348343
 30
0.0
 10
186.9112439853903
 20
46.24489539915682
 30
0.0
 10
186.9112439853903
 20
45.86352332893966
 30
0.0
 10
187.1672145799443
 20
45.571723741339
 30
0.0
 10
187.5713242803641
 20
45.571723741339
 30
0.0
 10
188.0023057255689
 20
45.571723741339
 30
0.0
 10
188.2444959381819
 20
45.86352332893966
 30
0.0
 10
188.2444959381819
 20
46.21354503024105
 30
0.0
  0
SPLINE
  5
119
330
6C
100
AcDbEntity
  8
_U+30EC_U+30A4_U+30E4_U+30FC 1
370
     0
100
AcDbSpline
210
0.0
220
0.0
230
1.0
 70
    11
 71
     3
 72
    17
 73
    13
 74
     0
 42
0.0000000001
 43
0.0000000001
 12
1.0
 22
0.0
 32
0.0
 13
1.0
 23
0.0
 33
0.0
 40
0.0
 40
0.0
 40
0.0
 40
0.0
 40
1.0
 40
1.0
 40
1.0
 40
2.0
 40
2.0
 40
2.0
 40
3.0
 40
3.0
 40
3.0
 40
4.0
 40
4.0
 40
4.0
 40
4.0
 10
187.0101182258169
 20
47.92403493866759
 30
0.0
 10
187.0056396016861
 20
47.56471147955603
 30
0.0
 10
187.2612656866916
 20
47.36730750825122
 30
0.0
 10
187.6340250181957
 20
47.25499739543207
 30
0.0
 10
187.9258246057963
 20
47.36730750825122
 30
0.0
 10
188.1459662073038
 20
47.59640635802033
 30
0.0
 10
188.1459662073038
 20
47.91507769040594
 30
0.0
 10
188.1459662073038
 20
48.19792002974496
 30
0.0
 10
187.9888698531764
 20
48.48971961734561
 30
0.0
 10
187.5937174010182
 20
48.48971961734561
 30
0.0
 10
187.2030435729909
 20
48.48971961734561
 30
0.0
 10
187.0101182258169
 20
48.21583452626825
 30
0.0
 10
187.0101182258169
 20
47.92403493866759
 30
0.0
  0
HATCH
  5
11A
330
6C
100
AcDbEntity
  8
_U+30EC_U+30A4_U+30E4_U+30FC 1
 62
     7
100
AcDbHatch
 10
0.0
 20
0.0
 30
0.0
210
0.0
220
0.0
230
1.0
  2
SOLID
 70
     1
 71
     0
 91
        3
 92
        1
 93
        1
 72
     4
 94
        3
 73
     0
 74
     1
 95
       35
 96
       31
 40
0.0
 40
0.0
 40
0.0
 40
0.0
 40
1.0
 40
1.0
 40
1.0
 40
2.0
 40
2.0
 40
2.0
 40
3.0
 40
3.0
 40
3.0
 40
4.0
 40
4.0
 40
4.0
 40
5.0
 40
5.0
 40
5.0
 40
6.0
 40
6.0
 40
6.0
 40
7.0
 40
7.0
 40
7.0
 40
8.0
 40
8.0
 40
8.0
 40
9.0
 40
9.0
 40
9.0
 40
10.0
 40
10.0
 40
10.0
 40
10.0
 10
187.1806504523368
 20
47.12925141022045
 10
186.8168483690944
 20
47.30460677041967
 10
186.6552733908362
 20
47.60088498215116
 10
186.6552733908362
 20
47.888205945621
 10
186.6552733908362
 20
48.40875987344224
 10
187.0638617153868
 20
48.76360470842297
 10
187.6071532734107
 20
48.76360470842297
 10
188.217624193397
 20
48.76360470842297
 10
188.5094237809977
 20
48.35053775974152
 10
188.5094237809977
 20
47.94642805932172
 10
188.5094237809977
 20
47.65910709585188
 10
188.3568060510011
 20
47.34491438759709
 10
187.9571749747121
 20
47.1519890404231
 10
187.9571749747121
 20
47.1519890404231
 10
187.9571749747121
 20
47.13373003435128
 10
187.9571749747121
 20
47.13373003435128
 10
188.3702419233936
 20
46.95871918370059
 10
188.6262125179476
 20
46.65796234783828
 10
188.6262125179476
 20
46.25385264741847
 10
188.6262125179476
 20
45.68368934460963
 10
188.1594020796963
 20
45.29336002613081
 10
187.5668456562333
 20
45.29336002613081
 10
186.9246798577827
 20
45.29336002613081
 10
186.5295274056246
 20
45.70160384113292
 10
186.5295274056246
 20
46.1866732854561
 10
186.5295274056246
 20
46.62213335479168
 10
186.7899766243094
 20
46.93632606304647
 10
187.1806504523368
 20
47.11133691369715
 10
187.1806504523368
 20
47.11133691369715
 10
187.1806504523368
 20
47.12925141022045
 10
187.1806504523368
 20
47.12925141022045
 97
        0
 92
        1
 93
        1
 72
     4
 94
        3
 73
     0
 74
     1
 95
       17
 96
       13
 40
0.0
 40
0.0
 40
0.0
 40
0.0
 40
1.0
 40
1.0
 40
1.0
 40
2.0
 40
2.0
 40
2.0
 40
3.0
 40
3.0
 40
3.0
 40
4.0
 40
4.0
 40
4.0
 40
4.0
 10
188.2444959381819
 20
46.21354503024105
 10
188.2444959381819
 20
46.63556922718415
 10
187.9616535988429
 20
46.85088769501227
 10
187.5172362812457
 20
46.99454817674719
 10
187.1220838290875
 20
46.86466807695327
 10
186.9112439853903
 20
46.57734711348343
 10
186.9112439853903
 20
46.24489539915682
 10
186.9112439853903
 20
45.86352332893966
 10
187.1672145799443
 20
45.571723741339
 10
187.5713242803641
 20
45.571723741339
 10
188.0023057255689
 20
45.571723741339
 10
188.2444959381819
 20
45.86352332893966
 10
188.2444959381819
 20
46.21354503024105
 97
        0
 92
        1
 93
        1
 72
     4
 94
        3
 73
     0
 74
     1
 95
       17
 96
       13
 40
0.0
 40
0.0
 40
0.0
 40
0.0
 40
1.0
 40
1.0
 40
1.0
 40
2.0
 40
2.0
 40
2.0
 40
3.0
 40
3.0
 40
3.0
 40
4.0
 40
4.0
 40
4.0
 40
4.0
 10
187.0101182258169
 20
47.92403493866759
 10
187.0056396016861
 20
47.56471147955603
 10
187.2612656866916
 20
47.36730750825122
 10
187.6340250181957
 20
47.25499739543207
 10
187.9258246057963
 20
47.36730750825122
 10
188.1459662073038
 20
47.59640635802033
 10
188.1459662073038
 20
47.91507769040594
 10
188.1459662073038
 20
48.19792002974496
 10
187.9888698531764
 20
48.48971961734561
 10
187.5937174010182
 20
48.48971961734561
 10
187.2030435729909
 20
48.48971961734561
 10
187.0101182258169
 20
48.21583452626825
 10
187.0101182258169
 20
47.92403493866759
 97
        0
 75
     2
 76
     1
 98
        0
  0
ENDBLK
  5
6F
330
6C
100
AcDbEntity
  8
0
100
AcDbBlockEnd
  0
ENDSEC
  0
SECTION
  2
ENTITIES
  0
SPLINE
  5
41
330
1F
100
AcDbEntity
  8
_U+30EC_U+30A4_U+30E4_U+30FC 1
 62
     7
370
     5
100
AcDbSpline
210
0.0
220
0.0
230
1.0
 70
     8
 71
     3
 72
    23
 73
    19
 74
     0
 42
0.0000000001
 43
0.0000000001
 12
1.0
 22
0.0
 32
0.0
 13
1.0
 23
0.0
 33
0.0
 40
0.0
 40
0.0
 40
0.0
 40
0.0
 40
1.0
 40
1.0
 40
1.0
 40
2.0
 40
2.0
 40
2.0
 40
3.0
 40
3.0
 40
3.0
 40
4.0
 40
4.0
 40
4.0
 40
5.0
 40
5.0
 40
5.0
 40
6.0
 40
6.0
 40
6.0
 40
6.0
 10
179.1156801526005
 20
83.4071420387732
 30
0.0
 10
179.1156801526005
 20
83.4071420387732
 30
0.0
 10
179.4167805107016
 20
83.35062704021502
 30
0.0
 10
179.4167805107016
 20
83.35062704021502
 30
0.0
 10
180.811694553776
 20
83.35062704021502
 30
0.0
 10
181.9416770249478
 20
84.47856340032784
 30
0.0
 10
181.9416770249478
 20
85.86487419829345
 30
0.0
 10
181.9416770249478
 20
85.86487419829345
 30
0.0
 10
181.9416770249478
 20
141.7155569400905
 30
0.0
 10
181.9416770249478
 20
141.7155569400905
 30
0.0
 10
181.9416770249478
 20
143.1063480157196
 30
0.0
 10
180.811694553776
 20
144.2320265981122
 30
0.0
 10
179.4167805107016
 20
144.2320265981122
 30
0.0
 10
179.4167805107016
 20
144.2320265981122
 30
0.0
 10
131.2812019285156
 20
148.6734281514693
 30
0.0
 10
131.2812019285156
 20
148.6734281514693
 30
0.0
 10
130.0537469598303
 20
148.6734281514693
 30
0.0
 10
129.0339722636247
 20
147.7968459516105
 30
0.0
 10
128.8103817137734
 20
146.6351487590257
 30
0.0
  0
SPLINE
  5
42
330
1F
100
AcDbEntity
  8
_U+30EC_U+30A4_U+30E4_U+30FC 1
 62
     7
370
     5
100
AcDbSpline
210
0.0
220
0.0
230
1.0
 70
     8
 71
     3
 72
    23
 73
    19
 74
     0
 42
0.0000000001
 43
0.0000000001
 12
1.0
 22
0.0
 32
0.0
 13
1.0
 23
0.0
 33
0.0
 40
0.0
 40
0.0
 40
0.0
 40
0.0
 40
1.0
 40
1.0
 40
1.0
 40
2.0
 40
2.0
 40
2.0
 40
3.0
 40
3.0
 40
3.0
 40
4.0
 40
4.0
 40
4.0
 40
5.0
 40
5.0
 40
5.0
 40
6.0
 40
6.0
 40
6.0
 40
6.0
 10
168.4985862567985
 20
79.26546047776964
 30
0.0
 10
169.2851042922883
 20
79.62924491293316
 30
0.0
 10
173.4019855761468
 20
81.52613097565067
 30
0.0
 10
176.2080152267812
 20
82.72225927846823
 30
0.0
 10
176.2080152267812
 20
82.72225927846823
 30
0.0
 10
180.333186788206
 20
83.41402120526436
 30
0.0
 10
180.4196526193334
 20
84.19263701873355
 30
0.0
 10
180.5061184504608
 20
84.97188783218654
 30
0.0
 10
180.4196526193334
 20
139.9868082983367
 30
0.0
 10
180.4196526193334
 20
139.9868082983367
 30
0.0
 10
180.4196526193334
 20
139.9868082983367
 30
0.0
 10
180.5330001164417
 20
142.4655624765118
 30
0.0
 10
178.3439832887472
 20
142.5818027513241
 30
0.0
 10
178.3439832887472
 20
142.5818027513241
 30
0.0
 10
130.9404891594298
 20
147.4259706832946
 30
0.0
 10
130.9404891594298
 20
147.4259706832946
 30
0.0
 10
130.9404891594298
 20
147.4259706832946
 30
0.0
 10
128.4452214453116
 20
146.1783368262355
 30
0.0
 10
122.9588921408351
 20
145.337036074777
 30
0.0
  0
POLYLINE
  5
43
330
1F
100
AcDbEntity
  8
_U+30EC_U+30A4_U+30E4_U+30FC 1
 62
     7
370
     5
100
AcDb2dPolyline
 66
     1
 10
0.0
 20
0.0
 30
0.0
  0
VERTEX
  5
44
330
43
100
AcDbEntity
  8
_U+30EC_U+30A4_U+30E4_U+30FC 1
 62
     7
370
     5
100
AcDbVertex
100
AcDb2dVertex
 10
175.4376896908783
 20
95.85839811000407
 30
0.0
  0
VERTEX
  5
45
330
43
100
AcDbEntity
  8
_U+30EC_U+30A4_U+30E4_U+30FC 1
 62
     7
370
     5
100
AcDbVertex
100
AcDb2dVertex
 10
175.5351974661685
 20
83.64554925491315
 30
0.0
  0
SEQEND
  5
46
330
43
100
AcDbEntity
  8
_U+30EC_U+30A4_U+30E4_U+30FC 1
 62
     7
370
     5
  0
POLYLINE
  5
47
330
1F
100
AcDbEntity
  8
_U+30EC_U+30A4_U+30E4_U+30FC 1
 62
     7
370
     5
100
AcDb2dPolyline
 66
     1
 10
0.0
 20
0.0
 30
0.0
  0
VERTEX
  5
48
330
47
100
AcDbEntity
  8
_U+30EC_U+30A4_U+30E4_U+30FC 1
 62
     7
370
     5
100
AcDbVertex
100
AcDb2dVertex
 10
175.4376896908783
 20
134.1141166331382
 30
0.0
  0
VERTEX
  5
49
330
47
100
AcDbEntity
  8
_U+30EC_U+30A4_U+30E4_U+30FC 1
 62
     7
370
     5
100
AcDbVertex
100
AcDb2dVertex
 10
175.4376896908783
 20
99.14297080398542
 30
0.0
  0
SEQEND
  5
4A
330
47
100
AcDbEntity
  8
_U+30EC_U+30A4_U+30E4_U+30FC 1
 62
     7
370
     5
  0
SPLINE
  5
4B
330
1F
100
AcDbEntity
  8
_U+30EC_U+30A4_U+30E4_U+30FC 1
 62
     7
370
     5
100
AcDbSpline
210
0.0
220
0.0
230
1.0
 70
     8
 71
     3
 72
    11
 73
     7
 74
     0
 42
0.0000000001
 43
0.0000000001
 12
1.0
 22
0.0
 32
0.0
 13
1.0
 23
0.0
 33
0.0
 40
0.0
 40
0.0
 40
0.0
 40
0.0
 40
1.0
 40
1.0
 40
1.0
 40
2.0
 40
2.0
 40
2.0
 40
2.0
 10
168.6553254194664
 20
138.6027164639501
 30
0.0
 10
168.6553254194664
 20
138.6027164639501
 30
0.0
 10
172.115581442299
 20
138.7758597928662
 30
0.0
 10
174.3645397182567
 20
139.6407332984233
 30
0.0
 10
176.6138507719831
 20
140.5058114153981
 30
0.0
 10
178.5165929456623
 20
141.3706813933335
 30
0.0
 10
178.5165929456623
 20
141.3706813933335
 30
0.0
  0
SPLINE
  5
4C
330
1F
100
AcDbEntity
  8
_U+30EC_U+30A4_U+30E4_U+30FC 1
 62
     7
370
     5
100
AcDbSpline
210
0.0
220
0.0
230
1.0
 70
    11
 71
     3
 72
    29
 73
    25
 74
     0
 42
0.0000000001
 43
0.0000000001
 12
1.0
 22
0.0
 32
0.0
 13
1.0
 23
0.0
 33
0.0
 40
0.0
 40
0.0
 40
0.0
 40
0.0
 40
1.0
 40
1.0
 40
1.0
 40
2.0
 40
2.0
 40
2.0
 40
3.0
 40
3.0
 40
3.0
 40
4.0
 40
4.0
 40
4.0
 40
5.0
 40
5.0
 40
5.0
 40
6.0
 40
6.0
 40
6.0
 40
7.0
 40
7.0
 40
7.0
 40
8.0
 40
8.0
 40
8.0
 40
8.0
 10
113.2509771107269
 20
88.37358274540208
 30
0.0
 10
113.2509771107269
 20
86.8839433389615
 30
0.0
 10
114.4564187466402
 20
85.67539725868296
 30
0.0
 10
115.9460610821247
 20
85.67539725868296
 30
0.0
 10
115.9460610821247
 20
85.67539725868296
 30
0.0
 10
165.8034699366677
 20
76.06841386987193
 30
0.0
 10
165.8034699366677
 20
76.06841386987193
 30
0.0
 10
167.2903971803999
 20
76.06841386987193
 30
0.0
 10
168.4985862567985
 20
77.2741710841272
 30
0.0
 10
168.4985862567985
 20
78.76384576834467
 30
0.0
 10
168.4985862567985
 20
78.76384576834467
 30
0.0
 10
168.4985862567985
 20
138.5553736873802
 30
0.0
 10
168.4985862567985
 20
138.5553736873802
 30
0.0
 10
168.4985862567985
 20
140.0448367049363
 30
0.0
 10
167.2903971803999
 20
141.2530300074461
 30
0.0
 10
165.8034699366677
 20
141.2530300074461
 30
0.0
 10
165.8034699366677
 20
141.2530300074461
 30
0.0
 10
115.9460610821247
 20
146.0053698862038
 30
0.0
 10
115.9460610821247
 20
146.0053698862038
 30
0.0
 10
114.4564187466402
 20
146.0053698862038
 30
0.0
 10
113.2509771107269
 20
144.799787139183
 30
0.0
 10
113.2509771107269
 20
143.3102888438503
 30
0.0
 10
113.2509771107269
 20
143.3102888438503
 30
0.0
 10
113.2509771107269
 20
88.37358274540208
 30
0.0
 10
113.2509771107269
 20
88.37358274540208
 30
0.0
  0
SPLINE
  5
4D
330
1F
100
AcDbEntity
  8
_U+30EC_U+30A4_U+30E4_U+30FC 1
370
     0
100
AcDbSpline
210
0.0
220
0.0
230
1.0
 70
    11
 71
     3
 72
    29
 73
    25
 74
     0
 42
0.0000000001
 43
0.0000000001
 12
1.0
 22
0.0
 32
0.0
 13
1.0
 23
0.0
 33
0.0
 40
0.0
 40
0.0
 40
0.0
 40
0.0
 40
1.0
 40
1.0
 40
1.0
 40
2.0
 40
2.0
 40
2.0
 40
3.0
 40
3.0
 40
3.0
 40
4.0
 40
4.0
 40
4.0
 40
5.0
 40
5.0
 40
5.0
 40
6.0
 40
6.0
 40
6.0
 40
7.0
 40
7.0
 40
7.0
 40
8.0
 40
8.0
 40
8.0
 40
8.0
 10
116.6705578568194
 20
89.25207219990907
 30
0.0
 10
116.6705578568194
 20
88.75599384675706
 30
0.0
 10
117.0705372910596
 20
88.35428580144993
 30
0.0
 10
117.5652728339933
 20
88.35428580144993
 30
0.0
 10
117.5652728339933
 20
88.35428580144993
 30
0.0
 10
163.9142038737558
 20
80.26382156341043
 30
0.0
 10
163.9142038737558
 20
80.26382156341043
 30
0.0
 10
164.4085555144537
 20
80.26382156341043
 30
0.0
 10
164.8116352397493
 20
80.66690544201579
 30
0.0
 10
164.8116352397493
 20
81.16301681824783
 30
0.0
 10
164.8116352397493
 20
81.16301681824783
 30
0.0
 10
164.8116352397493
 20
136.2171626359218
 30
0.0
 10
164.8116352397493
 20
136.2171626359218
 30
0.0
 10
164.8116352397493
 20
136.714649845452
 30
0.0
 10
164.4085555144537
 20
137.1173809462886
 30
0.0
 10
163.9142038737558
 20
137.1173809462886
 30
0.0
 10
163.9142038737558
 20
137.1173809462886
 30
0.0
 10
117.5652728339933
 20
142.2519555375169
 30
0.0
 10
117.5652728339933
 20
142.2519555375169
 30
0.0
 10
117.0705372910596
 20
142.2519555375169
 30
0.0
 10
116.6705578568194
 20
141.8506002699786
 30
0.0
 10
116.6705578568194
 20
141.3531166313283
 30
0.0
 10
116.6705578568194
 20
141.3531166313283
 30
0.0
 10
116.6705578568194
 20
89.25207219990907
 30
0.0
 10
116.6705578568194
 20
89.25207219990907
 30
0.0
  0
SPLINE
  5
4E
330
1F
100
AcDbEntity
  8
_U+30EC_U+30A4_U+30E4_U+30FC 1
 62
     7
370
     5
100
AcDbSpline
210
0.0
220
0.0
230
1.0
 70
    11
 71
     3
 72
    29
 73
    25
 74
     0
 42
0.0000000001
 43
0.0000000001
 12
1.0
 22
0.0
 32
0.0
 13
1.0
 23
0.0
 33
0.0
 40
0.0
 40
0.0
 40
0.0
 40
0.0
 40
1.0
 40
1.0
 40
1.0
 40
2.0
 40
2.0
 40
2.0
 40
3.0
 40
3.0
 40
3.0
 40
4.0
 40
4.0
 40
4.0
 40
5.0
 40
5.0
 40
5.0
 40
6.0
 40
6.0
 40
6.0
 40
7.0
 40
7.0
 40
7.0
 40
8.0
 40
8.0
 40
8.0
 40
8.0
 10
116.6705578568194
 20
89.25207219990907
 30
0.0
 10
116.6705578568194
 20
88.75599384675706
 30
0.0
 10
117.0705372910596
 20
88.35428580144993
 30
0.0
 10
117.5652728339933
 20
88.35428580144993
 30
0.0
 10
117.5652728339933
 20
88.35428580144993
 30
0.0
 10
163.9142038737558
 20
80.26382156341043
 30
0.0
 10
163.9142038737558
 20
80.26382156341043
 30
0.0
 10
164.4085555144537
 20
80.26382156341043
 30
0.0
 10
164.8116352397493
 20
80.66690544201579
 30
0.0
 10
164.8116352397493
 20
81.16301681824783
 30
0.0
 10
164.8116352397493
 20
81.16301681824783
 30
0.0
 10
164.8116352397493
 20
136.2171626359218
 30
0.0
 10
164.8116352397493
 20
136.2171626359218
 30
0.0
 10
164.8116352397493
 20
136.714649845452
 30
0.0
 10
164.4085555144537
 20
137.1173809462886
 30
0.0
 10
163.9142038737558
 20
137.1173809462886
 30
0.0
 10
163.9142038737558
 20
137.1173809462886
 30
0.0
 10
117.5652728339933
 20
142.2519555375169
 30
0.0
 10
117.5652728339933
 20
142.2519555375169
 30
0.0
 10
117.0705372910596
 20
142.2519555375169
 30
0.0
 10
116.6705578568194
 20
141.8506002699786
 30
0.0
 10
116.6705578568194
 20
141.3531166313283
 30
0.0
 10
116.6705578568194
 20
141.3531166313283
 30
0.0
 10
116.6705578568194
 20
89.25207219990907
 30
0.0
 10
116.6705578568194
 20
89.25207219990907
 30
0.0
  0
INSERT
  5
50
330
1F
100
AcDbEntity
  8
_U+30EC_U+30A4_U+30E4_U+30FC 1
100
AcDbBlockReference
  2
block 2
 10
0.0
 20
0.0
 30
0.0
  0
INSERT
  5
6D
330
1F
100
AcDbEntity
  8
_U+30EC_U+30A4_U+30E4_U+30FC 1
100
AcDbBlockReference
  2
block 3
 10
0.0
 20
0.0
 30
0.0
  0
ENDSEC
  0
SECTION
  2
OBJECTS
  0
DICTIONARY
  5
C
330
0
100
AcDbDictionary
281
     1
  3
ACAD_GROUP
350
D
  3
ACAD_LAYOUT
350
1A
  3
ACAD_MATERIAL
350
3B
  3
ACAD_MLEADERSTYLE
350
13C
  3
ACAD_MLINESTYLE
350
17
  3
ACAD_PLOTSETTINGS
350
19
  3
ACAD_PLOTSTYLENAME
350
E
  3
ACAD_TABLESTYLE
350
13B
  3
ACAD_VISUALSTYLE
350
2A
  0
SUN
  5
3F
330
29
100
AcDbSun
 90
        1
290
     0
 63
     7
421
 16777215
 40
1.0
291
     1
 91
  2455826
 92
 54000000
292
     0
 70
     2
 71
   256
280
     1
  0
DICTIONARY
  5
D
102
{ACAD_REACTORS
330
C
102
}
330
C
100
AcDbDictionary
281
     1
  0
DICTIONARY
  5
1A
102
{ACAD_REACTORS
330
C
102
}
330
C
100
AcDbDictionary
281
     1
  3
Layout1
350
1E
  3
Layout2
350
26
  3
Model
350
22
  0
DICTIONARY
  5
3B
102
{ACAD_REACTORS
330
C
102
}
330
C
100
AcDbDictionary
281
     1
  3
ByBlock
350
3D
  3
ByLayer
350
3C
  3
Global
350
3E
  0
DICTIONARY
  5
13C
102
{ACAD_REACTORS
330
C
102
}
330
C
100
AcDbDictionary
281
     1
  0
DICTIONARY
  5
17
102
{ACAD_REACTORS
330
C
102
}
330
C
100
AcDbDictionary
281
     1
  3
Standard
350
18
  0
DICTIONARY
  5
19
102
{ACAD_REACTORS
330
C
102
}
330
C
100
AcDbDictionary
281
     1
  0
ACDBDICTIONARYWDFLT
  5
E
102
{ACAD_REACTORS
330
C
102
}
330
C
100
AcDbDictionary
281
     1
  3
Normal
350
F
100
AcDbDictionaryWithDefault
340
F
  0
DICTIONARY
  5
13B
102
{ACAD_REACTORS
330
C
102
}
330
C
100
AcDbDictionary
281
     1
  0
DICTIONARY
  5
2A
102
{ACAD_REACTORS
330
C
102
}
330
C
100
AcDbDictionary
281
     1
  3
2dWireframe
350
2F
  3
3D Hidden
350
31
  3
3dWireframe
350
30
  3
Basic
350
32
  3
Brighten
350
36
  3
ColorChange
350
3A
  3
Conceptual
350
34
  3
Dim
350
35
  3
Facepattern
350
39
  3
Flat
350
2B
  3
FlatWithEdges
350
2C
  3
Gouraud
350
2D
  3
GouraudWithEdges
350
2E
  3
Linepattern
350
38
  3
Realistic
350
33
  3
Thicken
350
37
  0
LAYOUT
  5
1E
102
{ACAD_REACTORS
330
1A
102
}
330
1A
100
AcDbPlotSettings
  1

  2
none_device
  4

  6

 40
0.0
 41
0.0
 42
0.0
 43
0.0
 44
0.0
 45
0.0
 46
0.0
 47
0.0
 48
0.0
 49
0.0
140
0.0
141
0.0
142
1.0
143
1.0
 70
   688
 72
     0
 73
     0
 74
     5
  7

 75
    16
 76
     0
 77
     2
 78
   300
147
1.0
148
0.0
149
0.0
100
AcDbLayout
  1
Layout1
 70
     1
 71
     1
 10
0.0
 20
0.0
 11
12.0
 21
9.0
 12
0.0
 22
0.0
 32
0.0
 14
1.000000000000000E+20
 24
1.000000000000000E+20
 34
1.000000000000000E+20
 15
-1.000000000000000E+20
 25
-1.000000000000000E+20
 35
-1.000000000000000E+20
146
0.0
 13
0.0
 23
0.0
 33
0.0
 16
1.0
 26
0.0
 36
0.0
 17
0.0
 27
1.0
 37
0.0
 76
     0
330
1B
  0
LAYOUT
  5
26
102
{ACAD_REACTORS
330
1A
102
}
330
1A
100
AcDbPlotSettings
  1

  2
none_device
  4

  6

 40
0.0
 41
0.0
 42
0.0
 43
0.0
 44
0.0
 45
0.0
 46
0.0
 47
0.0
 48
0.0
 49
0.0
140
0.0
141
0.0
142
1.0
143
1.0
 70
   688
 72
     0
 73
     0
 74
     5
  7

 75
    16
 76
     0
 77
     2
 78
   300
147
1.0
148
0.0
149
0.0
100
AcDbLayout
  1
Layout2
 70
     1
 71
     2
 10
0.0
 20
0.0
 11
0.0
 21
0.0
 12
0.0
 22
0.0
 32
0.0
 14
0.0
 24
0.0
 34
0.0
 15
0.0
 25
0.0
 35
0.0
146
0.0
 13
0.0
 23
0.0
 33
0.0
 16
1.0
 26
0.0
 36
0.0
 17
0.0
 27
1.0
 37
0.0
 76
     0
330
23
  0
LAYOUT
  5
22
102
{ACAD_REACTORS
330
1A
102
}
330
1A
100
AcDbPlotSettings
  1

  2
none_device
  4

  6

 40
0.0
 41
0.0
 42
0.0
 43
0.0
 44
0.0
 45
0.0
 46
0.0
 47
0.0
 48
0.0
 49
0.0
140
0.0
141
0.0
142
1.0
143
1.0
 70
  1712
 72
     0
 73
     0
 74
     0
  7

 75
     0
 76
     0
 77
     2
 78
   300
147
1.0
148
0.0
149
0.0
100
AcDbLayout
  1
Model
 70
     1
 71
     0
 10
0.0
 20
0.0
 11
12.0
 21
9.0
 12
0.0
 22
0.0
 32
0.0
 14
1.000000000000000E+20
 24
1.000000000000000E+20
 34
1.000000000000000E+20
 15
-1.000000000000000E+20
 25
-1.000000000000000E+20
 35
-1.000000000000000E+20
146
0.0
 13
0.0
 23
0.0
 33
0.0
 16
1.0
 26
0.0
 36
0.0
 17
0.0
 27
1.0
 37
0.0
 76
     0
330
1F
331
29
  0
MATERIAL
  5
3D
102
{ACAD_REACTORS
330
3B
102
}
330
3B
100
AcDbMaterial
  1
ByBlock
 72
     1
 94
      127
  0
MATERIAL
  5
3C
102
{ACAD_REACTORS
330
3B
102
}
330
3B
100
AcDbMaterial
  1
ByLayer
 72
     1
 94
      127
  0
MATERIAL
  5
3E
102
{ACAD_REACTORS
330
3B
102
}
330
3B
100
AcDbMaterial
  1
Global
 72
     1
 94
      127
  0
MLINESTYLE
  5
18
102
{ACAD_REACTORS
330
17
102
}
330
17
100
AcDbMlineStyle
  2
Standard
 70
     0
  3

 62
   256
 51
90.0
 52
90.0
 71
     2
 49
0.5
 62
   256
  6
BYLAYER
 49
-0.5
 62
   256
  6
BYLAYER
  0
ACDBPLACEHOLDER
  5
F
102
{ACAD_REACTORS
330
E
102
}
330
E
  0
VISUALSTYLE
  5
2F
102
{ACAD_REACTORS
330
2A
102
}
102
{ACAD_XDICTIONARY
360
123
102
}
330
2A
100
AcDbVisualStyle
  2
2dWireframe
 70
     4
 71
     0
 72
     2
 73
     0
 90
        0
 40
-0.6
 41
-30.0
 62
     5
 63
     7
421
 16777215
 74
     1
 91
        4
 64
     7
 65
   257
 75
     1
175
     1
 42
1.0
 92
        0
 66
   257
 43
1.0
 76
     1
 77
     6
 78
     2
 67
     7
 79
     5
170
     0
171
     0
290
     0
174
     0
 93
        1
 44
0.0
173
     0
291
     0
 45
0.0
  0
VISUALSTYLE
  5
31
102
{ACAD_REACTORS
330
2A
102
}
102
{ACAD_XDICTIONARY
360
127
102
}
330
2A
100
AcDbVisualStyle
  2
3D Hidden
 70
     6
 71
     1
 72
     2
 73
     2
 90
        0
 40
-0.6
 41
-30.0
 62
     5
 63
     7
421
 16777215
 74
     2
 91
        2
 64
     7
 65
   257
 75
     2
175
     1
 42
40.0
 92
        0
 66
   257
 43
1.0
 76
     1
 77
     6
 78
     2
 67
     7
 79
     3
170
     0
171
     0
290
     0
174
     0
 93
        1
 44
0.0
173
     0
291
     0
 45
0.0
  0
VISUALSTYLE
  5
30
102
{ACAD_REACTORS
330
2A
102
}
102
{ACAD_XDICTIONARY
360
125
102
}
330
2A
100
AcDbVisualStyle
  2
3dWireframe
 70
     5
 71
     0
 72
     2
 73
     0
 90
        0
 40
-0.6
 41
-30.0
 62
     5
 63
     7
421
 16777215
 74
     1
 91
        4
 64
     7
 65
   257
 75
     1
175
     1
 42
1.0
 92
        0
 66
   257
 43
1.0
 76
     1
 77
     6
 78
     2
 67
     7
 79
     5
170
     0
171
     0
290
     0
174
     0
 93
        1
 44
0.0
173
     0
291
     0
 45
0.0
  0
VISUALSTYLE
  5
32
102
{ACAD_REACTORS
330
2A
102
}
102
{ACAD_XDICTIONARY
360
129
102
}
330
2A
100
AcDbVisualStyle
  2
Basic
 70
     7
 71
     1
 72
     0
 73
     1
 90
        0
 40
-0.6
 41
-30.0
 62
     5
 63
     7
421
 16777215
 74
     0
 91
        4
 64
     7
 65
   257
 75
     1
175
     1
 42
1.0
 92
        8
 66
     7
 43
1.0
 76
     1
 77
     6
 78
     2
 67
     7
 79
     5
170
     0
171
     0
290
     0
174
     0
 93
        1
 44
0.0
173
     0
291
     1
 45
0.0
  0
VISUALSTYLE
  5
36
102
{ACAD_REACTORS
330
2A
102
}
102
{ACAD_XDICTIONARY
360
131
102
}
330
2A
100
AcDbVisualStyle
  2
Brighten
 70
    12
 71
     2
 72
     2
 73
     0
 90
        0
 40
-0.6
 41
-30.0
 62
     5
 63
     7
421
 16777215
 74
     1
 91
        4
 64
     7
 65
   257
 75
     1
175
     1
 42
1.0
 92
        8
 66
     7
 43
1.0
 76
     1
 77
     6
 78
     2
 67
     7
 79
     5
170
     0
171
     0
290
     0
174
     0
 93
        1
 44
50.0
173
     0
291
     1
 45
0.0
  0
VISUALSTYLE
  5
3A
102
{ACAD_REACTORS
330
2A
102
}
102
{ACAD_XDICTIONARY
360
139
102
}
330
2A
100
AcDbVisualStyle
  2
ColorChange
 70
    16
 71
     2
 72
     2
 73
     3
 90
        0
 40
-0.6
 41
-30.0
 62
     5
 63
     8
421
  8421504
 74
     1
 91
        4
 64
     7
 65
   257
 75
     1
175
     1
 42
1.0
 92
        8
 66
     8
424
  8421504
 43
1.0
 76
     1
 77
     6
 78
     2
 67
     7
 79
     5
170
     0
171
     0
290
     0
174
     0
 93
        1
 44
0.0
173
     0
291
     1
 45
0.0
  0
VISUALSTYLE
  5
34
102
{ACAD_REACTORS
330
2A
102
}
102
{ACAD_XDICTIONARY
360
12D
102
}
330
2A
100
AcDbVisualStyle
  2
Conceptual
 70
     9
 71
     3
 72
     2
 73
     0
 90
        0
 40
-0.6
 41
-30.0
 62
     5
 63
     7
421
 16777215
 74
     2
 91
        2
 64
     7
 65
   257
 75
     1
175
     1
 42
40.0
 92
        8
 66
     7
 43
1.0
 76
     1
 77
     6
 78
     2
 67
     7
 79
     3
170
     0
171
     0
290
     0
174
     0
 93
        1
 44
0.0
173
     0
291
     0
 45
0.0
  0
VISUALSTYLE
  5
35
102
{ACAD_REACTORS
330
2A
102
}
102
{ACAD_XDICTIONARY
360
12F
102
}
330
2A
100
AcDbVisualStyle
  2
Dim
 70
    11
 71
     2
 72
     2
 73
     0
 90
        0
 40
-0.6
 41
-30.0
 62
     5
 63
     7
421
 16777215
 74
     1
 91
        4
 64
     7
 65
   257
 75
     1
175
     1
 42
1.0
 92
        8
 66
     7
 43
1.0
 76
     1
 77
     6
 78
     2
 67
     7
 79
     5
170
     0
171
     0
290
     0
174
     0
 93
        1
 44
-50.0
173
     0
291
     1
 45
0.0
  0
VISUALSTYLE
  5
39
102
{ACAD_REACTORS
330
2A
102
}
102
{ACAD_XDICTIONARY
360
137
102
}
330
2A
100
AcDbVisualStyle
  2
Facepattern
 70
    15
 71
     2
 72
     2
 73
     0
 90
        0
 40
-0.6
 41
-30.0
 62
     5
 63
     7
421
 16777215
 74
     1
 91
        4
 64
     7
 65
   257
 75
     1
175
     1
 42
1.0
 92
        8
 66
     7
 43
1.0
 76
     1
 77
     6
 78
     2
 67
     7
 79
     5
170
     0
171
     0
290
     0
174
     0
 93
        1
 44
0.0
173
     0
291
     1
 45
0.0
  0
VISUALSTYLE
  5
2B
102
{ACAD_REACTORS
330
2A
102
}
102
{ACAD_XDICTIONARY
360
11B
102
}
330
2A
100
AcDbVisualStyle
  2
Flat
 70
     0
 71
     2
 72
     1
 73
     1
 90
        2
 40
-0.6
 41
30.0
 62
     5
 63
     7
421
 16777215
 74
     0
 91
        4
 64
     7
 65
   257
 75
     1
175
     1
 42
1.0
 92
        8
 66
     7
 43
1.0
 76
     1
 77
     6
 78
     2
 67
     7
 79
     5
170
     0
171
     0
290
     0
174
     0
 93
       13
 44
0.0
173
     0
291
     1
 45
0.0
  0
VISUALSTYLE
  5
2C
102
{ACAD_REACTORS
330
2A
102
}
102
{ACAD_XDICTIONARY
360
11D
102
}
330
2A
100
AcDbVisualStyle
  2
FlatWithEdges
 70
     1
 71
     2
 72
     1
 73
     1
 90
        2
 40
-0.6
 41
30.0
 62
     5
 63
     7
421
 16777215
 74
     1
 91
        4
 64
     7
 65
   257
 75
     1
175
     1
 42
1.0
 92
        0
 66
   257
 43
1.0
 76
     1
 77
     6
 78
     2
 67
     7
 79
     5
170
     0
171
     0
290
     0
174
     0
 93
       13
 44
0.0
173
     0
291
     1
 45
0.0
  0
VISUALSTYLE
  5
2D
102
{ACAD_REACTORS
330
2A
102
}
102
{ACAD_XDICTIONARY
360
11F
102
}
330
2A
100
AcDbVisualStyle
  2
Gouraud
 70
     2
 71
     2
 72
     2
 73
     1
 90
        2
 40
-0.6
 41
30.0
 62
     5
 63
     7
421
 16777215
 74
     0
 91
        4
 64
     7
 65
   257
 75
     1
175
     1
 42
1.0
 92
        0
 66
     7
 43
1.0
 76
     1
 77
     6
 78
     2
 67
     7
 79
     5
170
     0
171
     0
290
     0
174
     0
 93
       13
 44
0.0
173
     0
291
     1
 45
0.0
  0
VISUALSTYLE
  5
2E
102
{ACAD_REACTORS
330
2A
102
}
102
{ACAD_XDICTIONARY
360
121
102
}
330
2A
100
AcDbVisualStyle
  2
GouraudWithEdges
 70
     3
 71
     2
 72
     2
 73
     1
 90
        2
 40
-0.6
 41
30.0
 62
     5
 63
     7
421
 16777215
 74
     1
 91
        4
 64
     7
 65
   257
 75
     1
175
     1
 42
1.0
 92
        0
 66
   257
 43
1.0
 76
     1
 77
     6
 78
     2
 67
     7
 79
     5
170
     0
171
     0
290
     0
174
     0
 93
       13
 44
0.0
173
     0
291
     1
 45
0.0
  0
VISUALSTYLE
  5
38
102
{ACAD_REACTORS
330
2A
102
}
102
{ACAD_XDICTIONARY
360
135
102
}
330
2A
100
AcDbVisualStyle
  2
Linepattern
 70
    14
 71
     2
 72
     2
 73
     0
 90
        0
 40
-0.6
 41
-30.0
 62
     5
 63
     7
421
 16777215
 74
     1
 91
        4
 64
     7
 65
   257
 75
     7
175
     7
 42
1.0
 92
        8
 66
     7
 43
1.0
 76
     1
 77
     6
 78
     2
 67
     7
 79
     5
170
     0
171
     0
290
     0
174
     0
 93
        1
 44
0.0
173
     0
291
     1
 45
0.0
  0
VISUALSTYLE
  5
33
102
{ACAD_REACTORS
330
2A
102
}
102
{ACAD_XDICTIONARY
360
12B
102
}
330
2A
100
AcDbVisualStyle
  2
Realistic
 70
     8
 71
     2
 72
     2
 73
     0
 90
        0
 40
-0.6
 41
-30.0
 62
     5
 63
     7
421
 16777215
 74
     1
 91
        0
 64
     7
 65
   257
 75
     1
175
     1
 42
1.0
 92
        8
 66
     8
424
  7895160
 43
1.0
 76
     1
 77
     6
 78
     2
 67
     7
 79
     5
170
     0
171
     0
290
     0
174
     0
 93
       13
 44
0.0
173
     0
291
     0
 45
0.0
  0
VISUALSTYLE
  5
37
102
{ACAD_REACTORS
330
2A
102
}
102
{ACAD_XDICTIONARY
360
133
102
}
330
2A
100
AcDbVisualStyle
  2
Thicken
 70
    13
 71
     2
 72
     2
 73
     0
 90
        0
 40
-0.6
 41
-30.0
 62
     5
 63
     7
421
 16777215
 74
     1
 91
        4
 64
     7
 65
   257
 75
     1
175
     1
 42
1.0
 92
       12
 66
     7
 43
1.0
 76
     1
 77
     6
 78
     2
 67
     7
 79
     5
170
     0
171
     0
290
     0
174
     0
 93
        1
 44
0.0
173
     0
291
     1
 45
0.0
  0
DICTIONARY
  5
123
330
2F
100
AcDbDictionary
280
     1
281
     1
  3
ACAD_XREC_ROUNDTRIP
360
124
  0
DICTIONARY
  5
127
330
31
100
AcDbDictionary
280
     1
281
     1
  3
ACAD_XREC_ROUNDTRIP
360
128
  0
DICTIONARY
  5
125
330
30
100
AcDbDictionary
280
     1
281
     1
  3
ACAD_XREC_ROUNDTRIP
360
126
  0
DICTIONARY
  5
129
330
32
100
AcDbDictionary
280
     1
281
     1
  3
ACAD_XREC_ROUNDTRIP
360
12A
  0
DICTIONARY
  5
131
330
36
100
AcDbDictionary
280
     1
281
     1
  3
ACAD_XREC_ROUNDTRIP
360
132
  0
DICTIONARY
  5
139
330
3A
100
AcDbDictionary
280
     1
281
     1
  3
ACAD_XREC_ROUNDTRIP
360
13A
  0
DICTIONARY
  5
12D
330
34
100
AcDbDictionary
280
     1
281
     1
  3
ACAD_XREC_ROUNDTRIP
360
12E
  0
DICTIONARY
  5
12F
330
35
100
AcDbDictionary
280
     1
281
     1
  3
ACAD_XREC_ROUNDTRIP
360
130
  0
DICTIONARY
  5
137
330
39
100
AcDbDictionary
280
     1
281
     1
  3
ACAD_XREC_ROUNDTRIP
360
138
  0
DICTIONARY
  5
11B
330
2B
100
AcDbDictionary
280
     1
281
     1
  3
ACAD_XREC_ROUNDTRIP
360
11C
  0
DICTIONARY
  5
11D
330
2C
100
AcDbDictionary
280
     1
281
     1
  3
ACAD_XREC_ROUNDTRIP
360
11E
  0
DICTIONARY
  5
11F
330
2D
100
AcDbDictionary
280
     1
281
     1
  3
ACAD_XREC_ROUNDTRIP
360
120
  0
DICTIONARY
  5
121
330
2E
100
AcDbDictionary
280
     1
281
     1
  3
ACAD_XREC_ROUNDTRIP
360
122
  0
DICTIONARY
  5
135
330
38
100
AcDbDictionary
280
     1
281
     1
  3
ACAD_XREC_ROUNDTRIP
360
136
  0
DICTIONARY
  5
12B
330
33
100
AcDbDictionary
280
     1
281
     1
  3
ACAD_XREC_ROUNDTRIP
360
12C
  0
DICTIONARY
  5
133
330
37
100
AcDbDictionary
280
     1
281
     1
  3
ACAD_XREC_ROUNDTRIP
360
134
  0
XRECORD
  5
124
102
{ACAD_REACTORS
330
123
102
}
330
123
100
AcDbXrecord
280
     1
102
RTVSPropertyOp0
 70
     1
102
RTVSPropertyOp1
 70
     1
102
RTVSPropertyOp2
 70
     1
102
RTVSPropertyOp3
 70
     1
102
RTVSPropertyOp4
 70
     1
102
RTVSPropertyOp5
 70
     1
102
RTVSPropertyOp6
 70
     1
102
RTVSPropertyOp7
 70
     1
102
RTVSPropertyOp8
 70
     1
102
RTVSPropertyOp9
 70
     1
102
RTVSPropertyOp10
 70
     1
102
RTVSPropertyOp11
 70
     1
102
RTVSPropertyOp12
 70
     1
102
RTVSPropertyOp13
 70
     1
102
RTVSPropertyOp14
 70
     1
102
RTVSPropertyOp15
 70
     1
102
RTVSPropertyOp16
 70
     1
102
RTVSPropertyOp17
 70
     1
102
RTVSPropertyOp18
 70
     1
102
RTVSPropertyOp19
 70
     1
102
RTVSPropertyOp20
 70
     1
102
RTVSPropertyOp21
 70
     1
102
RTVSPropertyOp22
 70
     1
102
RTVSPropertyOp23
 70
     1
102
RTVSPropertyOp24
 70
     1
102
RTVSPropertyOp25
 70
     1
102
RTVSPropertyOp26
 70
     1
102
RTVSPropertyOp27
 70
     1
102
RTVSPropertyOp28
 70
     1
102
RTVSPropertyOp29
 70
     1
102
RTVSPropertyOp30
 70
     1
102
RTVSPropertyOp31
 70
     1
102
RTVSPropertyOp32
 70
     1
  0
XRECORD
  5
128
102
{ACAD_REACTORS
330
127
102
}
330
127
100
AcDbXrecord
280
     1
102
RTVSPropertyOp0
 70
     1
102
RTVSPropertyOp1
 70
     1
102
RTVSPropertyOp2
 70
     1
102
RTVSPropertyOp3
 70
     1
102
RTVSPropertyOp4
 70
     1
102
RTVSPropertyOp5
 70
     1
102
RTVSPropertyOp6
 70
     1
102
RTVSPropertyOp7
 70
     1
102
RTVSPropertyOp8
 70
     1
102
RTVSPropertyOp9
 70
     1
102
RTVSPropertyOp10
 70
     1
102
RTVSPropertyOp11
 70
     1
102
RTVSPropertyOp12
 70
     1
102
RTVSPropertyOp13
 70
     1
102
RTVSPropertyOp14
 70
     1
102
RTVSPropertyOp15
 70
     1
102
RTVSPropertyOp16
 70
     1
102
RTVSPropertyOp17
 70
     1
102
RTVSPropertyOp18
 70
     1
102
RTVSPropertyOp19
 70
     1
102
RTVSPropertyOp20
 70
     1
102
RTVSPropertyOp21
 70
     1
102
RTVSPropertyOp22
 70
     1
102
RTVSPropertyOp23
 70
     1
102
RTVSPropertyOp24
 70
     1
102
RTVSPropertyOp25
 70
     1
102
RTVSPropertyOp26
 70
     1
102
RTVSPropertyOp27
 70
     1
102
RTVSPropertyOp28
 70
     1
102
RTVSPropertyOp29
 70
     1
102
RTVSPropertyOp30
 70
     1
102
RTVSPropertyOp31
 70
     1
102
RTVSPropertyOp32
 70
     1
  0
XRECORD
  5
126
102
{ACAD_REACTORS
330
125
102
}
330
125
100
AcDbXrecord
280
     1
102
RTVSPropertyOp0
 70
     1
102
RTVSPropertyOp1
 70
     1
102
RTVSPropertyOp2
 70
     1
102
RTVSPropertyOp3
 70
     1
102
RTVSPropertyOp4
 70
     1
102
RTVSPropertyOp5
 70
     1
102
RTVSPropertyOp6
 70
     1
102
RTVSPropertyOp7
 70
     1
102
RTVSPropertyOp8
 70
     1
102
RTVSPropertyOp9
 70
     1
102
RTVSPropertyOp10
 70
     1
102
RTVSPropertyOp11
 70
     1
102
RTVSPropertyOp12
 70
     1
102
RTVSPropertyOp13
 70
     1
102
RTVSPropertyOp14
 70
     1
102
RTVSPropertyOp15
 70
     1
102
RTVSPropertyOp16
 70
     1
102
RTVSPropertyOp17
 70
     1
102
RTVSPropertyOp18
 70
     1
102
RTVSPropertyOp19
 70
     1
102
RTVSPropertyOp20
 70
     1
102
RTVSPropertyOp21
 70
     1
102
RTVSPropertyOp22
 70
     1
102
RTVSPropertyOp23
 70
     1
102
RTVSPropertyOp24
 70
     1
102
RTVSPropertyOp25
 70
     1
102
RTVSPropertyOp26
 70
     1
102
RTVSPropertyOp27
 70
     1
102
RTVSPropertyOp28
 70
     1
102
RTVSPropertyOp29
 70
     1
102
RTVSPropertyOp30
 70
     1
102
RTVSPropertyOp31
 70
     1
102
RTVSPropertyOp32
 70
     1
  0
XRECORD
  5
12A
102
{ACAD_REACTORS
330
129
102
}
330
129
100
AcDbXrecord
280
     1
102
RTVSPropertyOp0
 70
     1
102
RTVSPropertyOp1
 70
     1
102
RTVSPropertyOp2
 70
     1
102
RTVSPropertyOp3
 70
     1
102
RTVSPropertyOp4
 70
     1
102
RTVSPropertyOp5
 70
     1
102
RTVSPropertyOp6
 70
     1
102
RTVSPropertyOp7
 70
     1
102
RTVSPropertyOp8
 70
     1
102
RTVSPropertyOp9
 70
     1
102
RTVSPropertyOp10
 70
     1
102
RTVSPropertyOp11
 70
     1
102
RTVSPropertyOp12
 70
     1
102
RTVSPropertyOp13
 70
     1
102
RTVSPropertyOp14
 70
     1
102
RTVSPropertyOp15
 70
     1
102
RTVSPropertyOp16
 70
     1
102
RTVSPropertyOp17
 70
     1
102
RTVSPropertyOp18
 70
     1
102
RTVSPropertyOp19
 70
     1
102
RTVSPropertyOp20
 70
     1
102
RTVSPropertyOp21
 70
     1
102
RTVSPropertyOp22
 70
     1
102
RTVSPropertyOp23
 70
     1
102
RTVSPropertyOp24
 70
     1
102
RTVSPropertyOp25
 70
     1
102
RTVSPropertyOp26
 70
     1
102
RTVSPropertyOp27
 70
     1
102
RTVSPropertyOp28
 70
     1
102
RTVSPropertyOp29
 70
     1
102
RTVSPropertyOp30
 70
     1
102
RTVSPropertyOp31
 70
     1
102
RTVSPropertyOp32
 70
     1
  0
XRECORD
  5
132
102
{ACAD_REACTORS
330
131
102
}
330
131
100
AcDbXrecord
280
     1
102
RTVSPropertyOp0
 70
     1
102
RTVSPropertyOp1
 70
     1
102
RTVSPropertyOp2
 70
     1
102
RTVSPropertyOp3
 70
     1
102
RTVSPropertyOp4
 70
     1
102
RTVSPropertyOp5
 70
     1
102
RTVSPropertyOp6
 70
     1
102
RTVSPropertyOp7
 70
     1
102
RTVSPropertyOp8
 70
     1
102
RTVSPropertyOp9
 70
     1
102
RTVSPropertyOp10
 70
     1
102
RTVSPropertyOp11
 70
     1
102
RTVSPropertyOp12
 70
     1
102
RTVSPropertyOp13
 70
     1
102
RTVSPropertyOp14
 70
     1
102
RTVSPropertyOp15
 70
     1
102
RTVSPropertyOp16
 70
     1
102
RTVSPropertyOp17
 70
     1
102
RTVSPropertyOp18
 70
     1
102
RTVSPropertyOp19
 70
     1
102
RTVSPropertyOp20
 70
     1
102
RTVSPropertyOp21
 70
     1
102
RTVSPropertyOp22
 70
     1
102
RTVSPropertyOp23
 70
     1
102
RTVSPropertyOp24
 70
     1
102
RTVSPropertyOp25
 70
     1
102
RTVSPropertyOp26
 70
     1
102
RTVSPropertyOp27
 70
     1
102
RTVSPropertyOp28
 70
     1
102
RTVSPropertyOp29
 70
     1
102
RTVSPropertyOp30
 70
     1
102
RTVSPropertyOp31
 70
     1
102
RTVSPropertyOp32
 70
     1
  0
XRECORD
  5
13A
102
{ACAD_REACTORS
330
139
102
}
330
139
100
AcDbXrecord
280
     1
102
RTVSPropertyOp0
 70
     1
102
RTVSPropertyOp1
 70
     1
102
RTVSPropertyOp2
 70
     1
102
RTVSPropertyOp3
 70
     1
102
RTVSPropertyOp4
 70
     1
102
RTVSPropertyOp5
 70
     1
102
RTVSPropertyOp6
 70
     1
102
RTVSPropertyOp7
 70
     1
102
RTVSPropertyOp8
 70
     1
102
RTVSPropertyOp9
 70
     1
102
RTVSPropertyOp10
 70
     1
102
RTVSPropertyOp11
 70
     1
102
RTVSPropertyOp12
 70
     1
102
RTVSPropertyOp13
 70
     1
102
RTVSPropertyOp14
 70
     1
102
RTVSPropertyOp15
 70
     1
102
RTVSPropertyOp16
 70
     1
102
RTVSPropertyOp17
 70
     1
102
RTVSPropertyOp18
 70
     1
102
RTVSPropertyOp19
 70
     1
102
RTVSPropertyOp20
 70
     1
102
RTVSPropertyOp21
 70
     1
102
RTVSPropertyOp22
 70
     1
102
RTVSPropertyOp23
 70
     1
102
RTVSPropertyOp24
 70
     1
102
RTVSPropertyOp25
 70
     1
102
RTVSPropertyOp26
 70
     1
102
RTVSPropertyOp27
 70
     1
102
RTVSPropertyOp28
 70
     1
102
RTVSPropertyOp29
 70
     1
102
RTVSPropertyOp30
 70
     1
102
RTVSPropertyOp31
 70
     1
102
RTVSPropertyOp32
 70
     1
  0
XRECORD
  5
12E
102
{ACAD_REACTORS
330
12D
102
}
330
12D
100
AcDbXrecord
280
     1
102
RTVSPropertyOp0
 70
     1
102
RTVSPropertyOp1
 70
     1
102
RTVSPropertyOp2
 70
     1
102
RTVSPropertyOp3
 70
     1
102
RTVSPropertyOp4
 70
     1
102
RTVSPropertyOp5
 70
     1
102
RTVSPropertyOp6
 70
     1
102
RTVSPropertyOp7
 70
     1
102
RTVSPropertyOp8
 70
     1
102
RTVSPropertyOp9
 70
     1
102
RTVSPropertyOp10
 70
     1
102
RTVSPropertyOp11
 70
     1
102
RTVSPropertyOp12
 70
     1
102
RTVSPropertyOp13
 70
     1
102
RTVSPropertyOp14
 70
     1
102
RTVSPropertyOp15
 70
     1
102
RTVSPropertyOp16
 70
     1
102
RTVSPropertyOp17
 70
     1
102
RTVSPropertyOp18
 70
     1
102
RTVSPropertyOp19
 70
     1
102
RTVSPropertyOp20
 70
     1
102
RTVSPropertyOp21
 70
     1
102
RTVSPropertyOp22
 70
     1
102
RTVSPropertyOp23
 70
     1
102
RTVSPropertyOp24
 70
     1
102
RTVSPropertyOp25
 70
     1
102
RTVSPropertyOp26
 70
     1
102
RTVSPropertyOp27
 70
     1
102
RTVSPropertyOp28
 70
     1
102
RTVSPropertyOp29
 70
     1
102
RTVSPropertyOp30
 70
     1
102
RTVSPropertyOp31
 70
     1
102
RTVSPropertyOp32
 70
     1
  0
XRECORD
  5
130
102
{ACAD_REACTORS
330
12F
102
}
330
12F
100
AcDbXrecord
280
     1
102
RTVSPropertyOp0
 70
     1
102
RTVSPropertyOp1
 70
     1
102
RTVSPropertyOp2
 70
     1
102
RTVSPropertyOp3
 70
     1
102
RTVSPropertyOp4
 70
     1
102
RTVSPropertyOp5
 70
     1
102
RTVSPropertyOp6
 70
     1
102
RTVSPropertyOp7
 70
     1
102
RTVSPropertyOp8
 70
     1
102
RTVSPropertyOp9
 70
     1
102
RTVSPropertyOp10
 70
     1
102
RTVSPropertyOp11
 70
     1
102
RTVSPropertyOp12
 70
     1
102
RTVSPropertyOp13
 70
     1
102
RTVSPropertyOp14
 70
     1
102
RTVSPropertyOp15
 70
     1
102
RTVSPropertyOp16
 70
     1
102
RTVSPropertyOp17
 70
     1
102
RTVSPropertyOp18
 70
     1
102
RTVSPropertyOp19
 70
     1
102
RTVSPropertyOp20
 70
     1
102
RTVSPropertyOp21
 70
     1
102
RTVSPropertyOp22
 70
     1
102
RTVSPropertyOp23
 70
     1
102
RTVSPropertyOp24
 70
     1
102
RTVSPropertyOp25
 70
     1
102
RTVSPropertyOp26
 70
     1
102
RTVSPropertyOp27
 70
     1
102
RTVSPropertyOp28
 70
     1
102
RTVSPropertyOp29
 70
     1
102
RTVSPropertyOp30
 70
     1
102
RTVSPropertyOp31
 70
     1
102
RTVSPropertyOp32
 70
     1
  0
XRECORD
  5
138
102
{ACAD_REACTORS
330
137
102
}
330
137
100
AcDbXrecord
280
     1
102
RTVSPropertyOp0
 70
     1
102
RTVSPropertyOp1
 70
     1
102
RTVSPropertyOp2
 70
     1
102
RTVSPropertyOp3
 70
     1
102
RTVSPropertyOp4
 70
     1
102
RTVSPropertyOp5
 70
     1
102
RTVSPropertyOp6
 70
     1
102
RTVSPropertyOp7
 70
     1
102
RTVSPropertyOp8
 70
     1
102
RTVSPropertyOp9
 70
     1
102
RTVSPropertyOp10
 70
     1
102
RTVSPropertyOp11
 70
     1
102
RTVSPropertyOp12
 70
     1
102
RTVSPropertyOp13
 70
     1
102
RTVSPropertyOp14
 70
     1
102
RTVSPropertyOp15
 70
     1
102
RTVSPropertyOp16
 70
     1
102
RTVSPropertyOp17
 70
     1
102
RTVSPropertyOp18
 70
     1
102
RTVSPropertyOp19
 70
     1
102
RTVSPropertyOp20
 70
     1
102
RTVSPropertyOp21
 70
     1
102
RTVSPropertyOp22
 70
     1
102
RTVSPropertyOp23
 70
     1
102
RTVSPropertyOp24
 70
     1
102
RTVSPropertyOp25
 70
     1
102
RTVSPropertyOp26
 70
     1
102
RTVSPropertyOp27
 70
     1
102
RTVSPropertyOp28
 70
     1
102
RTVSPropertyOp29
 70
     1
102
RTVSPropertyOp30
 70
     1
102
RTVSPropertyOp31
 70
     1
102
RTVSPropertyOp32
 70
     1
  0
XRECORD
  5
11C
102
{ACAD_REACTORS
330
11B
102
}
330
11B
100
AcDbXrecord
280
     1
102
RTVSPropertyOp0
 70
     1
102
RTVSPropertyOp1
 70
     1
102
RTVSPropertyOp2
 70
     1
102
RTVSPropertyOp3
 70
     1
102
RTVSPropertyOp4
 70
     1
102
RTVSPropertyOp5
 70
     1
102
RTVSPropertyOp6
 70
     1
102
RTVSPropertyOp7
 70
     1
102
RTVSPropertyOp8
 70
     1
102
RTVSPropertyOp9
 70
     1
102
RTVSPropertyOp10
 70
     1
102
RTVSPropertyOp11
 70
     1
102
RTVSPropertyOp12
 70
     1
102
RTVSPropertyOp13
 70
     1
102
RTVSPropertyOp14
 70
     1
102
RTVSPropertyOp15
 70
     1
102
RTVSPropertyOp16
 70
     1
102
RTVSPropertyOp17
 70
     1
102
RTVSPropertyOp18
 70
     1
102
RTVSPropertyOp19
 70
     1
102
RTVSPropertyOp20
 70
     1
102
RTVSPropertyOp21
 70
     1
102
RTVSPropertyOp22
 70
     1
102
RTVSPropertyOp23
 70
     1
102
RTVSPropertyOp24
 70
     1
102
RTVSPropertyOp25
 70
     1
102
RTVSPropertyOp26
 70
     1
102
RTVSPropertyOp27
 70
     1
102
RTVSPropertyOp28
 70
     1
102
RTVSPropertyOp29
 70
     1
102
RTVSPropertyOp30
 70
     1
102
RTVSPropertyOp31
 70
     1
102
RTVSPropertyOp32
 70
     1
  0
XRECORD
  5
11E
102
{ACAD_REACTORS
330
11D
102
}
330
11D
100
AcDbXrecord
280
     1
102
RTVSPropertyOp0
 70
     1
102
RTVSPropertyOp1
 70
     1
102
RTVSPropertyOp2
 70
     1
102
RTVSPropertyOp3
 70
     1
102
RTVSPropertyOp4
 70
     1
102
RTVSPropertyOp5
 70
     1
102
RTVSPropertyOp6
 70
     1
102
RTVSPropertyOp7
 70
     1
102
RTVSPropertyOp8
 70
     1
102
RTVSPropertyOp9
 70
     1
102
RTVSPropertyOp10
 70
     1
102
RTVSPropertyOp11
 70
     1
102
RTVSPropertyOp12
 70
     1
102
RTVSPropertyOp13
 70
     1
102
RTVSPropertyOp14
 70
     1
102
RTVSPropertyOp15
 70
     1
102
RTVSPropertyOp16
 70
     1
102
RTVSPropertyOp17
 70
     1
102
RTVSPropertyOp18
 70
     1
102
RTVSPropertyOp19
 70
     1
102
RTVSPropertyOp20
 70
     1
102
RTVSPropertyOp21
 70
     1
102
RTVSPropertyOp22
 70
     1
102
RTVSPropertyOp23
 70
     1
102
RTVSPropertyOp24
 70
     1
102
RTVSPropertyOp25
 70
     1
102
RTVSPropertyOp26
 70
     1
102
RTVSPropertyOp27
 70
     1
102
RTVSPropertyOp28
 70
     1
102
RTVSPropertyOp29
 70
     1
102
RTVSPropertyOp30
 70
     1
102
RTVSPropertyOp31
 70
     1
102
RTVSPropertyOp32
 70
     1
  0
XRECORD
  5
120
102
{ACAD_REACTORS
330
11F
102
}
330
11F
100
AcDbXrecord
280
     1
102
RTVSPropertyOp0
 70
     1
102
RTVSPropertyOp1
 70
     1
102
RTVSPropertyOp2
 70
     1
102
RTVSPropertyOp3
 70
     1
102
RTVSPropertyOp4
 70
     1
102
RTVSPropertyOp5
 70
     1
102
RTVSPropertyOp6
 70
     1
102
RTVSPropertyOp7
 70
     1
102
RTVSPropertyOp8
 70
     1
102
RTVSPropertyOp9
 70
     1
102
RTVSPropertyOp10
 70
     1
102
RTVSPropertyOp11
 70
     1
102
RTVSPropertyOp12
 70
     1
102
RTVSPropertyOp13
 70
     1
102
RTVSPropertyOp14
 70
     1
102
RTVSPropertyOp15
 70
     1
102
RTVSPropertyOp16
 70
     1
102
RTVSPropertyOp17
 70
     1
102
RTVSPropertyOp18
 70
     1
102
RTVSPropertyOp19
 70
     1
102
RTVSPropertyOp20
 70
     1
102
RTVSPropertyOp21
 70
     1
102
RTVSPropertyOp22
 70
     1
102
RTVSPropertyOp23
 70
     1
102
RTVSPropertyOp24
 70
     1
102
RTVSPropertyOp25
 70
     1
102
RTVSPropertyOp26
 70
     1
102
RTVSPropertyOp27
 70
     1
102
RTVSPropertyOp28
 70
     1
102
RTVSPropertyOp29
 70
     1
102
RTVSPropertyOp30
 70
     1
102
RTVSPropertyOp31
 70
     1
102
RTVSPropertyOp32
 70
     1
  0
XRECORD
  5
122
102
{ACAD_REACTORS
330
121
102
}
330
121
100
AcDbXrecord
280
     1
102
RTVSPropertyOp0
 70
     1
102
RTVSPropertyOp1
 70
     1
102
RTVSPropertyOp2
 70
     1
102
RTVSPropertyOp3
 70
     1
102
RTVSPropertyOp4
 70
     1
102
RTVSPropertyOp5
 70
     1
102
RTVSPropertyOp6
 70
     1
102
RTVSPropertyOp7
 70
     1
102
RTVSPropertyOp8
 70
     1
102
RTVSPropertyOp9
 70
     1
102
RTVSPropertyOp10
 70
     1
102
RTVSPropertyOp11
 70
     1
102
RTVSPropertyOp12
 70
     1
102
RTVSPropertyOp13
 70
     1
102
RTVSPropertyOp14
 70
     1
102
RTVSPropertyOp15
 70
     1
102
RTVSPropertyOp16
 70
     1
102
RTVSPropertyOp17
 70
     1
102
RTVSPropertyOp18
 70
     1
102
RTVSPropertyOp19
 70
     1
102
RTVSPropertyOp20
 70
     1
102
RTVSPropertyOp21
 70
     1
102
RTVSPropertyOp22
 70
     1
102
RTVSPropertyOp23
 70
     1
102
RTVSPropertyOp24
 70
     1
102
RTVSPropertyOp25
 70
     1
102
RTVSPropertyOp26
 70
     1
102
RTVSPropertyOp27
 70
     1
102
RTVSPropertyOp28
 70
     1
102
RTVSPropertyOp29
 70
     1
102
RTVSPropertyOp30
 70
     1
102
RTVSPropertyOp31
 70
     1
102
RTVSPropertyOp32
 70
     1
  0
XRECORD
  5
136
102
{ACAD_REACTORS
330
135
102
}
330
135
100
AcDbXrecord
280
     1
102
RTVSPropertyOp0
 70
     1
102
RTVSPropertyOp1
 70
     1
102
RTVSPropertyOp2
 70
     1
102
RTVSPropertyOp3
 70
     1
102
RTVSPropertyOp4
 70
     1
102
RTVSPropertyOp5
 70
     1
102
RTVSPropertyOp6
 70
     1
102
RTVSPropertyOp7
 70
     1
102
RTVSPropertyOp8
 70
     1
102
RTVSPropertyOp9
 70
     1
102
RTVSPropertyOp10
 70
     1
102
RTVSPropertyOp11
 70
     1
102
RTVSPropertyOp12
 70
     1
102
RTVSPropertyOp13
 70
     1
102
RTVSPropertyOp14
 70
     1
102
RTVSPropertyOp15
 70
     1
102
RTVSPropertyOp16
 70
     1
102
RTVSPropertyOp17
 70
     1
102
RTVSPropertyOp18
 70
     1
102
RTVSPropertyOp19
 70
     1
102
RTVSPropertyOp20
 70
     1
102
RTVSPropertyOp21
 70
     1
102
RTVSPropertyOp22
 70
     1
102
RTVSPropertyOp23
 70
     1
102
RTVSPropertyOp24
 70
     1
102
RTVSPropertyOp25
 70
     1
102
RTVSPropertyOp26
 70
     1
102
RTVSPropertyOp27
 70
     1
102
RTVSPropertyOp28
 70
     1
102
RTVSPropertyOp29
 70
     1
102
RTVSPropertyOp30
 70
     1
102
RTVSPropertyOp31
 70
     1
102
RTVSPropertyOp32
 70
     1
  0
XRECORD
  5
12C
102
{ACAD_REACTORS
330
12B
102
}
330
12B
100
AcDbXrecord
280
     1
102
RTVSPropertyOp0
 70
     1
102
RTVSPropertyOp1
 70
     1
102
RTVSPropertyOp2
 70
     1
102
RTVSPropertyOp3
 70
     1
102
RTVSPropertyOp4
 70
     1
102
RTVSPropertyOp5
 70
     1
102
RTVSPropertyOp6
 70
     1
102
RTVSPropertyOp7
 70
     1
102
RTVSPropertyOp8
 70
     1
102
RTVSPropertyOp9
 70
     1
102
RTVSPropertyOp10
 70
     1
102
RTVSPropertyOp11
 70
     1
102
RTVSPropertyOp12
 70
     1
102
RTVSPropertyOp13
 70
     1
102
RTVSPropertyOp14
 70
     1
102
RTVSPropertyOp15
 70
     1
102
RTVSPropertyOp16
 70
     1
102
RTVSPropertyOp17
 70
     1
102
RTVSPropertyOp18
 70
     1
102
RTVSPropertyOp19
 70
     1
102
RTVSPropertyOp20
 70
     1
102
RTVSPropertyOp21
 70
     1
102
RTVSPropertyOp22
 70
     1
102
RTVSPropertyOp23
 70
     1
102
RTVSPropertyOp24
 70
     1
102
RTVSPropertyOp25
 70
     1
102
RTVSPropertyOp26
 70
     1
102
RTVSPropertyOp27
 70
     1
102
RTVSPropertyOp28
 70
     1
102
RTVSPropertyOp29
 70
     1
102
RTVSPropertyOp30
 70
     1
102
RTVSPropertyOp31
 70
     1
102
RTVSPropertyOp32
 70
     1
  0
XRECORD
  5
134
102
{ACAD_REACTORS
330
133
102
}
330
133
100
AcDbXrecord
280
     1
102
RTVSPropertyOp0
 70
     1
102
RTVSPropertyOp1
 70
     1
102
RTVSPropertyOp2
 70
     1
102
RTVSPropertyOp3
 70
     1
102
RTVSPropertyOp4
 70
     1
102
RTVSPropertyOp5
 70
     1
102
RTVSPropertyOp6
 70
     1
102
RTVSPropertyOp7
 70
     1
102
RTVSPropertyOp8
 70
     1
102
RTVSPropertyOp9
 70
     1
102
RTVSPropertyOp10
 70
     1
102
RTVSPropertyOp11
 70
     1
102
RTVSPropertyOp12
 70
     1
102
RTVSPropertyOp13
 70
     1
102
RTVSPropertyOp14
 70
     1
102
RTVSPropertyOp15
 70
     1
102
RTVSPropertyOp16
 70
     1
102
RTVSPropertyOp17
 70
     1
102
RTVSPropertyOp18
 70
     1
102
RTVSPropertyOp19
 70
     1
102
RTVSPropertyOp20
 70
     1
102
RTVSPropertyOp21
 70
     1
102
RTVSPropertyOp22
 70
     1
102
RTVSPropertyOp23
 70
     1
102
RTVSPropertyOp24
 70
     1
102
RTVSPropertyOp25
 70
     1
102
RTVSPropertyOp26
 70
     1
102
RTVSPropertyOp27
 70
     1
102
RTVSPropertyOp28
 70
     1
102
RTVSPropertyOp29
 70
     1
102
RTVSPropertyOp30
 70
     1
102
RTVSPropertyOp31
 70
     1
102
RTVSPropertyOp32
 70
     1
  0
ENDSEC
  0
EOF
