  0
SECTION
  2
HEADER
  9
$ACADVER
  1
AC1021
  9
$ACADMAINTVER
 70
    25
  9
$DWGCODEPAGE
  3
ANSI_932
  9
$INSBASE
 10
0.0
 20
0.0
 30
0.0
  9
$EXTMIN
 10
1.000000000000000E+20
 20
1.000000000000000E+20
 30
1.000000000000000E+20
  9
$EXTMAX
 10
-1.000000000000000E+20
 20
-1.000000000000000E+20
 30
-1.000000000000000E+20
  9
$LIMMIN
 10
0.0
 20
0.0
  9
$LIMMAX
 10
12.0
 20
9.0
  9
$ORTHOMODE
 70
     0
  9
$REGENMODE
 70
     1
  9
$FILLMODE
 70
     1
  9
$QTEXTMODE
 70
     0
  9
$MIRRTEXT
 70
     1
  9
$LTSCALE
 40
1.0
  9
$ATTMODE
 70
     1
  9
$TEXTSIZE
 40
0.2
  9
$TRACEWID
 40
0.05
  9
$TEXTSTYLE
  7
Standard
  9
$CLAYER
  8
0
  9
$CELTYPE
  6
ByLayer
  9
$CECOLOR
 62
   256
  9
$CELTSCALE
 40
1.0
  9
$DISPSILH
 70
     0
  9
$DIMSCALE
 40
1.0
  9
$DIMASZ
 40
0.18
  9
$DIMEXO
 40
0.0625
  9
$DIMDLI
 40
0.38
  9
$DIMRND
 40
0.0
  9
$DIMDLE
 40
0.0
  9
$DIMEXE
 40
0.18
  9
$DIMTP
 40
0.0
  9
$DIMTM
 40
0.0
  9
$DIMTXT
 40
0.18
  9
$DIMCEN
 40
0.09
  9
$DIMTSZ
 40
0.0
  9
$DIMTOL
 70
     0
  9
$DIMLIM
 70
     0
  9
$DIMTIH
 70
     1
  9
$DIMTOH
 70
     1
  9
$DIMSE1
 70
     0
  9
$DIMSE2
 70
     0
  9
$DIMTAD
 70
     0
  9
$DIMZIN
 70
     0
  9
$DIMBLK
  1

  9
$DIMASO
 70
     1
  9
$DIMSHO
 70
     1
  9
$DIMPOST
  1

  9
$DIMAPOST
  1

  9
$DIMALT
 70
     0
  9
$DIMALTD
 70
     2
  9
$DIMALTF
 40
25.4
  9
$DIMLFAC
 40
1.0
  9
$DIMTOFL
 70
     0
  9
$DIMTVP
 40
0.0
  9
$DIMTIX
 70
     0
  9
$DIMSOXD
 70
     0
  9
$DIMSAH
 70
     0
  9
$DIMBLK1
  1

  9
$DIMBLK2
  1

  9
$DIMSTYLE
  2
Standard
  9
$DIMCLRD
 70
     0
  9
$DIMCLRE
 70
     0
  9
$DIMCLRT
 70
     0
  9
$DIMTFAC
 40
1.0
  9
$DIMGAP
 40
0.09
  9
$DIMJUST
 70
     0
  9
$DIMSD1
 70
     0
  9
$DIMSD2
 70
     0
  9
$DIMTOLJ
 70
     1
  9
$DIMTZIN
 70
     0
  9
$DIMALTZ
 70
     0
  9
$DIMALTTZ
 70
     0
  9
$DIMUPT
 70
     0
  9
$DIMDEC
 70
     4
  9
$DIMTDEC
 70
     4
  9
$DIMALTU
 70
     2
  9
$DIMALTTD
 70
     2
  9
$DIMTXSTY
  7
Standard
  9
$DIMAUNIT
 70
     0
  9
$DIMADEC
 70
     0
  9
$DIMALTRND
 40
0.0
  9
$DIMAZIN
 70
     0
  9
$DIMDSEP
 70
    46
  9
$DIMATFIT
 70
     3
  9
$DIMFRAC
 70
     0
  9
$DIMLDRBLK
  1

  9
$DIMLUNIT
 70
     2
  9
$DIMLWD
 70
    -2
  9
$DIMLWE
 70
    -2
  9
$DIMTMOVE
 70
     0
  9
$DIMFXL
 40
1.0
  9
$DIMFXLON
 70
     0
  9
$DIMJOGANG
 40
0.7853981633974483
  9
$DIMTFILL
 70
     0
  9
$DIMTFILLCLR
 70
     0
  9
$DIMARCSYM
 70
     0
  9
$DIMLTYPE
  6

  9
$DIMLTEX1
  6

  9
$DIMLTEX2
  6

  9
$LUNITS
 70
     2
  9
$LUPREC
 70
     4
  9
$SKETCHINC
 40
0.1
  9
$FILLETRAD
 40
0.5
  9
$AUNITS
 70
     0
  9
$AUPREC
 70
     0
  9
$MENU
  1
.
  9
$ELEVATION
 40
0.0
  9
$PELEVATION
 40
0.0
  9
$THICKNESS
 40
0.0
  9
$LIMCHECK
 70
     0
  9
$CHAMFERA
 40
0.5
  9
$CHAMFERB
 40
0.5
  9
$CHAMFERC
 40
1.0
  9
$CHAMFERD
 40
0.0
  9
$SKPOLY
 70
     0
  9
$TDCREATE
 40
2458515.455565775
  9
$TDUCREATE
 40
2458515.080565775
  9
$TDUPDATE
 40
2458515.455565949
  9
$TDUUPDATE
 40
2458515.080565949
  9
$TDINDWG
 40
0.0000000116
  9
$TDUSRTIMER
 40
0.0000000116
  9
$USRTIMER
 70
     1
  9
$ANGBASE
 50
0.0
  9
$ANGDIR
 70
     0
  9
$PDMODE
 70
     0
  9
$PDSIZE
 40
0.0
  9
$PLINEWID
 40
0.0
  9
$SPLFRAME
 70
     0
  9
$SPLINETYPE
 70
     6
  9
$SPLINESEGS
 70
     8
  9
$HANDSEED
  5
191
  9
$SURFTAB1
 70
     6
  9
$SURFTAB2
 70
     6
  9
$SURFTYPE
 70
     6
  9
$SURFU
 70
     6
  9
$SURFV
 70
     6
  9
$UCSBASE
  2

  9
$UCSNAME
  2

  9
$UCSORG
 10
0.0
 20
0.0
 30
0.0
  9
$UCSXDIR
 10
1.0
 20
0.0
 30
0.0
  9
$UCSYDIR
 10
0.0
 20
1.0
 30
0.0
  9
$UCSORTHOREF
  2

  9
$UCSORTHOVIEW
 70
     0
  9
$UCSORGTOP
 10
0.0
 20
0.0
 30
0.0
  9
$UCSORGBOTTOM
 10
0.0
 20
0.0
 30
0.0
  9
$UCSORGLEFT
 10
0.0
 20
0.0
 30
0.0
  9
$UCSORGRIGHT
 10
0.0
 20
0.0
 30
0.0
  9
$UCSORGFRONT
 10
0.0
 20
0.0
 30
0.0
  9
$UCSORGBACK
 10
0.0
 20
0.0
 30
0.0
  9
$PUCSBASE
  2

  9
$PUCSNAME
  2

  9
$PUCSORG
 10
0.0
 20
0.0
 30
0.0
  9
$PUCSXDIR
 10
1.0
 20
0.0
 30
0.0
  9
$PUCSYDIR
 10
0.0
 20
1.0
 30
0.0
  9
$PUCSORTHOREF
  2

  9
$PUCSORTHOVIEW
 70
     0
  9
$PUCSORGTOP
 10
0.0
 20
0.0
 30
0.0
  9
$PUCSORGBOTTOM
 10
0.0
 20
0.0
 30
0.0
  9
$PUCSORGLEFT
 10
0.0
 20
0.0
 30
0.0
  9
$PUCSORGRIGHT
 10
0.0
 20
0.0
 30
0.0
  9
$PUCSORGFRONT
 10
0.0
 20
0.0
 30
0.0
  9
$PUCSORGBACK
 10
0.0
 20
0.0
 30
0.0
  9
$USERI1
 70
     0
  9
$USERI2
 70
     0
  9
$USERI3
 70
     0
  9
$USERI4
 70
     0
  9
$USERI5
 70
     0
  9
$USERR1
 40
0.0
  9
$USERR2
 40
0.0
  9
$USERR3
 40
0.0
  9
$USERR4
 40
0.0
  9
$USERR5
 40
0.0
  9
$WORLDVIEW
 70
     1
  9
$SHADEDGE
 70
     3
  9
$SHADEDIF
 70
    70
  9
$TILEMODE
 70
     1
  9
$MAXACTVP
 70
    64
  9
$PINSBASE
 10
0.0
 20
0.0
 30
0.0
  9
$PLIMCHECK
 70
     0
  9
$PEXTMIN
 10
1.000000000000000E+20
 20
1.000000000000000E+20
 30
1.000000000000000E+20
  9
$PEXTMAX
 10
-1.000000000000000E+20
 20
-1.000000000000000E+20
 30
-1.000000000000000E+20
  9
$PLIMMIN
 10
0.0
 20
0.0
  9
$PLIMMAX
 10
12.0
 20
9.0
  9
$UNITMODE
 70
     0
  9
$VISRETAIN
 70
     1
  9
$PLINEGEN
 70
     0
  9
$PSLTSCALE
 70
     1
  9
$TREEDEPTH
 70
  3020
  9
$CMLSTYLE
  2
Standard
  9
$CMLJUST
 70
     0
  9
$CMLSCALE
 40
1.0
  9
$PROXYGRAPHICS
 70
     1
  9
$MEASUREMENT
 70
     0
  9
$CELWEIGHT
370
    -1
  9
$ENDCAPS
280
     0
  9
$JOINSTYLE
280
     0
  9
$LWDISPLAY
290
     1
  9
$INSUNITS
 70
     1
  9
$HYPERLINKBASE
  1

  9
$STYLESHEET
  1

  9
$XEDIT
290
     1
  9
$CEPSNTYPE
380
     0
  9
$PSTYLEMODE
290
     1
  9
$FINGERPRINTGUID
  2
{FF0C4D19-503A-4DB6-B57D-121B07667EAC}
  9
$VERSIONGUID
  2
{FAEB1C32-E019-11D5-929B-00C0DF256EC4}
  9
$EXTNAMES
290
     1
  9
$PSVPSCALE
 40
0.0
  9
$OLESTARTUP
290
     0
  9
$SORTENTS
280
   127
  9
$INDEXCTL
280
     0
  9
$HIDETEXT
280
     1
  9
$XCLIPFRAME
290
     0
  9
$HALOGAP
280
     0
  9
$OBSCOLOR
 70
   257
  9
$OBSLTYPE
280
     0
  9
$INTERSECTIONDISPLAY
280
     0
  9
$INTERSECTIONCOLOR
 70
   257
  9
$DIMASSOC
280
     2
  9
$PROJECTNAME
  1

  9
$CAMERADISPLAY
290
     0
  9
$LENSLENGTH
 40
50.0
  9
$CAMERAHEIGHT
 40
0.0
  9
$STEPSPERSEC
 40
2.0
  9
$STEPSIZE
 40
6.0
  9
$3DDWFPREC
 40
2.0
  9
$PSOLWIDTH
 40
0.25
  9
$PSOLHEIGHT
 40
4.0
  9
$LOFTANG1
 40
1.570796326794897
  9
$LOFTANG2
 40
1.570796326794897
  9
$LOFTMAG1
 40
0.0
  9
$LOFTMAG2
 40
0.0
  9
$LOFTPARAM
 70
     7
  9
$LOFTNORMALS
280
     1
  9
$LATITUDE
 40
37.795
  9
$LONGITUDE
 40
-122.394
  9
$NORTHDIRECTION
 40
0.0
  9
$TIMEZONE
 70
 -8000
  9
$LIGHTGLYPHDISPLAY
280
     1
  9
$TILEMODELIGHTSYNCH
280
     1
  9
$CMATERIAL
347
3C
  9
$SOLIDHIST
280
     1
  9
$SHOWHIST
280
     1
  9
$DWFFRAME
280
     2
  9
$DGNFRAME
280
     2
  9
$REALWORLDSCALE
290
     1
  9
$INTERFERECOLOR
 62
   256
  9
$CSHADOW
280
     0
  9
$SHADOWPLANELOCATION
 40
0.0
  0
ENDSEC
  0
SECTION
  2
CLASSES
  0
CLASS
  1
ACDBDICTIONARYWDFLT
  2
AcDbDictionaryWithDefault
  3
ObjectDBX Classes
 90
        0
 91
        4
280
     0
281
     0
  0
CLASS
  1
VISUALSTYLE
  2
AcDbVisualStyle
  3
ObjectDBX Classes
 90
     4095
 91
        4
280
     0
281
     0
  0
CLASS
  1
MATERIAL
  2
AcDbMaterial
  3
ObjectDBX Classes
 90
     1153
 91
        4
280
     0
281
     0
  0
CLASS
  1
SUN
  2
AcDbSun
  3
SCENEOE
 90
     1024
 91
        4
280
     0
281
     0
  0
ENDSEC
  0
SECTION
  2
TABLES
  0
TABLE
  2
VPORT
  5
8
330
0
100
AcDbSymbolTable
 70
     1
  0
VPORT
  5
29
330
8
100
AcDbSymbolTableRecord
100
AcDbViewportTableRecord
  2
*Active
 70
     0
 10
0.0
 20
0.0
 11
1.0
 21
1.0
 12
0.0
 22
0.0
 13
0.0
 23
0.0
 14
0.5
 24
0.5
 15
0.5
 25
0.5
 16
0.0
 26
0.0
 36
1.0
 17
148.3916656437123
 27
104.8915941359208
 37
0.0
 40
297.0000052006764
 41
0.7070706878738762
 42
50.0
 43
0.0
 44
0.0
 50
0.0
 51
0.0
 71
     0
 72
   100
 73
     1
 74
     3
 75
     0
 76
     0
 77
     0
 78
     0
281
     0
 65
     1
110
0.0
120
0.0
130
0.0
111
1.0
121
0.0
131
0.0
112
0.0
122
1.0
132
0.0
 79
     0
146
0.0
 60
     3
 61
     5
292
     1
282
     1
141
0.0
142
0.0
 63
   250
361
3F
  0
ENDTAB
  0
TABLE
  2
LTYPE
  5
5
330
0
100
AcDbSymbolTable
 70
     1
  0
LTYPE
  5
14
330
5
100
AcDbSymbolTableRecord
100
AcDbLinetypeTableRecord
  2
ByBlock
 70
     0
  3

 72
    65
 73
     0
 40
0.0
  0
LTYPE
  5
15
330
5
100
AcDbSymbolTableRecord
100
AcDbLinetypeTableRecord
  2
ByLayer
 70
     0
  3

 72
    65
 73
     0
 40
0.0
  0
LTYPE
  5
16
330
5
100
AcDbSymbolTableRecord
100
AcDbLinetypeTableRecord
  2
Continuous
 70
     0
  3
Solid line
 72
    65
 73
     0
 40
0.0
  0
ENDTAB
  0
TABLE
  2
LAYER
  5
2
330
0
100
AcDbSymbolTable
 70
     2
  0
LAYER
  5
10
330
2
100
AcDbSymbolTableRecord
100
AcDbLayerTableRecord
  2
0
 70
     0
 62
     7
  6
Continuous
370
    -3
390
F
347
3E
  0
LAYER
  5
40
330
2
100
AcDbSymbolTableRecord
100
AcDbLayerTableRecord
  2
_U+30EC_U+30A4_U+30E4_U+30FC 1
 70
     0
 62
     7
  6
Continuous
370
    -3
390
F
347
3E
  0
ENDTAB
  0
TABLE
  2
STYLE
  5
3
330
0
100
AcDbSymbolTable
 70
     1
  0
STYLE
  5
11
330
3
100
AcDbSymbolTableRecord
100
AcDbTextStyleTableRecord
  2
Standard
 70
     0
 40
0.0
 41
1.0
 50
0.0
 71
     0
 42
0.2
  3
txt
  4

  0
ENDTAB
  0
TABLE
  2
VIEW
  5
6
330
0
100
AcDbSymbolTable
 70
     0
  0
ENDTAB
  0
TABLE
  2
UCS
  5
7
330
0
100
AcDbSymbolTable
 70
     0
  0
ENDTAB
  0
TABLE
  2
APPID
  5
9
330
0
100
AcDbSymbolTable
 70
     1
  0
APPID
  5
12
330
9
100
AcDbSymbolTableRecord
100
AcDbRegAppTableRecord
  2
ACAD
 70
     0
  0
ENDTAB
  0
TABLE
  2
DIMSTYLE
  5
A
330
0
100
AcDbSymbolTable
 70
     1
100
AcDbDimStyleTable
  0
DIMSTYLE
105
27
330
A
100
AcDbSymbolTableRecord
100
AcDbDimStyleTableRecord
  2
Standard
 70
     0
178
     0
340
11
  0
ENDTAB
  0
TABLE
  2
BLOCK_RECORD
  5
1
330
0
100
AcDbSymbolTable
 70
     3
  0
BLOCK_RECORD
  5
1F
330
1
100
AcDbSymbolTableRecord
100
AcDbBlockTableRecord
  2
*Model_Space
340
22
 70
     0
280
     1
281
     0
  0
BLOCK_RECORD
  5
1B
330
1
100
AcDbSymbolTableRecord
100
AcDbBlockTableRecord
  2
*Paper_Space
340
1E
 70
     0
280
     1
281
     0
  0
BLOCK_RECORD
  5
23
330
1
100
AcDbSymbolTableRecord
100
AcDbBlockTableRecord
  2
*Paper_Space0
340
26
 70
     0
280
     1
281
     0
  0
BLOCK_RECORD
  5
41
330
1
100
AcDbSymbolTableRecord
100
AcDbBlockTableRecord
  2
block 2
340
0
102
{BLKREFS
331
42
102
}
 70
     0
280
     1
281
     0
  0
BLOCK_RECORD
  5
D5
330
1
100
AcDbSymbolTableRecord
100
AcDbBlockTableRecord
  2
block 3
340
0
102
{BLKREFS
331
D6
102
}
 70
     0
280
     1
281
     0
  0
ENDTAB
  0
ENDSEC
  0
SECTION
  2
BLOCKS
  0
BLOCK
  5
20
330
1F
100
AcDbEntity
  8
0
100
AcDbBlockBegin
  2
*Model_Space
 70
     0
 10
0.0
 20
0.0
 30
0.0
  3
*Model_Space
  1

  0
ENDBLK
  5
21
330
1F
100
AcDbEntity
  8
0
100
AcDbBlockEnd
  0
BLOCK
  5
1C
330
1B
100
AcDbEntity
 67
     1
  8
0
100
AcDbBlockBegin
  2
*Paper_Space
 70
     0
 10
0.0
 20
0.0
 30
0.0
  3
*Paper_Space
  1

  0
ENDBLK
  5
1D
330
1B
100
AcDbEntity
 67
     1
  8
0
100
AcDbBlockEnd
  0
BLOCK
  5
24
330
23
100
AcDbEntity
  8
0
100
AcDbBlockBegin
  2
*Paper_Space0
 70
     0
 10
0.0
 20
0.0
 30
0.0
  3
*Paper_Space0
  1

  0
ENDBLK
  5
25
330
23
100
AcDbEntity
  8
0
100
AcDbBlockEnd
  0
BLOCK
  5
43
330
41
100
AcDbEntity
  8
0
100
AcDbBlockBegin
  2
block 2
 70
     0
 10
0.0
 20
0.0
 30
0.0
  3
block 2
  1

  0
POLYLINE
  5
45
330
41
100
AcDbEntity
  8
_U+30EC_U+30A4_U+30E4_U+30FC 1
370
     0
100
AcDb2dPolyline
 66
     1
 10
0.0
 20
0.0
 30
0.0
  0
VERTEX
  5
46
330
45
100
AcDbEntity
  8
_U+30EC_U+30A4_U+30E4_U+30FC 1
370
     0
100
AcDbVertex
100
AcDb2dVertex
 10
180.2363714827187
 20
34.69038965117739
 30
0.0
  0
VERTEX
  5
47
330
45
100
AcDbEntity
  8
_U+30EC_U+30A4_U+30E4_U+30FC 1
370
     0
100
AcDbVertex
100
AcDb2dVertex
 10
179.8639566607632
 20
34.69038965117739
 30
0.0
  0
VERTEX
  5
48
330
45
100
AcDbEntity
  8
_U+30EC_U+30A4_U+30E4_U+30FC 1
370
     0
100
AcDbVertex
100
AcDb2dVertex
 10
179.8639566607632
 20
36.32439843983139
 30
0.0
  0
VERTEX
  5
49
330
45
100
AcDbEntity
  8
_U+30EC_U+30A4_U+30E4_U+30FC 1
370
     0
100
AcDbVertex
100
AcDb2dVertex
 10
178.2296033625607
 20
36.32439843983139
 30
0.0
  0
VERTEX
  5
4A
330
45
100
AcDbEntity
  8
_U+30EC_U+30A4_U+30E4_U+30FC 1
370
     0
100
AcDbVertex
100
AcDb2dVertex
 10
178.2296033625607
 20
34.69038965117739
 30
0.0
  0
VERTEX
  5
4B
330
45
100
AcDbEntity
  8
_U+30EC_U+30A4_U+30E4_U+30FC 1
370
     0
100
AcDbVertex
100
AcDb2dVertex
 10
177.8571885406052
 20
34.69038965117739
 30
0.0
  0
VERTEX
  5
4C
330
45
100
AcDbEntity
  8
_U+30EC_U+30A4_U+30E4_U+30FC 1
370
     0
100
AcDbVertex
100
AcDb2dVertex
 10
177.8571885406052
 20
38.10689084389966
 30
0.0
  0
VERTEX
  5
4D
330
45
100
AcDbEntity
  8
_U+30EC_U+30A4_U+30E4_U+30FC 1
370
     0
100
AcDbVertex
100
AcDb2dVertex
 10
178.2296033625607
 20
38.10689084389966
 30
0.0
  0
VERTEX
  5
4E
330
45
100
AcDbEntity
  8
_U+30EC_U+30A4_U+30E4_U+30FC 1
370
     0
100
AcDbVertex
100
AcDb2dVertex
 10
178.2296033625607
 20
36.64789290589635
 30
0.0
  0
VERTEX
  5
4F
330
45
100
AcDbEntity
  8
_U+30EC_U+30A4_U+30E4_U+30FC 1
370
     0
100
AcDbVertex
100
AcDb2dVertex
 10
179.8639566607632
 20
36.64789290589635
 30
0.0
  0
VERTEX
  5
50
330
45
100
AcDbEntity
  8
_U+30EC_U+30A4_U+30E4_U+30FC 1
370
     0
100
AcDbVertex
100
AcDb2dVertex
 10
179.8639566607632
 20
38.10689084389966
 30
0.0
  0
VERTEX
  5
51
330
45
100
AcDbEntity
  8
_U+30EC_U+30A4_U+30E4_U+30FC 1
370
     0
100
AcDbVertex
100
AcDb2dVertex
 10
180.2363714827187
 20
38.10689084389966
 30
0.0
  0
VERTEX
  5
52
330
45
100
AcDbEntity
  8
_U+30EC_U+30A4_U+30E4_U+30FC 1
370
     0
100
AcDbVertex
100
AcDb2dVertex
 10
180.2363714827187
 20
34.69038965117739
 30
0.0
  0
SEQEND
  5
53
330
45
100
AcDbEntity
  8
_U+30EC_U+30A4_U+30E4_U+30FC 1
370
     0
  0
HATCH
  5
54
330
41
100
AcDbEntity
  8
_U+30EC_U+30A4_U+30E4_U+30FC 1
 62
     7
100
AcDbHatch
 10
0.0
 20
0.0
 30
0.0
210
0.0
220
0.0
230
1.0
  2
SOLID
 70
     1
 71
     0
 91
        1
 92
        1
 93
       12
 72
     1
 10
180.2363714827187
 20
34.69038965117739
 11
179.8639566607632
 21
34.69038965117739
 72
     1
 10
179.8639566607632
 20
34.69038965117739
 11
179.8639566607632
 21
36.32439843983139
 72
     1
 10
179.8639566607632
 20
36.32439843983139
 11
178.2296033625607
 21
36.32439843983139
 72
     1
 10
178.2296033625607
 20
36.32439843983139
 11
178.2296033625607
 21
34.69038965117739
 72
     1
 10
178.2296033625607
 20
34.69038965117739
 11
177.8571885406052
 21
34.69038965117739
 72
     1
 10
177.8571885406052
 20
34.69038965117739
 11
177.8571885406052
 21
38.10689084389966
 72
     1
 10
177.8571885406052
 20
38.10689084389966
 11
178.2296033625607
 21
38.10689084389966
 72
     1
 10
178.2296033625607
 20
38.10689084389966
 11
178.2296033625607
 21
36.64789290589635
 72
     1
 10
178.2296033625607
 20
36.64789290589635
 11
179.8639566607632
 21
36.64789290589635
 72
     1
 10
179.8639566607632
 20
36.64789290589635
 11
179.8639566607632
 21
38.10689084389966
 72
     1
 10
179.8639566607632
 20
38.10689084389966
 11
180.2363714827187
 21
38.10689084389966
 72
     1
 10
180.2363714827187
 20
38.10689084389966
 11
180.2363714827187
 21
34.69038965117739
 97
        0
 75
     2
 76
     1
 98
        0
  0
SPLINE
  5
55
330
41
100
AcDbEntity
  8
_U+30EC_U+30A4_U+30E4_U+30FC 1
370
     0
100
AcDbSpline
210
0.0
220
0.0
230
1.0
 70
    11
 71
     3
 72
    23
 73
    19
 74
     0
 42
0.0000000001
 43
0.0000000001
 12
1.0
 22
0.0
 32
0.0
 13
1.0
 23
0.0
 33
0.0
 40
0.0
 40
0.0
 40
0.0
 40
0.0
 40
1.0
 40
1.0
 40
1.0
 40
2.0
 40
2.0
 40
2.0
 40
3.0
 40
3.0
 40
3.0
 40
4.0
 40
4.0
 40
4.0
 40
5.0
 40
5.0
 40
5.0
 40
6.0
 40
6.0
 40
6.0
 40
6.0
 10
180.998426604056
 20
38.0662387171737
 30
0.0
 10
181.2495740649307
 20
38.10689084389966
 30
0.0
 10
181.5413736525313
 20
38.13824121281543
 30
0.0
 10
181.8603894944655
 20
38.13824121281543
 30
0.0
 10
183.2339490644346
 20
38.13824121281543
 30
0.0
 10
183.6291015165927
 20
37.32554318784499
 30
0.0
 10
183.6291015165927
 20
36.48631792763813
 30
0.0
 10
183.6291015165927
 20
35.94302636961423
 30
0.0
 10
183.4854410348578
 20
35.48035004594518
 30
0.0
 10
183.1622910783414
 20
35.14376421703627
 30
0.0
 10
182.8615342424791
 20
34.83405013291231
 30
0.0
 10
182.3630289257634
 20
34.66351790639244
 30
0.0
 10
181.7391221333847
 20
34.66351790639244
 30
0.0
 10
181.4562797940457
 20
34.66351790639244
 30
0.0
 10
181.2137450718841
 20
34.67247515465409
 30
0.0
 10
180.998426604056
 20
34.69934689943904
 30
0.0
 10
180.998426604056
 20
34.69934689943904
 30
0.0
 10
180.998426604056
 20
38.0662387171737
 30
0.0
 10
180.998426604056
 20
38.0662387171737
 30
0.0
  0
SPLINE
  5
56
330
41
100
AcDbEntity
  8
_U+30EC_U+30A4_U+30E4_U+30FC 1
370
     0
100
AcDbSpline
210
0.0
220
0.0
230
1.0
 70
    11
 71
     3
 72
    20
 73
    16
 74
     0
 42
0.0000000001
 43
0.0000000001
 12
1.0
 22
0.0
 32
0.0
 13
1.0
 23
0.0
 33
0.0
 40
0.0
 40
0.0
 40
0.0
 40
0.0
 40
1.0
 40
1.0
 40
1.0
 40
2.0
 40
2.0
 40
2.0
 40
3.0
 40
3.0
 40
3.0
 40
4.0
 40
4.0
 40
4.0
 40
5.0
 40
5.0
 40
5.0
 40
5.0
 10
181.3708414260115
 20
34.98666786290887
 30
0.0
 10
181.4831515388306
 20
34.96875336638558
 30
0.0
 10
181.6447265170888
 20
34.96427474225475
 30
0.0
 10
181.806301495347
 20
34.96427474225475
 30
0.0
 10
182.7313096331366
 20
34.96427474225475
 30
0.0
 10
183.2384276885654
 20
35.48965180375535
 30
0.0
 10
183.2384276885654
 20
36.46805892156631
 30
0.0
 10
183.2384276885654
 20
37.35723806630929
 30
0.0
 10
182.7626600020524
 20
37.83748437695311
 30
0.0
 10
181.8738253668579
 20
37.83748437695311
 30
0.0
 10
181.6581623894813
 20
37.83748437695311
 30
0.0
 10
181.4876301629614
 20
37.81509125629899
 30
0.0
 10
181.3708414260115
 20
37.79269813564487
 30
0.0
 10
181.3708414260115
 20
37.79269813564487
 30
0.0
 10
181.3708414260115
 20
34.98666786290887
 30
0.0
 10
181.3708414260115
 20
34.98666786290887
 30
0.0
  0
HATCH
  5
57
330
41
100
AcDbEntity
  8
_U+30EC_U+30A4_U+30E4_U+30FC 1
 62
     7
100
AcDbHatch
 10
0.0
 20
0.0
 30
0.0
210
0.0
220
0.0
230
1.0
  2
SOLID
 70
     1
 71
     0
 91
        2
 92
        1
 93
        1
 72
     4
 94
        3
 73
     0
 74
     1
 95
       23
 96
       19
 40
0.0
 40
0.0
 40
0.0
 40
0.0
 40
1.0
 40
1.0
 40
1.0
 40
2.0
 40
2.0
 40
2.0
 40
3.0
 40
3.0
 40
3.0
 40
4.0
 40
4.0
 40
4.0
 40
5.0
 40
5.0
 40
5.0
 40
6.0
 40
6.0
 40
6.0
 40
6.0
 10
180.998426604056
 20
38.0662387171737
 10
181.2495740649307
 20
38.10689084389966
 10
181.5413736525313
 20
38.13824121281543
 10
181.8603894944655
 20
38.13824121281543
 10
183.2339490644346
 20
38.13824121281543
 10
183.6291015165927
 20
37.32554318784499
 10
183.6291015165927
 20
36.48631792763813
 10
183.6291015165927
 20
35.94302636961423
 10
183.4854410348578
 20
35.48035004594518
 10
183.1622910783414
 20
35.14376421703627
 10
182.8615342424791
 20
34.83405013291231
 10
182.3630289257634
 20
34.66351790639244
 10
181.7391221333847
 20
34.66351790639244
 10
181.4562797940457
 20
34.66351790639244
 10
181.2137450718841
 20
34.67247515465409
 10
180.998426604056
 20
34.69934689943904
 10
180.998426604056
 20
34.69934689943904
 10
180.998426604056
 20
38.0662387171737
 10
180.998426604056
 20
38.0662387171737
 97
        0
 92
        1
 93
        1
 72
     4
 94
        3
 73
     0
 74
     1
 95
       20
 96
       16
 40
0.0
 40
0.0
 40
0.0
 40
0.0
 40
1.0
 40
1.0
 40
1.0
 40
2.0
 40
2.0
 40
2.0
 40
3.0
 40
3.0
 40
3.0
 40
4.0
 40
4.0
 40
4.0
 40
5.0
 40
5.0
 40
5.0
 40
5.0
 10
181.3708414260115
 20
34.98666786290887
 10
181.4831515388306
 20
34.96875336638558
 10
181.6447265170888
 20
34.96427474225475
 10
181.806301495347
 20
34.96427474225475
 10
182.7313096331366
 20
34.96427474225475
 10
183.2384276885654
 20
35.48965180375535
 10
183.2384276885654
 20
36.46805892156631
 10
183.2384276885654
 20
37.35723806630929
 10
182.7626600020524
 20
37.83748437695311
 10
181.8738253668579
 20
37.83748437695311
 10
181.6581623894813
 20
37.83748437695311
 10
181.4876301629614
 20
37.81509125629899
 10
181.3708414260115
 20
37.79269813564487
 10
181.3708414260115
 20
37.79269813564487
 10
181.3708414260115
 20
34.98666786290887
 10
181.3708414260115
 20
34.98666786290887
 97
        0
 75
     2
 76
     1
 98
        0
  0
POLYLINE
  5
58
330
41
100
AcDbEntity
  8
_U+30EC_U+30A4_U+30E4_U+30FC 1
370
     0
100
AcDb2dPolyline
 66
     1
 10
0.0
 20
0.0
 30
0.0
  0
VERTEX
  5
59
330
58
100
AcDbEntity
  8
_U+30EC_U+30A4_U+30E4_U+30FC 1
370
     0
100
AcDbVertex
100
AcDb2dVertex
 10
184.1934081570766
 20
34.69038965117739
 30
0.0
  0
VERTEX
  5
5A
330
58
100
AcDbEntity
  8
_U+30EC_U+30A4_U+30E4_U+30FC 1
370
     0
100
AcDbVertex
100
AcDb2dVertex
 10
184.1934081570766
 20
38.11136946803048
 30
0.0
  0
VERTEX
  5
5B
330
58
100
AcDbEntity
  8
_U+30EC_U+30A4_U+30E4_U+30FC 1
370
     0
100
AcDbVertex
100
AcDb2dVertex
 10
185.9173339378957
 20
38.11136946803048
 30
0.0
  0
VERTEX
  5
5C
330
58
100
AcDbEntity
  8
_U+30EC_U+30A4_U+30E4_U+30FC 1
370
     0
100
AcDbVertex
100
AcDb2dVertex
 10
185.9173339378957
 20
37.7971767597757
 30
0.0
  0
VERTEX
  5
5D
330
58
100
AcDbEntity
  8
_U+30EC_U+30A4_U+30E4_U+30FC 1
370
     0
100
AcDbVertex
100
AcDb2dVertex
 10
184.5658229790322
 20
37.7971767597757
 30
0.0
  0
VERTEX
  5
5E
330
58
100
AcDbEntity
  8
_U+30EC_U+30A4_U+30E4_U+30FC 1
370
     0
100
AcDbVertex
100
AcDb2dVertex
 10
184.5658229790322
 20
36.58036903438545
 30
0.0
  0
VERTEX
  5
5F
330
58
100
AcDbEntity
  8
_U+30EC_U+30A4_U+30E4_U+30FC 1
370
     0
100
AcDbVertex
100
AcDb2dVertex
 10
185.8095024492073
 20
36.58036903438545
 30
0.0
  0
VERTEX
  5
60
330
58
100
AcDbEntity
  8
_U+30EC_U+30A4_U+30E4_U+30FC 1
370
     0
100
AcDbVertex
100
AcDb2dVertex
 10
185.8095024492073
 20
36.27065495026149
 30
0.0
  0
VERTEX
  5
61
330
58
100
AcDbEntity
  8
_U+30EC_U+30A4_U+30E4_U+30FC 1
370
     0
100
AcDbVertex
100
AcDb2dVertex
 10
184.5658229790322
 20
36.27065495026149
 30
0.0
  0
VERTEX
  5
62
330
58
100
AcDbEntity
  8
_U+30EC_U+30A4_U+30E4_U+30FC 1
370
     0
100
AcDbVertex
100
AcDb2dVertex
 10
184.5658229790322
 20
34.69038965117739
 30
0.0
  0
VERTEX
  5
63
330
58
100
AcDbEntity
  8
_U+30EC_U+30A4_U+30E4_U+30FC 1
370
     0
100
AcDbVertex
100
AcDb2dVertex
 10
184.1934081570766
 20
34.69038965117739
 30
0.0
  0
SEQEND
  5
64
330
58
100
AcDbEntity
  8
_U+30EC_U+30A4_U+30E4_U+30FC 1
370
     0
  0
HATCH
  5
65
330
41
100
AcDbEntity
  8
_U+30EC_U+30A4_U+30E4_U+30FC 1
 62
     7
100
AcDbHatch
 10
0.0
 20
0.0
 30
0.0
210
0.0
220
0.0
230
1.0
  2
SOLID
 70
     1
 71
     0
 91
        1
 92
        1
 93
       10
 72
     1
 10
184.1934081570766
 20
34.69038965117739
 11
184.1934081570766
 21
38.11136946803048
 72
     1
 10
184.1934081570766
 20
38.11136946803048
 11
185.9173339378957
 21
38.11136946803048
 72
     1
 10
185.9173339378957
 20
38.11136946803048
 11
185.9173339378957
 21
37.7971767597757
 72
     1
 10
185.9173339378957
 20
37.7971767597757
 11
184.5658229790322
 21
37.7971767597757
 72
     1
 10
184.5658229790322
 20
37.7971767597757
 11
184.5658229790322
 21
36.58036903438545
 72
     1
 10
184.5658229790322
 20
36.58036903438545
 11
185.8095024492073
 21
36.58036903438545
 72
     1
 10
185.8095024492073
 20
36.58036903438545
 11
185.8095024492073
 21
36.27065495026149
 72
     1
 10
185.8095024492073
 20
36.27065495026149
 11
184.5658229790322
 21
36.27065495026149
 72
     1
 10
184.5658229790322
 20
36.27065495026149
 11
184.5658229790322
 21
34.69038965117739
 72
     1
 10
184.5658229790322
 20
34.69038965117739
 11
184.1934081570766
 21
34.69038965117739
 97
        0
 75
     2
 76
     1
 98
        0
  0
POLYLINE
  5
66
330
41
100
AcDbEntity
  8
_U+30EC_U+30A4_U+30E4_U+30FC 1
370
     0
100
AcDb2dPolyline
 66
     1
 10
0.0
 20
0.0
 30
0.0
  0
VERTEX
  5
67
330
66
100
AcDbEntity
  8
_U+30EC_U+30A4_U+30E4_U+30FC 1
370
     0
100
AcDbVertex
100
AcDb2dVertex
 10
186.2931938553364
 20
36.20347558829912
 30
0.0
  0
VERTEX
  5
68
330
66
100
AcDbEntity
  8
_U+30EC_U+30A4_U+30E4_U+30FC 1
370
     0
100
AcDbVertex
100
AcDb2dVertex
 10
187.5189588289883
 20
36.20347558829912
 30
0.0
  0
VERTEX
  5
69
330
66
100
AcDbEntity
  8
_U+30EC_U+30A4_U+30E4_U+30FC 1
370
     0
100
AcDbVertex
100
AcDb2dVertex
 10
187.5189588289883
 20
35.91615462482928
 30
0.0
  0
VERTEX
  5
6A
330
66
100
AcDbEntity
  8
_U+30EC_U+30A4_U+30E4_U+30FC 1
370
     0
100
AcDbVertex
100
AcDb2dVertex
 10
186.2931938553364
 20
35.91615462482928
 30
0.0
  0
VERTEX
  5
6B
330
66
100
AcDbEntity
  8
_U+30EC_U+30A4_U+30E4_U+30FC 1
370
     0
100
AcDbVertex
100
AcDb2dVertex
 10
186.2931938553364
 20
36.20347558829912
 30
0.0
  0
SEQEND
  5
6C
330
66
100
AcDbEntity
  8
_U+30EC_U+30A4_U+30E4_U+30FC 1
370
     0
  0
HATCH
  5
6D
330
41
100
AcDbEntity
  8
_U+30EC_U+30A4_U+30E4_U+30FC 1
 62
     7
100
AcDbHatch
 10
0.0
 20
0.0
 30
0.0
210
0.0
220
0.0
230
1.0
  2
SOLID
 70
     1
 71
     0
 91
        1
 92
        1
 93
        4
 72
     1
 10
186.2931938553364
 20
36.20347558829912
 11
187.5189588289883
 21
36.20347558829912
 72
     1
 10
187.5189588289883
 20
36.20347558829912
 11
187.5189588289883
 21
35.91615462482928
 72
     1
 10
187.5189588289883
 20
35.91615462482928
 11
186.2931938553364
 21
35.91615462482928
 72
     1
 10
186.2931938553364
 20
35.91615462482928
 11
186.2931938553364
 21
36.20347558829912
 97
        0
 75
     2
 76
     1
 98
        0
  0
POLYLINE
  5
6E
330
41
100
AcDbEntity
  8
_U+30EC_U+30A4_U+30E4_U+30FC 1
370
     0
100
AcDb2dPolyline
 66
     1
 10
0.0
 20
0.0
 30
0.0
  0
VERTEX
  5
6F
330
6E
100
AcDbEntity
  8
_U+30EC_U+30A4_U+30E4_U+30FC 1
370
     0
100
AcDbVertex
100
AcDb2dVertex
 10
190.4314425522185
 20
34.69038965117739
 30
0.0
  0
VERTEX
  5
70
330
6E
100
AcDbEntity
  8
_U+30EC_U+30A4_U+30E4_U+30FC 1
370
     0
100
AcDbVertex
100
AcDb2dVertex
 10
190.059027730263
 20
34.69038965117739
 30
0.0
  0
VERTEX
  5
71
330
6E
100
AcDbEntity
  8
_U+30EC_U+30A4_U+30E4_U+30FC 1
370
     0
100
AcDbVertex
100
AcDb2dVertex
 10
190.059027730263
 20
36.32439843983139
 30
0.0
  0
VERTEX
  5
72
330
6E
100
AcDbEntity
  8
_U+30EC_U+30A4_U+30E4_U+30FC 1
370
     0
100
AcDbVertex
100
AcDb2dVertex
 10
188.4246744320605
 20
36.32439843983139
 30
0.0
  0
VERTEX
  5
73
330
6E
100
AcDbEntity
  8
_U+30EC_U+30A4_U+30E4_U+30FC 1
370
     0
100
AcDbVertex
100
AcDb2dVertex
 10
188.4246744320605
 20
34.69038965117739
 30
0.0
  0
VERTEX
  5
74
330
6E
100
AcDbEntity
  8
_U+30EC_U+30A4_U+30E4_U+30FC 1
370
     0
100
AcDbVertex
100
AcDb2dVertex
 10
188.052259610105
 20
34.69038965117739
 30
0.0
  0
VERTEX
  5
75
330
6E
100
AcDbEntity
  8
_U+30EC_U+30A4_U+30E4_U+30FC 1
370
     0
100
AcDbVertex
100
AcDb2dVertex
 10
188.052259610105
 20
38.10689084389966
 30
0.0
  0
VERTEX
  5
76
330
6E
100
AcDbEntity
  8
_U+30EC_U+30A4_U+30E4_U+30FC 1
370
     0
100
AcDbVertex
100
AcDb2dVertex
 10
188.4246744320605
 20
38.10689084389966
 30
0.0
  0
VERTEX
  5
77
330
6E
100
AcDbEntity
  8
_U+30EC_U+30A4_U+30E4_U+30FC 1
370
     0
100
AcDbVertex
100
AcDb2dVertex
 10
188.4246744320605
 20
36.64789290589635
 30
0.0
  0
VERTEX
  5
78
330
6E
100
AcDbEntity
  8
_U+30EC_U+30A4_U+30E4_U+30FC 1
370
     0
100
AcDbVertex
100
AcDb2dVertex
 10
190.059027730263
 20
36.64789290589635
 30
0.0
  0
VERTEX
  5
79
330
6E
100
AcDbEntity
  8
_U+30EC_U+30A4_U+30E4_U+30FC 1
370
     0
100
AcDbVertex
100
AcDb2dVertex
 10
190.059027730263
 20
38.10689084389966
 30
0.0
  0
VERTEX
  5
7A
330
6E
100
AcDbEntity
  8
_U+30EC_U+30A4_U+30E4_U+30FC 1
370
     0
100
AcDbVertex
100
AcDb2dVertex
 10
190.4314425522185
 20
38.10689084389966
 30
0.0
  0
VERTEX
  5
7B
330
6E
100
AcDbEntity
  8
_U+30EC_U+30A4_U+30E4_U+30FC 1
370
     0
100
AcDbVertex
100
AcDb2dVertex
 10
190.4314425522185
 20
34.69038965117739
 30
0.0
  0
SEQEND
  5
7C
330
6E
100
AcDbEntity
  8
_U+30EC_U+30A4_U+30E4_U+30FC 1
370
     0
  0
HATCH
  5
7D
330
41
100
AcDbEntity
  8
_U+30EC_U+30A4_U+30E4_U+30FC 1
 62
     7
100
AcDbHatch
 10
0.0
 20
0.0
 30
0.0
210
0.0
220
0.0
230
1.0
  2
SOLID
 70
     1
 71
     0
 91
        1
 92
        1
 93
       12
 72
     1
 10
190.4314425522185
 20
34.69038965117739
 11
190.059027730263
 21
34.69038965117739
 72
     1
 10
190.059027730263
 20
34.69038965117739
 11
190.059027730263
 21
36.32439843983139
 72
     1
 10
190.059027730263
 20
36.32439843983139
 11
188.4246744320605
 21
36.32439843983139
 72
     1
 10
188.4246744320605
 20
36.32439843983139
 11
188.4246744320605
 21
34.69038965117739
 72
     1
 10
188.4246744320605
 20
34.69038965117739
 11
188.052259610105
 21
34.69038965117739
 72
     1
 10
188.052259610105
 20
34.69038965117739
 11
188.052259610105
 21
38.10689084389966
 72
     1
 10
188.052259610105
 20
38.10689084389966
 11
188.4246744320605
 21
38.10689084389966
 72
     1
 10
188.4246744320605
 20
38.10689084389966
 11
188.4246744320605
 21
36.64789290589635
 72
     1
 10
188.4246744320605
 20
36.64789290589635
 11
190.059027730263
 21
36.64789290589635
 72
     1
 10
190.059027730263
 20
36.64789290589635
 11
190.059027730263
 21
38.10689084389966
 72
     1
 10
190.059027730263
 20
38.10689084389966
 11
190.4314425522185
 21
38.10689084389966
 72
     1
 10
190.4314425522185
 20
38.10689084389966
 11
190.4314425522185
 21
34.69038965117739
 97
        0
 75
     2
 76
     1
 98
        0
  0
SPLINE
  5
7E
330
41
100
AcDbEntity
  8
_U+30EC_U+30A4_U+30E4_U+30FC 1
370
     0
100
AcDbSpline
210
0.0
220
0.0
230
1.0
 70
    11
 71
     3
 72
    17
 73
    13
 74
     0
 42
0.0000000001
 43
0.0000000001
 12
1.0
 22
0.0
 32
0.0
 13
1.0
 23
0.0
 33
0.0
 40
0.0
 40
0.0
 40
0.0
 40
0.0
 40
1.0
 40
1.0
 40
1.0
 40
2.0
 40
2.0
 40
2.0
 40
3.0
 40
3.0
 40
3.0
 40
4.0
 40
4.0
 40
4.0
 40
4.0
 10
190.9912705685716
 20
36.36057194242651
 30
0.0
 10
190.9912705685716
 20
37.53672754109081
 30
0.0
 10
191.4491237585613
 20
38.10689084389966
 30
0.0
 10
192.0778536846194
 20
38.10689084389966
 30
0.0
 10
192.7151963493907
 20
38.10689084389966
 30
0.0
 10
193.105870177418
 20
37.50537717217503
 30
0.0
 10
193.105870177418
 20
36.40535818373476
 30
0.0
 10
193.105870177418
 20
35.23815983333211
 30
0.0
 10
192.6972818528673
 20
34.63664616160749
 30
0.0
 10
192.0282443096318
 20
34.63664616160749
 30
0.0
 10
191.4177733896456
 20
34.63664616160749
 30
0.0
 10
190.9912705685716
 20
35.23815983333211
 30
0.0
 10
190.9912705685716
 20
36.36057194242651
 30
0.0
  0
SPLINE
  5
7F
330
41
100
AcDbEntity
  8
_U+30EC_U+30A4_U+30E4_U+30FC 1
370
     0
100
AcDbSpline
210
0.0
220
0.0
230
1.0
 70
    11
 71
     3
 72
    17
 73
    13
 74
     0
 42
0.0000000001
 43
0.0000000001
 12
1.0
 22
0.0
 32
0.0
 13
1.0
 23
0.0
 33
0.0
 40
0.0
 40
0.0
 40
0.0
 40
0.0
 40
1.0
 40
1.0
 40
1.0
 40
2.0
 40
2.0
 40
2.0
 40
3.0
 40
3.0
 40
3.0
 40
4.0
 40
4.0
 40
4.0
 40
4.0
 10
192.7286322217831
 20
36.38744368721146
 30
0.0
 10
192.7286322217831
 20
37.22701345696684
 30
0.0
 10
192.5267496263475
 20
37.80613400803735
 30
0.0
 10
192.0554605639653
 20
37.80613400803735
 30
0.0
 10
191.6558294876763
 20
37.80613400803735
 30
0.0
 10
191.3729871483373
 20
37.2717996982751
 30
0.0
 10
191.3729871483373
 20
36.38744368721146
 30
0.0
 10
191.3729871483373
 20
35.50308767614783
 30
0.0
 10
191.6200004946297
 20
34.94188162160063
 30
0.0
 10
192.0420246915728
 20
34.94188162160063
 30
0.0
 10
192.54018549874
 20
34.94188162160063
 30
0.0
 10
192.7286322217831
 20
35.5881815346335
 30
0.0
 10
192.7286322217831
 20
36.38744368721146
 30
0.0
  0
HATCH
  5
80
330
41
100
AcDbEntity
  8
_U+30EC_U+30A4_U+30E4_U+30FC 1
 62
     7
100
AcDbHatch
 10
0.0
 20
0.0
 30
0.0
210
0.0
220
0.0
230
1.0
  2
SOLID
 70
     1
 71
     0
 91
        2
 92
        1
 93
        1
 72
     4
 94
        3
 73
     0
 74
     1
 95
       17
 96
       13
 40
0.0
 40
0.0
 40
0.0
 40
0.0
 40
1.0
 40
1.0
 40
1.0
 40
2.0
 40
2.0
 40
2.0
 40
3.0
 40
3.0
 40
3.0
 40
4.0
 40
4.0
 40
4.0
 40
4.0
 10
190.9912705685716
 20
36.36057194242651
 10
190.9912705685716
 20
37.53672754109081
 10
191.4491237585613
 20
38.10689084389966
 10
192.0778536846194
 20
38.10689084389966
 10
192.7151963493907
 20
38.10689084389966
 10
193.105870177418
 20
37.50537717217503
 10
193.105870177418
 20
36.40535818373476
 10
193.105870177418
 20
35.23815983333211
 10
192.6972818528673
 20
34.63664616160749
 10
192.0282443096318
 20
34.63664616160749
 10
191.4177733896456
 20
34.63664616160749
 10
190.9912705685716
 20
35.23815983333211
 10
190.9912705685716
 20
36.36057194242651
 97
        0
 92
        1
 93
        1
 72
     4
 94
        3
 73
     0
 74
     1
 95
       17
 96
       13
 40
0.0
 40
0.0
 40
0.0
 40
0.0
 40
1.0
 40
1.0
 40
1.0
 40
2.0
 40
2.0
 40
2.0
 40
3.0
 40
3.0
 40
3.0
 40
4.0
 40
4.0
 40
4.0
 40
4.0
 10
192.7286322217831
 20
36.38744368721146
 10
192.7286322217831
 20
37.22701345696684
 10
192.5267496263475
 20
37.80613400803735
 10
192.0554605639653
 20
37.80613400803735
 10
191.6558294876763
 20
37.80613400803735
 10
191.3729871483373
 20
37.2717996982751
 10
191.3729871483373
 20
36.38744368721146
 10
191.3729871483373
 20
35.50308767614783
 10
191.6200004946297
 20
34.94188162160063
 10
192.0420246915728
 20
34.94188162160063
 10
192.54018549874
 20
34.94188162160063
 10
192.7286322217831
 20
35.5881815346335
 10
192.7286322217831
 20
36.38744368721146
 97
        0
 75
     2
 76
     1
 98
        0
  0
SPLINE
  5
81
330
41
100
AcDbEntity
  8
_U+30EC_U+30A4_U+30E4_U+30FC 1
370
     0
100
AcDbSpline
210
0.0
220
0.0
230
1.0
 70
    11
 71
     3
 72
    17
 73
    13
 74
     0
 42
0.0000000001
 43
0.0000000001
 12
1.0
 22
0.0
 32
0.0
 13
1.0
 23
0.0
 33
0.0
 40
0.0
 40
0.0
 40
0.0
 40
0.0
 40
1.0
 40
1.0
 40
1.0
 40
2.0
 40
2.0
 40
2.0
 40
3.0
 40
3.0
 40
3.0
 40
4.0
 40
4.0
 40
4.0
 40
4.0
 10
193.4638155983355
 20
36.36057194242651
 30
0.0
 10
193.4638155983355
 20
37.53672754109081
 30
0.0
 10
193.9216687883251
 20
38.10689084389966
 30
0.0
 10
194.5503987143832
 20
38.10689084389966
 30
0.0
 10
195.1877413791545
 20
38.10689084389966
 30
0.0
 10
195.5784152071818
 20
37.50537717217503
 30
0.0
 10
195.5784152071818
 20
36.40535818373476
 30
0.0
 10
195.5784152071818
 20
35.23815983333211
 30
0.0
 10
195.1698268826312
 20
34.63664616160749
 30
0.0
 10
194.5007893393957
 20
34.63664616160749
 30
0.0
 10
193.8903184194094
 20
34.63664616160749
 30
0.0
 10
193.4638155983355
 20
35.23815983333211
 30
0.0
 10
193.4638155983355
 20
36.36057194242651
 30
0.0
  0
SPLINE
  5
82
330
41
100
AcDbEntity
  8
_U+30EC_U+30A4_U+30E4_U+30FC 1
370
     0
100
AcDbSpline
210
0.0
220
0.0
230
1.0
 70
    11
 71
     3
 72
    17
 73
    13
 74
     0
 42
0.0000000001
 43
0.0000000001
 12
1.0
 22
0.0
 32
0.0
 13
1.0
 23
0.0
 33
0.0
 40
0.0
 40
0.0
 40
0.0
 40
0.0
 40
1.0
 40
1.0
 40
1.0
 40
2.0
 40
2.0
 40
2.0
 40
3.0
 40
3.0
 40
3.0
 40
4.0
 40
4.0
 40
4.0
 40
4.0
 10
195.2011772515469
 20
36.38744368721146
 30
0.0
 10
195.2011772515469
 20
37.22701345696684
 30
0.0
 10
194.9992946561113
 20
37.80613400803735
 30
0.0
 10
194.5280055937291
 20
37.80613400803735
 30
0.0
 10
194.1283745174401
 20
37.80613400803735
 30
0.0
 10
193.8455321781011
 20
37.2717996982751
 30
0.0
 10
193.8455321781011
 20
36.38744368721146
 30
0.0
 10
193.8455321781011
 20
35.50308767614783
 30
0.0
 10
194.0925455243935
 20
34.94188162160063
 30
0.0
 10
194.5145697213366
 20
34.94188162160063
 30
0.0
 10
195.0127305285038
 20
34.94188162160063
 30
0.0
 10
195.2011772515469
 20
35.5881815346335
 30
0.0
 10
195.2011772515469
 20
36.38744368721146
 30
0.0
  0
HATCH
  5
83
330
41
100
AcDbEntity
  8
_U+30EC_U+30A4_U+30E4_U+30FC 1
 62
     7
100
AcDbHatch
 10
0.0
 20
0.0
 30
0.0
210
0.0
220
0.0
230
1.0
  2
SOLID
 70
     1
 71
     0
 91
        2
 92
        1
 93
        1
 72
     4
 94
        3
 73
     0
 74
     1
 95
       17
 96
       13
 40
0.0
 40
0.0
 40
0.0
 40
0.0
 40
1.0
 40
1.0
 40
1.0
 40
2.0
 40
2.0
 40
2.0
 40
3.0
 40
3.0
 40
3.0
 40
4.0
 40
4.0
 40
4.0
 40
4.0
 10
193.4638155983355
 20
36.36057194242651
 10
193.4638155983355
 20
37.53672754109081
 10
193.9216687883251
 20
38.10689084389966
 10
194.5503987143832
 20
38.10689084389966
 10
195.1877413791545
 20
38.10689084389966
 10
195.5784152071818
 20
37.50537717217503
 10
195.5784152071818
 20
36.40535818373476
 10
195.5784152071818
 20
35.23815983333211
 10
195.1698268826312
 20
34.63664616160749
 10
194.5007893393957
 20
34.63664616160749
 10
193.8903184194094
 20
34.63664616160749
 10
193.4638155983355
 20
35.23815983333211
 10
193.4638155983355
 20
36.36057194242651
 97
        0
 92
        1
 93
        1
 72
     4
 94
        3
 73
     0
 74
     1
 95
       17
 96
       13
 40
0.0
 40
0.0
 40
0.0
 40
0.0
 40
1.0
 40
1.0
 40
1.0
 40
2.0
 40
2.0
 40
2.0
 40
3.0
 40
3.0
 40
3.0
 40
4.0
 40
4.0
 40
4.0
 40
4.0
 10
195.2011772515469
 20
36.38744368721146
 10
195.2011772515469
 20
37.22701345696684
 10
194.9992946561113
 20
37.80613400803735
 10
194.5280055937291
 20
37.80613400803735
 10
194.1283745174401
 20
37.80613400803735
 10
193.8455321781011
 20
37.2717996982751
 10
193.8455321781011
 20
36.38744368721146
 10
193.8455321781011
 20
35.50308767614783
 10
194.0925455243935
 20
34.94188162160063
 10
194.5145697213366
 20
34.94188162160063
 10
195.0127305285038
 20
34.94188162160063
 10
195.2011772515469
 20
35.5881815346335
 10
195.2011772515469
 20
36.38744368721146
 97
        0
 75
     2
 76
     1
 98
        0
  0
SPLINE
  5
84
330
41
100
AcDbEntity
  8
_U+30EC_U+30A4_U+30E4_U+30FC 1
370
     0
100
AcDbSpline
210
0.0
220
0.0
230
1.0
 70
    11
 71
     3
 72
    59
 73
    55
 74
     0
 42
0.0000000001
 43
0.0000000001
 12
1.0
 22
0.0
 32
0.0
 13
1.0
 23
0.0
 33
0.0
 40
0.0
 40
0.0
 40
0.0
 40
0.0
 40
1.0
 40
1.0
 40
1.0
 40
2.0
 40
2.0
 40
2.0
 40
3.0
 40
3.0
 40
3.0
 40
4.0
 40
4.0
 40
4.0
 40
5.0
 40
5.0
 40
5.0
 40
6.0
 40
6.0
 40
6.0
 40
7.0
 40
7.0
 40
7.0
 40
8.0
 40
8.0
 40
8.0
 40
9.0
 40
9.0
 40
9.0
 40
10.0
 40
10.0
 40
10.0
 40
11.0
 40
11.0
 40
11.0
 40
12.0
 40
12.0
 40
12.0
 40
13.0
 40
13.0
 40
13.0
 40
14.0
 40
14.0
 40
14.0
 40
15.0
 40
15.0
 40
15.0
 40
16.0
 40
16.0
 40
16.0
 40
17.0
 40
17.0
 40
17.0
 40
18.0
 40
18.0
 40
18.0
 40
18.0
 10
197.1662597163335
 20
36.50871104829226
 30
0.0
 10
197.5614121684916
 20
36.44118717678136
 30
0.0
 10
197.8979979974005
 20
36.12251584439575
 30
0.0
 10
197.8979979974005
 20
35.6377909096211
 30
0.0
 10
197.8979979974005
 20
35.10345659985884
 30
0.0
 10
197.511802793504
 20
34.63664616160749
 30
0.0
 10
196.7576713917828
 20
34.63664616160749
 30
0.0
 10
196.4210855628739
 20
34.63664616160749
 30
0.0
 10
196.1158501028808
 20
34.74413314074729
 30
0.0
 10
195.9628878633357
 20
34.85196462943561
 30
0.0
 10
195.9628878633357
 20
34.85196462943561
 30
0.0
 10
196.0751979761548
 20
35.13928559290544
 30
0.0
 10
196.0751979761548
 20
35.13928559290544
 30
0.0
 10
196.1964653372356
 20
35.0586703585506
 30
0.0
 10
196.4658718041821
 20
34.9374029974698
 30
0.0
 10
196.7621500159136
 20
34.9374029974698
 30
0.0
 10
197.3278346945917
 20
34.9374029974698
 30
0.0
 10
197.511802793504
 20
35.33221094007943
 30
0.0
 10
197.511802793504
 20
35.64226953375192
 30
0.0
 10
197.511802793504
 20
36.13595171678822
 30
0.0
 10
197.0942572206917
 20
36.36057194242651
 30
0.0
 10
196.6543185272253
 20
36.36057194242651
 30
0.0
 10
196.6543185272253
 20
36.36057194242651
 30
0.0
 10
196.4345214352664
 20
36.36057194242651
 30
0.0
 10
196.4345214352664
 20
36.36057194242651
 30
0.0
 10
196.4345214352664
 20
36.36057194242651
 30
0.0
 10
196.4345214352664
 20
36.6389356576347
 30
0.0
 10
196.4345214352664
 20
36.6389356576347
 30
0.0
 10
196.4345214352664
 20
36.6389356576347
 30
0.0
 10
196.6543185272253
 20
36.6389356576347
 30
0.0
 10
196.6543185272253
 20
36.6389356576347
 30
0.0
 10
196.9778129932903
 20
36.6389356576347
 30
0.0
 10
197.395014056554
 20
36.84081825307034
 30
0.0
 10
197.395014056554
 20
37.26284245001344
 30
0.0
 10
197.395014056554
 20
37.55464203761411
 30
0.0
 10
197.2200032059033
 20
37.80613400803735
 30
0.0
 10
196.8158935054835
 20
37.80613400803735
 30
0.0
 10
196.5692246687397
 20
37.80613400803735
 30
0.0
 10
196.3356471948397
 20
37.68486664695655
 30
0.0
 10
196.2009439613664
 20
37.58599240652988
 30
0.0
 10
196.2009439613664
 20
37.58599240652988
 30
0.0
 10
196.0886338485473
 20
37.85987749760724
 30
0.0
 10
196.0886338485473
 20
37.85987749760724
 30
0.0
 10
196.2502088268055
 20
37.98562348281886
 30
0.0
 10
196.5647460446088
 20
38.11136946803048
 30
0.0
 10
196.8878960011253
 20
38.11136946803048
 30
0.0
 10
197.5028455452424
 20
38.11136946803048
 30
0.0
 10
197.7767306363197
 20
37.72069564000315
 30
0.0
 10
197.7767306363197
 20
37.31658593958334
 30
0.0
 10
197.7767306363197
 20
36.97104286241278
 30
0.0
 10
197.5569335443608
 20
36.66132877828882
 30
0.0
 10
197.1662597163335
 20
36.52214692068473
 30
0.0
 10
197.1662597163335
 20
36.52214692068473
 30
0.0
 10
197.1662597163335
 20
36.50871104829226
 30
0.0
 10
197.1662597163335
 20
36.50871104829226
 30
0.0
  0
HATCH
  5
85
330
41
100
AcDbEntity
  8
_U+30EC_U+30A4_U+30E4_U+30FC 1
 62
     7
100
AcDbHatch
 10
0.0
 20
0.0
 30
0.0
210
0.0
220
0.0
230
1.0
  2
SOLID
 70
     1
 71
     0
 91
        1
 92
        1
 93
        1
 72
     4
 94
        3
 73
     0
 74
     1
 95
       59
 96
       55
 40
0.0
 40
0.0
 40
0.0
 40
0.0
 40
1.0
 40
1.0
 40
1.0
 40
2.0
 40
2.0
 40
2.0
 40
3.0
 40
3.0
 40
3.0
 40
4.0
 40
4.0
 40
4.0
 40
5.0
 40
5.0
 40
5.0
 40
6.0
 40
6.0
 40
6.0
 40
7.0
 40
7.0
 40
7.0
 40
8.0
 40
8.0
 40
8.0
 40
9.0
 40
9.0
 40
9.0
 40
10.0
 40
10.0
 40
10.0
 40
11.0
 40
11.0
 40
11.0
 40
12.0
 40
12.0
 40
12.0
 40
13.0
 40
13.0
 40
13.0
 40
14.0
 40
14.0
 40
14.0
 40
15.0
 40
15.0
 40
15.0
 40
16.0
 40
16.0
 40
16.0
 40
17.0
 40
17.0
 40
17.0
 40
18.0
 40
18.0
 40
18.0
 40
18.0
 10
197.1662597163335
 20
36.50871104829226
 10
197.5614121684916
 20
36.44118717678136
 10
197.8979979974005
 20
36.12251584439575
 10
197.8979979974005
 20
35.6377909096211
 10
197.8979979974005
 20
35.10345659985884
 10
197.511802793504
 20
34.63664616160749
 10
196.7576713917828
 20
34.63664616160749
 10
196.4210855628739
 20
34.63664616160749
 10
196.1158501028808
 20
34.74413314074729
 10
195.9628878633357
 20
34.85196462943561
 10
195.9628878633357
 20
34.85196462943561
 10
196.0751979761548
 20
35.13928559290544
 10
196.0751979761548
 20
35.13928559290544
 10
196.1964653372356
 20
35.0586703585506
 10
196.4658718041821
 20
34.9374029974698
 10
196.7621500159136
 20
34.9374029974698
 10
197.3278346945917
 20
34.9374029974698
 10
197.511802793504
 20
35.33221094007943
 10
197.511802793504
 20
35.64226953375192
 10
197.511802793504
 20
36.13595171678822
 10
197.0942572206917
 20
36.36057194242651
 10
196.6543185272253
 20
36.36057194242651
 10
196.6543185272253
 20
36.36057194242651
 10
196.4345214352664
 20
36.36057194242651
 10
196.4345214352664
 20
36.36057194242651
 10
196.4345214352664
 20
36.36057194242651
 10
196.4345214352664
 20
36.6389356576347
 10
196.4345214352664
 20
36.6389356576347
 10
196.4345214352664
 20
36.6389356576347
 10
196.6543185272253
 20
36.6389356576347
 10
196.6543185272253
 20
36.6389356576347
 10
196.9778129932903
 20
36.6389356576347
 10
197.395014056554
 20
36.84081825307034
 10
197.395014056554
 20
37.26284245001344
 10
197.395014056554
 20
37.55464203761411
 10
197.2200032059033
 20
37.80613400803735
 10
196.8158935054835
 20
37.80613400803735
 10
196.5692246687397
 20
37.80613400803735
 10
196.3356471948397
 20
37.68486664695655
 10
196.2009439613664
 20
37.58599240652988
 10
196.2009439613664
 20
37.58599240652988
 10
196.0886338485473
 20
37.85987749760724
 10
196.0886338485473
 20
37.85987749760724
 10
196.2502088268055
 20
37.98562348281886
 10
196.5647460446088
 20
38.11136946803048
 10
196.8878960011253
 20
38.11136946803048
 10
197.5028455452424
 20
38.11136946803048
 10
197.7767306363197
 20
37.72069564000315
 10
197.7767306363197
 20
37.31658593958334
 10
197.7767306363197
 20
36.97104286241278
 10
197.5569335443608
 20
36.66132877828882
 10
197.1662597163335
 20
36.52214692068473
 10
197.1662597163335
 20
36.52214692068473
 10
197.1662597163335
 20
36.50871104829226
 10
197.1662597163335
 20
36.50871104829226
 97
        0
 75
     2
 76
     1
 98
        0
  0
POLYLINE
  5
86
330
41
100
AcDbEntity
  8
_U+30EC_U+30A4_U+30E4_U+30FC 1
370
     0
100
AcDb2dPolyline
 66
     1
 10
0.0
 20
0.0
 30
0.0
  0
VERTEX
  5
87
330
86
100
AcDbEntity
  8
_U+30EC_U+30A4_U+30E4_U+30FC 1
370
     0
100
AcDbVertex
100
AcDb2dVertex
 10
180.2363714827187
 20
29.3057054077319
 30
0.0
  0
VERTEX
  5
88
330
86
100
AcDbEntity
  8
_U+30EC_U+30A4_U+30E4_U+30FC 1
370
     0
100
AcDbVertex
100
AcDb2dVertex
 10
179.8639566607632
 20
29.3057054077319
 30
0.0
  0
VERTEX
  5
89
330
86
100
AcDbEntity
  8
_U+30EC_U+30A4_U+30E4_U+30FC 1
370
     0
100
AcDbVertex
100
AcDb2dVertex
 10
179.8639566607632
 20
30.93971419638589
 30
0.0
  0
VERTEX
  5
8A
330
86
100
AcDbEntity
  8
_U+30EC_U+30A4_U+30E4_U+30FC 1
370
     0
100
AcDbVertex
100
AcDb2dVertex
 10
178.2296033625607
 20
30.93971419638589
 30
0.0
  0
VERTEX
  5
8B
330
86
100
AcDbEntity
  8
_U+30EC_U+30A4_U+30E4_U+30FC 1
370
     0
100
AcDbVertex
100
AcDb2dVertex
 10
178.2296033625607
 20
29.3057054077319
 30
0.0
  0
VERTEX
  5
8C
330
86
100
AcDbEntity
  8
_U+30EC_U+30A4_U+30E4_U+30FC 1
370
     0
100
AcDbVertex
100
AcDb2dVertex
 10
177.8571885406052
 20
29.3057054077319
 30
0.0
  0
VERTEX
  5
8D
330
86
100
AcDbEntity
  8
_U+30EC_U+30A4_U+30E4_U+30FC 1
370
     0
100
AcDbVertex
100
AcDb2dVertex
 10
177.8571885406052
 20
32.72220660045416
 30
0.0
  0
VERTEX
  5
8E
330
86
100
AcDbEntity
  8
_U+30EC_U+30A4_U+30E4_U+30FC 1
370
     0
100
AcDbVertex
100
AcDb2dVertex
 10
178.2296033625607
 20
32.72220660045416
 30
0.0
  0
VERTEX
  5
8F
330
86
100
AcDbEntity
  8
_U+30EC_U+30A4_U+30E4_U+30FC 1
370
     0
100
AcDbVertex
100
AcDb2dVertex
 10
178.2296033625607
 20
31.26320866245085
 30
0.0
  0
VERTEX
  5
90
330
86
100
AcDbEntity
  8
_U+30EC_U+30A4_U+30E4_U+30FC 1
370
     0
100
AcDbVertex
100
AcDb2dVertex
 10
179.8639566607632
 20
31.26320866245085
 30
0.0
  0
VERTEX
  5
91
330
86
100
AcDbEntity
  8
_U+30EC_U+30A4_U+30E4_U+30FC 1
370
     0
100
AcDbVertex
100
AcDb2dVertex
 10
179.8639566607632
 20
32.72220660045416
 30
0.0
  0
VERTEX
  5
92
330
86
100
AcDbEntity
  8
_U+30EC_U+30A4_U+30E4_U+30FC 1
370
     0
100
AcDbVertex
100
AcDb2dVertex
 10
180.2363714827187
 20
32.72220660045416
 30
0.0
  0
VERTEX
  5
93
330
86
100
AcDbEntity
  8
_U+30EC_U+30A4_U+30E4_U+30FC 1
370
     0
100
AcDbVertex
100
AcDb2dVertex
 10
180.2363714827187
 20
29.3057054077319
 30
0.0
  0
SEQEND
  5
94
330
86
100
AcDbEntity
  8
_U+30EC_U+30A4_U+30E4_U+30FC 1
370
     0
  0
HATCH
  5
95
330
41
100
AcDbEntity
  8
_U+30EC_U+30A4_U+30E4_U+30FC 1
 62
     7
100
AcDbHatch
 10
0.0
 20
0.0
 30
0.0
210
0.0
220
0.0
230
1.0
  2
SOLID
 70
     1
 71
     0
 91
        1
 92
        1
 93
       12
 72
     1
 10
180.2363714827187
 20
29.3057054077319
 11
179.8639566607632
 21
29.3057054077319
 72
     1
 10
179.8639566607632
 20
29.3057054077319
 11
179.8639566607632
 21
30.93971419638589
 72
     1
 10
179.8639566607632
 20
30.93971419638589
 11
178.2296033625607
 21
30.93971419638589
 72
     1
 10
178.2296033625607
 20
30.93971419638589
 11
178.2296033625607
 21
29.3057054077319
 72
     1
 10
178.2296033625607
 20
29.3057054077319
 11
177.8571885406052
 21
29.3057054077319
 72
     1
 10
177.8571885406052
 20
29.3057054077319
 11
177.8571885406052
 21
32.72220660045416
 72
     1
 10
177.8571885406052
 20
32.72220660045416
 11
178.2296033625607
 21
32.72220660045416
 72
     1
 10
178.2296033625607
 20
32.72220660045416
 11
178.2296033625607
 21
31.26320866245085
 72
     1
 10
178.2296033625607
 20
31.26320866245085
 11
179.8639566607632
 21
31.26320866245085
 72
     1
 10
179.8639566607632
 20
31.26320866245085
 11
179.8639566607632
 21
32.72220660045416
 72
     1
 10
179.8639566607632
 20
32.72220660045416
 11
180.2363714827187
 21
32.72220660045416
 72
     1
 10
180.2363714827187
 20
32.72220660045416
 11
180.2363714827187
 21
29.3057054077319
 97
        0
 75
     2
 76
     1
 98
        0
  0
SPLINE
  5
96
330
41
100
AcDbEntity
  8
_U+30EC_U+30A4_U+30E4_U+30FC 1
370
     0
100
AcDbSpline
210
0.0
220
0.0
230
1.0
 70
    11
 71
     3
 72
    23
 73
    19
 74
     0
 42
0.0000000001
 43
0.0000000001
 12
1.0
 22
0.0
 32
0.0
 13
1.0
 23
0.0
 33
0.0
 40
0.0
 40
0.0
 40
0.0
 40
0.0
 40
1.0
 40
1.0
 40
1.0
 40
2.0
 40
2.0
 40
2.0
 40
3.0
 40
3.0
 40
3.0
 40
4.0
 40
4.0
 40
4.0
 40
5.0
 40
5.0
 40
5.0
 40
6.0
 40
6.0
 40
6.0
 40
6.0
 10
180.998426604056
 20
32.68155447372821
 30
0.0
 10
181.2495740649307
 20
32.72220660045416
 30
0.0
 10
181.5413736525313
 20
32.75355696936993
 30
0.0
 10
181.8603894944655
 20
32.75355696936993
 30
0.0
 10
183.2339490644346
 20
32.75355696936993
 30
0.0
 10
183.6291015165927
 20
31.94085894439949
 30
0.0
 10
183.6291015165927
 20
31.10163368419263
 30
0.0
 10
183.6291015165927
 20
30.55834212616874
 30
0.0
 10
183.4854410348578
 20
30.09566580249968
 30
0.0
 10
183.1622910783414
 20
29.75907997359077
 30
0.0
 10
182.8615342424791
 20
29.44936588946681
 30
0.0
 10
182.3630289257634
 20
29.27883366294695
 30
0.0
 10
181.7391221333847
 20
29.27883366294695
 30
0.0
 10
181.4562797940457
 20
29.27883366294695
 30
0.0
 10
181.2137450718841
 20
29.2877909112086
 30
0.0
 10
180.998426604056
 20
29.31466265599354
 30
0.0
 10
180.998426604056
 20
29.31466265599354
 30
0.0
 10
180.998426604056
 20
32.68155447372821
 30
0.0
 10
180.998426604056
 20
32.68155447372821
 30
0.0
  0
SPLINE
  5
97
330
41
100
AcDbEntity
  8
_U+30EC_U+30A4_U+30E4_U+30FC 1
370
     0
100
AcDbSpline
210
0.0
220
0.0
230
1.0
 70
    11
 71
     3
 72
    20
 73
    16
 74
     0
 42
0.0000000001
 43
0.0000000001
 12
1.0
 22
0.0
 32
0.0
 13
1.0
 23
0.0
 33
0.0
 40
0.0
 40
0.0
 40
0.0
 40
0.0
 40
1.0
 40
1.0
 40
1.0
 40
2.0
 40
2.0
 40
2.0
 40
3.0
 40
3.0
 40
3.0
 40
4.0
 40
4.0
 40
4.0
 40
5.0
 40
5.0
 40
5.0
 40
5.0
 10
181.3708414260115
 20
29.60198361946338
 30
0.0
 10
181.4831515388306
 20
29.58406912294008
 30
0.0
 10
181.6447265170888
 20
29.57959049880926
 30
0.0
 10
181.806301495347
 20
29.57959049880926
 30
0.0
 10
182.7313096331366
 20
29.57959049880926
 30
0.0
 10
183.2384276885654
 20
30.10496756030986
 30
0.0
 10
183.2384276885654
 20
31.08337467812081
 30
0.0
 10
183.2384276885654
 20
31.97255382286379
 30
0.0
 10
182.7626600020524
 20
32.45280013350762
 30
0.0
 10
181.8738253668579
 20
32.45280013350762
 30
0.0
 10
181.6581623894813
 20
32.45280013350762
 30
0.0
 10
181.4876301629614
 20
32.4304070128535
 30
0.0
 10
181.3708414260115
 20
32.40801389219937
 30
0.0
 10
181.3708414260115
 20
32.40801389219937
 30
0.0
 10
181.3708414260115
 20
29.60198361946338
 30
0.0
 10
181.3708414260115
 20
29.60198361946338
 30
0.0
  0
HATCH
  5
98
330
41
100
AcDbEntity
  8
_U+30EC_U+30A4_U+30E4_U+30FC 1
 62
     7
100
AcDbHatch
 10
0.0
 20
0.0
 30
0.0
210
0.0
220
0.0
230
1.0
  2
SOLID
 70
     1
 71
     0
 91
        2
 92
        1
 93
        1
 72
     4
 94
        3
 73
     0
 74
     1
 95
       23
 96
       19
 40
0.0
 40
0.0
 40
0.0
 40
0.0
 40
1.0
 40
1.0
 40
1.0
 40
2.0
 40
2.0
 40
2.0
 40
3.0
 40
3.0
 40
3.0
 40
4.0
 40
4.0
 40
4.0
 40
5.0
 40
5.0
 40
5.0
 40
6.0
 40
6.0
 40
6.0
 40
6.0
 10
180.998426604056
 20
32.68155447372821
 10
181.2495740649307
 20
32.72220660045416
 10
181.5413736525313
 20
32.75355696936993
 10
181.8603894944655
 20
32.75355696936993
 10
183.2339490644346
 20
32.75355696936993
 10
183.6291015165927
 20
31.94085894439949
 10
183.6291015165927
 20
31.10163368419263
 10
183.6291015165927
 20
30.55834212616874
 10
183.4854410348578
 20
30.09566580249968
 10
183.1622910783414
 20
29.75907997359077
 10
182.8615342424791
 20
29.44936588946681
 10
182.3630289257634
 20
29.27883366294695
 10
181.7391221333847
 20
29.27883366294695
 10
181.4562797940457
 20
29.27883366294695
 10
181.2137450718841
 20
29.2877909112086
 10
180.998426604056
 20
29.31466265599354
 10
180.998426604056
 20
29.31466265599354
 10
180.998426604056
 20
32.68155447372821
 10
180.998426604056
 20
32.68155447372821
 97
        0
 92
        1
 93
        1
 72
     4
 94
        3
 73
     0
 74
     1
 95
       20
 96
       16
 40
0.0
 40
0.0
 40
0.0
 40
0.0
 40
1.0
 40
1.0
 40
1.0
 40
2.0
 40
2.0
 40
2.0
 40
3.0
 40
3.0
 40
3.0
 40
4.0
 40
4.0
 40
4.0
 40
5.0
 40
5.0
 40
5.0
 40
5.0
 10
181.3708414260115
 20
29.60198361946338
 10
181.4831515388306
 20
29.58406912294008
 10
181.6447265170888
 20
29.57959049880926
 10
181.806301495347
 20
29.57959049880926
 10
182.7313096331366
 20
29.57959049880926
 10
183.2384276885654
 20
30.10496756030986
 10
183.2384276885654
 20
31.08337467812081
 10
183.2384276885654
 20
31.97255382286379
 10
182.7626600020524
 20
32.45280013350762
 10
181.8738253668579
 20
32.45280013350762
 10
181.6581623894813
 20
32.45280013350762
 10
181.4876301629614
 20
32.4304070128535
 10
181.3708414260115
 20
32.40801389219937
 10
181.3708414260115
 20
32.40801389219937
 10
181.3708414260115
 20
29.60198361946338
 10
181.3708414260115
 20
29.60198361946338
 97
        0
 75
     2
 76
     1
 98
        0
  0
POLYLINE
  5
99
330
41
100
AcDbEntity
  8
_U+30EC_U+30A4_U+30E4_U+30FC 1
370
     0
100
AcDb2dPolyline
 66
     1
 10
0.0
 20
0.0
 30
0.0
  0
VERTEX
  5
9A
330
99
100
AcDbEntity
  8
_U+30EC_U+30A4_U+30E4_U+30FC 1
370
     0
100
AcDbVertex
100
AcDb2dVertex
 10
184.1934081570766
 20
29.3057054077319
 30
0.0
  0
VERTEX
  5
9B
330
99
100
AcDbEntity
  8
_U+30EC_U+30A4_U+30E4_U+30FC 1
370
     0
100
AcDbVertex
100
AcDb2dVertex
 10
184.1934081570766
 20
32.72668522458498
 30
0.0
  0
VERTEX
  5
9C
330
99
100
AcDbEntity
  8
_U+30EC_U+30A4_U+30E4_U+30FC 1
370
     0
100
AcDbVertex
100
AcDb2dVertex
 10
185.9173339378957
 20
32.72668522458498
 30
0.0
  0
VERTEX
  5
9D
330
99
100
AcDbEntity
  8
_U+30EC_U+30A4_U+30E4_U+30FC 1
370
     0
100
AcDbVertex
100
AcDb2dVertex
 10
185.9173339378957
 20
32.4124925163302
 30
0.0
  0
VERTEX
  5
9E
330
99
100
AcDbEntity
  8
_U+30EC_U+30A4_U+30E4_U+30FC 1
370
     0
100
AcDbVertex
100
AcDb2dVertex
 10
184.5658229790322
 20
32.4124925163302
 30
0.0
  0
VERTEX
  5
9F
330
99
100
AcDbEntity
  8
_U+30EC_U+30A4_U+30E4_U+30FC 1
370
     0
100
AcDbVertex
100
AcDb2dVertex
 10
184.5658229790322
 20
31.19568479093996
 30
0.0
  0
VERTEX
  5
A0
330
99
100
AcDbEntity
  8
_U+30EC_U+30A4_U+30E4_U+30FC 1
370
     0
100
AcDbVertex
100
AcDb2dVertex
 10
185.8095024492073
 20
31.19568479093996
 30
0.0
  0
VERTEX
  5
A1
330
99
100
AcDbEntity
  8
_U+30EC_U+30A4_U+30E4_U+30FC 1
370
     0
100
AcDbVertex
100
AcDb2dVertex
 10
185.8095024492073
 20
30.885970706816
 30
0.0
  0
VERTEX
  5
A2
330
99
100
AcDbEntity
  8
_U+30EC_U+30A4_U+30E4_U+30FC 1
370
     0
100
AcDbVertex
100
AcDb2dVertex
 10
184.5658229790322
 20
30.885970706816
 30
0.0
  0
VERTEX
  5
A3
330
99
100
AcDbEntity
  8
_U+30EC_U+30A4_U+30E4_U+30FC 1
370
     0
100
AcDbVertex
100
AcDb2dVertex
 10
184.5658229790322
 20
29.3057054077319
 30
0.0
  0
VERTEX
  5
A4
330
99
100
AcDbEntity
  8
_U+30EC_U+30A4_U+30E4_U+30FC 1
370
     0
100
AcDbVertex
100
AcDb2dVertex
 10
184.1934081570766
 20
29.3057054077319
 30
0.0
  0
SEQEND
  5
A5
330
99
100
AcDbEntity
  8
_U+30EC_U+30A4_U+30E4_U+30FC 1
370
     0
  0
HATCH
  5
A6
330
41
100
AcDbEntity
  8
_U+30EC_U+30A4_U+30E4_U+30FC 1
 62
     7
100
AcDbHatch
 10
0.0
 20
0.0
 30
0.0
210
0.0
220
0.0
230
1.0
  2
SOLID
 70
     1
 71
     0
 91
        1
 92
        1
 93
       10
 72
     1
 10
184.1934081570766
 20
29.3057054077319
 11
184.1934081570766
 21
32.72668522458498
 72
     1
 10
184.1934081570766
 20
32.72668522458498
 11
185.9173339378957
 21
32.72668522458498
 72
     1
 10
185.9173339378957
 20
32.72668522458498
 11
185.9173339378957
 21
32.4124925163302
 72
     1
 10
185.9173339378957
 20
32.4124925163302
 11
184.5658229790322
 21
32.4124925163302
 72
     1
 10
184.5658229790322
 20
32.4124925163302
 11
184.5658229790322
 21
31.19568479093996
 72
     1
 10
184.5658229790322
 20
31.19568479093996
 11
185.8095024492073
 21
31.19568479093996
 72
     1
 10
185.8095024492073
 20
31.19568479093996
 11
185.8095024492073
 21
30.885970706816
 72
     1
 10
185.8095024492073
 20
30.885970706816
 11
184.5658229790322
 21
30.885970706816
 72
     1
 10
184.5658229790322
 20
30.885970706816
 11
184.5658229790322
 21
29.3057054077319
 72
     1
 10
184.5658229790322
 20
29.3057054077319
 11
184.1934081570766
 21
29.3057054077319
 97
        0
 75
     2
 76
     1
 98
        0
  0
POLYLINE
  5
A7
330
41
100
AcDbEntity
  8
_U+30EC_U+30A4_U+30E4_U+30FC 1
370
     0
100
AcDb2dPolyline
 66
     1
 10
0.0
 20
0.0
 30
0.0
  0
VERTEX
  5
A8
330
A7
100
AcDbEntity
  8
_U+30EC_U+30A4_U+30E4_U+30FC 1
370
     0
100
AcDbVertex
100
AcDb2dVertex
 10
186.2931938553364
 20
30.81879134485362
 30
0.0
  0
VERTEX
  5
A9
330
A7
100
AcDbEntity
  8
_U+30EC_U+30A4_U+30E4_U+30FC 1
370
     0
100
AcDbVertex
100
AcDb2dVertex
 10
187.5189588289883
 20
30.81879134485362
 30
0.0
  0
VERTEX
  5
AA
330
A7
100
AcDbEntity
  8
_U+30EC_U+30A4_U+30E4_U+30FC 1
370
     0
100
AcDbVertex
100
AcDb2dVertex
 10
187.5189588289883
 20
30.53147038138379
 30
0.0
  0
VERTEX
  5
AB
330
A7
100
AcDbEntity
  8
_U+30EC_U+30A4_U+30E4_U+30FC 1
370
     0
100
AcDbVertex
100
AcDb2dVertex
 10
186.2931938553364
 20
30.53147038138379
 30
0.0
  0
VERTEX
  5
AC
330
A7
100
AcDbEntity
  8
_U+30EC_U+30A4_U+30E4_U+30FC 1
370
     0
100
AcDbVertex
100
AcDb2dVertex
 10
186.2931938553364
 20
30.81879134485362
 30
0.0
  0
SEQEND
  5
AD
330
A7
100
AcDbEntity
  8
_U+30EC_U+30A4_U+30E4_U+30FC 1
370
     0
  0
HATCH
  5
AE
330
41
100
AcDbEntity
  8
_U+30EC_U+30A4_U+30E4_U+30FC 1
 62
     7
100
AcDbHatch
 10
0.0
 20
0.0
 30
0.0
210
0.0
220
0.0
230
1.0
  2
SOLID
 70
     1
 71
     0
 91
        1
 92
        1
 93
        4
 72
     1
 10
186.2931938553364
 20
30.81879134485362
 11
187.5189588289883
 21
30.81879134485362
 72
     1
 10
187.5189588289883
 20
30.81879134485362
 11
187.5189588289883
 21
30.53147038138379
 72
     1
 10
187.5189588289883
 20
30.53147038138379
 11
186.2931938553364
 21
30.53147038138379
 72
     1
 10
186.2931938553364
 20
30.53147038138379
 11
186.2931938553364
 21
30.81879134485362
 97
        0
 75
     2
 76
     1
 98
        0
  0
POLYLINE
  5
AF
330
41
100
AcDbEntity
  8
_U+30EC_U+30A4_U+30E4_U+30FC 1
370
     0
100
AcDb2dPolyline
 66
     1
 10
0.0
 20
0.0
 30
0.0
  0
VERTEX
  5
B0
330
AF
100
AcDbEntity
  8
_U+30EC_U+30A4_U+30E4_U+30FC 1
370
     0
100
AcDbVertex
100
AcDb2dVertex
 10
190.4314425522185
 20
29.3057054077319
 30
0.0
  0
VERTEX
  5
B1
330
AF
100
AcDbEntity
  8
_U+30EC_U+30A4_U+30E4_U+30FC 1
370
     0
100
AcDbVertex
100
AcDb2dVertex
 10
190.059027730263
 20
29.3057054077319
 30
0.0
  0
VERTEX
  5
B2
330
AF
100
AcDbEntity
  8
_U+30EC_U+30A4_U+30E4_U+30FC 1
370
     0
100
AcDbVertex
100
AcDb2dVertex
 10
190.059027730263
 20
30.93971419638589
 30
0.0
  0
VERTEX
  5
B3
330
AF
100
AcDbEntity
  8
_U+30EC_U+30A4_U+30E4_U+30FC 1
370
     0
100
AcDbVertex
100
AcDb2dVertex
 10
188.4246744320605
 20
30.93971419638589
 30
0.0
  0
VERTEX
  5
B4
330
AF
100
AcDbEntity
  8
_U+30EC_U+30A4_U+30E4_U+30FC 1
370
     0
100
AcDbVertex
100
AcDb2dVertex
 10
188.4246744320605
 20
29.3057054077319
 30
0.0
  0
VERTEX
  5
B5
330
AF
100
AcDbEntity
  8
_U+30EC_U+30A4_U+30E4_U+30FC 1
370
     0
100
AcDbVertex
100
AcDb2dVertex
 10
188.052259610105
 20
29.3057054077319
 30
0.0
  0
VERTEX
  5
B6
330
AF
100
AcDbEntity
  8
_U+30EC_U+30A4_U+30E4_U+30FC 1
370
     0
100
AcDbVertex
100
AcDb2dVertex
 10
188.052259610105
 20
32.72220660045416
 30
0.0
  0
VERTEX
  5
B7
330
AF
100
AcDbEntity
  8
_U+30EC_U+30A4_U+30E4_U+30FC 1
370
     0
100
AcDbVertex
100
AcDb2dVertex
 10
188.4246744320605
 20
32.72220660045416
 30
0.0
  0
VERTEX
  5
B8
330
AF
100
AcDbEntity
  8
_U+30EC_U+30A4_U+30E4_U+30FC 1
370
     0
100
AcDbVertex
100
AcDb2dVertex
 10
188.4246744320605
 20
31.26320866245085
 30
0.0
  0
VERTEX
  5
B9
330
AF
100
AcDbEntity
  8
_U+30EC_U+30A4_U+30E4_U+30FC 1
370
     0
100
AcDbVertex
100
AcDb2dVertex
 10
190.059027730263
 20
31.26320866245085
 30
0.0
  0
VERTEX
  5
BA
330
AF
100
AcDbEntity
  8
_U+30EC_U+30A4_U+30E4_U+30FC 1
370
     0
100
AcDbVertex
100
AcDb2dVertex
 10
190.059027730263
 20
32.72220660045416
 30
0.0
  0
VERTEX
  5
BB
330
AF
100
AcDbEntity
  8
_U+30EC_U+30A4_U+30E4_U+30FC 1
370
     0
100
AcDbVertex
100
AcDb2dVertex
 10
190.4314425522185
 20
32.72220660045416
 30
0.0
  0
VERTEX
  5
BC
330
AF
100
AcDbEntity
  8
_U+30EC_U+30A4_U+30E4_U+30FC 1
370
     0
100
AcDbVertex
100
AcDb2dVertex
 10
190.4314425522185
 20
29.3057054077319
 30
0.0
  0
SEQEND
  5
BD
330
AF
100
AcDbEntity
  8
_U+30EC_U+30A4_U+30E4_U+30FC 1
370
     0
  0
HATCH
  5
BE
330
41
100
AcDbEntity
  8
_U+30EC_U+30A4_U+30E4_U+30FC 1
 62
     7
100
AcDbHatch
 10
0.0
 20
0.0
 30
0.0
210
0.0
220
0.0
230
1.0
  2
SOLID
 70
     1
 71
     0
 91
        1
 92
        1
 93
       12
 72
     1
 10
190.4314425522185
 20
29.3057054077319
 11
190.059027730263
 21
29.3057054077319
 72
     1
 10
190.059027730263
 20
29.3057054077319
 11
190.059027730263
 21
30.93971419638589
 72
     1
 10
190.059027730263
 20
30.93971419638589
 11
188.4246744320605
 21
30.93971419638589
 72
     1
 10
188.4246744320605
 20
30.93971419638589
 11
188.4246744320605
 21
29.3057054077319
 72
     1
 10
188.4246744320605
 20
29.3057054077319
 11
188.052259610105
 21
29.3057054077319
 72
     1
 10
188.052259610105
 20
29.3057054077319
 11
188.052259610105
 21
32.72220660045416
 72
     1
 10
188.052259610105
 20
32.72220660045416
 11
188.4246744320605
 21
32.72220660045416
 72
     1
 10
188.4246744320605
 20
32.72220660045416
 11
188.4246744320605
 21
31.26320866245085
 72
     1
 10
188.4246744320605
 20
31.26320866245085
 11
190.059027730263
 21
31.26320866245085
 72
     1
 10
190.059027730263
 20
31.26320866245085
 11
190.059027730263
 21
32.72220660045416
 72
     1
 10
190.059027730263
 20
32.72220660045416
 11
190.4314425522185
 21
32.72220660045416
 72
     1
 10
190.4314425522185
 20
32.72220660045416
 11
190.4314425522185
 21
29.3057054077319
 97
        0
 75
     2
 76
     1
 98
        0
  0
SPLINE
  5
BF
330
41
100
AcDbEntity
  8
_U+30EC_U+30A4_U+30E4_U+30FC 1
370
     0
100
AcDbSpline
210
0.0
220
0.0
230
1.0
 70
    11
 71
     3
 72
    17
 73
    13
 74
     0
 42
0.0000000001
 43
0.0000000001
 12
1.0
 22
0.0
 32
0.0
 13
1.0
 23
0.0
 33
0.0
 40
0.0
 40
0.0
 40
0.0
 40
0.0
 40
1.0
 40
1.0
 40
1.0
 40
2.0
 40
2.0
 40
2.0
 40
3.0
 40
3.0
 40
3.0
 40
4.0
 40
4.0
 40
4.0
 40
4.0
 10
190.9912705685716
 20
30.97588769898102
 30
0.0
 10
190.9912705685716
 20
32.15204329764531
 30
0.0
 10
191.4491237585613
 20
32.72220660045416
 30
0.0
 10
192.0778536846194
 20
32.72220660045416
 30
0.0
 10
192.7151963493907
 20
32.72220660045416
 30
0.0
 10
193.105870177418
 20
32.12069292872954
 30
0.0
 10
193.105870177418
 20
31.02067394028926
 30
0.0
 10
193.105870177418
 20
29.85347558988662
 30
0.0
 10
192.6972818528673
 20
29.251961918162
 30
0.0
 10
192.0282443096318
 20
29.251961918162
 30
0.0
 10
191.4177733896456
 20
29.251961918162
 30
0.0
 10
190.9912705685716
 20
29.85347558988662
 30
0.0
 10
190.9912705685716
 20
30.97588769898102
 30
0.0
  0
SPLINE
  5
C0
330
41
100
AcDbEntity
  8
_U+30EC_U+30A4_U+30E4_U+30FC 1
370
     0
100
AcDbSpline
210
0.0
220
0.0
230
1.0
 70
    11
 71
     3
 72
    17
 73
    13
 74
     0
 42
0.0000000001
 43
0.0000000001
 12
1.0
 22
0.0
 32
0.0
 13
1.0
 23
0.0
 33
0.0
 40
0.0
 40
0.0
 40
0.0
 40
0.0
 40
1.0
 40
1.0
 40
1.0
 40
2.0
 40
2.0
 40
2.0
 40
3.0
 40
3.0
 40
3.0
 40
4.0
 40
4.0
 40
4.0
 40
4.0
 10
192.7286322217831
 20
31.00275944376596
 30
0.0
 10
192.7286322217831
 20
31.84232921352135
 30
0.0
 10
192.5267496263475
 20
32.42144976459185
 30
0.0
 10
192.0554605639653
 20
32.42144976459185
 30
0.0
 10
191.6558294876763
 20
32.42144976459185
 30
0.0
 10
191.3729871483373
 20
31.8871154548296
 30
0.0
 10
191.3729871483373
 20
31.00275944376596
 30
0.0
 10
191.3729871483373
 20
30.11840343270233
 30
0.0
 10
191.6200004946297
 20
29.55719737815513
 30
0.0
 10
192.0420246915728
 20
29.55719737815513
 30
0.0
 10
192.54018549874
 20
29.55719737815513
 30
0.0
 10
192.7286322217831
 20
30.203497291188
 30
0.0
 10
192.7286322217831
 20
31.00275944376596
 30
0.0
  0
HATCH
  5
C1
330
41
100
AcDbEntity
  8
_U+30EC_U+30A4_U+30E4_U+30FC 1
 62
     7
100
AcDbHatch
 10
0.0
 20
0.0
 30
0.0
210
0.0
220
0.0
230
1.0
  2
SOLID
 70
     1
 71
     0
 91
        2
 92
        1
 93
        1
 72
     4
 94
        3
 73
     0
 74
     1
 95
       17
 96
       13
 40
0.0
 40
0.0
 40
0.0
 40
0.0
 40
1.0
 40
1.0
 40
1.0
 40
2.0
 40
2.0
 40
2.0
 40
3.0
 40
3.0
 40
3.0
 40
4.0
 40
4.0
 40
4.0
 40
4.0
 10
190.9912705685716
 20
30.97588769898102
 10
190.9912705685716
 20
32.15204329764531
 10
191.4491237585613
 20
32.72220660045416
 10
192.0778536846194
 20
32.72220660045416
 10
192.7151963493907
 20
32.72220660045416
 10
193.105870177418
 20
32.12069292872954
 10
193.105870177418
 20
31.02067394028926
 10
193.105870177418
 20
29.85347558988662
 10
192.6972818528673
 20
29.251961918162
 10
192.0282443096318
 20
29.251961918162
 10
191.4177733896456
 20
29.251961918162
 10
190.9912705685716
 20
29.85347558988662
 10
190.9912705685716
 20
30.97588769898102
 97
        0
 92
        1
 93
        1
 72
     4
 94
        3
 73
     0
 74
     1
 95
       17
 96
       13
 40
0.0
 40
0.0
 40
0.0
 40
0.0
 40
1.0
 40
1.0
 40
1.0
 40
2.0
 40
2.0
 40
2.0
 40
3.0
 40
3.0
 40
3.0
 40
4.0
 40
4.0
 40
4.0
 40
4.0
 10
192.7286322217831
 20
31.00275944376596
 10
192.7286322217831
 20
31.84232921352135
 10
192.5267496263475
 20
32.42144976459185
 10
192.0554605639653
 20
32.42144976459185
 10
191.6558294876763
 20
32.42144976459185
 10
191.3729871483373
 20
31.8871154548296
 10
191.3729871483373
 20
31.00275944376596
 10
191.3729871483373
 20
30.11840343270233
 10
191.6200004946297
 20
29.55719737815513
 10
192.0420246915728
 20
29.55719737815513
 10
192.54018549874
 20
29.55719737815513
 10
192.7286322217831
 20
30.203497291188
 10
192.7286322217831
 20
31.00275944376596
 97
        0
 75
     2
 76
     1
 98
        0
  0
SPLINE
  5
C2
330
41
100
AcDbEntity
  8
_U+30EC_U+30A4_U+30E4_U+30FC 1
370
     0
100
AcDbSpline
210
0.0
220
0.0
230
1.0
 70
    11
 71
     3
 72
    17
 73
    13
 74
     0
 42
0.0000000001
 43
0.0000000001
 12
1.0
 22
0.0
 32
0.0
 13
1.0
 23
0.0
 33
0.0
 40
0.0
 40
0.0
 40
0.0
 40
0.0
 40
1.0
 40
1.0
 40
1.0
 40
2.0
 40
2.0
 40
2.0
 40
3.0
 40
3.0
 40
3.0
 40
4.0
 40
4.0
 40
4.0
 40
4.0
 10
193.4638155983355
 20
30.97588769898102
 30
0.0
 10
193.4638155983355
 20
32.15204329764531
 30
0.0
 10
193.9216687883251
 20
32.72220660045416
 30
0.0
 10
194.5503987143832
 20
32.72220660045416
 30
0.0
 10
195.1877413791545
 20
32.72220660045416
 30
0.0
 10
195.5784152071818
 20
32.12069292872954
 30
0.0
 10
195.5784152071818
 20
31.02067394028926
 30
0.0
 10
195.5784152071818
 20
29.85347558988662
 30
0.0
 10
195.1698268826312
 20
29.251961918162
 30
0.0
 10
194.5007893393957
 20
29.251961918162
 30
0.0
 10
193.8903184194094
 20
29.251961918162
 30
0.0
 10
193.4638155983355
 20
29.85347558988662
 30
0.0
 10
193.4638155983355
 20
30.97588769898102
 30
0.0
  0
SPLINE
  5
C3
330
41
100
AcDbEntity
  8
_U+30EC_U+30A4_U+30E4_U+30FC 1
370
     0
100
AcDbSpline
210
0.0
220
0.0
230
1.0
 70
    11
 71
     3
 72
    17
 73
    13
 74
     0
 42
0.0000000001
 43
0.0000000001
 12
1.0
 22
0.0
 32
0.0
 13
1.0
 23
0.0
 33
0.0
 40
0.0
 40
0.0
 40
0.0
 40
0.0
 40
1.0
 40
1.0
 40
1.0
 40
2.0
 40
2.0
 40
2.0
 40
3.0
 40
3.0
 40
3.0
 40
4.0
 40
4.0
 40
4.0
 40
4.0
 10
195.2011772515469
 20
31.00275944376596
 30
0.0
 10
195.2011772515469
 20
31.84232921352135
 30
0.0
 10
194.9992946561113
 20
32.42144976459185
 30
0.0
 10
194.5280055937291
 20
32.42144976459185
 30
0.0
 10
194.1283745174401
 20
32.42144976459185
 30
0.0
 10
193.8455321781011
 20
31.8871154548296
 30
0.0
 10
193.8455321781011
 20
31.00275944376596
 30
0.0
 10
193.8455321781011
 20
30.11840343270233
 30
0.0
 10
194.0925455243935
 20
29.55719737815513
 30
0.0
 10
194.5145697213366
 20
29.55719737815513
 30
0.0
 10
195.0127305285038
 20
29.55719737815513
 30
0.0
 10
195.2011772515469
 20
30.203497291188
 30
0.0
 10
195.2011772515469
 20
31.00275944376596
 30
0.0
  0
HATCH
  5
C4
330
41
100
AcDbEntity
  8
_U+30EC_U+30A4_U+30E4_U+30FC 1
 62
     7
100
AcDbHatch
 10
0.0
 20
0.0
 30
0.0
210
0.0
220
0.0
230
1.0
  2
SOLID
 70
     1
 71
     0
 91
        2
 92
        1
 93
        1
 72
     4
 94
        3
 73
     0
 74
     1
 95
       17
 96
       13
 40
0.0
 40
0.0
 40
0.0
 40
0.0
 40
1.0
 40
1.0
 40
1.0
 40
2.0
 40
2.0
 40
2.0
 40
3.0
 40
3.0
 40
3.0
 40
4.0
 40
4.0
 40
4.0
 40
4.0
 10
193.4638155983355
 20
30.97588769898102
 10
193.4638155983355
 20
32.15204329764531
 10
193.9216687883251
 20
32.72220660045416
 10
194.5503987143832
 20
32.72220660045416
 10
195.1877413791545
 20
32.72220660045416
 10
195.5784152071818
 20
32.12069292872954
 10
195.5784152071818
 20
31.02067394028926
 10
195.5784152071818
 20
29.85347558988662
 10
195.1698268826312
 20
29.251961918162
 10
194.5007893393957
 20
29.251961918162
 10
193.8903184194094
 20
29.251961918162
 10
193.4638155983355
 20
29.85347558988662
 10
193.4638155983355
 20
30.97588769898102
 97
        0
 92
        1
 93
        1
 72
     4
 94
        3
 73
     0
 74
     1
 95
       17
 96
       13
 40
0.0
 40
0.0
 40
0.0
 40
0.0
 40
1.0
 40
1.0
 40
1.0
 40
2.0
 40
2.0
 40
2.0
 40
3.0
 40
3.0
 40
3.0
 40
4.0
 40
4.0
 40
4.0
 40
4.0
 10
195.2011772515469
 20
31.00275944376596
 10
195.2011772515469
 20
31.84232921352135
 10
194.9992946561113
 20
32.42144976459185
 10
194.5280055937291
 20
32.42144976459185
 10
194.1283745174401
 20
32.42144976459185
 10
193.8455321781011
 20
31.8871154548296
 10
193.8455321781011
 20
31.00275944376596
 10
193.8455321781011
 20
30.11840343270233
 10
194.0925455243935
 20
29.55719737815513
 10
194.5145697213366
 20
29.55719737815513
 10
195.0127305285038
 20
29.55719737815513
 10
195.2011772515469
 20
30.203497291188
 10
195.2011772515469
 20
31.00275944376596
 97
        0
 75
     2
 76
     1
 98
        0
  0
POLYLINE
  5
C5
330
41
100
AcDbEntity
  8
_U+30EC_U+30A4_U+30E4_U+30FC 1
370
     0
100
AcDb2dPolyline
 66
     1
 10
0.0
 20
0.0
 30
0.0
  0
VERTEX
  5
C6
330
C5
100
AcDbEntity
  8
_U+30EC_U+30A4_U+30E4_U+30FC 1
370
     0
100
AcDbVertex
100
AcDb2dVertex
 10
197.6688991476314
 20
29.3057054077319
 30
0.0
  0
VERTEX
  5
C7
330
C5
100
AcDbEntity
  8
_U+30EC_U+30A4_U+30E4_U+30FC 1
370
     0
100
AcDbVertex
100
AcDb2dVertex
 10
197.3143988221992
 20
29.3057054077319
 30
0.0
  0
VERTEX
  5
C8
330
C5
100
AcDbEntity
  8
_U+30EC_U+30A4_U+30E4_U+30FC 1
370
     0
100
AcDbVertex
100
AcDb2dVertex
 10
197.3143988221992
 20
30.24862804204477
 30
0.0
  0
VERTEX
  5
C9
330
C5
100
AcDbEntity
  8
_U+30EC_U+30A4_U+30E4_U+30FC 1
370
     0
100
AcDbVertex
100
AcDb2dVertex
 10
195.8464436359342
 20
30.24862804204477
 30
0.0
  0
VERTEX
  5
CA
330
C5
100
AcDbEntity
  8
_U+30EC_U+30A4_U+30E4_U+30FC 1
370
     0
100
AcDbVertex
100
AcDb2dVertex
 10
195.8464436359342
 20
30.48633963052701
 30
0.0
  0
VERTEX
  5
CB
330
C5
100
AcDbEntity
  8
_U+30EC_U+30A4_U+30E4_U+30FC 1
370
     0
100
AcDbVertex
100
AcDb2dVertex
 10
197.2830484532834
 20
32.66811860133573
 30
0.0
  0
VERTEX
  5
CC
330
C5
100
AcDbEntity
  8
_U+30EC_U+30A4_U+30E4_U+30FC 1
370
     0
100
AcDbVertex
100
AcDb2dVertex
 10
197.6688991476314
 20
32.66811860133573
 30
0.0
  0
VERTEX
  5
CD
330
C5
100
AcDbEntity
  8
_U+30EC_U+30A4_U+30E4_U+30FC 1
370
     0
100
AcDbVertex
100
AcDb2dVertex
 10
197.6688991476314
 20
30.53594900551461
 30
0.0
  0
VERTEX
  5
CE
330
C5
100
AcDbEntity
  8
_U+30EC_U+30A4_U+30E4_U+30FC 1
370
     0
100
AcDbVertex
100
AcDb2dVertex
 10
198.1270968471696
 20
30.53594900551461
 30
0.0
  0
VERTEX
  5
CF
330
C5
100
AcDbEntity
  8
_U+30EC_U+30A4_U+30E4_U+30FC 1
370
     0
100
AcDbVertex
100
AcDb2dVertex
 10
198.1270968471696
 20
30.24862804204477
 30
0.0
  0
VERTEX
  5
D0
330
C5
100
AcDbEntity
  8
_U+30EC_U+30A4_U+30E4_U+30FC 1
370
     0
100
AcDbVertex
100
AcDb2dVertex
 10
197.6688991476314
 20
30.24862804204477
 30
0.0
  0
VERTEX
  5
D1
330
C5
100
AcDbEntity
  8
_U+30EC_U+30A4_U+30E4_U+30FC 1
370
     0
100
AcDbVertex
100
AcDb2dVertex
 10
197.6688991476314
 20
29.3057054077319
 30
0.0
  0
SEQEND
  5
D2
330
C5
100
AcDbEntity
  8
_U+30EC_U+30A4_U+30E4_U+30FC 1
370
     0
  0
SPLINE
  5
D3
330
41
100
AcDbEntity
  8
_U+30EC_U+30A4_U+30E4_U+30FC 1
370
     0
100
AcDbSpline
210
0.0
220
0.0
230
1.0
 70
    11
 71
     3
 72
    26
 73
    22
 74
     0
 42
0.0000000001
 43
0.0000000001
 12
1.0
 22
0.0
 32
0.0
 13
1.0
 23
0.0
 33
0.0
 40
0.0
 40
0.0
 40
0.0
 40
0.0
 40
1.0
 40
1.0
 40
1.0
 40
2.0
 40
2.0
 40
2.0
 40
3.0
 40
3.0
 40
3.0
 40
4.0
 40
4.0
 40
4.0
 40
5.0
 40
5.0
 40
5.0
 40
6.0
 40
6.0
 40
6.0
 40
7.0
 40
7.0
 40
7.0
 40
7.0
 10
196.2233370820206
 20
30.53594900551461
 30
0.0
 10
196.2233370820206
 20
30.53594900551461
 30
0.0
 10
197.3143988221992
 20
30.53594900551461
 30
0.0
 10
197.3143988221992
 20
30.53594900551461
 30
0.0
 10
197.3143988221992
 20
30.53594900551461
 30
0.0
 10
197.3143988221992
 20
31.7300191007022
 30
0.0
 10
197.3143988221992
 20
31.7300191007022
 30
0.0
 10
197.3143988221992
 20
31.91398719961455
 30
0.0
 10
197.3233560704608
 20
32.09347667439607
 30
0.0
 10
197.3323133187225
 20
32.26883203459528
 30
0.0
 10
197.3323133187225
 20
32.26883203459528
 30
0.0
 10
197.3143988221992
 20
32.26883203459528
 30
0.0
 10
197.3143988221992
 20
32.26883203459528
 30
0.0
 10
197.2110459576417
 20
32.06212630548029
 30
0.0
 10
197.1304307232868
 20
31.91846582374537
 30
0.0
 10
197.0449923552526
 20
31.7658480937488
 30
0.0
 10
197.0449923552526
 20
31.7658480937488
 30
0.0
 10
196.2233370820206
 20
30.54490625377626
 30
0.0
 10
196.2233370820206
 20
30.54490625377626
 30
0.0
 10
196.2233370820206
 20
30.54490625377626
 30
0.0
 10
196.2233370820206
 20
30.53594900551461
 30
0.0
 10
196.2233370820206
 20
30.53594900551461
 30
0.0
  0
HATCH
  5
D4
330
41
100
AcDbEntity
  8
_U+30EC_U+30A4_U+30E4_U+30FC 1
 62
     7
100
AcDbHatch
 10
0.0
 20
0.0
 30
0.0
210
0.0
220
0.0
230
1.0
  2
SOLID
 70
     1
 71
     0
 91
        2
 92
        1
 93
       11
 72
     1
 10
197.6688991476314
 20
29.3057054077319
 11
197.3143988221992
 21
29.3057054077319
 72
     1
 10
197.3143988221992
 20
29.3057054077319
 11
197.3143988221992
 21
30.24862804204477
 72
     1
 10
197.3143988221992
 20
30.24862804204477
 11
195.8464436359342
 21
30.24862804204477
 72
     1
 10
195.8464436359342
 20
30.24862804204477
 11
195.8464436359342
 21
30.48633963052701
 72
     1
 10
195.8464436359342
 20
30.48633963052701
 11
197.2830484532834
 21
32.66811860133573
 72
     1
 10
197.2830484532834
 20
32.66811860133573
 11
197.6688991476314
 21
32.66811860133573
 72
     1
 10
197.6688991476314
 20
32.66811860133573
 11
197.6688991476314
 21
30.53594900551461
 72
     1
 10
197.6688991476314
 20
30.53594900551461
 11
198.1270968471696
 21
30.53594900551461
 72
     1
 10
198.1270968471696
 20
30.53594900551461
 11
198.1270968471696
 21
30.24862804204477
 72
     1
 10
198.1270968471696
 20
30.24862804204477
 11
197.6688991476314
 21
30.24862804204477
 72
     1
 10
197.6688991476314
 20
30.24862804204477
 11
197.6688991476314
 21
29.3057054077319
 97
        0
 92
        1
 93
        1
 72
     4
 94
        3
 73
     0
 74
     1
 95
       26
 96
       22
 40
0.0
 40
0.0
 40
0.0
 40
0.0
 40
1.0
 40
1.0
 40
1.0
 40
2.0
 40
2.0
 40
2.0
 40
3.0
 40
3.0
 40
3.0
 40
4.0
 40
4.0
 40
4.0
 40
5.0
 40
5.0
 40
5.0
 40
6.0
 40
6.0
 40
6.0
 40
7.0
 40
7.0
 40
7.0
 40
7.0
 10
196.2233370820206
 20
30.53594900551461
 10
196.2233370820206
 20
30.53594900551461
 10
197.3143988221992
 20
30.53594900551461
 10
197.3143988221992
 20
30.53594900551461
 10
197.3143988221992
 20
30.53594900551461
 10
197.3143988221992
 20
31.7300191007022
 10
197.3143988221992
 20
31.7300191007022
 10
197.3143988221992
 20
31.91398719961455
 10
197.3233560704608
 20
32.09347667439607
 10
197.3323133187225
 20
32.26883203459528
 10
197.3323133187225
 20
32.26883203459528
 10
197.3143988221992
 20
32.26883203459528
 10
197.3143988221992
 20
32.26883203459528
 10
197.2110459576417
 20
32.06212630548029
 10
197.1304307232868
 20
31.91846582374537
 10
197.0449923552526
 20
31.7658480937488
 10
197.0449923552526
 20
31.7658480937488
 10
196.2233370820206
 20
30.54490625377626
 10
196.2233370820206
 20
30.54490625377626
 10
196.2233370820206
 20
30.54490625377626
 10
196.2233370820206
 20
30.53594900551461
 10
196.2233370820206
 20
30.53594900551461
 97
        0
 75
     2
 76
     1
 98
        0
  0
ENDBLK
  5
44
330
41
100
AcDbEntity
  8
0
100
AcDbBlockEnd
  0
BLOCK
  5
D7
330
D5
100
AcDbEntity
  8
0
100
AcDbBlockBegin
  2
block 3
 70
     0
 10
0.0
 20
0.0
 30
0.0
  3
block 3
  1

  0
SPLINE
  5
D9
330
D5
100
AcDbEntity
  8
_U+30EC_U+30A4_U+30E4_U+30FC 1
 62
     7
370
     5
100
AcDbSpline
210
0.0
220
0.0
230
1.0
 70
    11
 71
     3
 72
   122
 73
   118
 74
     0
 42
0.0000000001
 43
0.0000000001
 12
1.0
 22
0.0
 32
0.0
 13
1.0
 23
0.0
 33
0.0
 40
0.0
 40
0.0
 40
0.0
 40
0.0
 40
1.0
 40
1.0
 40
1.0
 40
2.0
 40
2.0
 40
2.0
 40
3.0
 40
3.0
 40
3.0
 40
4.0
 40
4.0
 40
4.0
 40
5.0
 40
5.0
 40
5.0
 40
6.0
 40
6.0
 40
6.0
 40
7.0
 40
7.0
 40
7.0
 40
8.0
 40
8.0
 40
8.0
 40
9.0
 40
9.0
 40
9.0
 40
10.0
 40
10.0
 40
10.0
 40
11.0
 40
11.0
 40
11.0
 40
12.0
 40
12.0
 40
12.0
 40
13.0
 40
13.0
 40
13.0
 40
14.0
 40
14.0
 40
14.0
 40
15.0
 40
15.0
 40
15.0
 40
16.0
 40
16.0
 40
16.0
 40
17.0
 40
17.0
 40
17.0
 40
18.0
 40
18.0
 40
18.0
 40
19.0
 40
19.0
 40
19.0
 40
20.0
 40
20.0
 40
20.0
 40
21.0
 40
21.0
 40
21.0
 40
22.0
 40
22.0
 40
22.0
 40
23.0
 40
23.0
 40
23.0
 40
24.0
 40
24.0
 40
24.0
 40
25.0
 40
25.0
 40
25.0
 40
26.0
 40
26.0
 40
26.0
 40
27.0
 40
27.0
 40
27.0
 40
28.0
 40
28.0
 40
28.0
 40
29.0
 40
29.0
 40
29.0
 40
30.0
 40
30.0
 40
30.0
 40
31.0
 40
31.0
 40
31.0
 40
32.0
 40
32.0
 40
32.0
 40
33.0
 40
33.0
 40
33.0
 40
34.0
 40
34.0
 40
34.0
 40
35.0
 40
35.0
 40
35.0
 40
36.0
 40
36.0
 40
36.0
 40
37.0
 40
37.0
 40
37.0
 40
38.0
 40
38.0
 40
38.0
 40
39.0
 40
39.0
 40
39.0
 40
39.0
 10
175.2376404082503
 20
83.54179990587237
 30
0.0
 10
174.9509223364904
 20
83.46002733475295
 30
0.0
 10
174.6424678654032
 20
83.51889540385714
 30
0.0
 10
174.3968110254581
 20
83.68785042260018
 30
0.0
 10
172.9132667821224
 20
84.70821234386744
 30
0.0
 10
149.5117343816956
 20
100.3200824062893
 30
0.0
 10
149.1882399156307
 20
100.5312882913819
 30
0.0
 10
145.3604158538164
 20
103.3535105128986
 30
0.0
 10
141.7437438474777
 20
104.329150788398
 30
0.0
 10
137.873523579348
 20
107.5261993987098
 30
0.0
 10
133.1299716057075
 20
111.5180207715454
 30
0.0
 10
120.4582644555551
 20
118.8296761109718
 30
0.0
 10
119.0083314250477
 20
119.655982263109
 30
0.0
 10
118.6497400487265
 20
119.8898504169405
 30
0.0
 10
118.5742816916761
 20
120.263309533465
 30
0.0
 10
118.6791633173552
 20
121.0673302241823
 30
0.0
 10
118.6936327183932
 20
121.4581763069839
 30
0.0
 10
118.7053460430431
 20
121.8515954454757
 30
0.0
 10
118.7143032913047
 20
122.2467371317105
 30
0.0
 10
118.8610643589763
 20
128.5693593869386
 30
0.0
 10
118.3629035518092
 20
135.3825524733429
 30
0.0
 10
118.1648213273308
 20
141.926511347575
 30
0.0
 10
118.1555088035972
 20
142.3407840796763
 30
0.0
 10
118.1451735171414
 20
142.7559288515726
 30
0.0
 10
118.1331372147899
 20
143.1717518766423
 30
0.0
 10
118.0972974558199
 20
144.4200499279521
 30
0.0
 10
118.0469882958118
 20
145.6773482912174
 30
0.0
 10
117.9756963511139
 20
146.9485885252746
 30
0.0
 10
117.9505363881482
 20
147.4004235640885
 30
0.0
 10
117.9222866051692
 20
147.8541318735725
 30
0.0
 10
117.892292742601
 20
148.3075279712785
 30
0.0
 10
117.583299975344
 20
152.3939279811076
 30
0.0
 10
118.3336202401846
 20
155.7912873620396
 30
0.0
 10
118.3143277054672
 20
159.68820712018
 30
0.0
 10
118.3629035518092
 20
161.2560916073643
 30
0.0
 10
118.1228019283341
 20
163.0111955023248
 30
0.0
 10
117.8826680070888
 20
164.7664716520596
 30
0.0
 10
117.5123202424244
 20
167.7487185588661
 30
0.0
 10
116.8563632961095
 20
170.8017621778945
 30
0.0
 10
117.1598977402068
 20
173.3466326810015
 30
0.0
 10
117.4231030352799
 20
176.4604930012679
 30
0.0
 10
117.4995841550524
 20
179.6508021435367
 30
0.0
 10
117.2942349322847
 20
183.0070249311905
 30
0.0
 10
117.2715188339289
 20
183.3799565174688
 30
0.0
 10
117.244980832769
 20
183.7549551610383
 30
0.0
 10
117.21673104979
 20
184.1310088651001
 30
0.0
 10
117.1134212489261
 20
185.3525966604761
 30
0.0
 10
117.1190733587066
 20
186.4850210783245
 30
0.0
 10
117.0231920449827
 20
187.6788112595039
 30
0.0
 10
116.9892686203764
 20
188.101136902302
 30
0.0
 10
117.4695256969436
 20
188.3716630252812
 30
0.0
 10
117.8120758474114
 20
188.1223673032298
 30
0.0
 10
118.856919478471
 20
187.3619055385545
 30
0.0
 10
119.8954758102694
 20
186.7238092591459
 30
0.0
 10
120.927454162876
 20
185.909367154586
 30
0.0
 10
121.2857333274186
 20
185.6409726844383
 30
0.0
 10
121.644723042905
 20
185.3734610200086
 30
0.0
 10
122.0043802456417
 20
185.1092437281368
 30
0.0
 10
124.519655225346
 20
183.2595504302593
 30
0.0
 10
127.0386982782373
 20
181.56955883997
 30
0.0
 10
129.6111510770733
 20
180.2333785560159
 30
0.0
 10
133.6236430228204
 20
178.2583160802455
 30
0.0
 10
137.6313441326583
 20
175.8770660808408
 30
0.0
 10
141.6342005769701
 20
173.312870745246
 30
0.0
 10
141.9979918942891
 20
173.0794762920437
 30
0.0
 10
142.3621277211566
 20
172.8450483101962
 30
0.0
 10
142.7259513362458
 20
172.6092207583071
 30
0.0
 10
148.9433043925528
 20
168.1464440667145
 30
0.0
 10
155.0001052333238
 20
164.4448504566644
 30
0.0
 10
161.2867477725778
 20
159.3376794204792
 30
0.0
 10
162.2527310147951
 20
158.5964671268277
 30
0.0
 10
167.0114521744941
 20
156.3535377111558
 30
0.0
 10
168.4449671718299
 20
155.5306874204275
 30
0.0
 10
168.7312438407308
 20
155.3661841110069
 30
0.0
 10
171.7563821863287
 20
153.219534348224
 30
0.0
 10
172.9549416715705
 20
152.6276777097818
 30
0.0
 10
172.978196066096
 20
152.6161797035994
 30
0.0
 10
173.0014289287746
 20
152.604853952192
 30
0.0
 10
173.0246617914533
 20
152.5936896896348
 30
0.0
 10
173.4082408759656
 20
152.4093878470973
 30
0.0
 10
173.6339269280197
 20
152.0101012803568
 30
0.0
 10
173.5914876580108
 20
151.5866559815264
 30
0.0
 10
172.6980129098346
 20
142.6729774118415
 30
0.0
 10
174.1684873221731
 20
132.3800979283308
 30
0.0
 10
174.7305438846683
 20
122.5680138175571
 30
0.0
 10
174.9117343753456
 20
119.5941966287657
 30
0.0
 10
174.416006666865
 20
117.1741785392286
 30
0.0
 10
174.5930738088834
 20
114.2579052109646
 30
0.0
 10
174.6010082944229
 20
113.8775774353164
 30
0.0
 10
174.6065096812759
 20
113.4986276978626
 30
0.0
 10
174.611655792657
 20
113.1210452326793
 30
0.0
 10
174.6368157556227
 20
111.2331221408386
 30
0.0
 10
174.6440396902183
 20
109.3720815597067
 30
0.0
 10
174.7949671702424
 20
107.4462624175286
 30
0.0
 10
174.8256177541378
 20
106.9977002194257
 30
0.0
 10
174.8528232425479
 20
106.5519371614049
 30
0.0
 10
174.876949676868
 20
106.1078535874325
 30
0.0
 10
174.9003763261677
 20
105.6610247029956
 30
0.0
 10
174.9206916236073
 20
105.2148740717323
 30
0.0
 10
174.933115499201
 20
104.7549538244515
 30
0.0
 10
174.8927863501767
 20
100.8709747062276
 30
0.0
 10
175.0047627193708
 20
97.02795992650799
 30
0.0
 10
175.2217929690181
 20
93.022347405808
 30
0.0
 10
175.2400735069367
 20
92.59103221697812
 30
0.0
 10
175.2610885893968
 20
92.14900493437378
 30
0.0
 10
175.2855272354952
 20
91.70493212632508
 30
0.0
 10
175.3833679472763
 20
89.9279518750332
 30
0.0
 10
175.5321960722391
 20
88.1172150709476
 30
0.0
 10
175.7702521702699
 20
86.24928968180683
 30
0.0
 10
175.7833435331139
 20
85.9840011805575
 30
0.0
 10
175.7954013673122
 20
85.71187093499293
 30
0.0
 10
175.8067701824135
 20
85.4355742770759
 30
0.0
 10
175.8408766277175
 20
84.60806234151889
 30
0.0
 10
175.8192586535476
 20
84.41358670137653
 30
0.0
 10
175.8192586535476
 20
84.15028989595461
 30
0.0
 10
175.8192586535476
 20
83.7930442600576
 30
0.0
 10
175.5218607857834
 20
83.62286192604796
 30
0.0
 10
175.2376404082503
 20
83.54179990587237
 30
0.0
  0
SPLINE
  5
DA
330
D5
100
AcDbEntity
  8
_U+30EC_U+30A4_U+30E4_U+30FC 1
 62
     7
370
     5
100
AcDbSpline
210
0.0
220
0.0
230
1.0
 70
     8
 71
     3
 72
    86
 73
    82
 74
     0
 42
0.0000000001
 43
0.0000000001
 12
1.0
 22
0.0
 32
0.0
 13
1.0
 23
0.0
 33
0.0
 40
0.0
 40
0.0
 40
0.0
 40
0.0
 40
1.0
 40
1.0
 40
1.0
 40
2.0
 40
2.0
 40
2.0
 40
3.0
 40
3.0
 40
3.0
 40
4.0
 40
4.0
 40
4.0
 40
5.0
 40
5.0
 40
5.0
 40
6.0
 40
6.0
 40
6.0
 40
7.0
 40
7.0
 40
7.0
 40
8.0
 40
8.0
 40
8.0
 40
9.0
 40
9.0
 40
9.0
 40
10.0
 40
10.0
 40
10.0
 40
11.0
 40
11.0
 40
11.0
 40
12.0
 40
12.0
 40
12.0
 40
13.0
 40
13.0
 40
13.0
 40
14.0
 40
14.0
 40
14.0
 40
15.0
 40
15.0
 40
15.0
 40
16.0
 40
16.0
 40
16.0
 40
17.0
 40
17.0
 40
17.0
 40
18.0
 40
18.0
 40
18.0
 40
19.0
 40
19.0
 40
19.0
 40
20.0
 40
20.0
 40
20.0
 40
21.0
 40
21.0
 40
21.0
 40
22.0
 40
22.0
 40
22.0
 40
23.0
 40
23.0
 40
23.0
 40
24.0
 40
24.0
 40
24.0
 40
25.0
 40
25.0
 40
25.0
 40
26.0
 40
26.0
 40
26.0
 40
27.0
 40
27.0
 40
27.0
 40
27.0
 10
175.5676138334522
 20
83.69306317684828
 30
0.0
 10
175.5676138334522
 20
83.69306317684828
 30
0.0
 10
175.8777931877206
 20
83.88036955741964
 30
0.0
 10
175.8777931877206
 20
83.88036955741964
 30
0.0
 10
175.8777931877206
 20
83.88036955741964
 30
0.0
 10
176.1180930740379
 20
83.97373569155539
 30
0.0
 10
176.114985038173
 20
84.45831589725469
 30
0.0
 10
176.1106921997529
 20
85.12762108388058
 30
0.0
 10
176.115838311134
 20
84.88266874946348
 30
0.0
 10
176.0817749295236
 20
85.7105359604924
 30
0.0
 10
176.070040073027
 20
85.98682723544775
 30
0.0
 10
176.0583267483771
 20
86.25828999376203
 30
0.0
 10
176.04525691738
 20
86.52425136522332
 30
0.0
 10
175.8071577556556
 20
88.39217675436409
 30
0.0
 10
175.6580066529911
 20
90.20224068823775
 30
0.0
 10
175.5601874730568
 20
91.97957083203984
 30
0.0
 10
175.5360502728132
 20
92.42364364008854
 30
0.0
 10
175.5150136585065
 20
92.86599390039461
 30
0.0
 10
175.4967761842814
 20
93.29663083605085
 30
0.0
 10
175.2794121910089
 20
97.30259863222275
 30
0.0
 10
175.1674250558915
 20
101.1452366046236
 30
0.0
 10
175.2080771826175
 20
105.0295925301662
 30
0.0
 10
175.195330329322
 20
105.4895127774471
 30
0.0
 10
175.1750257978059
 20
105.9353188991618
 30
0.0
 10
175.1515991485062
 20
106.382459995377
 30
0.0
 10
175.1278064578111
 20
106.8262205916474
 30
0.0
 10
175.1005686716309
 20
107.2723496910639
 30
0.0
 10
175.0695628122637
 20
107.7209011232434
 30
0.0
 10
174.9190444373284
 20
109.6463649899495
 30
0.0
 10
174.9118097368094
 20
111.5077608465534
 30
0.0
 10
174.8866497738437
 20
113.3956516406235
 30
0.0
 10
174.8814713646924
 20
113.7735786153554
 30
0.0
 10
174.8759699778394
 20
114.1518608655593
 30
0.0
 10
174.8680247263765
 20
114.5328991921513
 30
0.0
 10
174.6909683502815
 20
117.4488172449434
 30
0.0
 10
175.1867175906089
 20
119.8688030367103
 30
0.0
 10
175.0051502926129
 20
122.8426202255014
 30
0.0
 10
174.4431047895042
 20
132.6544638229572
 30
0.0
 10
172.9730382867577
 20
142.947058582869
 30
0.0
 10
173.8663687793323
 20
151.8605517634349
 30
0.0
 10
173.9088505835721
 20
152.2844276699877
 30
0.0
 10
173.682839452123
 20
152.6840896551268
 30
0.0
 10
173.2988359800696
 20
152.8685261517807
 30
0.0
 10
173.2757500839046
 20
152.8796142854063
 30
0.0
 10
173.2526577117662
 20
152.8908684737935
 30
0.0
 10
173.2295588454385
 20
152.9022841177261
 30
0.0
 10
172.0313438697452
 20
153.4941730539387
 30
0.0
 10
170.8155589070771
 20
154.517506370062
 30
0.0
 10
169.5780913746988
 20
155.3009210834078
 30
0.0
 10
169.2925144908184
 20
155.4726913911177
 30
0.0
 10
169.0058825464456
 20
155.6409735396488
 30
0.0
 10
168.7199180893231
 20
155.8052938283718
 30
0.0
 10
167.2864138579106
 20
156.6281764168705
 30
0.0
 10
165.8411855359249
 20
157.3614649909059
 30
0.0
 10
164.3460463930967
 20
158.0339260977799
 30
0.0
 10
163.3903661395649
 20
158.4256549862996
 30
0.0
 10
162.5277249959818
 20
158.8712780873167
 30
0.0
 10
161.5617094559943
 20
159.6122858284238
 30
0.0
 10
155.2750992145104
 20
164.7194891623792
 30
0.0
 10
149.2182660759693
 20
168.4210827724292
 30
0.0
 10
143.0005577441904
 20
172.8838594640219
 30
0.0
 10
142.6367664268714
 20
173.1196547181405
 30
0.0
 10
142.2726306000042
 20
173.3542549547626
 30
0.0
 10
141.9088177508381
 20
173.5875094509608
 30
0.0
 10
137.9063058160748
 20
176.1516724887854
 30
0.0
 10
133.8982924944589
 20
178.5329224881901
 30
0.0
 10
129.8861127604899
 20
180.508028027654
 30
0.0
 10
127.3133369839524
 20
181.8443913323058
 30
0.0
 10
124.7942616332906
 20
183.5343613907484
 30
0.0
 10
122.2790189513568
 20
185.3840116249322
 30
0.0
 10
121.9193294508496
 20
185.6480997257234
 30
0.0
 10
121.5603397353632
 20
185.9156113901531
 30
0.0
 10
121.2024158462925
 20
186.1841565832283
 30
0.0
 10
120.1249729992043
 20
187.0343630852944
 30
0.0
 10
119.1168295897805
 20
187.808117255863
 30
0.0
 10
117.948824606329
 20
188.4983564117513
 30
0.0
 10
117.8331821224694
 20
188.5666959921256
 30
0.0
 10
117.5830530162103
 20
188.4835965181315
 30
0.0
 10
117.5008242005409
 20
188.3918862323293
 30
0.0
 10
117.5008242005409
 20
188.3918862323293
 30
0.0
 10
117.2492904141328
 20
188.1406699459131
 30
0.0
 10
117.2492904141328
 20
188.1406699459131
 30
0.0
  0
POLYLINE
  5
DB
330
D5
100
AcDbEntity
  8
_U+30EC_U+30A4_U+30E4_U+30FC 1
 62
     7
370
     5
100
AcDb2dPolyline
 66
     1
 10
0.0
 20
0.0
 30
0.0
  0
VERTEX
  5
DC
330
DB
100
AcDbEntity
  8
_U+30EC_U+30A4_U+30E4_U+30FC 1
 62
     7
370
     5
100
AcDbVertex
100
AcDb2dVertex
 10
173.191879107921
 20
152.9145660835908
 30
0.0
  0
VERTEX
  5
DD
330
DB
100
AcDbEntity
  8
_U+30EC_U+30A4_U+30E4_U+30FC 1
 62
     7
370
     5
100
AcDbVertex
100
AcDb2dVertex
 10
174.8852787524899
 20
153.9087913512377
 30
0.0
  0
SEQEND
  5
DE
330
DB
100
AcDbEntity
  8
_U+30EC_U+30A4_U+30E4_U+30FC 1
 62
     7
370
     5
  0
POLYLINE
  5
DF
330
D5
100
AcDbEntity
  8
_U+30EC_U+30A4_U+30E4_U+30FC 1
 62
     7
370
     5
100
AcDb2dPolyline
 66
     1
 10
0.0
 20
0.0
 30
0.0
  0
VERTEX
  5
E0
330
DF
100
AcDbEntity
  8
_U+30EC_U+30A4_U+30E4_U+30FC 1
 62
     7
370
     5
100
AcDbVertex
100
AcDb2dVertex
 10
175.894362464494
 20
87.84698027284851
 30
0.0
  0
VERTEX
  5
E1
330
DF
100
AcDbEntity
  8
_U+30EC_U+30A4_U+30E4_U+30FC 1
 62
     7
370
     5
100
AcDbVertex
100
AcDb2dVertex
 10
176.7662898156125
 20
88.39170374659015
 30
0.0
  0
VERTEX
  5
E2
330
DF
100
AcDbEntity
  8
_U+30EC_U+30A4_U+30E4_U+30FC 1
 62
     7
370
     5
100
AcDbVertex
100
AcDb2dVertex
 10
174.8852787524899
 20
153.9087913512377
 30
0.0
  0
VERTEX
  5
E3
330
DF
100
AcDbEntity
  8
_U+30EC_U+30A4_U+30E4_U+30FC 1
 62
     7
370
     5
100
AcDbVertex
100
AcDb2dVertex
 10
121.659720369498
 20
188.4524401087637
 30
0.0
  0
VERTEX
  5
E4
330
DF
100
AcDbEntity
  8
_U+30EC_U+30A4_U+30E4_U+30FC 1
 62
     7
370
     5
100
AcDbVertex
100
AcDb2dVertex
 10
119.710361478596
 20
187.3288672126774
 30
0.0
  0
SEQEND
  5
E5
330
DF
100
AcDbEntity
  8
_U+30EC_U+30A4_U+30E4_U+30FC 1
 62
     7
370
     5
  0
POLYLINE
  5
E6
330
D5
100
AcDbEntity
  8
_U+30EC_U+30A4_U+30E4_U+30FC 1
 62
     7
370
     5
100
AcDb2dPolyline
 66
     1
 10
0.0
 20
0.0
 30
0.0
  0
VERTEX
  5
E7
330
E6
100
AcDbEntity
  8
_U+30EC_U+30A4_U+30E4_U+30FC 1
 62
     7
370
     5
100
AcDbVertex
100
AcDb2dVertex
 10
170.8727095342654
 20
86.57106041523893
 30
0.0
  0
VERTEX
  5
16D
330
E6
100
AcDbEntity
  8
0
100
AcDbVertex
100
AcDb2dVertex
 10
170.8727095342654
 20
86.57106041523893
 30
0.0
  0
SEQEND
  5
E8
330
E6
100
AcDbEntity
  8
_U+30EC_U+30A4_U+30E4_U+30FC 1
 62
     7
370
     5
  0
POLYLINE
  5
E9
330
D5
100
AcDbEntity
  8
_U+30EC_U+30A4_U+30E4_U+30FC 1
 62
     7
370
     5
100
AcDb2dPolyline
 66
     1
 10
0.0
 20
0.0
 30
0.0
  0
VERTEX
  5
EA
330
E9
100
AcDbEntity
  8
_U+30EC_U+30A4_U+30E4_U+30FC 1
 62
     7
370
     5
100
AcDbVertex
100
AcDb2dVertex
 10
169.7471001293874
 20
87.22643386243108
 30
0.0
  0
VERTEX
  5
16E
330
E9
100
AcDbEntity
  8
0
100
AcDbVertex
100
AcDb2dVertex
 10
169.7471001293874
 20
87.22643386243108
 30
0.0
  0
SEQEND
  5
EB
330
E9
100
AcDbEntity
  8
_U+30EC_U+30A4_U+30E4_U+30FC 1
 62
     7
370
     5
  0
ENDBLK
  5
D8
330
D5
100
AcDbEntity
  8
0
100
AcDbBlockEnd
  0
ENDSEC
  0
SECTION
  2
ENTITIES
  0
INSERT
  5
42
330
1F
100
AcDbEntity
  8
_U+30EC_U+30A4_U+30E4_U+30FC 1
100
AcDbBlockReference
  2
block 2
 10
0.0
 20
0.0
 30
0.0
  0
INSERT
  5
D6
330
1F
100
AcDbEntity
  8
_U+30EC_U+30A4_U+30E4_U+30FC 1
100
AcDbBlockReference
  2
block 3
 10
0.0
 20
0.0
 30
0.0
  0
POLYLINE
  5
EC
330
1F
100
AcDbEntity
  8
_U+30EC_U+30A4_U+30E4_U+30FC 1
 62
     7
370
     5
100
AcDb2dPolyline
 66
     1
 10
0.0
 20
0.0
 30
0.0
  0
VERTEX
  5
ED
330
EC
100
AcDbEntity
  8
_U+30EC_U+30A4_U+30E4_U+30FC 1
 62
     7
370
     5
100
AcDbVertex
100
AcDb2dVertex
 10
174.9376035074532
 20
152.1995777097059
 30
0.0
  0
VERTEX
  5
EE
330
EC
100
AcDbEntity
  8
_U+30EC_U+30A4_U+30E4_U+30FC 1
 62
     7
370
     5
100
AcDbVertex
100
AcDb2dVertex
 10
186.3086997169494
 20
158.8070824682501
 30
0.0
  0
SEQEND
  5
EF
330
EC
100
AcDbEntity
  8
_U+30EC_U+30A4_U+30E4_U+30FC 1
 62
     7
370
     5
  0
POLYLINE
  5
F0
330
1F
100
AcDbEntity
  8
_U+30EC_U+30A4_U+30E4_U+30FC 1
 62
     7
370
     5
100
AcDb2dPolyline
 66
     1
 10
0.0
 20
0.0
 30
0.0
  0
VERTEX
  5
F1
330
F0
100
AcDbEntity
  8
_U+30EC_U+30A4_U+30E4_U+30FC 1
 62
     7
370
     5
100
AcDbVertex
100
AcDb2dVertex
 10
174.8189265037687
 20
153.9797327649711
 30
0.0
  0
VERTEX
  5
F2
330
F0
100
AcDbEntity
  8
_U+30EC_U+30A4_U+30E4_U+30FC 1
 62
     7
370
     5
100
AcDbVertex
100
AcDb2dVertex
 10
185.8098543130093
 20
160.3364446514551
 30
0.0
  0
SEQEND
  5
F3
330
F0
100
AcDbEntity
  8
_U+30EC_U+30A4_U+30E4_U+30FC 1
 62
     7
370
     5
  0
SPLINE
  5
F4
330
1F
100
AcDbEntity
  8
_U+30EC_U+30A4_U+30E4_U+30FC 1
 62
     7
370
     5
100
AcDbSpline
210
0.0
220
0.0
230
1.0
 70
     8
 71
     3
 72
    11
 73
     7
 74
     0
 42
0.0000000001
 43
0.0000000001
 12
1.0
 22
0.0
 32
0.0
 13
1.0
 23
0.0
 33
0.0
 40
0.0
 40
0.0
 40
0.0
 40
0.0
 40
1.0
 40
1.0
 40
1.0
 40
2.0
 40
2.0
 40
2.0
 40
2.0
 10
186.269417912396
 20
158.8112099681451
 30
0.0
 10
186.4964480454929
 20
158.8795959386223
 30
0.0
 10
186.5777633211961
 20
159.2764709284976
 30
0.0
 10
186.4506398522171
 20
159.6976346677525
 30
0.0
 10
186.3238515221184
 20
160.1187984070077
 30
0.0
 10
186.0368844461062
 20
160.4048306219326
 30
0.0
 10
185.8098543130093
 20
160.3364446514551
 30
0.0
  0
SPLINE
  5
F5
330
1F
100
AcDbEntity
  8
_U+30EC_U+30A4_U+30E4_U+30FC 1
 62
     7
370
     5
100
AcDbSpline
210
0.0
220
0.0
230
1.0
 70
     8
 71
     3
 72
    11
 73
     7
 74
     0
 42
0.0000000001
 43
0.0000000001
 12
1.0
 22
0.0
 32
0.0
 13
1.0
 23
0.0
 33
0.0
 40
0.0
 40
0.0
 40
0.0
 40
0.0
 40
1.0
 40
1.0
 40
1.0
 40
2.0
 40
2.0
 40
2.0
 40
2.0
 10
185.9535054204556
 20
158.628454737079
 30
0.0
 10
186.1805355535525
 20
158.6968394155068
 30
0.0
 10
186.2616744403713
 20
159.0935380164976
 30
0.0
 10
186.1347273602767
 20
159.5148781446372
 30
0.0
 10
186.0077626412936
 20
159.9359536894505
 30
0.0
 10
185.7209719541658
 20
160.2219682654867
 30
0.0
 10
185.4939241821805
 20
160.1535822950091
 30
0.0
  0
SPLINE
  5
F6
330
1F
100
AcDbEntity
  8
_U+30EC_U+30A4_U+30E4_U+30FC 1
 62
     7
370
     5
100
AcDbSpline
210
0.0
220
0.0
230
1.0
 70
     8
 71
     3
 72
    11
 73
     7
 74
     0
 42
0.0000000001
 43
0.0000000001
 12
1.0
 22
0.0
 32
0.0
 13
1.0
 23
0.0
 33
0.0
 40
0.0
 40
0.0
 40
0.0
 40
0.0
 40
1.0
 40
1.0
 40
1.0
 40
2.0
 40
2.0
 40
2.0
 40
2.0
 10
185.6245076838936
 20
158.4379358110012
 30
0.0
 10
185.8515350063904
 20
158.5064981703631
 30
0.0
 10
185.9326590727054
 20
158.9031967713536
 30
0.0
 10
185.8057091742262
 20
159.3243605106088
 30
0.0
 10
185.6787620941315
 20
159.7456124443062
 30
0.0
 10
185.3919537681153
 20
160.0316283478396
 30
0.0
 10
185.1649236350184
 20
159.9632410498655
 30
0.0
  0
SPLINE
  5
F7
330
1F
100
AcDbEntity
  8
_U+30EC_U+30A4_U+30E4_U+30FC 1
 62
     7
370
     5
100
AcDbSpline
210
0.0
220
0.0
230
1.0
 70
     8
 71
     3
 72
    11
 73
     7
 74
     0
 42
0.0000000001
 43
0.0000000001
 12
1.0
 22
0.0
 32
0.0
 13
1.0
 23
0.0
 33
0.0
 40
0.0
 40
0.0
 40
0.0
 40
0.0
 40
1.0
 40
1.0
 40
1.0
 40
2.0
 40
2.0
 40
2.0
 40
2.0
 10
185.3209925199257
 20
158.2624112321461
 30
0.0
 10
185.5480226530225
 20
158.330797202623
 30
0.0
 10
185.6293202898374
 20
158.7274958036139
 30
0.0
 10
185.5021968208583
 20
159.1486595428691
 30
0.0
 10
185.3754261296481
 20
159.5698232821243
 30
0.0
 10
185.0884414147474
 20
159.855926052603
 30
0.0
 10
184.8614112816506
 20
159.7875577210139
 30
0.0
  0
SPLINE
  5
F8
330
1F
100
AcDbEntity
  8
_U+30EC_U+30A4_U+30E4_U+30FC 1
 62
     7
370
     5
100
AcDbSpline
210
0.0
220
0.0
230
1.0
 70
     8
 71
     3
 72
    11
 73
     7
 74
     0
 42
0.0000000001
 43
0.0000000001
 12
1.0
 22
0.0
 32
0.0
 13
1.0
 23
0.0
 33
0.0
 40
0.0
 40
0.0
 40
0.0
 40
0.0
 40
1.0
 40
1.0
 40
1.0
 40
2.0
 40
2.0
 40
2.0
 40
2.0
 10
184.9919771284963
 20
158.0718935981174
 30
0.0
 10
185.2190044669721
 20
158.1404559574794
 30
0.0
 10
185.3003197426753
 20
158.5371545584699
 30
0.0
 10
185.1731962736963
 20
158.9584946866098
 30
0.0
 10
185.0464079435976
 20
159.3794820369803
 30
0.0
 10
184.7594408675854
 20
159.665584807459
 30
0.0
 10
184.5324107344885
 20
159.5971988369811
 30
0.0
  0
SPLINE
  5
F9
330
1F
100
AcDbEntity
  8
_U+30EC_U+30A4_U+30E4_U+30FC 1
 62
     7
370
     5
100
AcDbSpline
210
0.0
220
0.0
230
1.0
 70
     8
 71
     3
 72
    11
 73
     7
 74
     0
 42
0.0000000001
 43
0.0000000001
 12
1.0
 22
0.0
 32
0.0
 13
1.0
 23
0.0
 33
0.0
 40
0.0
 40
0.0
 40
0.0
 40
0.0
 40
1.0
 40
1.0
 40
1.0
 40
2.0
 40
2.0
 40
2.0
 40
2.0
 10
184.6857103139108
 20
157.8948167970795
 30
0.0
 10
184.9127404470077
 20
157.9632027675577
 30
0.0
 10
184.9938793338266
 20
158.3599013685475
 30
0.0
 10
184.8669322537319
 20
158.7810651078028
 30
0.0
 10
184.7399675347488
 20
159.2024052359424
 30
0.0
 10
184.4531768476211
 20
159.4883505701974
 30
0.0
 10
184.2261290756358
 20
159.4199632859475
 30
0.0
  0
SPLINE
  5
FA
330
1F
100
AcDbEntity
  8
_U+30EC_U+30A4_U+30E4_U+30FC 1
 62
     7
370
     5
100
AcDbSpline
210
0.0
220
0.0
230
1.0
 70
     8
 71
     3
 72
    11
 73
     7
 74
     0
 42
0.0000000001
 43
0.0000000001
 12
1.0
 22
0.0
 32
0.0
 13
1.0
 23
0.0
 33
0.0
 40
0.0
 40
0.0
 40
0.0
 40
0.0
 40
1.0
 40
1.0
 40
1.0
 40
2.0
 40
2.0
 40
2.0
 40
2.0
 10
184.3567097667488
 20
157.7042991630508
 30
0.0
 10
184.5837398998457
 20
157.7728615224131
 30
0.0
 10
184.6648611477761
 20
158.1695601234039
 30
0.0
 10
184.5379140676814
 20
158.5909002515432
 30
0.0
 10
184.4109669875868
 20
159.011887601914
 30
0.0
 10
184.1241586615706
 20
159.2980080112811
 30
0.0
 10
183.8971312954363
 20
159.2296220408035
 30
0.0
  0
SPLINE
  5
FB
330
1F
100
AcDbEntity
  8
_U+30EC_U+30A4_U+30E4_U+30FC 1
 62
     7
370
     5
100
AcDbSpline
210
0.0
220
0.0
230
1.0
 70
     8
 71
     3
 72
    11
 73
     7
 74
     0
 42
0.0000000001
 43
0.0000000001
 12
1.0
 22
0.0
 32
0.0
 13
1.0
 23
0.0
 33
0.0
 40
0.0
 40
0.0
 40
0.0
 40
0.0
 40
1.0
 40
1.0
 40
1.0
 40
2.0
 40
2.0
 40
2.0
 40
2.0
 10
184.0531974133809
 20
157.5285981953114
 30
0.0
 10
184.2802275464778
 20
157.5971605546736
 30
0.0
 10
184.3615251832926
 20
157.9938591556638
 30
0.0
 10
184.2344017143136
 20
158.4152005704661
 30
0.0
 10
184.1076310231033
 20
158.8361866341743
 30
0.0
 10
183.8206463082027
 20
159.1223070435414
 30
0.0
 10
183.5936161751058
 20
159.0539210730638
 30
0.0
  0
SPLINE
  5
FC
330
1F
100
AcDbEntity
  8
_U+30EC_U+30A4_U+30E4_U+30FC 1
 62
     7
370
     5
100
AcDbSpline
210
0.0
220
0.0
230
1.0
 70
     8
 71
     3
 72
    11
 73
     7
 74
     0
 42
0.0000000001
 43
0.0000000001
 12
1.0
 22
0.0
 32
0.0
 13
1.0
 23
0.0
 33
0.0
 40
0.0
 40
0.0
 40
0.0
 40
0.0
 40
1.0
 40
1.0
 40
1.0
 40
2.0
 40
2.0
 40
2.0
 40
2.0
 10
183.7241792273304
 20
157.3384333390518
 30
0.0
 10
183.9512093604273
 20
157.4068193095293
 30
0.0
 10
184.0325246361305
 20
157.8035179105202
 30
0.0
 10
183.9054011671515
 20
158.2248580386594
 30
0.0
 10
183.7786128370528
 20
158.6460217779143
 30
0.0
 10
183.4916457610406
 20
158.9319657983974
 30
0.0
 10
183.2646156279438
 20
158.8635811259092
 30
0.0
  0
SPLINE
  5
FD
330
1F
100
AcDbEntity
  8
_U+30EC_U+30A4_U+30E4_U+30FC 1
 62
     7
370
     5
100
AcDbSpline
210
0.0
220
0.0
230
1.0
 70
     8
 71
     3
 72
    11
 73
     7
 74
     0
 42
0.0000000001
 43
0.0000000001
 12
1.0
 22
0.0
 32
0.0
 13
1.0
 23
0.0
 33
0.0
 40
0.0
 40
0.0
 40
0.0
 40
0.0
 40
1.0
 40
1.0
 40
1.0
 40
2.0
 40
2.0
 40
2.0
 40
2.0
 10
183.3938028468702
 20
157.1470513994902
 30
0.0
 10
183.620832979967
 20
157.2154373699671
 30
0.0
 10
183.7017954779015
 20
157.6123123598427
 30
0.0
 10
183.5750071478028
 20
158.0334760990976
 30
0.0
 10
183.4478836788238
 20
158.4546398383528
 30
0.0
 10
183.1612517416919
 20
158.7407602477199
 30
0.0
 10
182.9342243512328
 20
158.6721991815128
 30
0.0
  0
SPLINE
  5
FE
330
1F
100
AcDbEntity
  8
_U+30EC_U+30A4_U+30E4_U+30FC 1
 62
     7
370
     5
100
AcDbSpline
210
0.0
220
0.0
230
1.0
 70
     8
 71
     3
 72
    11
 73
     7
 74
     0
 42
0.0000000001
 43
0.0000000001
 12
1.0
 22
0.0
 32
0.0
 13
1.0
 23
0.0
 33
0.0
 40
0.0
 40
0.0
 40
0.0
 40
0.0
 40
1.0
 40
1.0
 40
1.0
 40
2.0
 40
2.0
 40
2.0
 40
2.0
 10
183.0648022997081
 20
156.9567101543459
 30
0.0
 10
183.291832432805
 20
157.0252725137078
 30
0.0
 10
183.3727949307394
 20
157.421794725814
 30
0.0
 10
183.2460066006408
 20
157.8431348539539
 30
0.0
 10
183.1188831316617
 20
158.2642985932088
 30
0.0
 10
182.8322511945299
 20
158.5502426136915
 30
0.0
 10
182.605221061433
 20
158.482033032099
 30
0.0
  0
SPLINE
  5
FF
330
1F
100
AcDbEntity
  8
_U+30EC_U+30A4_U+30E4_U+30FC 1
 62
     7
370
     5
100
AcDbSpline
210
0.0
220
0.0
230
1.0
 70
     8
 71
     3
 72
    11
 73
     7
 74
     0
 42
0.0000000001
 43
0.0000000001
 12
1.0
 22
0.0
 32
0.0
 13
1.0
 23
0.0
 33
0.0
 40
0.0
 40
0.0
 40
0.0
 40
0.0
 40
1.0
 40
1.0
 40
1.0
 40
2.0
 40
2.0
 40
2.0
 40
2.0
 10
182.7612899463402
 20
156.7810091866065
 30
0.0
 10
182.9883200794371
 20
156.8495727930794
 30
0.0
 10
183.0694413273675
 20
157.2460950152025
 30
0.0
 10
182.9424942472729
 20
157.6674338862138
 30
0.0
 10
182.8155471671782
 20
158.0885976254691
 30
0.0
 10
182.528738841162
 20
158.3745416459518
 30
0.0
 10
182.3017087080651
 20
158.3063320643586
 30
0.0
  0
SPLINE
  5
100
330
1F
100
AcDbEntity
  8
_U+30EC_U+30A4_U+30E4_U+30FC 1
 62
     7
370
     5
100
AcDbSpline
210
0.0
220
0.0
230
1.0
 70
     8
 71
     3
 72
    11
 73
     7
 74
     0
 42
0.0000000001
 43
0.0000000001
 12
1.0
 22
0.0
 32
0.0
 13
1.0
 23
0.0
 33
0.0
 40
0.0
 40
0.0
 40
0.0
 40
0.0
 40
1.0
 40
1.0
 40
1.0
 40
2.0
 40
2.0
 40
2.0
 40
2.0
 10
182.4322717602898
 20
156.5906679414622
 30
0.0
 10
182.6593018933866
 20
156.6590539119398
 30
0.0
 10
182.7404407802055
 20
157.0559289018146
 30
0.0
 10
182.6134937001108
 20
157.4770926410702
 30
0.0
 10
182.4865289811277
 20
157.8982563803251
 30
0.0
 10
182.199741018083
 20
158.1842004008078
 30
0.0
 10
181.9727081609031
 20
158.115990819215
 30
0.0
  0
SPLINE
  5
101
330
1F
100
AcDbEntity
  8
_U+30EC_U+30A4_U+30E4_U+30FC 1
 62
     7
370
     5
100
AcDbSpline
210
0.0
220
0.0
230
1.0
 70
     8
 71
     3
 72
    11
 73
     7
 74
     0
 42
0.0000000001
 43
0.0000000001
 12
1.0
 22
0.0
 32
0.0
 13
1.0
 23
0.0
 33
0.0
 40
0.0
 40
0.0
 40
0.0
 40
0.0
 40
1.0
 40
1.0
 40
1.0
 40
2.0
 40
2.0
 40
2.0
 40
2.0
 10
182.1260104625462
 20
156.4134147515399
 30
0.0
 10
182.3530378734223
 20
156.4819783487268
 30
0.0
 10
182.4340003713567
 20
156.8785169618963
 30
0.0
 10
182.3072120412581
 20
157.2998394511478
 30
0.0
 10
182.180088572279
 20
157.7210031904027
 30
0.0
 10
181.8934566351472
 20
158.0071235997696
 30
0.0
 10
181.6664265020503
 20
157.9385612404079
 30
0.0
  0
SPLINE
  5
102
330
1F
100
AcDbEntity
  8
_U+30EC_U+30A4_U+30E4_U+30FC 1
 62
     7
370
     5
100
AcDbSpline
210
0.0
220
0.0
230
1.0
 70
     8
 71
     3
 72
    11
 73
     7
 74
     0
 42
0.0000000001
 43
0.0000000001
 12
1.0
 22
0.0
 32
0.0
 13
1.0
 23
0.0
 33
0.0
 40
0.0
 40
0.0
 40
0.0
 40
0.0
 40
1.0
 40
1.0
 40
1.0
 40
2.0
 40
2.0
 40
2.0
 40
2.0
 10
181.7970071931634
 20
156.2230735063959
 30
0.0
 10
182.0240373262602
 20
156.2914594768734
 30
0.0
 10
182.1049998241947
 20
156.6883344667483
 30
0.0
 10
181.978211494096
 20
157.1094982060035
 30
0.0
 10
181.851088025117
 20
157.5306619452584
 30
0.0
 10
181.5644560879851
 20
157.8166059657415
 30
0.0
 10
181.3374259548883
 20
157.7483963841483
 30
0.0
  0
SPLINE
  5
103
330
1F
100
AcDbEntity
  8
_U+30EC_U+30A4_U+30E4_U+30FC 1
 62
     7
370
     5
100
AcDbSpline
210
0.0
220
0.0
230
1.0
 70
     8
 71
     3
 72
    11
 73
     7
 74
     0
 42
0.0000000001
 43
0.0000000001
 12
1.0
 22
0.0
 32
0.0
 13
1.0
 23
0.0
 33
0.0
 40
0.0
 40
0.0
 40
0.0
 40
0.0
 40
1.0
 40
1.0
 40
1.0
 40
2.0
 40
2.0
 40
2.0
 40
2.0
 10
181.4934948397955
 20
156.0473725386562
 30
0.0
 10
181.7205249728923
 20
156.115758509134
 30
0.0
 10
181.8016462208228
 20
156.5126334990086
 30
0.0
 10
181.6746991407281
 20
156.9337972382635
 30
0.0
 10
181.5477520606335
 20
157.354960977519
 30
0.0
 10
181.2609437346173
 20
157.6409049980018
 30
0.0
 10
181.0339136015204
 20
157.5726954164089
 30
0.0
  0
SPLINE
  5
104
330
1F
100
AcDbEntity
  8
_U+30EC_U+30A4_U+30E4_U+30FC 1
 62
     7
370
     5
100
AcDbSpline
210
0.0
220
0.0
230
1.0
 70
     8
 71
     3
 72
    11
 73
     7
 74
     0
 42
0.0000000001
 43
0.0000000001
 12
1.0
 22
0.0
 32
0.0
 13
1.0
 23
0.0
 33
0.0
 40
0.0
 40
0.0
 40
0.0
 40
0.0
 40
1.0
 40
1.0
 40
1.0
 40
2.0
 40
2.0
 40
2.0
 40
2.0
 10
181.164476653745
 20
155.8570325155497
 30
0.0
 10
181.3915067868419
 20
155.9255936528741
 30
0.0
 10
181.4726456736607
 20
156.3221335038687
 30
0.0
 10
181.3456985935661
 20
156.7434559931198
 30
0.0
 10
181.218733874583
 20
157.1646197323747
 30
0.0
 10
180.9319431874552
 20
157.4507401417422
 30
0.0
 10
180.7049130543583
 20
157.3821777823802
 30
0.0
  0
SPLINE
  5
105
330
1F
100
AcDbEntity
  8
_U+30EC_U+30A4_U+30E4_U+30FC 1
 62
     7
370
     5
100
AcDbSpline
210
0.0
220
0.0
230
1.0
 70
     8
 71
     3
 72
    11
 73
     7
 74
     0
 42
0.0000000001
 43
0.0000000001
 12
1.0
 22
0.0
 32
0.0
 13
1.0
 23
0.0
 33
0.0
 40
0.0
 40
0.0
 40
0.0
 40
0.0
 40
1.0
 40
1.0
 40
1.0
 40
2.0
 40
2.0
 40
2.0
 40
2.0
 10
180.8420201341938
 20
155.6703236593866
 30
0.0
 10
181.0690502672906
 20
155.7388683798601
 30
0.0
 10
181.1500127652251
 20
156.1355669808506
 30
0.0
 10
181.0232271294885
 20
156.5567307201058
 30
0.0
 10
180.8961009661474
 20
156.9780708482454
 30
0.0
 10
180.6094690290155
 20
157.2640148687281
 30
0.0
 10
180.3824388959187
 20
157.1956288982506
 30
0.0
  0
SPLINE
  5
106
330
1F
100
AcDbEntity
  8
_U+30EC_U+30A4_U+30E4_U+30FC 1
 62
     7
370
     5
100
AcDbSpline
210
0.0
220
0.0
230
1.0
 70
     8
 71
     3
 72
    11
 73
     7
 74
     0
 42
0.0000000001
 43
0.0000000001
 12
1.0
 22
0.0
 32
0.0
 13
1.0
 23
0.0
 33
0.0
 40
0.0
 40
0.0
 40
0.0
 40
0.0
 40
1.0
 40
1.0
 40
1.0
 40
2.0
 40
2.0
 40
2.0
 40
2.0
 10
180.5130195870317
 20
155.4801411642392
 30
0.0
 10
180.7400497201286
 20
155.5485283489602
 30
0.0
 10
180.8210122180631
 20
155.9452269599721
 30
0.0
 10
180.6942238879644
 20
156.3665658638462
 30
0.0
 10
180.5671004189853
 20
156.787553214217
 30
0.0
 10
180.2804684818535
 20
157.0736736235842
 30
0.0
 10
180.0534410186199
 20
157.0052876531066
 30
0.0
  0
SPLINE
  5
107
330
1F
100
AcDbEntity
  8
_U+30EC_U+30A4_U+30E4_U+30FC 1
 62
     7
370
     5
100
AcDbSpline
210
0.0
220
0.0
230
1.0
 70
     8
 71
     3
 72
    11
 73
     7
 74
     0
 42
0.0000000001
 43
0.0000000001
 12
1.0
 22
0.0
 32
0.0
 13
1.0
 23
0.0
 33
0.0
 40
0.0
 40
0.0
 40
0.0
 40
0.0
 40
1.0
 40
1.0
 40
1.0
 40
2.0
 40
2.0
 40
2.0
 40
2.0
 10
180.2095072336639
 20
155.3044401964988
 30
0.0
 10
180.4365373667607
 20
155.3728261669764
 30
0.0
 10
180.5176586146912
 20
155.7695436266828
 30
0.0
 10
180.3907115345965
 20
156.1908648961065
 30
0.0
 10
180.2637644545019
 20
156.6118522464773
 30
0.0
 10
179.9769561284856
 20
156.8979726558444
 30
0.0
 10
179.7499259953888
 20
156.8295866853669
 30
0.0
  0
SPLINE
  5
108
330
1F
100
AcDbEntity
  8
_U+30EC_U+30A4_U+30E4_U+30FC 1
 62
     7
370
     5
100
AcDbSpline
210
0.0
220
0.0
230
1.0
 70
     8
 71
     3
 72
    11
 73
     7
 74
     0
 42
0.0000000001
 43
0.0000000001
 12
1.0
 22
0.0
 32
0.0
 13
1.0
 23
0.0
 33
0.0
 40
0.0
 40
0.0
 40
0.0
 40
0.0
 40
1.0
 40
1.0
 40
1.0
 40
2.0
 40
2.0
 40
2.0
 40
2.0
 10
179.8804890476134
 20
155.1139402013589
 30
0.0
 10
180.1075191807102
 20
155.1824849218327
 30
0.0
 10
180.1886580675291
 20
155.5792011617113
 30
0.0
 10
180.0617109874345
 20
156.0003472620781
 30
0.0
 10
179.9347462684514
 20
156.4216873902177
 30
0.0
 10
179.6479555813236
 20
156.7076314107005
 30
0.0
 10
179.4209254482267
 20
156.6392454402229
 30
0.0
  0
SPLINE
  5
109
330
1F
100
AcDbEntity
  8
_U+30EC_U+30A4_U+30E4_U+30FC 1
 62
     7
370
     5
100
AcDbSpline
210
0.0
220
0.0
230
1.0
 70
     8
 71
     3
 72
    11
 73
     7
 74
     0
 42
0.0000000001
 43
0.0000000001
 12
1.0
 22
0.0
 32
0.0
 13
1.0
 23
0.0
 33
0.0
 40
0.0
 40
0.0
 40
0.0
 40
0.0
 40
1.0
 40
1.0
 40
1.0
 40
2.0
 40
2.0
 40
2.0
 40
2.0
 10
179.574225027649
 20
154.936863400321
 30
0.0
 10
179.8012551607459
 20
155.0052317319097
 30
0.0
 10
179.8822176586804
 20
155.4019491823302
 30
0.0
 10
179.7554293285817
 20
155.8232704610402
 30
0.0
 10
179.6283058596026
 20
156.2442754502997
 30
0.0
 10
179.3416739224708
 20
156.5303782207781
 30
0.0
 10
179.1146437893739
 20
156.4619922503006
 30
0.0
  0
SPLINE
  5
10A
330
1F
100
AcDbEntity
  8
_U+30EC_U+30A4_U+30E4_U+30FC 1
 62
     7
370
     5
100
AcDbSpline
210
0.0
220
0.0
230
1.0
 70
     8
 71
     3
 72
    11
 73
     7
 74
     0
 42
0.0000000001
 43
0.0000000001
 12
1.0
 22
0.0
 32
0.0
 13
1.0
 23
0.0
 33
0.0
 40
0.0
 40
0.0
 40
0.0
 40
0.0
 40
1.0
 40
1.0
 40
1.0
 40
2.0
 40
2.0
 40
2.0
 40
2.0
 10
179.2452271299327
 20
154.7463457662926
 30
0.0
 10
179.4722546135839
 20
154.8148904867661
 30
0.0
 10
179.5532171115183
 20
155.211606726645
 30
0.0
 10
179.4264287814196
 20
155.6327704659002
 30
0.0
 10
179.2993053124406
 20
156.0540929551514
 30
0.0
 10
179.0126733753087
 20
156.3400369756341
 30
0.0
 10
178.7856432422119
 20
156.2716510051566
 30
0.0
  0
SPLINE
  5
10B
330
1F
100
AcDbEntity
  8
_U+30EC_U+30A4_U+30E4_U+30FC 1
 62
     7
370
     5
100
AcDbSpline
210
0.0
220
0.0
230
1.0
 70
     8
 71
     3
 72
    11
 73
     7
 74
     0
 42
0.0000000001
 43
0.0000000001
 12
1.0
 22
0.0
 32
0.0
 13
1.0
 23
0.0
 33
0.0
 40
0.0
 40
0.0
 40
0.0
 40
0.0
 40
1.0
 40
1.0
 40
1.0
 40
2.0
 40
2.0
 40
2.0
 40
2.0
 10
178.9417121271191
 20
154.5706447985528
 30
0.0
 10
179.168742260216
 20
154.6392071579148
 30
0.0
 10
179.2498635081464
 20
155.0359057589053
 30
0.0
 10
179.1229164280518
 20
155.4570694981605
 30
0.0
 10
178.9959693479571
 20
155.8783919874117
 30
0.0
 10
178.7091610219409
 20
156.1643360078944
 30
0.0
 10
178.482130888844
 20
156.0959500374169
 30
0.0
  0
SPLINE
  5
10C
330
1F
100
AcDbEntity
  8
_U+30EC_U+30A4_U+30E4_U+30FC 1
 62
     7
370
     5
100
AcDbSpline
210
0.0
220
0.0
230
1.0
 70
     8
 71
     3
 72
    11
 73
     7
 74
     0
 42
0.0000000001
 43
0.0000000001
 12
1.0
 22
0.0
 32
0.0
 13
1.0
 23
0.0
 33
0.0
 40
0.0
 40
0.0
 40
0.0
 40
0.0
 40
1.0
 40
1.0
 40
1.0
 40
2.0
 40
2.0
 40
2.0
 40
2.0
 10
178.6126965745354
 20
154.3804811270301
 30
0.0
 10
178.8397240741655
 20
154.4488482738824
 30
0.0
 10
178.9208629609844
 20
154.8455645137613
 30
0.0
 10
178.7939158808897
 20
155.2668870030128
 30
0.0
 10
178.6669511619066
 20
155.6878919922717
 30
0.0
 10
178.3801604747788
 20
155.9739947627504
 30
0.0
 10
178.153130341682
 20
155.9056087922729
 30
0.0
  0
SPLINE
  5
10D
330
1F
100
AcDbEntity
  8
_U+30EC_U+30A4_U+30E4_U+30FC 1
 62
     7
370
     5
100
AcDbSpline
210
0.0
220
0.0
230
1.0
 70
     8
 71
     3
 72
    11
 73
     7
 74
     0
 42
0.0000000001
 43
0.0000000001
 12
1.0
 22
0.0
 32
0.0
 13
1.0
 23
0.0
 33
0.0
 40
0.0
 40
0.0
 40
0.0
 40
0.0
 40
1.0
 40
1.0
 40
1.0
 40
2.0
 40
2.0
 40
2.0
 40
2.0
 10
178.2821437968403
 20
154.1890991826333
 30
0.0
 10
178.5091713048208
 20
154.2574839732089
 30
0.0
 10
178.5903101916397
 20
154.6543589630838
 30
0.0
 10
178.4633454726566
 20
155.075522702339
 30
0.0
 10
178.336398392562
 20
155.4966864415942
 30
0.0
 10
178.0495900665457
 20
155.7826304620773
 30
0.0
 10
177.8225599334488
 20
155.7144208804838
 30
0.0
  0
SPLINE
  5
10E
330
1F
100
AcDbEntity
  8
_U+30EC_U+30A4_U+30E4_U+30FC 1
 62
     7
370
     5
100
AcDbSpline
210
0.0
220
0.0
230
1.0
 70
     8
 71
     3
 72
    11
 73
     7
 74
     0
 42
0.0000000001
 43
0.0000000001
 12
1.0
 22
0.0
 32
0.0
 13
1.0
 23
0.0
 33
0.0
 40
0.0
 40
0.0
 40
0.0
 40
0.0
 40
1.0
 40
1.0
 40
1.0
 40
2.0
 40
2.0
 40
2.0
 40
2.0
 10
177.9531406245619
 20
153.9987567575874
 30
0.0
 10
178.1801707576588
 20
154.0673191169493
 30
0.0
 10
178.2612920055892
 20
154.4638413290554
 30
0.0
 10
178.1343449254946
 20
154.885181457195
 30
0.0
 10
178.0073978453999
 20
155.3063464045767
 30
0.0
 10
177.7205895193837
 20
155.5924491822825
 30
0.0
 10
177.4935593862868
 20
155.5239032464554
 30
0.0
  0
SPLINE
  5
10F
330
1F
100
AcDbEntity
  8
_U+30EC_U+30A4_U+30E4_U+30FC 1
 62
     7
370
     5
100
AcDbSpline
210
0.0
220
0.0
230
1.0
 70
     8
 71
     3
 72
    11
 73
     7
 74
     0
 42
0.0000000001
 43
0.0000000001
 12
1.0
 22
0.0
 32
0.0
 13
1.0
 23
0.0
 33
0.0
 40
0.0
 40
0.0
 40
0.0
 40
0.0
 40
1.0
 40
1.0
 40
1.0
 40
2.0
 40
2.0
 40
2.0
 40
2.0
 10
177.6497896303319
 20
153.8230557898477
 30
0.0
 10
177.8768171542868
 20
153.8916181492096
 30
0.0
 10
177.9577796522213
 20
154.2881403613157
 30
0.0
 10
177.8310089610111
 20
154.7094804894553
 30
0.0
 10
177.703885492032
 20
155.1306442287105
 30
0.0
 10
177.4172535549002
 20
155.4167658489933
 30
0.0
 10
177.1902234218033
 20
155.3482022787157
 30
0.0
  0
SPLINE
  5
110
330
1F
100
AcDbEntity
  8
_U+30EC_U+30A4_U+30E4_U+30FC 1
 62
     7
370
     5
100
AcDbSpline
210
0.0
220
0.0
230
1.0
 70
     8
 71
     3
 72
    11
 73
     7
 74
     0
 42
0.0000000001
 43
0.0000000001
 12
1.0
 22
0.0
 32
0.0
 13
1.0
 23
0.0
 33
0.0
 40
0.0
 40
0.0
 40
0.0
 40
0.0
 40
1.0
 40
1.0
 40
1.0
 40
2.0
 40
2.0
 40
2.0
 40
2.0
 10
177.3207864740279
 20
153.6327145447037
 30
0.0
 10
177.5478166071248
 20
153.7011005151812
 30
0.0
 10
177.6287791050593
 20
154.0979755050561
 30
0.0
 10
177.5019907749606
 20
154.5191392443113
 30
0.0
 10
177.3748673059816
 20
154.9403029835665
 30
0.0
 10
177.0882353688497
 20
155.2262470040493
 30
0.0
 10
176.8612052357528
 20
155.1580374224561
 30
0.0
  0
SPLINE
  5
111
330
1F
100
AcDbEntity
  8
_U+30EC_U+30A4_U+30E4_U+30FC 1
 62
     7
370
     5
100
AcDbSpline
210
0.0
220
0.0
230
1.0
 70
     8
 71
     3
 72
    11
 73
     7
 74
     0
 42
0.0000000001
 43
0.0000000001
 12
1.0
 22
0.0
 32
0.0
 13
1.0
 23
0.0
 33
0.0
 40
0.0
 40
0.0
 40
0.0
 40
0.0
 40
1.0
 40
1.0
 40
1.0
 40
2.0
 40
2.0
 40
2.0
 40
2.0
 10
177.0143460651792
 20
153.4554613547813
 30
0.0
 10
177.2413761982761
 20
153.5240237141436
 30
0.0
 10
177.3225150850949
 20
153.9205459262494
 30
0.0
 10
177.1955503661119
 20
154.341886054389
 30
0.0
 10
177.0686032860172
 20
154.7630497936442
 30
0.0
 10
176.781794960001
 20
155.0491714046406
 30
0.0
 10
176.5547674083836
 20
154.9806078436494
 30
0.0
  0
SPLINE
  5
112
330
1F
100
AcDbEntity
  8
_U+30EC_U+30A4_U+30E4_U+30FC 1
 62
     7
370
     5
100
AcDbSpline
210
0.0
220
0.0
230
1.0
 70
     8
 71
     3
 72
    11
 73
     7
 74
     0
 42
0.0000000001
 43
0.0000000001
 12
1.0
 22
0.0
 32
0.0
 13
1.0
 23
0.0
 33
0.0
 40
0.0
 40
0.0
 40
0.0
 40
0.0
 40
1.0
 40
1.0
 40
1.0
 40
2.0
 40
2.0
 40
2.0
 40
2.0
 10
176.6853455180172
 20
153.2651201096373
 30
0.0
 10
176.912375651114
 20
153.3335060801149
 30
0.0
 10
176.9934968990445
 20
153.7303810699894
 30
0.0
 10
176.8665498189498
 20
154.151544809245
 30
0.0
 10
176.7396027388552
 20
154.5727085485002
 30
0.0
 10
176.4527944128389
 20
154.8586525689829
 30
0.0
 10
176.2257642797421
 20
154.7904429873898
 30
0.0
  0
SPLINE
  5
113
330
1F
100
AcDbEntity
  8
_U+30EC_U+30A4_U+30E4_U+30FC 1
 62
     7
370
     5
100
AcDbSpline
210
0.0
220
0.0
230
1.0
 70
     8
 71
     3
 72
    11
 73
     7
 74
     0
 42
0.0000000001
 43
0.0000000001
 12
1.0
 22
0.0
 32
0.0
 13
1.0
 23
0.0
 33
0.0
 40
0.0
 40
0.0
 40
0.0
 40
0.0
 40
1.0
 40
1.0
 40
1.0
 40
2.0
 40
2.0
 40
2.0
 40
2.0
 10
176.3819919146453
 20
153.0894191418976
 30
0.0
 10
176.6090220477421
 20
153.1578051123752
 30
0.0
 10
176.6899845456766
 20
153.55468010225
 30
0.0
 10
176.5632138544663
 20
153.9758450160202
 30
0.0
 10
176.4360903854873
 20
154.3970075807605
 30
0.0
 10
176.1494584483554
 20
154.6829516012432
 30
0.0
 10
175.9224283152586
 20
154.6147420196501
 30
0.0
  0
SPLINE
  5
114
330
1F
100
AcDbEntity
  8
_U+30EC_U+30A4_U+30E4_U+30FC 1
 62
     7
370
     5
100
AcDbSpline
210
0.0
220
0.0
230
1.0
 70
     8
 71
     3
 72
    11
 73
     7
 74
     0
 42
0.0000000001
 43
0.0000000001
 12
1.0
 22
0.0
 32
0.0
 13
1.0
 23
0.0
 33
0.0
 40
0.0
 40
0.0
 40
0.0
 40
0.0
 40
1.0
 40
1.0
 40
1.0
 40
2.0
 40
2.0
 40
2.0
 40
2.0
 10
176.0529913674832
 20
152.8990778967536
 30
0.0
 10
176.2800215005801
 20
152.9676402561156
 30
0.0
 10
176.3609839985145
 20
153.3641624682217
 30
0.0
 10
176.2341956684159
 20
153.7855025963613
 30
0.0
 10
176.1070721994368
 20
154.2066663356165
 30
0.0
 10
175.8204402623049
 20
154.4927867449836
 30
0.0
 10
175.5934101292081
 20
154.4242255714636
 30
0.0
  0
SPLINE
  5
115
330
1F
100
AcDbEntity
  8
_U+30EC_U+30A4_U+30E4_U+30FC 1
 62
     7
370
     5
100
AcDbSpline
210
0.0
220
0.0
230
1.0
 70
     8
 71
     3
 72
    11
 73
     7
 74
     0
 42
0.0000000001
 43
0.0000000001
 12
1.0
 22
0.0
 32
0.0
 13
1.0
 23
0.0
 33
0.0
 40
0.0
 40
0.0
 40
0.0
 40
0.0
 40
1.0
 40
1.0
 40
1.0
 40
2.0
 40
2.0
 40
2.0
 40
2.0
 10
175.7370788755428
 20
152.7164977625227
 30
0.0
 10
175.9641090086397
 20
152.7848837330003
 30
0.0
 10
176.0454066454545
 20
153.1815823339905
 30
0.0
 10
175.9182831764754
 20
153.6029224621304
 30
0.0
 10
175.7915124852652
 20
154.0239098125012
 30
0.0
 10
175.5045277703645
 20
154.3100125829802
 30
0.0
 10
175.2774976372677
 20
154.241626612503
 30
0.0
  0
SPLINE
  5
116
330
1F
100
AcDbEntity
  8
_U+30EC_U+30A4_U+30E4_U+30FC 1
 62
     7
370
     5
100
AcDbSpline
210
0.0
220
0.0
230
1.0
 70
     8
 71
     3
 72
    11
 73
     7
 74
     0
 42
0.0000000001
 43
0.0000000001
 12
1.0
 22
0.0
 32
0.0
 13
1.0
 23
0.0
 33
0.0
 40
0.0
 40
0.0
 40
0.0
 40
0.0
 40
1.0
 40
1.0
 40
1.0
 40
2.0
 40
2.0
 40
2.0
 40
2.0
 10
175.4080783283807
 20
152.5259801284944
 30
0.0
 10
175.6351084614776
 20
152.5945436274766
 30
0.0
 10
175.7164060982924
 20
152.9912422384888
 30
0.0
 10
175.5892826293134
 20
153.4124048281017
 30
0.0
 10
175.4624942992147
 20
153.8337273173532
 30
0.0
 10
175.1755272232025
 20
154.1196713378359
 30
0.0
 10
174.9484970901056
 20
154.0512853673584
 30
0.0
  0
SPLINE
  5
117
330
1F
100
AcDbEntity
  8
_U+30EC_U+30A4_U+30E4_U+30FC 1
 62
     7
370
     5
100
AcDbSpline
210
0.0
220
0.0
230
1.0
 70
     8
 71
     3
 72
    11
 73
     7
 74
     0
 42
0.0000000001
 43
0.0000000001
 12
1.0
 22
0.0
 32
0.0
 13
1.0
 23
0.0
 33
0.0
 40
0.0
 40
0.0
 40
0.0
 40
0.0
 40
1.0
 40
1.0
 40
1.0
 40
2.0
 40
2.0
 40
2.0
 40
2.0
 10
175.1047247250088
 20
152.3502791607547
 30
0.0
 10
175.3317548581057
 20
152.4188415201166
 30
0.0
 10
175.4128937449246
 20
152.8155401211067
 30
0.0
 10
175.2859466648299
 20
153.2367038603623
 30
0.0
 10
175.2069153118911
 20
153.4989742031864
 30
0.0
 10
175.0659579392625
 20
153.7087764293001
 30
0.0
 10
174.9160335374793
 20
153.8133156258016
 30
0.0
  0
POLYLINE
  5
118
330
1F
100
AcDbEntity
  8
_U+30EC_U+30A4_U+30E4_U+30FC 1
 62
     7
370
     5
100
AcDb2dPolyline
 66
     1
 10
0.0
 20
0.0
 30
0.0
  0
VERTEX
  5
119
330
118
100
AcDbEntity
  8
_U+30EC_U+30A4_U+30E4_U+30FC 1
 62
     7
370
     5
100
AcDbVertex
100
AcDb2dVertex
 10
126.294277214232
 20
185.4428904960374
 30
0.0
  0
VERTEX
  5
11A
330
118
100
AcDbEntity
  8
_U+30EC_U+30A4_U+30E4_U+30FC 1
 62
     7
370
     5
100
AcDbVertex
100
AcDb2dVertex
 10
136.417508495059
 20
191.3009968439262
 30
0.0
  0
SEQEND
  5
11B
330
118
100
AcDbEntity
  8
_U+30EC_U+30A4_U+30E4_U+30FC 1
 62
     7
370
     5
  0
SPLINE
  5
11C
330
1F
100
AcDbEntity
  8
_U+30EC_U+30A4_U+30E4_U+30FC 1
 62
     7
370
     5
100
AcDbSpline
210
0.0
220
0.0
230
1.0
 70
     8
 71
     3
 72
    11
 73
     7
 74
     0
 42
0.0000000001
 43
0.0000000001
 12
1.0
 22
0.0
 32
0.0
 13
1.0
 23
0.0
 33
0.0
 40
0.0
 40
0.0
 40
0.0
 40
0.0
 40
1.0
 40
1.0
 40
1.0
 40
2.0
 40
2.0
 40
2.0
 40
2.0
 10
174.8891867223857
 20
152.232871582325
 30
0.0
 10
175.0261207062776
 20
152.3805813020186
 30
0.0
 10
175.0596993630483
 20
152.705487585302
 30
0.0
 10
174.9569284787794
 20
153.0465390041027
 30
0.0
 10
174.9455230770521
 20
153.0843620863627
 30
0.0
 10
174.9328272914278
 20
153.1210963938612
 30
0.0
 10
174.9190004065604
 20
153.1565826675276
 30
0.0
  0
POLYLINE
  5
11D
330
1F
100
AcDbEntity
  8
_U+30EC_U+30A4_U+30E4_U+30FC 1
 62
     7
370
     5
100
AcDb2dPolyline
 66
     1
 10
0.0
 20
0.0
 30
0.0
  0
VERTEX
  5
11E
330
11D
100
AcDbEntity
  8
_U+30EC_U+30A4_U+30E4_U+30FC 1
 62
     7
370
     5
100
AcDbVertex
100
AcDb2dVertex
 10
124.8079876849784
 20
186.4008701670617
 30
0.0
  0
VERTEX
  5
11F
330
11D
100
AcDbEntity
  8
_U+30EC_U+30A4_U+30E4_U+30FC 1
 62
     7
370
     5
100
AcDbVertex
100
AcDb2dVertex
 10
135.9186630911189
 20
192.8303590271312
 30
0.0
  0
SEQEND
  5
120
330
11D
100
AcDbEntity
  8
_U+30EC_U+30A4_U+30E4_U+30FC 1
 62
     7
370
     5
  0
SPLINE
  5
121
330
1F
100
AcDbEntity
  8
_U+30EC_U+30A4_U+30E4_U+30FC 1
 62
     7
370
     5
100
AcDbSpline
210
0.0
220
0.0
230
1.0
 70
     8
 71
     3
 72
    11
 73
     7
 74
     0
 42
0.0000000001
 43
0.0000000001
 12
1.0
 22
0.0
 32
0.0
 13
1.0
 23
0.0
 33
0.0
 40
0.0
 40
0.0
 40
0.0
 40
0.0
 40
1.0
 40
1.0
 40
1.0
 40
2.0
 40
2.0
 40
2.0
 40
2.0
 10
136.3782266905056
 20
191.3051243438209
 30
0.0
 10
136.6052568236025
 20
191.3735103142985
 30
0.0
 10
136.6865720993057
 20
191.7703853041734
 30
0.0
 10
136.5594486303267
 20
192.1915490434286
 30
0.0
 10
136.432660300228
 20
192.6127127826838
 30
0.0
 10
136.1456932242158
 20
192.8987449976087
 30
0.0
 10
135.9186630911189
 20
192.8303590271312
 30
0.0
  0
SPLINE
  5
122
330
1F
100
AcDbEntity
  8
_U+30EC_U+30A4_U+30E4_U+30FC 1
 62
     7
370
     5
100
AcDbSpline
210
0.0
220
0.0
230
1.0
 70
     8
 71
     3
 72
    11
 73
     7
 74
     0
 42
0.0000000001
 43
0.0000000001
 12
1.0
 22
0.0
 32
0.0
 13
1.0
 23
0.0
 33
0.0
 40
0.0
 40
0.0
 40
0.0
 40
0.0
 40
1.0
 40
1.0
 40
1.0
 40
2.0
 40
2.0
 40
2.0
 40
2.0
 10
136.0623141985652
 20
191.1223691127551
 30
0.0
 10
136.2893443316621
 20
191.1907537911832
 30
0.0
 10
136.3704832184809
 20
191.5874523921737
 30
0.0
 10
136.2435361383863
 20
192.0087925203133
 30
0.0
 10
136.1165714194032
 20
192.4298680651263
 30
0.0
 10
135.8297807322754
 20
192.7158826411628
 30
0.0
 10
135.6027329602901
 20
192.6474966706853
 30
0.0
  0
SPLINE
  5
123
330
1F
100
AcDbEntity
  8
_U+30EC_U+30A4_U+30E4_U+30FC 1
 62
     7
370
     5
100
AcDbSpline
210
0.0
220
0.0
230
1.0
 70
     8
 71
     3
 72
    11
 73
     7
 74
     0
 42
0.0000000001
 43
0.0000000001
 12
1.0
 22
0.0
 32
0.0
 13
1.0
 23
0.0
 33
0.0
 40
0.0
 40
0.0
 40
0.0
 40
0.0
 40
1.0
 40
1.0
 40
1.0
 40
2.0
 40
2.0
 40
2.0
 40
2.0
 10
135.7333164620032
 20
190.9318501866773
 30
0.0
 10
135.9603437845
 20
191.0004125460392
 30
0.0
 10
136.041467850815
 20
191.3971111470297
 30
0.0
 10
135.9145179523358
 20
191.8182748862849
 30
0.0
 10
135.7875708722415
 20
192.2395268199824
 30
0.0
 10
135.5007625462249
 20
192.5255427235158
 30
0.0
 10
135.273732413128
 20
192.4571554255413
 30
0.0
  0
SPLINE
  5
124
330
1F
100
AcDbEntity
  8
_U+30EC_U+30A4_U+30E4_U+30FC 1
 62
     7
370
     5
100
AcDbSpline
210
0.0
220
0.0
230
1.0
 70
     8
 71
     3
 72
    11
 73
     7
 74
     0
 42
0.0000000001
 43
0.0000000001
 12
1.0
 22
0.0
 32
0.0
 13
1.0
 23
0.0
 33
0.0
 40
0.0
 40
0.0
 40
0.0
 40
0.0
 40
1.0
 40
1.0
 40
1.0
 40
2.0
 40
2.0
 40
2.0
 40
2.0
 10
135.4298012980353
 20
190.756325607822
 30
0.0
 10
135.6568314311322
 20
190.8247115782995
 30
0.0
 10
135.738129067947
 20
191.22141017929
 30
0.0
 10
135.6110055989679
 20
191.6425739185452
 30
0.0
 10
135.4842349077577
 20
192.0637376578004
 30
0.0
 10
135.197250192857
 20
192.3498404282791
 30
0.0
 10
134.9702200597602
 20
192.28147209669
 30
0.0
  0
SPLINE
  5
125
330
1F
100
AcDbEntity
  8
_U+30EC_U+30A4_U+30E4_U+30FC 1
 62
     7
370
     5
100
AcDbSpline
210
0.0
220
0.0
230
1.0
 70
     8
 71
     3
 72
    11
 73
     7
 74
     0
 42
0.0000000001
 43
0.0000000001
 12
1.0
 22
0.0
 32
0.0
 13
1.0
 23
0.0
 33
0.0
 40
0.0
 40
0.0
 40
0.0
 40
0.0
 40
1.0
 40
1.0
 40
1.0
 40
2.0
 40
2.0
 40
2.0
 40
2.0
 10
135.1007859066063
 20
190.5658079737936
 30
0.0
 10
135.3278132450817
 20
190.6343703331555
 30
0.0
 10
135.4091285207849
 20
191.0310689341463
 30
0.0
 10
135.2820050518059
 20
191.4524090622856
 30
0.0
 10
135.1552167217072
 20
191.8733964126564
 30
0.0
 10
134.868249645695
 20
192.1594991831351
 30
0.0
 10
134.6412195125981
 20
192.0911132126576
 30
0.0
  0
SPLINE
  5
126
330
1F
100
AcDbEntity
  8
_U+30EC_U+30A4_U+30E4_U+30FC 1
 62
     7
370
     5
100
AcDbSpline
210
0.0
220
0.0
230
1.0
 70
     8
 71
     3
 72
    11
 73
     7
 74
     0
 42
0.0000000001
 43
0.0000000001
 12
1.0
 22
0.0
 32
0.0
 13
1.0
 23
0.0
 33
0.0
 40
0.0
 40
0.0
 40
0.0
 40
0.0
 40
1.0
 40
1.0
 40
1.0
 40
2.0
 40
2.0
 40
2.0
 40
2.0
 10
134.7945190920205
 20
190.3887311727556
 30
0.0
 10
135.0215492251173
 20
190.4571171432332
 30
0.0
 10
135.1026881119362
 20
190.8538157442237
 30
0.0
 10
134.9757410318416
 20
191.2749794834789
 30
0.0
 10
134.8487763128585
 20
191.6963196116185
 30
0.0
 10
134.5619856257307
 20
191.9822649458735
 30
0.0
 10
134.3349378537453
 20
191.9138776616237
 30
0.0
  0
SPLINE
  5
127
330
1F
100
AcDbEntity
  8
_U+30EC_U+30A4_U+30E4_U+30FC 1
 62
     7
370
     5
100
AcDbSpline
210
0.0
220
0.0
230
1.0
 70
     8
 71
     3
 72
    11
 73
     7
 74
     0
 42
0.0000000001
 43
0.0000000001
 12
1.0
 22
0.0
 32
0.0
 13
1.0
 23
0.0
 33
0.0
 40
0.0
 40
0.0
 40
0.0
 40
0.0
 40
1.0
 40
1.0
 40
1.0
 40
2.0
 40
2.0
 40
2.0
 40
2.0
 10
134.4655185448584
 20
190.1982135387273
 30
0.0
 10
134.6925486779553
 20
190.2667758980892
 30
0.0
 10
134.7736699258857
 20
190.6634744990797
 30
0.0
 10
134.6467228457911
 20
191.0848146272193
 30
0.0
 10
134.5197757656964
 20
191.5058019775901
 30
0.0
 10
134.2329674396802
 20
191.7919223869573
 30
0.0
 10
134.0059400735459
 20
191.7235364164797
 30
0.0
  0
SPLINE
  5
128
330
1F
100
AcDbEntity
  8
_U+30EC_U+30A4_U+30E4_U+30FC 1
 62
     7
370
     5
100
AcDbSpline
210
0.0
220
0.0
230
1.0
 70
     8
 71
     3
 72
    11
 73
     7
 74
     0
 42
0.0000000001
 43
0.0000000001
 12
1.0
 22
0.0
 32
0.0
 13
1.0
 23
0.0
 33
0.0
 40
0.0
 40
0.0
 40
0.0
 40
0.0
 40
1.0
 40
1.0
 40
1.0
 40
2.0
 40
2.0
 40
2.0
 40
2.0
 10
134.1620061914905
 20
190.0225125709875
 30
0.0
 10
134.3890363245874
 20
190.0910749303495
 30
0.0
 10
134.4703339614022
 20
190.48777353134
 30
0.0
 10
134.3432104924232
 20
190.909114946142
 30
0.0
 10
134.2164398012129
 20
191.3301010098504
 30
0.0
 10
133.9294550863123
 20
191.6162214192175
 30
0.0
 10
133.7024249532154
 20
191.54783544874
 30
0.0
  0
SPLINE
  5
129
330
1F
100
AcDbEntity
  8
_U+30EC_U+30A4_U+30E4_U+30FC 1
 62
     7
370
     5
100
AcDbSpline
210
0.0
220
0.0
230
1.0
 70
     8
 71
     3
 72
    11
 73
     7
 74
     0
 42
0.0000000001
 43
0.0000000001
 12
1.0
 22
0.0
 32
0.0
 13
1.0
 23
0.0
 33
0.0
 40
0.0
 40
0.0
 40
0.0
 40
0.0
 40
1.0
 40
1.0
 40
1.0
 40
2.0
 40
2.0
 40
2.0
 40
2.0
 10
133.8329880054401
 20
189.8323477147279
 30
0.0
 10
134.0600181385369
 20
189.9007336852055
 30
0.0
 10
134.1413334142402
 20
190.297432286196
 30
0.0
 10
134.0142099452611
 20
190.7187724143356
 30
0.0
 10
133.8874216151625
 20
191.1399361535908
 30
0.0
 10
133.6004545391503
 20
191.4258801740735
 30
0.0
 10
133.3734244060534
 20
191.3574955015853
 30
0.0
  0
SPLINE
  5
12A
330
1F
100
AcDbEntity
  8
_U+30EC_U+30A4_U+30E4_U+30FC 1
 62
     7
370
     5
100
AcDbSpline
210
0.0
220
0.0
230
1.0
 70
     8
 71
     3
 72
    11
 73
     7
 74
     0
 42
0.0000000001
 43
0.0000000001
 12
1.0
 22
0.0
 32
0.0
 13
1.0
 23
0.0
 33
0.0
 40
0.0
 40
0.0
 40
0.0
 40
0.0
 40
1.0
 40
1.0
 40
1.0
 40
2.0
 40
2.0
 40
2.0
 40
2.0
 10
133.5026116249798
 20
189.6409657751661
 30
0.0
 10
133.7296417580766
 20
189.7093517456436
 30
0.0
 10
133.8106042560111
 20
190.1062267355185
 30
0.0
 10
133.6838159259124
 20
190.527390474774
 30
0.0
 10
133.5566924569334
 20
190.9485542140289
 30
0.0
 10
133.2700605198015
 20
191.234674623396
 30
0.0
 10
133.0430331293424
 20
191.1661135571889
 30
0.0
  0
SPLINE
  5
12B
330
1F
100
AcDbEntity
  8
_U+30EC_U+30A4_U+30E4_U+30FC 1
 62
     7
370
     5
100
AcDbSpline
210
0.0
220
0.0
230
1.0
 70
     8
 71
     3
 72
    11
 73
     7
 74
     0
 42
0.0000000001
 43
0.0000000001
 12
1.0
 22
0.0
 32
0.0
 13
1.0
 23
0.0
 33
0.0
 40
0.0
 40
0.0
 40
0.0
 40
0.0
 40
1.0
 40
1.0
 40
1.0
 40
2.0
 40
2.0
 40
2.0
 40
2.0
 10
133.1736110778177
 20
189.4506245300221
 30
0.0
 10
133.4006412109146
 20
189.519186889384
 30
0.0
 10
133.4816037088491
 20
189.9157091014904
 30
0.0
 10
133.3548153787504
 20
190.3370492296297
 30
0.0
 10
133.2276919097713
 20
190.7582129688849
 30
0.0
 10
132.9410599726395
 20
191.0441569893677
 30
0.0
 10
132.7140298395426
 20
190.9759474077745
 30
0.0
  0
SPLINE
  5
12C
330
1F
100
AcDbEntity
  8
_U+30EC_U+30A4_U+30E4_U+30FC 1
 62
     7
370
     5
100
AcDbSpline
210
0.0
220
0.0
230
1.0
 70
     8
 71
     3
 72
    11
 73
     7
 74
     0
 42
0.0000000001
 43
0.0000000001
 12
1.0
 22
0.0
 32
0.0
 13
1.0
 23
0.0
 33
0.0
 40
0.0
 40
0.0
 40
0.0
 40
0.0
 40
1.0
 40
1.0
 40
1.0
 40
2.0
 40
2.0
 40
2.0
 40
2.0
 10
132.8700987244499
 20
189.2749235622823
 30
0.0
 10
133.0971288575467
 20
189.3434871687556
 30
0.0
 10
133.1782501054771
 20
189.7400093908786
 30
0.0
 10
133.0513030253825
 20
190.16134826189
 30
0.0
 10
132.9243559452879
 20
190.5825120011452
 30
0.0
 10
132.6375476192716
 20
190.8684560216279
 30
0.0
 10
132.4105174861751
 20
190.8002464400351
 30
0.0
  0
SPLINE
  5
12D
330
1F
100
AcDbEntity
  8
_U+30EC_U+30A4_U+30E4_U+30FC 1
 62
     7
370
     5
100
AcDbSpline
210
0.0
220
0.0
230
1.0
 70
     8
 71
     3
 72
    11
 73
     7
 74
     0
 42
0.0000000001
 43
0.0000000001
 12
1.0
 22
0.0
 32
0.0
 13
1.0
 23
0.0
 33
0.0
 40
0.0
 40
0.0
 40
0.0
 40
0.0
 40
1.0
 40
1.0
 40
1.0
 40
2.0
 40
2.0
 40
2.0
 40
2.0
 10
132.5410805383994
 20
189.0845823171383
 30
0.0
 10
132.7681106714962
 20
189.1529682876159
 30
0.0
 10
132.8492495583151
 20
189.5498432774908
 30
0.0
 10
132.7223024782205
 20
189.971007016746
 30
0.0
 10
132.5953377592374
 20
190.3921707560012
 30
0.0
 10
132.3085497961926
 20
190.678114776484
 30
0.0
 10
132.0815169390127
 20
190.6099051948908
 30
0.0
  0
SPLINE
  5
12E
330
1F
100
AcDbEntity
  8
_U+30EC_U+30A4_U+30E4_U+30FC 1
 62
     7
370
     5
100
AcDbSpline
210
0.0
220
0.0
230
1.0
 70
     8
 71
     3
 72
    11
 73
     7
 74
     0
 42
0.0000000001
 43
0.0000000001
 12
1.0
 22
0.0
 32
0.0
 13
1.0
 23
0.0
 33
0.0
 40
0.0
 40
0.0
 40
0.0
 40
0.0
 40
1.0
 40
1.0
 40
1.0
 40
2.0
 40
2.0
 40
2.0
 40
2.0
 10
132.2348192406558
 20
188.907329127216
 30
0.0
 10
132.4618466515319
 20
188.9758927244029
 30
0.0
 10
132.5428091494664
 20
189.3724313375725
 30
0.0
 10
132.4160208193677
 20
189.7937538268237
 30
0.0
 10
132.2888973503887
 20
190.2149175660789
 30
0.0
 10
132.0022654132568
 20
190.501037975446
 30
0.0
 10
131.7752352801599
 20
190.4324756160841
 30
0.0
  0
SPLINE
  5
12F
330
1F
100
AcDbEntity
  8
_U+30EC_U+30A4_U+30E4_U+30FC 1
 62
     7
370
     5
100
AcDbSpline
210
0.0
220
0.0
230
1.0
 70
     8
 71
     3
 72
    11
 73
     7
 74
     0
 42
0.0000000001
 43
0.0000000001
 12
1.0
 22
0.0
 32
0.0
 13
1.0
 23
0.0
 33
0.0
 40
0.0
 40
0.0
 40
0.0
 40
0.0
 40
1.0
 40
1.0
 40
1.0
 40
2.0
 40
2.0
 40
2.0
 40
2.0
 10
131.905815971273
 20
188.716987882072
 30
0.0
 10
132.1328461043698
 20
188.7853738525496
 30
0.0
 10
132.2138086023043
 20
189.1822488424245
 30
0.0
 10
132.0870202722056
 20
189.6034125816797
 30
0.0
 10
131.9598968032266
 20
190.0245763209349
 30
0.0
 10
131.6732648660947
 20
190.3105203414176
 30
0.0
 10
131.4462347329979
 20
190.2423107598245
 30
0.0
  0
SPLINE
  5
130
330
1F
100
AcDbEntity
  8
_U+30EC_U+30A4_U+30E4_U+30FC 1
 62
     7
370
     5
100
AcDbSpline
210
0.0
220
0.0
230
1.0
 70
     8
 71
     3
 72
    11
 73
     7
 74
     0
 42
0.0000000001
 43
0.0000000001
 12
1.0
 22
0.0
 32
0.0
 13
1.0
 23
0.0
 33
0.0
 40
0.0
 40
0.0
 40
0.0
 40
0.0
 40
1.0
 40
1.0
 40
1.0
 40
2.0
 40
2.0
 40
2.0
 40
2.0
 10
131.6023036179051
 20
188.5412869143323
 30
0.0
 10
131.829333751002
 20
188.6096728848099
 30
0.0
 10
131.9104549989324
 20
189.0065478746847
 30
0.0
 10
131.7835079188378
 20
189.4277116139399
 30
0.0
 10
131.6565608387431
 20
189.8488753531952
 30
0.0
 10
131.3697525127269
 20
190.1348193736779
 30
0.0
 10
131.14272237963
 20
190.0666097920847
 30
0.0
  0
SPLINE
  5
131
330
1F
100
AcDbEntity
  8
_U+30EC_U+30A4_U+30E4_U+30FC 1
 62
     7
370
     5
100
AcDbSpline
210
0.0
220
0.0
230
1.0
 70
     8
 71
     3
 72
    11
 73
     7
 74
     0
 42
0.0000000001
 43
0.0000000001
 12
1.0
 22
0.0
 32
0.0
 13
1.0
 23
0.0
 33
0.0
 40
0.0
 40
0.0
 40
0.0
 40
0.0
 40
1.0
 40
1.0
 40
1.0
 40
2.0
 40
2.0
 40
2.0
 40
2.0
 10
131.2732854318546
 20
188.3509468912258
 30
0.0
 10
131.5003155649515
 20
188.4195080285503
 30
0.0
 10
131.5814544517704
 20
188.8160478795448
 30
0.0
 10
131.4545073716757
 20
189.237370368796
 30
0.0
 10
131.3275426526926
 20
189.6585341080512
 30
0.0
 10
131.0407519655648
 20
189.9446545174183
 30
0.0
 10
130.813721832468
 20
189.8760921580564
 30
0.0
  0
SPLINE
  5
132
330
1F
100
AcDbEntity
  8
_U+30EC_U+30A4_U+30E4_U+30FC 1
 62
     7
370
     5
100
AcDbSpline
210
0.0
220
0.0
230
1.0
 70
     8
 71
     3
 72
    11
 73
     7
 74
     0
 42
0.0000000001
 43
0.0000000001
 12
1.0
 22
0.0
 32
0.0
 13
1.0
 23
0.0
 33
0.0
 40
0.0
 40
0.0
 40
0.0
 40
0.0
 40
1.0
 40
1.0
 40
1.0
 40
2.0
 40
2.0
 40
2.0
 40
2.0
 10
130.9508289123034
 20
188.1642380350627
 30
0.0
 10
131.1778590454003
 20
188.2327827555362
 30
0.0
 10
131.258821543335
 20
188.6294813565267
 30
0.0
 10
131.1320359075984
 20
189.0506450957819
 30
0.0
 10
131.004909744257
 20
189.4719852239215
 30
0.0
 10
130.7182778071252
 20
189.7579292444043
 30
0.0
 10
130.4912476740283
 20
189.6895432739267
 30
0.0
  0
SPLINE
  5
133
330
1F
100
AcDbEntity
  8
_U+30EC_U+30A4_U+30E4_U+30FC 1
 62
     7
370
     5
100
AcDbSpline
210
0.0
220
0.0
230
1.0
 70
     8
 71
     3
 72
    11
 73
     7
 74
     0
 42
0.0000000001
 43
0.0000000001
 12
1.0
 22
0.0
 32
0.0
 13
1.0
 23
0.0
 33
0.0
 40
0.0
 40
0.0
 40
0.0
 40
0.0
 40
1.0
 40
1.0
 40
1.0
 40
2.0
 40
2.0
 40
2.0
 40
2.0
 10
130.6218283651413
 20
187.9740555399147
 30
0.0
 10
130.8488584982382
 20
188.0424427246363
 30
0.0
 10
130.9298209961727
 20
188.4391413356483
 30
0.0
 10
130.803032666074
 20
188.8604802395223
 30
0.0
 10
130.675909197095
 20
189.2814675898932
 30
0.0
 10
130.3892772599631
 20
189.5675879992603
 30
0.0
 10
130.1622497967295
 20
189.4992020287827
 30
0.0
  0
SPLINE
  5
134
330
1F
100
AcDbEntity
  8
_U+30EC_U+30A4_U+30E4_U+30FC 1
 62
     7
370
     5
100
AcDbSpline
210
0.0
220
0.0
230
1.0
 70
     8
 71
     3
 72
    11
 73
     7
 74
     0
 42
0.0000000001
 43
0.0000000001
 12
1.0
 22
0.0
 32
0.0
 13
1.0
 23
0.0
 33
0.0
 40
0.0
 40
0.0
 40
0.0
 40
0.0
 40
1.0
 40
1.0
 40
1.0
 40
2.0
 40
2.0
 40
2.0
 40
2.0
 10
130.3183160117735
 20
187.7983545721753
 30
0.0
 10
130.5453461448703
 20
187.8667405426525
 30
0.0
 10
130.6264673928008
 20
188.263458002359
 30
0.0
 10
130.4995203127061
 20
188.6847792717826
 30
0.0
 10
130.3725732326115
 20
189.1057666221535
 30
0.0
 10
130.0857649065952
 20
189.3918870315206
 30
0.0
 10
129.8587347734984
 20
189.323501061043
 30
0.0
  0
SPLINE
  5
135
330
1F
100
AcDbEntity
  8
_U+30EC_U+30A4_U+30E4_U+30FC 1
 62
     7
370
     5
100
AcDbSpline
210
0.0
220
0.0
230
1.0
 70
     8
 71
     3
 72
    11
 73
     7
 74
     0
 42
0.0000000001
 43
0.0000000001
 12
1.0
 22
0.0
 32
0.0
 13
1.0
 23
0.0
 33
0.0
 40
0.0
 40
0.0
 40
0.0
 40
0.0
 40
1.0
 40
1.0
 40
1.0
 40
2.0
 40
2.0
 40
2.0
 40
2.0
 10
129.989297825723
 20
187.607854577035
 30
0.0
 10
130.2163279588198
 20
187.6763992975085
 30
0.0
 10
130.2974668456387
 20
188.0731155373875
 30
0.0
 10
130.1705197655441
 20
188.4942616377542
 30
0.0
 10
130.043555046561
 20
188.9156017658939
 30
0.0
 10
129.7567643594332
 20
189.2015457863766
 30
0.0
 10
129.5297342263363
 20
189.133159815899
 30
0.0
  0
SPLINE
  5
136
330
1F
100
AcDbEntity
  8
_U+30EC_U+30A4_U+30E4_U+30FC 1
 62
     7
370
     5
100
AcDbSpline
210
0.0
220
0.0
230
1.0
 70
     8
 71
     3
 72
    11
 73
     7
 74
     0
 42
0.0000000001
 43
0.0000000001
 12
1.0
 22
0.0
 32
0.0
 13
1.0
 23
0.0
 33
0.0
 40
0.0
 40
0.0
 40
0.0
 40
0.0
 40
1.0
 40
1.0
 40
1.0
 40
2.0
 40
2.0
 40
2.0
 40
2.0
 10
129.6830338057586
 20
187.4307777759971
 30
0.0
 10
129.9100639388555
 20
187.4991461075862
 30
0.0
 10
129.99102643679
 20
187.8958635580063
 30
0.0
 10
129.8642381066913
 20
188.3171848367166
 30
0.0
 10
129.7371146377123
 20
188.7381898259756
 30
0.0
 10
129.4504827005804
 20
189.0242925964542
 30
0.0
 10
129.2234525674835
 20
188.9559066259767
 30
0.0
  0
SPLINE
  5
137
330
1F
100
AcDbEntity
  8
_U+30EC_U+30A4_U+30E4_U+30FC 1
 62
     7
370
     5
100
AcDbSpline
210
0.0
220
0.0
230
1.0
 70
     8
 71
     3
 72
    11
 73
     7
 74
     0
 42
0.0000000001
 43
0.0000000001
 12
1.0
 22
0.0
 32
0.0
 13
1.0
 23
0.0
 33
0.0
 40
0.0
 40
0.0
 40
0.0
 40
0.0
 40
1.0
 40
1.0
 40
1.0
 40
2.0
 40
2.0
 40
2.0
 40
2.0
 10
129.3540359080423
 20
187.2402601419687
 30
0.0
 10
129.5810633916935
 20
187.3088048624422
 30
0.0
 10
129.6620258896279
 20
187.7055211023211
 30
0.0
 10
129.5352375595292
 20
188.1266848415763
 30
0.0
 10
129.4081140905502
 20
188.5480073308278
 30
0.0
 10
129.1214821534184
 20
188.8339513513102
 30
0.0
 10
128.8944520203215
 20
188.7655653808327
 30
0.0
  0
SPLINE
  5
138
330
1F
100
AcDbEntity
  8
_U+30EC_U+30A4_U+30E4_U+30FC 1
 62
     7
370
     5
100
AcDbSpline
210
0.0
220
0.0
230
1.0
 70
     8
 71
     3
 72
    11
 73
     7
 74
     0
 42
0.0000000001
 43
0.0000000001
 12
1.0
 22
0.0
 32
0.0
 13
1.0
 23
0.0
 33
0.0
 40
0.0
 40
0.0
 40
0.0
 40
0.0
 40
1.0
 40
1.0
 40
1.0
 40
2.0
 40
2.0
 40
2.0
 40
2.0
 10
129.0505209052287
 20
187.064559174229
 30
0.0
 10
129.2775510383256
 20
187.1331215335909
 30
0.0
 10
129.358672286256
 20
187.5298201345814
 30
0.0
 10
129.2317252061614
 20
187.9509838738366
 30
0.0
 10
129.1047781260667
 20
188.3723063630878
 30
0.0
 10
128.8179698000505
 20
188.6582503835705
 30
0.0
 10
128.5909396669536
 20
188.589864413093
 30
0.0
  0
SPLINE
  5
139
330
1F
100
AcDbEntity
  8
_U+30EC_U+30A4_U+30E4_U+30FC 1
 62
     7
370
     5
100
AcDbSpline
210
0.0
220
0.0
230
1.0
 70
     8
 71
     3
 72
    11
 73
     7
 74
     0
 42
0.0000000001
 43
0.0000000001
 12
1.0
 22
0.0
 32
0.0
 13
1.0
 23
0.0
 33
0.0
 40
0.0
 40
0.0
 40
0.0
 40
0.0
 40
1.0
 40
1.0
 40
1.0
 40
2.0
 40
2.0
 40
2.0
 40
2.0
 10
128.721505352645
 20
186.8743955027062
 30
0.0
 10
128.9485328522751
 20
186.9427626495585
 30
0.0
 10
129.029671739094
 20
187.3394788894374
 30
0.0
 10
128.9027246589993
 20
187.7608013786886
 30
0.0
 10
128.7757599400166
 20
188.1818063679479
 30
0.0
 10
128.4889692528884
 20
188.4679091384266
 30
0.0
 10
128.2619391197916
 20
188.399523167949
 30
0.0
  0
SPLINE
  5
13A
330
1F
100
AcDbEntity
  8
_U+30EC_U+30A4_U+30E4_U+30FC 1
 62
     7
370
     5
100
AcDbSpline
210
0.0
220
0.0
230
1.0
 70
     8
 71
     3
 72
    11
 73
     7
 74
     0
 42
0.0000000001
 43
0.0000000001
 12
1.0
 22
0.0
 32
0.0
 13
1.0
 23
0.0
 33
0.0
 40
0.0
 40
0.0
 40
0.0
 40
0.0
 40
1.0
 40
1.0
 40
1.0
 40
2.0
 40
2.0
 40
2.0
 40
2.0
 10
128.3909525749499
 20
186.6830135583095
 30
0.0
 10
128.6179800829304
 20
186.7513983488851
 30
0.0
 10
128.6991189697493
 20
187.1482733387599
 30
0.0
 10
128.5721542507662
 20
187.5694370780151
 30
0.0
 10
128.4452071706716
 20
187.9906008172704
 30
0.0
 10
128.1583988446553
 20
188.2765448377531
 30
0.0
 10
127.9313687115585
 20
188.20833525616
 30
0.0
  0
SPLINE
  5
13B
330
1F
100
AcDbEntity
  8
_U+30EC_U+30A4_U+30E4_U+30FC 1
 62
     7
370
     5
100
AcDbSpline
210
0.0
220
0.0
230
1.0
 70
     8
 71
     3
 72
    11
 73
     7
 74
     0
 42
0.0000000001
 43
0.0000000001
 12
1.0
 22
0.0
 32
0.0
 13
1.0
 23
0.0
 33
0.0
 40
0.0
 40
0.0
 40
0.0
 40
0.0
 40
1.0
 40
1.0
 40
1.0
 40
2.0
 40
2.0
 40
2.0
 40
2.0
 10
128.0619494026715
 20
186.4926711332635
 30
0.0
 10
128.2889795357684
 20
186.5612334926255
 30
0.0
 10
128.3701007836988
 20
186.9577557047316
 30
0.0
 10
128.2431537036042
 20
187.3790958328712
 30
0.0
 10
128.1162066235095
 20
187.8002607802525
 30
0.0
 10
127.8293982974933
 20
188.0863635579587
 30
0.0
 10
127.6023681643964
 20
188.0178176221316
 30
0.0
  0
SPLINE
  5
13C
330
1F
100
AcDbEntity
  8
_U+30EC_U+30A4_U+30E4_U+30FC 1
 62
     7
370
     5
100
AcDbSpline
210
0.0
220
0.0
230
1.0
 70
     8
 71
     3
 72
    11
 73
     7
 74
     0
 42
0.0000000001
 43
0.0000000001
 12
1.0
 22
0.0
 32
0.0
 13
1.0
 23
0.0
 33
0.0
 40
0.0
 40
0.0
 40
0.0
 40
0.0
 40
1.0
 40
1.0
 40
1.0
 40
2.0
 40
2.0
 40
2.0
 40
2.0
 10
127.7585984084418
 20
186.3169701655238
 30
0.0
 10
127.9856259323965
 20
186.3855325248857
 30
0.0
 10
128.0665884303309
 20
186.7820547369918
 30
0.0
 10
127.9398177391207
 20
187.2033948651315
 30
0.0
 10
127.8126942701416
 20
187.6245586043867
 30
0.0
 10
127.5260623330098
 20
187.9106802246694
 30
0.0
 10
127.2990321999129
 20
187.8421166543918
 30
0.0
  0
SPLINE
  5
13D
330
1F
100
AcDbEntity
  8
_U+30EC_U+30A4_U+30E4_U+30FC 1
 62
     7
370
     5
100
AcDbSpline
210
0.0
220
0.0
230
1.0
 70
     8
 71
     3
 72
    11
 73
     7
 74
     0
 42
0.0000000001
 43
0.0000000001
 12
1.0
 22
0.0
 32
0.0
 13
1.0
 23
0.0
 33
0.0
 40
0.0
 40
0.0
 40
0.0
 40
0.0
 40
1.0
 40
1.0
 40
1.0
 40
2.0
 40
2.0
 40
2.0
 40
2.0
 10
127.4295952521375
 20
186.1266289203798
 30
0.0
 10
127.6566253852344
 20
186.1950148908574
 30
0.0
 10
127.7375878831689
 20
186.5918898807322
 30
0.0
 10
127.6107995530702
 20
187.0130536199875
 30
0.0
 10
127.4836760840912
 20
187.4342173592427
 30
0.0
 10
127.1970441469593
 20
187.7201613797254
 30
0.0
 10
126.9700140138624
 20
187.6519517981322
 30
0.0
  0
SPLINE
  5
13E
330
1F
100
AcDbEntity
  8
_U+30EC_U+30A4_U+30E4_U+30FC 1
 62
     7
370
     5
100
AcDbSpline
210
0.0
220
0.0
230
1.0
 70
     8
 71
     3
 72
    11
 73
     7
 74
     0
 42
0.0000000001
 43
0.0000000001
 12
1.0
 22
0.0
 32
0.0
 13
1.0
 23
0.0
 33
0.0
 40
0.0
 40
0.0
 40
0.0
 40
0.0
 40
1.0
 40
1.0
 40
1.0
 40
2.0
 40
2.0
 40
2.0
 40
2.0
 10
127.1231548432888
 20
185.9493757304575
 30
0.0
 10
127.3501849763857
 20
186.0179380898194
 30
0.0
 10
127.4313238632046
 20
186.4144603019255
 30
0.0
 10
127.3043591442215
 20
186.8358004300651
 30
0.0
 10
127.1774120641268
 20
187.2569641693203
 30
0.0
 10
126.8906037381106
 20
187.5430857803167
 30
0.0
 10
126.6635761864932
 20
187.4745222193255
 30
0.0
  0
SPLINE
  5
13F
330
1F
100
AcDbEntity
  8
_U+30EC_U+30A4_U+30E4_U+30FC 1
 62
     7
370
     5
100
AcDbSpline
210
0.0
220
0.0
230
1.0
 70
     8
 71
     3
 72
    11
 73
     7
 74
     0
 42
0.0000000001
 43
0.0000000001
 12
1.0
 22
0.0
 32
0.0
 13
1.0
 23
0.0
 33
0.0
 40
0.0
 40
0.0
 40
0.0
 40
0.0
 40
1.0
 40
1.0
 40
1.0
 40
2.0
 40
2.0
 40
2.0
 40
2.0
 10
126.7941542961268
 20
185.7590344853135
 30
0.0
 10
127.0211844292236
 20
185.827420455791
 30
0.0
 10
127.1023056771541
 20
186.2242954456659
 30
0.0
 10
126.9753585970594
 20
186.6454591849211
 30
0.0
 10
126.8484115169648
 20
187.0666229241763
 30
0.0
 10
126.5616031909485
 20
187.3525669446591
 30
0.0
 10
126.3345730578517
 20
187.2843573630659
 30
0.0
  0
SPLINE
  5
140
330
1F
100
AcDbEntity
  8
_U+30EC_U+30A4_U+30E4_U+30FC 1
 62
     7
370
     5
100
AcDbSpline
210
0.0
220
0.0
230
1.0
 70
     8
 71
     3
 72
    11
 73
     7
 74
     0
 42
0.0000000001
 43
0.0000000001
 12
1.0
 22
0.0
 32
0.0
 13
1.0
 23
0.0
 33
0.0
 40
0.0
 40
0.0
 40
0.0
 40
0.0
 40
1.0
 40
1.0
 40
1.0
 40
2.0
 40
2.0
 40
2.0
 40
2.0
 10
126.4908006927549
 20
185.5833335175738
 30
0.0
 10
126.7178308258517
 20
185.6517194880513
 30
0.0
 10
126.7987933237862
 20
186.0485944779262
 30
0.0
 10
126.6720226325759
 20
186.4697593916963
 30
0.0
 10
126.5448991635969
 20
186.8909219564366
 30
0.0
 10
126.2582672264651
 20
187.1768659769194
 30
0.0
 10
126.0312370933685
 20
187.1086563953262
 30
0.0
  0
SPLINE
  5
141
330
1F
100
AcDbEntity
  8
_U+30EC_U+30A4_U+30E4_U+30FC 1
 62
     7
370
     5
100
AcDbSpline
210
0.0
220
0.0
230
1.0
 70
     8
 71
     3
 72
    11
 73
     7
 74
     0
 42
0.0000000001
 43
0.0000000001
 12
1.0
 22
0.0
 32
0.0
 13
1.0
 23
0.0
 33
0.0
 40
0.0
 40
0.0
 40
0.0
 40
0.0
 40
1.0
 40
1.0
 40
1.0
 40
2.0
 40
2.0
 40
2.0
 40
2.0
 10
126.2747240627412
 20
185.4652524344612
 30
0.0
 10
126.4120568110497
 20
185.6127483139049
 30
0.0
 10
126.4457631417506
 20
185.9379315862774
 30
0.0
 10
126.3430044465255
 20
186.2794169720374
 30
0.0
 10
126.2158809775464
 20
186.7005807112926
 30
0.0
 10
125.9292490404146
 20
186.9867011206598
 30
0.0
 10
125.7022189073177
 20
186.9181399471397
 30
0.0
  0
SPLINE
  5
142
330
1F
100
AcDbEntity
  8
_U+30EC_U+30A4_U+30E4_U+30FC 1
 62
     7
370
     5
100
AcDbSpline
210
0.0
220
0.0
230
1.0
 70
     8
 71
     3
 72
    11
 73
     7
 74
     0
 42
0.0000000001
 43
0.0000000001
 12
1.0
 22
0.0
 32
0.0
 13
1.0
 23
0.0
 33
0.0
 40
0.0
 40
0.0
 40
0.0
 40
0.0
 40
1.0
 40
1.0
 40
1.0
 40
2.0
 40
2.0
 40
2.0
 40
2.0
 10
126.0795537699983
 20
185.583739428992
 30
0.0
 10
126.0984085592066
 20
185.7331470177897
 30
0.0
 10
126.0826672525717
 20
185.9126371509734
 30
0.0
 10
126.027091954585
 20
186.0968368378065
 30
0.0
 10
125.9003212633748
 20
186.5178241881774
 30
0.0
 10
125.6133365484742
 20
186.8039269586561
 30
0.0
 10
125.3863064153773
 20
186.7355409881785
 30
0.0
  0
SPLINE
  5
143
330
1F
100
AcDbEntity
  8
_U+30EC_U+30A4_U+30E4_U+30FC 1
 62
     7
370
     5
100
AcDbSpline
210
0.0
220
0.0
230
1.0
 70
     8
 71
     3
 72
    11
 73
     7
 74
     0
 42
0.0000000001
 43
0.0000000001
 12
1.0
 22
0.0
 32
0.0
 13
1.0
 23
0.0
 33
0.0
 40
0.0
 40
0.0
 40
0.0
 40
0.0
 40
1.0
 40
1.0
 40
1.0
 40
2.0
 40
2.0
 40
2.0
 40
2.0
 10
125.7274360592211
 20
185.7932360594087
 30
0.0
 10
125.719317693114
 20
185.8305833082789
 30
0.0
 10
125.709551451593
 20
185.8683518487454
 30
0.0
 10
125.698091407423
 20
185.9063192037782
 30
0.0
 10
125.5713030773243
 20
186.3276416930293
 30
0.0
 10
125.2843360013124
 20
186.6135857135121
 30
0.0
 10
125.0573058682152
 20
186.5451997430345
 30
0.0
  0
SPLINE
  5
144
330
1F
100
AcDbEntity
  8
_U+30EC_U+30A4_U+30E4_U+30FC 1
 62
     7
370
     5
100
AcDbSpline
210
0.0
220
0.0
230
1.0
 70
     8
 71
     3
 72
     8
 73
     4
 74
     0
 42
0.0000000001
 43
0.0000000001
 12
1.0
 22
0.0
 32
0.0
 13
1.0
 23
0.0
 33
0.0
 40
0.0
 40
0.0
 40
0.0
 40
0.0
 40
1.0
 40
1.0
 40
1.0
 40
1.0
 10
125.1650893899809
 20
186.1752926604427
 30
0.0
 10
125.0709767636599
 20
186.2885340949939
 30
0.0
 10
124.9648790662696
 20
186.3611145938246
 30
0.0
 10
124.8633546101606
 20
186.3765271455757
 30
0.0
  0
POLYLINE
  5
145
330
1F
100
AcDbEntity
  8
_U+30EC_U+30A4_U+30E4_U+30FC 1
 62
     7
370
     5
100
AcDb2dPolyline
 66
     1
 10
0.0
 20
0.0
 30
0.0
  0
VERTEX
  5
146
330
145
100
AcDbEntity
  8
_U+30EC_U+30A4_U+30E4_U+30FC 1
 62
     7
370
     5
100
AcDbVertex
100
AcDb2dVertex
 10
176.6064206420087
 20
94.09548485068049
 30
0.0
  0
VERTEX
  5
147
330
145
100
AcDbEntity
  8
_U+30EC_U+30A4_U+30E4_U+30FC 1
 62
     7
370
     5
100
AcDbVertex
100
AcDb2dVertex
 10
186.3086997169494
 20
99.7099947893743
 30
0.0
  0
SEQEND
  5
148
330
145
100
AcDbEntity
  8
_U+30EC_U+30A4_U+30E4_U+30FC 1
 62
     7
370
     5
  0
POLYLINE
  5
149
330
1F
100
AcDbEntity
  8
_U+30EC_U+30A4_U+30E4_U+30FC 1
 62
     7
370
     5
100
AcDb2dPolyline
 66
     1
 10
0.0
 20
0.0
 30
0.0
  0
VERTEX
  5
14A
330
149
100
AcDbEntity
  8
_U+30EC_U+30A4_U+30E4_U+30FC 1
 62
     7
370
     5
100
AcDbVertex
100
AcDb2dVertex
 10
176.5374368493996
 20
95.8736251327987
 30
0.0
  0
VERTEX
  5
14B
330
149
100
AcDbEntity
  8
_U+30EC_U+30A4_U+30E4_U+30FC 1
 62
     7
370
     5
100
AcDbVertex
100
AcDb2dVertex
 10
185.8098543130093
 20
101.2393569725792
 30
0.0
  0
SEQEND
  5
14C
330
149
100
AcDbEntity
  8
_U+30EC_U+30A4_U+30E4_U+30FC 1
 62
     7
370
     5
  0
SPLINE
  5
14D
330
1F
100
AcDbEntity
  8
_U+30EC_U+30A4_U+30E4_U+30FC 1
 62
     7
370
     5
100
AcDbSpline
210
0.0
220
0.0
230
1.0
 70
     8
 71
     3
 72
    11
 73
     7
 74
     0
 42
0.0000000001
 43
0.0000000001
 12
1.0
 22
0.0
 32
0.0
 13
1.0
 23
0.0
 33
0.0
 40
0.0
 40
0.0
 40
0.0
 40
0.0
 40
1.0
 40
1.0
 40
1.0
 40
2.0
 40
2.0
 40
2.0
 40
2.0
 10
186.269417912396
 20
99.714122289269
 30
0.0
 10
186.4964480454929
 20
99.78250825974655
 30
0.0
 10
186.5777633211961
 20
100.1793832496214
 30
0.0
 10
186.4506398522171
 20
100.6005469888766
 30
0.0
 10
186.3238515221184
 20
101.0217107281319
 30
0.0
 10
186.0368844461062
 20
101.3077429430568
 30
0.0
 10
185.8098543130093
 20
101.2393569725792
 30
0.0
  0
SPLINE
  5
14E
330
1F
100
AcDbEntity
  8
_U+30EC_U+30A4_U+30E4_U+30FC 1
 62
     7
370
     5
100
AcDbSpline
210
0.0
220
0.0
230
1.0
 70
     8
 71
     3
 72
    11
 73
     7
 74
     0
 42
0.0000000001
 43
0.0000000001
 12
1.0
 22
0.0
 32
0.0
 13
1.0
 23
0.0
 33
0.0
 40
0.0
 40
0.0
 40
0.0
 40
0.0
 40
1.0
 40
1.0
 40
1.0
 40
2.0
 40
2.0
 40
2.0
 40
2.0
 10
185.9535054204556
 20
99.5313670582032
 30
0.0
 10
186.1805355535525
 20
99.59975173663128
 30
0.0
 10
186.2616744403713
 20
99.99645033762177
 30
0.0
 10
186.1347273602767
 20
100.4177904657614
 30
0.0
 10
186.0077626412936
 20
100.8388660105744
 30
0.0
 10
185.7209719541658
 20
101.1248805866109
 30
0.0
 10
185.4939241821805
 20
101.0564946161333
 30
0.0
  0
SPLINE
  5
14F
330
1F
100
AcDbEntity
  8
_U+30EC_U+30A4_U+30E4_U+30FC 1
 62
     7
370
     5
100
AcDbSpline
210
0.0
220
0.0
230
1.0
 70
     8
 71
     3
 72
    11
 73
     7
 74
     0
 42
0.0000000001
 43
0.0000000001
 12
1.0
 22
0.0
 32
0.0
 13
1.0
 23
0.0
 33
0.0
 40
0.0
 40
0.0
 40
0.0
 40
0.0
 40
1.0
 40
1.0
 40
1.0
 40
2.0
 40
2.0
 40
2.0
 40
2.0
 10
185.6245076838936
 20
99.34084813212536
 30
0.0
 10
185.8515350063904
 20
99.4094104914873
 30
0.0
 10
185.9326590727054
 20
99.80610909247778
 30
0.0
 10
185.8057091742262
 20
100.227272831733
 30
0.0
 10
185.6787620941315
 20
100.6485247654304
 30
0.0
 10
185.3919537681153
 20
100.9345406689638
 30
0.0
 10
185.1649236350184
 20
100.8661533709894
 30
0.0
  0
SPLINE
  5
150
330
1F
100
AcDbEntity
  8
_U+30EC_U+30A4_U+30E4_U+30FC 1
 62
     7
370
     5
100
AcDbSpline
210
0.0
220
0.0
230
1.0
 70
     8
 71
     3
 72
    11
 73
     7
 74
     0
 42
0.0000000001
 43
0.0000000001
 12
1.0
 22
0.0
 32
0.0
 13
1.0
 23
0.0
 33
0.0
 40
0.0
 40
0.0
 40
0.0
 40
0.0
 40
1.0
 40
1.0
 40
1.0
 40
2.0
 40
2.0
 40
2.0
 40
2.0
 10
185.3209925199257
 20
99.16532355327003
 30
0.0
 10
185.5480226530225
 20
99.23370952374758
 30
0.0
 10
185.6293202898374
 20
99.63040812473807
 30
0.0
 10
185.5021968208583
 20
100.0515718639933
 30
0.0
 10
185.3754261296481
 20
100.4727356032485
 30
0.0
 10
185.0884414147474
 20
100.7588383737272
 30
0.0
 10
184.8614112816506
 20
100.6904700421381
 30
0.0
  0
SPLINE
  5
151
330
1F
100
AcDbEntity
  8
_U+30EC_U+30A4_U+30E4_U+30FC 1
 62
     7
370
     5
100
AcDbSpline
210
0.0
220
0.0
230
1.0
 70
     8
 71
     3
 72
    11
 73
     7
 74
     0
 42
0.0000000001
 43
0.0000000001
 12
1.0
 22
0.0
 32
0.0
 13
1.0
 23
0.0
 33
0.0
 40
0.0
 40
0.0
 40
0.0
 40
0.0
 40
1.0
 40
1.0
 40
1.0
 40
2.0
 40
2.0
 40
2.0
 40
2.0
 10
184.9919771284963
 20
98.97480591924165
 30
0.0
 10
185.2190044669721
 20
99.04336827860358
 30
0.0
 10
185.3003197426753
 20
99.44006687959407
 30
0.0
 10
185.1731962736963
 20
99.86140700773367
 30
0.0
 10
185.0464079435976
 20
100.2823943581045
 30
0.0
 10
184.7594408675854
 20
100.5684971285832
 30
0.0
 10
184.5324107344885
 20
100.5001111581056
 30
0.0
  0
SPLINE
  5
152
330
1F
100
AcDbEntity
  8
_U+30EC_U+30A4_U+30E4_U+30FC 1
 62
     7
370
     5
100
AcDbSpline
210
0.0
220
0.0
230
1.0
 70
     8
 71
     3
 72
    11
 73
     7
 74
     0
 42
0.0000000001
 43
0.0000000001
 12
1.0
 22
0.0
 32
0.0
 13
1.0
 23
0.0
 33
0.0
 40
0.0
 40
0.0
 40
0.0
 40
0.0
 40
1.0
 40
1.0
 40
1.0
 40
2.0
 40
2.0
 40
2.0
 40
2.0
 10
184.6857103139108
 20
98.79772911820369
 30
0.0
 10
184.9127404470077
 20
98.86611508868124
 30
0.0
 10
184.9938793338266
 20
99.26281368967173
 30
0.0
 10
184.8669322537319
 20
99.68397742892695
 30
0.0
 10
184.7399675347488
 20
100.1053175570666
 30
0.0
 10
184.4531768476211
 20
100.3912628913216
 30
0.0
 10
184.2261290756358
 20
100.3228756070718
 30
0.0
  0
SPLINE
  5
153
330
1F
100
AcDbEntity
  8
_U+30EC_U+30A4_U+30E4_U+30FC 1
 62
     7
370
     5
100
AcDbSpline
210
0.0
220
0.0
230
1.0
 70
     8
 71
     3
 72
    11
 73
     7
 74
     0
 42
0.0000000001
 43
0.0000000001
 12
1.0
 22
0.0
 32
0.0
 13
1.0
 23
0.0
 33
0.0
 40
0.0
 40
0.0
 40
0.0
 40
0.0
 40
1.0
 40
1.0
 40
1.0
 40
2.0
 40
2.0
 40
2.0
 40
2.0
 10
184.3567097667488
 20
98.60721148417532
 30
0.0
 10
184.5837398998457
 20
98.67577384353726
 30
0.0
 10
184.6648611477761
 20
99.07247244452775
 30
0.0
 10
184.5379140676814
 20
99.49381257266735
 30
0.0
 10
184.4109669875868
 20
99.91479992303817
 30
0.0
 10
184.1241586615706
 20
100.2009203324053
 30
0.0
 10
183.8971312954363
 20
100.1325343619278
 30
0.0
  0
SPLINE
  5
154
330
1F
100
AcDbEntity
  8
_U+30EC_U+30A4_U+30E4_U+30FC 1
 62
     7
370
     5
100
AcDbSpline
210
0.0
220
0.0
230
1.0
 70
     8
 71
     3
 72
    11
 73
     7
 74
     0
 42
0.0000000001
 43
0.0000000001
 12
1.0
 22
0.0
 32
0.0
 13
1.0
 23
0.0
 33
0.0
 40
0.0
 40
0.0
 40
0.0
 40
0.0
 40
1.0
 40
1.0
 40
1.0
 40
2.0
 40
2.0
 40
2.0
 40
2.0
 10
184.0531974133809
 20
98.4315105164356
 30
0.0
 10
184.2802275464778
 20
98.50007287579754
 30
0.0
 10
184.3615251832926
 20
98.89677147678803
 30
0.0
 10
184.2344017143136
 20
99.31811289159003
 30
0.0
 10
184.1076310231033
 20
99.73909895529846
 30
0.0
 10
183.8206463082027
 20
100.0252193646656
 30
0.0
 10
183.5936161751058
 20
99.95683339418804
 30
0.0
  0
SPLINE
  5
155
330
1F
100
AcDbEntity
  8
_U+30EC_U+30A4_U+30E4_U+30FC 1
 62
     7
370
     5
100
AcDbSpline
210
0.0
220
0.0
230
1.0
 70
     8
 71
     3
 72
    11
 73
     7
 74
     0
 42
0.0000000001
 43
0.0000000001
 12
1.0
 22
0.0
 32
0.0
 13
1.0
 23
0.0
 33
0.0
 40
0.0
 40
0.0
 40
0.0
 40
0.0
 40
1.0
 40
1.0
 40
1.0
 40
2.0
 40
2.0
 40
2.0
 40
2.0
 10
183.7241792273304
 20
98.241345660176
 30
0.0
 10
183.9512093604273
 20
98.30973163065354
 30
0.0
 10
184.0325246361305
 20
98.70643023164403
 30
0.0
 10
183.9054011671515
 20
99.12777035978364
 30
0.0
 10
183.7786128370528
 20
99.54893409903886
 30
0.0
 10
183.4916457610406
 20
99.8348781195216
 30
0.0
 10
183.2646156279438
 20
99.76649344703308
 30
0.0
  0
SPLINE
  5
156
330
1F
100
AcDbEntity
  8
_U+30EC_U+30A4_U+30E4_U+30FC 1
 62
     7
370
     5
100
AcDbSpline
210
0.0
220
0.0
230
1.0
 70
     8
 71
     3
 72
    11
 73
     7
 74
     0
 42
0.0000000001
 43
0.0000000001
 12
1.0
 22
0.0
 32
0.0
 13
1.0
 23
0.0
 33
0.0
 40
0.0
 40
0.0
 40
0.0
 40
0.0
 40
1.0
 40
1.0
 40
1.0
 40
2.0
 40
2.0
 40
2.0
 40
2.0
 10
183.3938028468702
 20
98.04996372061412
 30
0.0
 10
183.620832979967
 20
98.11834969109167
 30
0.0
 10
183.7017954779015
 20
98.51522468096654
 30
0.0
 10
183.5750071478028
 20
98.93638842022176
 30
0.0
 10
183.4478836788238
 20
99.35755215947698
 30
0.0
 10
183.1612517416919
 20
99.6436725688441
 30
0.0
 10
182.9342243512328
 20
99.57511150263663
 30
0.0
  0
SPLINE
  5
157
330
1F
100
AcDbEntity
  8
_U+30EC_U+30A4_U+30E4_U+30FC 1
 62
     7
370
     5
100
AcDbSpline
210
0.0
220
0.0
230
1.0
 70
     8
 71
     3
 72
    11
 73
     7
 74
     0
 42
0.0000000001
 43
0.0000000001
 12
1.0
 22
0.0
 32
0.0
 13
1.0
 23
0.0
 33
0.0
 40
0.0
 40
0.0
 40
0.0
 40
0.0
 40
1.0
 40
1.0
 40
1.0
 40
2.0
 40
2.0
 40
2.0
 40
2.0
 10
183.0648022997081
 20
97.85962247547012
 30
0.0
 10
183.291832432805
 20
97.92818483483207
 30
0.0
 10
183.3727949307394
 20
98.32470704693816
 30
0.0
 10
183.2460066006408
 20
98.74604717507776
 30
0.0
 10
183.1188831316617
 20
99.16721091433298
 30
0.0
 10
182.8322511945299
 20
99.45315493481573
 30
0.0
 10
182.605221061433
 20
99.38494535322256
 30
0.0
  0
SPLINE
  5
158
330
1F
100
AcDbEntity
  8
_U+30EC_U+30A4_U+30E4_U+30FC 1
 62
     7
370
     5
100
AcDbSpline
210
0.0
220
0.0
230
1.0
 70
     8
 71
     3
 72
    11
 73
     7
 74
     0
 42
0.0000000001
 43
0.0000000001
 12
1.0
 22
0.0
 32
0.0
 13
1.0
 23
0.0
 33
0.0
 40
0.0
 40
0.0
 40
0.0
 40
0.0
 40
1.0
 40
1.0
 40
1.0
 40
2.0
 40
2.0
 40
2.0
 40
2.0
 10
182.7612899463402
 20
97.6839215077304
 30
0.0
 10
182.9883200794371
 20
97.75248511420362
 30
0.0
 10
183.0694413273675
 20
98.14900733632665
 30
0.0
 10
182.9424942472729
 20
98.57034620733805
 30
0.0
 10
182.8155471671782
 20
98.99150994659327
 30
0.0
 10
182.528738841162
 20
99.27745396707601
 30
0.0
 10
182.3017087080651
 20
99.20924438548285
 30
0.0
  0
SPLINE
  5
159
330
1F
100
AcDbEntity
  8
_U+30EC_U+30A4_U+30E4_U+30FC 1
 62
     7
370
     5
100
AcDbSpline
210
0.0
220
0.0
230
1.0
 70
     8
 71
     3
 72
    11
 73
     7
 74
     0
 42
0.0000000001
 43
0.0000000001
 12
1.0
 22
0.0
 32
0.0
 13
1.0
 23
0.0
 33
0.0
 40
0.0
 40
0.0
 40
0.0
 40
0.0
 40
1.0
 40
1.0
 40
1.0
 40
2.0
 40
2.0
 40
2.0
 40
2.0
 10
182.4322717602898
 20
97.49358026258642
 30
0.0
 10
182.6593018933866
 20
97.56196623306397
 30
0.0
 10
182.7404407802055
 20
97.95884122293884
 30
0.0
 10
182.6134937001108
 20
98.38000496219406
 30
0.0
 10
182.4865289811277
 20
98.80116870144928
 30
0.0
 10
182.199741018083
 20
99.08711272193202
 30
0.0
 10
181.9727081609031
 20
99.01890314033885
 30
0.0
  0
SPLINE
  5
15A
330
1F
100
AcDbEntity
  8
_U+30EC_U+30A4_U+30E4_U+30FC 1
 62
     7
370
     5
100
AcDbSpline
210
0.0
220
0.0
230
1.0
 70
     8
 71
     3
 72
    11
 73
     7
 74
     0
 42
0.0000000001
 43
0.0000000001
 12
1.0
 22
0.0
 32
0.0
 13
1.0
 23
0.0
 33
0.0
 40
0.0
 40
0.0
 40
0.0
 40
0.0
 40
1.0
 40
1.0
 40
1.0
 40
2.0
 40
2.0
 40
2.0
 40
2.0
 10
182.1260104625462
 20
97.31632707266408
 30
0.0
 10
182.3530378734223
 20
97.38489066985063
 30
0.0
 10
182.4340003713567
 20
97.78142928302056
 30
0.0
 10
182.3072120412581
 20
98.20275177227172
 30
0.0
 10
182.180088572279
 20
98.62391551152695
 30
0.0
 10
181.8934566351472
 20
98.91003592089406
 30
0.0
 10
181.6664265020503
 20
98.84147356153213
 30
0.0
  0
SPLINE
  5
15B
330
1F
100
AcDbEntity
  8
_U+30EC_U+30A4_U+30E4_U+30FC 1
 62
     7
370
     5
100
AcDbSpline
210
0.0
220
0.0
230
1.0
 70
     8
 71
     3
 72
    11
 73
     7
 74
     0
 42
0.0000000001
 43
0.0000000001
 12
1.0
 22
0.0
 32
0.0
 13
1.0
 23
0.0
 33
0.0
 40
0.0
 40
0.0
 40
0.0
 40
0.0
 40
1.0
 40
1.0
 40
1.0
 40
2.0
 40
2.0
 40
2.0
 40
2.0
 10
181.7970071931634
 20
97.12598582752008
 30
0.0
 10
182.0240373262602
 20
97.19437179799763
 30
0.0
 10
182.1049998241947
 20
97.5912467878725
 30
0.0
 10
181.978211494096
 20
98.01241052712773
 30
0.0
 10
181.851088025117
 20
98.43357426638295
 30
0.0
 10
181.5644560879851
 20
98.71951828686569
 30
0.0
 10
181.3374259548883
 20
98.65130870527253
 30
0.0
  0
SPLINE
  5
15C
330
1F
100
AcDbEntity
  8
_U+30EC_U+30A4_U+30E4_U+30FC 1
 62
     7
370
     5
100
AcDbSpline
210
0.0
220
0.0
230
1.0
 70
     8
 71
     3
 72
    11
 73
     7
 74
     0
 42
0.0000000001
 43
0.0000000001
 12
1.0
 22
0.0
 32
0.0
 13
1.0
 23
0.0
 33
0.0
 40
0.0
 40
0.0
 40
0.0
 40
0.0
 40
1.0
 40
1.0
 40
1.0
 40
2.0
 40
2.0
 40
2.0
 40
2.0
 10
181.4934948397955
 20
96.95028485978037
 30
0.0
 10
181.7205249728923
 20
97.01867083025792
 30
0.0
 10
181.8016462208228
 20
97.41554582013279
 30
0.0
 10
181.6746991407281
 20
97.83670955938801
 30
0.0
 10
181.5477520606335
 20
98.25787329864323
 30
0.0
 10
181.2609437346173
 20
98.54381731912596
 30
0.0
 10
181.0339136015204
 20
98.47560773753281
 30
0.0
  0
SPLINE
  5
15D
330
1F
100
AcDbEntity
  8
_U+30EC_U+30A4_U+30E4_U+30FC 1
 62
     7
370
     5
100
AcDbSpline
210
0.0
220
0.0
230
1.0
 70
     8
 71
     3
 72
    11
 73
     7
 74
     0
 42
0.0000000001
 43
0.0000000001
 12
1.0
 22
0.0
 32
0.0
 13
1.0
 23
0.0
 33
0.0
 40
0.0
 40
0.0
 40
0.0
 40
0.0
 40
1.0
 40
1.0
 40
1.0
 40
2.0
 40
2.0
 40
2.0
 40
2.0
 10
181.164476653745
 20
96.75994483667391
 30
0.0
 10
181.3915067868419
 20
96.82850597399832
 30
0.0
 10
181.4726456736607
 20
97.22504582499286
 30
0.0
 10
181.3456985935661
 20
97.64636831424403
 30
0.0
 10
181.218733874583
 20
98.06753205349924
 30
0.0
 10
180.9319431874552
 20
98.35365246286636
 30
0.0
 10
180.7049130543583
 20
98.28509010350443
 30
0.0
  0
SPLINE
  5
15E
330
1F
100
AcDbEntity
  8
_U+30EC_U+30A4_U+30E4_U+30FC 1
 62
     7
370
     5
100
AcDbSpline
210
0.0
220
0.0
230
1.0
 70
     8
 71
     3
 72
    11
 73
     7
 74
     0
 42
0.0000000001
 43
0.0000000001
 12
1.0
 22
0.0
 32
0.0
 13
1.0
 23
0.0
 33
0.0
 40
0.0
 40
0.0
 40
0.0
 40
0.0
 40
1.0
 40
1.0
 40
1.0
 40
2.0
 40
2.0
 40
2.0
 40
2.0
 10
180.8420201341938
 20
96.5732359805108
 30
0.0
 10
181.0690502672906
 20
96.6417807009843
 30
0.0
 10
181.1500127652251
 20
97.03847930197479
 30
0.0
 10
181.0232271294885
 20
97.45964304123001
 30
0.0
 10
180.8961009661474
 20
97.88098316936961
 30
0.0
 10
180.6094690290155
 20
98.16692718985234
 30
0.0
 10
180.3824388959187
 20
98.0985412193748
 30
0.0
  0
SPLINE
  5
15F
330
1F
100
AcDbEntity
  8
_U+30EC_U+30A4_U+30E4_U+30FC 1
 62
     7
370
     5
100
AcDbSpline
210
0.0
220
0.0
230
1.0
 70
     8
 71
     3
 72
    11
 73
     7
 74
     0
 42
0.0000000001
 43
0.0000000001
 12
1.0
 22
0.0
 32
0.0
 13
1.0
 23
0.0
 33
0.0
 40
0.0
 40
0.0
 40
0.0
 40
0.0
 40
1.0
 40
1.0
 40
1.0
 40
2.0
 40
2.0
 40
2.0
 40
2.0
 10
180.5130195870317
 20
96.38305348536277
 30
0.0
 10
180.7400497201286
 20
96.45144067008441
 30
0.0
 10
180.8210122180631
 20
96.84813928109631
 30
0.0
 10
180.6942238879644
 20
97.26947818497041
 30
0.0
 10
180.5671004189853
 20
97.69046553534123
 30
0.0
 10
180.2804684818535
 20
97.97658594470836
 30
0.0
 10
180.0534410186199
 20
97.90819997423081
 30
0.0
  0
SPLINE
  5
160
330
1F
100
AcDbEntity
  8
_U+30EC_U+30A4_U+30E4_U+30FC 1
 62
     7
370
     5
100
AcDbSpline
210
0.0
220
0.0
230
1.0
 70
     8
 71
     3
 72
    11
 73
     7
 74
     0
 42
0.0000000001
 43
0.0000000001
 12
1.0
 22
0.0
 32
0.0
 13
1.0
 23
0.0
 33
0.0
 40
0.0
 40
0.0
 40
0.0
 40
0.0
 40
1.0
 40
1.0
 40
1.0
 40
2.0
 40
2.0
 40
2.0
 40
2.0
 10
180.2095072336639
 20
96.20735251762304
 30
0.0
 10
180.4365373667607
 20
96.27573848810059
 30
0.0
 10
180.5176586146912
 20
96.67245594780704
 30
0.0
 10
180.3907115345965
 20
97.09377721723068
 30
0.0
 10
180.2637644545019
 20
97.51476456760152
 30
0.0
 10
179.9769561284856
 20
97.80088497696865
 30
0.0
 10
179.7499259953888
 20
97.7324990064911
 30
0.0
  0
SPLINE
  5
161
330
1F
100
AcDbEntity
  8
_U+30EC_U+30A4_U+30E4_U+30FC 1
 62
     7
370
     5
100
AcDbSpline
210
0.0
220
0.0
230
1.0
 70
     8
 71
     3
 72
    11
 73
     7
 74
     0
 42
0.0000000001
 43
0.0000000001
 12
1.0
 22
0.0
 32
0.0
 13
1.0
 23
0.0
 33
0.0
 40
0.0
 40
0.0
 40
0.0
 40
0.0
 40
1.0
 40
1.0
 40
1.0
 40
2.0
 40
2.0
 40
2.0
 40
2.0
 10
179.8804890476134
 20
96.0168525224831
 30
0.0
 10
180.1075191807102
 20
96.0853972429566
 30
0.0
 10
180.1886580675291
 20
96.48211348283553
 30
0.0
 10
180.0617109874345
 20
96.90325958320231
 30
0.0
 10
179.9347462684514
 20
97.32459971134192
 30
0.0
 10
179.6479555813236
 20
97.61054373182465
 30
0.0
 10
179.4209254482267
 20
97.5421577613471
 30
0.0
  0
SPLINE
  5
162
330
1F
100
AcDbEntity
  8
_U+30EC_U+30A4_U+30E4_U+30FC 1
 62
     7
370
     5
100
AcDbSpline
210
0.0
220
0.0
230
1.0
 70
     8
 71
     3
 72
    11
 73
     7
 74
     0
 42
0.0000000001
 43
0.0000000001
 12
1.0
 22
0.0
 32
0.0
 13
1.0
 23
0.0
 33
0.0
 40
0.0
 40
0.0
 40
0.0
 40
0.0
 40
1.0
 40
1.0
 40
1.0
 40
2.0
 40
2.0
 40
2.0
 40
2.0
 10
179.574225027649
 20
95.83977572144515
 30
0.0
 10
179.8012551607459
 20
95.90814405303426
 30
0.0
 10
179.8822176586804
 20
96.30486150345405
 30
0.0
 10
179.7554293285817
 20
96.72618278216436
 30
0.0
 10
179.6283058596026
 20
97.14718777142363
 30
0.0
 10
179.3416739224708
 20
97.43329054190231
 30
0.0
 10
179.1146437893739
 20
97.36490457142476
 30
0.0
  0
SPLINE
  5
163
330
1F
100
AcDbEntity
  8
_U+30EC_U+30A4_U+30E4_U+30FC 1
 62
     7
370
     5
100
AcDbSpline
210
0.0
220
0.0
230
1.0
 70
     8
 71
     3
 72
    11
 73
     7
 74
     0
 42
0.0000000001
 43
0.0000000001
 12
1.0
 22
0.0
 32
0.0
 13
1.0
 23
0.0
 33
0.0
 40
0.0
 40
0.0
 40
0.0
 40
0.0
 40
1.0
 40
1.0
 40
1.0
 40
2.0
 40
2.0
 40
2.0
 40
2.0
 10
179.2452271299327
 20
95.64925808741677
 30
0.0
 10
179.4722546135839
 20
95.71780280789028
 30
0.0
 10
179.5532171115183
 20
96.11451904776919
 30
0.0
 10
179.4264287814196
 20
96.53568278702441
 30
0.0
 10
179.2993053124406
 20
96.95700527627558
 30
0.0
 10
179.0126733753087
 20
97.24294929675833
 30
0.0
 10
178.7856432422119
 20
97.17456332628078
 30
0.0
  0
SPLINE
  5
164
330
1F
100
AcDbEntity
  8
_U+30EC_U+30A4_U+30E4_U+30FC 1
 62
     7
370
     5
100
AcDbSpline
210
0.0
220
0.0
230
1.0
 70
     8
 71
     3
 72
    11
 73
     7
 74
     0
 42
0.0000000001
 43
0.0000000001
 12
1.0
 22
0.0
 32
0.0
 13
1.0
 23
0.0
 33
0.0
 40
0.0
 40
0.0
 40
0.0
 40
0.0
 40
1.0
 40
1.0
 40
1.0
 40
2.0
 40
2.0
 40
2.0
 40
2.0
 10
178.9417121271191
 20
95.47355711967705
 30
0.0
 10
179.168742260216
 20
95.542119479039
 30
0.0
 10
179.2498635081464
 20
95.93881808002948
 30
0.0
 10
179.1229164280518
 20
96.3599818192847
 30
0.0
 10
178.9959693479571
 20
96.78130430853587
 30
0.0
 10
178.7091610219409
 20
97.06724832901861
 30
0.0
 10
178.482130888844
 20
96.99886235854106
 30
0.0
  0
SPLINE
  5
165
330
1F
100
AcDbEntity
  8
_U+30EC_U+30A4_U+30E4_U+30FC 1
 62
     7
370
     5
100
AcDbSpline
210
0.0
220
0.0
230
1.0
 70
     8
 71
     3
 72
    11
 73
     7
 74
     0
 42
0.0000000001
 43
0.0000000001
 12
1.0
 22
0.0
 32
0.0
 13
1.0
 23
0.0
 33
0.0
 40
0.0
 40
0.0
 40
0.0
 40
0.0
 40
1.0
 40
1.0
 40
1.0
 40
2.0
 40
2.0
 40
2.0
 40
2.0
 10
178.6126965745354
 20
95.2833934481543
 30
0.0
 10
178.8397240741655
 20
95.35176059500657
 30
0.0
 10
178.9208629609844
 20
95.7484768348855
 30
0.0
 10
178.7939158808897
 20
96.16979932413666
 30
0.0
 10
178.6669511619066
 20
96.59080431339592
 30
0.0
 10
178.3801604747788
 20
96.87690708387461
 30
0.0
 10
178.153130341682
 20
96.80852111339706
 30
0.0
  0
SPLINE
  5
166
330
1F
100
AcDbEntity
  8
_U+30EC_U+30A4_U+30E4_U+30FC 1
 62
     7
370
     5
100
AcDbSpline
210
0.0
220
0.0
230
1.0
 70
     8
 71
     3
 72
    11
 73
     7
 74
     0
 42
0.0000000001
 43
0.0000000001
 12
1.0
 22
0.0
 32
0.0
 13
1.0
 23
0.0
 33
0.0
 40
0.0
 40
0.0
 40
0.0
 40
0.0
 40
1.0
 40
1.0
 40
1.0
 40
2.0
 40
2.0
 40
2.0
 40
2.0
 10
178.2821437968403
 20
95.09201150375786
 30
0.0
 10
178.5091713048208
 20
95.16039629433313
 30
0.0
 10
178.5903101916397
 20
95.557271284208
 30
0.0
 10
178.4633454726566
 20
95.97843502346322
 30
0.0
 10
178.336398392562
 20
96.39959876271843
 30
0.0
 10
178.0495900665457
 20
96.68554278320117
 30
0.0
 10
177.8225599334488
 20
96.617333201608
 30
0.0
  0
SPLINE
  5
167
330
1F
100
AcDbEntity
  8
_U+30EC_U+30A4_U+30E4_U+30FC 1
 62
     7
370
     5
100
AcDbSpline
210
0.0
220
0.0
230
1.0
 70
     8
 71
     3
 72
    11
 73
     7
 74
     0
 42
0.0000000001
 43
0.0000000001
 12
1.0
 22
0.0
 32
0.0
 13
1.0
 23
0.0
 33
0.0
 40
0.0
 40
0.0
 40
0.0
 40
0.0
 40
1.0
 40
1.0
 40
1.0
 40
2.0
 40
2.0
 40
2.0
 40
2.0
 10
177.9531406245619
 20
94.90166907871158
 30
0.0
 10
178.1801707576588
 20
94.97023143807353
 30
0.0
 10
178.2612920055892
 20
95.36675365017962
 30
0.0
 10
178.1343449254946
 20
95.78809377831922
 30
0.0
 10
178.0073978453999
 20
96.20925872570058
 30
0.0
 10
177.7205895193837
 20
96.49536150340673
 30
0.0
 10
177.4935593862868
 20
96.42681556757962
 30
0.0
  0
SPLINE
  5
168
330
1F
100
AcDbEntity
  8
_U+30EC_U+30A4_U+30E4_U+30FC 1
 62
     7
370
     5
100
AcDbSpline
210
0.0
220
0.0
230
1.0
 70
     8
 71
     3
 72
    11
 73
     7
 74
     0
 42
0.0000000001
 43
0.0000000001
 12
1.0
 22
0.0
 32
0.0
 13
1.0
 23
0.0
 33
0.0
 40
0.0
 40
0.0
 40
0.0
 40
0.0
 40
1.0
 40
1.0
 40
1.0
 40
2.0
 40
2.0
 40
2.0
 40
2.0
 10
177.6497896303319
 20
94.72596811097186
 30
0.0
 10
177.8768171542868
 20
94.7945304703338
 30
0.0
 10
177.9577796522213
 20
95.1910526824399
 30
0.0
 10
177.8310089610111
 20
95.61239281057951
 30
0.0
 10
177.703885492032
 20
96.03355654983473
 30
0.0
 10
177.4172535549002
 20
96.31967817011746
 30
0.0
 10
177.1902234218033
 20
96.25111459983991
 30
0.0
  0
SPLINE
  5
169
330
1F
100
AcDbEntity
  8
_U+30EC_U+30A4_U+30E4_U+30FC 1
 62
     7
370
     5
100
AcDbSpline
210
0.0
220
0.0
230
1.0
 70
     8
 71
     3
 72
    11
 73
     7
 74
     0
 42
0.0000000001
 43
0.0000000001
 12
1.0
 22
0.0
 32
0.0
 13
1.0
 23
0.0
 33
0.0
 40
0.0
 40
0.0
 40
0.0
 40
0.0
 40
1.0
 40
1.0
 40
1.0
 40
2.0
 40
2.0
 40
2.0
 40
2.0
 10
177.3207864740279
 20
94.53562686582787
 30
0.0
 10
177.5478166071248
 20
94.60401283630543
 30
0.0
 10
177.6287791050593
 20
95.0008878261803
 30
0.0
 10
177.5019907749606
 20
95.42205156543551
 30
0.0
 10
177.3748673059816
 20
95.84321530469073
 30
0.0
 10
177.0882353688497
 20
96.12915932517348
 30
0.0
 10
176.8612052357528
 20
96.06094974358031
 30
0.0
  0
SPLINE
  5
16A
330
1F
100
AcDbEntity
  8
_U+30EC_U+30A4_U+30E4_U+30FC 1
 62
     7
370
     5
100
AcDbSpline
210
0.0
220
0.0
230
1.0
 70
     8
 71
     3
 72
    11
 73
     7
 74
     0
 42
0.0000000001
 43
0.0000000001
 12
1.0
 22
0.0
 32
0.0
 13
1.0
 23
0.0
 33
0.0
 40
0.0
 40
0.0
 40
0.0
 40
0.0
 40
1.0
 40
1.0
 40
1.0
 40
2.0
 40
2.0
 40
2.0
 40
2.0
 10
177.0143460651792
 20
94.35837367590554
 30
0.0
 10
177.2413761982761
 20
94.42693603526747
 30
0.0
 10
177.3225150850949
 20
94.82345824737357
 30
0.0
 10
177.1955503661119
 20
95.24479837551317
 30
0.0
 10
177.0686032860172
 20
95.66596211476839
 30
0.0
 10
176.781794960001
 20
95.95208372576445
 30
0.0
 10
176.5547674083836
 20
95.88352016477359
 30
0.0
  0
SPLINE
  5
16B
330
1F
100
AcDbEntity
  8
_U+30EC_U+30A4_U+30E4_U+30FC 1
 62
     7
370
     5
100
AcDbSpline
210
0.0
220
0.0
230
1.0
 70
     8
 71
     3
 72
    11
 73
     7
 74
     0
 42
0.0000000001
 43
0.0000000001
 12
1.0
 22
0.0
 32
0.0
 13
1.0
 23
0.0
 33
0.0
 40
0.0
 40
0.0
 40
0.0
 40
0.0
 40
1.0
 40
1.0
 40
1.0
 40
2.0
 40
2.0
 40
2.0
 40
2.0
 10
176.6853455180172
 20
94.16803243076154
 30
0.0
 10
176.912375651114
 20
94.23641840123909
 30
0.0
 10
176.9934968990445
 20
94.63329339111397
 30
0.0
 10
176.8665498189498
 20
95.05445713036919
 30
0.0
 10
176.7983731003373
 20
95.28064241733912
 30
0.0
 10
176.6840890542102
 20
95.46782750870855
 30
0.0
 10
176.5577189457961
 20
95.5821004269664
 30
0.0
  0
SPLINE
  5
16C
330
1F
100
AcDbEntity
  8
_U+30EC_U+30A4_U+30E4_U+30FC 1
 62
     7
370
     5
100
AcDbSpline
210
0.0
220
0.0
230
1.0
 70
     8
 71
     3
 72
     8
 73
     4
 74
     0
 42
0.0000000001
 43
0.0000000001
 12
1.0
 22
0.0
 32
0.0
 13
1.0
 23
0.0
 33
0.0
 40
0.0
 40
0.0
 40
0.0
 40
0.0
 40
1.0
 40
1.0
 40
1.0
 40
1.0
 10
176.5890860508087
 20
94.23907397721673
 30
0.0
 10
176.6349047683235
 20
94.38949559874725
 30
0.0
 10
176.6358004904814
 20
94.59131864824737
 30
0.0
 10
176.5835864100066
 20
94.80415721806567
 30
0.0
  0
ENDSEC
  0
SECTION
  2
OBJECTS
  0
DICTIONARY
  5
C
330
0
100
AcDbDictionary
281
     1
  3
ACAD_GROUP
350
D
  3
ACAD_LAYOUT
350
1A
  3
ACAD_MATERIAL
350
3B
  3
ACAD_MLEADERSTYLE
350
190
  3
ACAD_MLINESTYLE
350
17
  3
ACAD_PLOTSETTINGS
350
19
  3
ACAD_PLOTSTYLENAME
350
E
  3
ACAD_TABLESTYLE
350
18F
  3
ACAD_VISUALSTYLE
350
2A
  0
SUN
  5
3F
330
29
100
AcDbSun
 90
        1
290
     0
 63
     7
421
 16777215
 40
1.0
291
     1
 91
  2455826
 92
 54000000
292
     0
 70
     2
 71
   256
280
     1
  0
DICTIONARY
  5
D
102
{ACAD_REACTORS
330
C
102
}
330
C
100
AcDbDictionary
281
     1
  0
DICTIONARY
  5
1A
102
{ACAD_REACTORS
330
C
102
}
330
C
100
AcDbDictionary
281
     1
  3
Layout1
350
1E
  3
Layout2
350
26
  3
Model
350
22
  0
DICTIONARY
  5
3B
102
{ACAD_REACTORS
330
C
102
}
330
C
100
AcDbDictionary
281
     1
  3
ByBlock
350
3D
  3
ByLayer
350
3C
  3
Global
350
3E
  0
DICTIONARY
  5
190
102
{ACAD_REACTORS
330
C
102
}
330
C
100
AcDbDictionary
281
     1
  0
DICTIONARY
  5
17
102
{ACAD_REACTORS
330
C
102
}
330
C
100
AcDbDictionary
281
     1
  3
Standard
350
18
  0
DICTIONARY
  5
19
102
{ACAD_REACTORS
330
C
102
}
330
C
100
AcDbDictionary
281
     1
  0
ACDBDICTIONARYWDFLT
  5
E
102
{ACAD_REACTORS
330
C
102
}
330
C
100
AcDbDictionary
281
     1
  3
Normal
350
F
100
AcDbDictionaryWithDefault
340
F
  0
DICTIONARY
  5
18F
102
{ACAD_REACTORS
330
C
102
}
330
C
100
AcDbDictionary
281
     1
  0
DICTIONARY
  5
2A
102
{ACAD_REACTORS
330
C
102
}
330
C
100
AcDbDictionary
281
     1
  3
2dWireframe
350
2F
  3
3D Hidden
350
31
  3
3dWireframe
350
30
  3
Basic
350
32
  3
Brighten
350
36
  3
ColorChange
350
3A
  3
Conceptual
350
34
  3
Dim
350
35
  3
Facepattern
350
39
  3
Flat
350
2B
  3
FlatWithEdges
350
2C
  3
Gouraud
350
2D
  3
GouraudWithEdges
350
2E
  3
Linepattern
350
38
  3
Realistic
350
33
  3
Thicken
350
37
  0
LAYOUT
  5
1E
102
{ACAD_REACTORS
330
1A
102
}
330
1A
100
AcDbPlotSettings
  1

  2
none_device
  4

  6

 40
0.0
 41
0.0
 42
0.0
 43
0.0
 44
0.0
 45
0.0
 46
0.0
 47
0.0
 48
0.0
 49
0.0
140
0.0
141
0.0
142
1.0
143
1.0
 70
   688
 72
     0
 73
     0
 74
     5
  7

 75
    16
 76
     0
 77
     2
 78
   300
147
1.0
148
0.0
149
0.0
100
AcDbLayout
  1
Layout1
 70
     1
 71
     1
 10
0.0
 20
0.0
 11
12.0
 21
9.0
 12
0.0
 22
0.0
 32
0.0
 14
1.000000000000000E+20
 24
1.000000000000000E+20
 34
1.000000000000000E+20
 15
-1.000000000000000E+20
 25
-1.000000000000000E+20
 35
-1.000000000000000E+20
146
0.0
 13
0.0
 23
0.0
 33
0.0
 16
1.0
 26
0.0
 36
0.0
 17
0.0
 27
1.0
 37
0.0
 76
     0
330
1B
  0
LAYOUT
  5
26
102
{ACAD_REACTORS
330
1A
102
}
330
1A
100
AcDbPlotSettings
  1

  2
none_device
  4

  6

 40
0.0
 41
0.0
 42
0.0
 43
0.0
 44
0.0
 45
0.0
 46
0.0
 47
0.0
 48
0.0
 49
0.0
140
0.0
141
0.0
142
1.0
143
1.0
 70
   688
 72
     0
 73
     0
 74
     5
  7

 75
    16
 76
     0
 77
     2
 78
   300
147
1.0
148
0.0
149
0.0
100
AcDbLayout
  1
Layout2
 70
     1
 71
     2
 10
0.0
 20
0.0
 11
0.0
 21
0.0
 12
0.0
 22
0.0
 32
0.0
 14
0.0
 24
0.0
 34
0.0
 15
0.0
 25
0.0
 35
0.0
146
0.0
 13
0.0
 23
0.0
 33
0.0
 16
1.0
 26
0.0
 36
0.0
 17
0.0
 27
1.0
 37
0.0
 76
     0
330
23
  0
LAYOUT
  5
22
102
{ACAD_REACTORS
330
1A
102
}
330
1A
100
AcDbPlotSettings
  1

  2
none_device
  4

  6

 40
0.0
 41
0.0
 42
0.0
 43
0.0
 44
0.0
 45
0.0
 46
0.0
 47
0.0
 48
0.0
 49
0.0
140
0.0
141
0.0
142
1.0
143
1.0
 70
  1712
 72
     0
 73
     0
 74
     0
  7

 75
     0
 76
     0
 77
     2
 78
   300
147
1.0
148
0.0
149
0.0
100
AcDbLayout
  1
Model
 70
     1
 71
     0
 10
0.0
 20
0.0
 11
12.0
 21
9.0
 12
0.0
 22
0.0
 32
0.0
 14
1.000000000000000E+20
 24
1.000000000000000E+20
 34
1.000000000000000E+20
 15
-1.000000000000000E+20
 25
-1.000000000000000E+20
 35
-1.000000000000000E+20
146
0.0
 13
0.0
 23
0.0
 33
0.0
 16
1.0
 26
0.0
 36
0.0
 17
0.0
 27
1.0
 37
0.0
 76
     0
330
1F
331
29
  0
MATERIAL
  5
3D
102
{ACAD_REACTORS
330
3B
102
}
330
3B
100
AcDbMaterial
  1
ByBlock
 72
     1
 94
      127
  0
MATERIAL
  5
3C
102
{ACAD_REACTORS
330
3B
102
}
330
3B
100
AcDbMaterial
  1
ByLayer
 72
     1
 94
      127
  0
MATERIAL
  5
3E
102
{ACAD_REACTORS
330
3B
102
}
330
3B
100
AcDbMaterial
  1
Global
 72
     1
 94
      127
  0
MLINESTYLE
  5
18
102
{ACAD_REACTORS
330
17
102
}
330
17
100
AcDbMlineStyle
  2
Standard
 70
     0
  3

 62
   256
 51
90.0
 52
90.0
 71
     2
 49
0.5
 62
   256
  6
BYLAYER
 49
-0.5
 62
   256
  6
BYLAYER
  0
ACDBPLACEHOLDER
  5
F
102
{ACAD_REACTORS
330
E
102
}
330
E
  0
VISUALSTYLE
  5
2F
102
{ACAD_REACTORS
330
2A
102
}
102
{ACAD_XDICTIONARY
360
177
102
}
330
2A
100
AcDbVisualStyle
  2
2dWireframe
 70
     4
 71
     0
 72
     2
 73
     0
 90
        0
 40
-0.6
 41
-30.0
 62
     5
 63
     7
421
 16777215
 74
     1
 91
        4
 64
     7
 65
   257
 75
     1
175
     1
 42
1.0
 92
        0
 66
   257
 43
1.0
 76
     1
 77
     6
 78
     2
 67
     7
 79
     5
170
     0
171
     0
290
     0
174
     0
 93
        1
 44
0.0
173
     0
291
     0
 45
0.0
  0
VISUALSTYLE
  5
31
102
{ACAD_REACTORS
330
2A
102
}
102
{ACAD_XDICTIONARY
360
17B
102
}
330
2A
100
AcDbVisualStyle
  2
3D Hidden
 70
     6
 71
     1
 72
     2
 73
     2
 90
        0
 40
-0.6
 41
-30.0
 62
     5
 63
     7
421
 16777215
 74
     2
 91
        2
 64
     7
 65
   257
 75
     2
175
     1
 42
40.0
 92
        0
 66
   257
 43
1.0
 76
     1
 77
     6
 78
     2
 67
     7
 79
     3
170
     0
171
     0
290
     0
174
     0
 93
        1
 44
0.0
173
     0
291
     0
 45
0.0
  0
VISUALSTYLE
  5
30
102
{ACAD_REACTORS
330
2A
102
}
102
{ACAD_XDICTIONARY
360
179
102
}
330
2A
100
AcDbVisualStyle
  2
3dWireframe
 70
     5
 71
     0
 72
     2
 73
     0
 90
        0
 40
-0.6
 41
-30.0
 62
     5
 63
     7
421
 16777215
 74
     1
 91
        4
 64
     7
 65
   257
 75
     1
175
     1
 42
1.0
 92
        0
 66
   257
 43
1.0
 76
     1
 77
     6
 78
     2
 67
     7
 79
     5
170
     0
171
     0
290
     0
174
     0
 93
        1
 44
0.0
173
     0
291
     0
 45
0.0
  0
VISUALSTYLE
  5
32
102
{ACAD_REACTORS
330
2A
102
}
102
{ACAD_XDICTIONARY
360
17D
102
}
330
2A
100
AcDbVisualStyle
  2
Basic
 70
     7
 71
     1
 72
     0
 73
     1
 90
        0
 40
-0.6
 41
-30.0
 62
     5
 63
     7
421
 16777215
 74
     0
 91
        4
 64
     7
 65
   257
 75
     1
175
     1
 42
1.0
 92
        8
 66
     7
 43
1.0
 76
     1
 77
     6
 78
     2
 67
     7
 79
     5
170
     0
171
     0
290
     0
174
     0
 93
        1
 44
0.0
173
     0
291
     1
 45
0.0
  0
VISUALSTYLE
  5
36
102
{ACAD_REACTORS
330
2A
102
}
102
{ACAD_XDICTIONARY
360
185
102
}
330
2A
100
AcDbVisualStyle
  2
Brighten
 70
    12
 71
     2
 72
     2
 73
     0
 90
        0
 40
-0.6
 41
-30.0
 62
     5
 63
     7
421
 16777215
 74
     1
 91
        4
 64
     7
 65
   257
 75
     1
175
     1
 42
1.0
 92
        8
 66
     7
 43
1.0
 76
     1
 77
     6
 78
     2
 67
     7
 79
     5
170
     0
171
     0
290
     0
174
     0
 93
        1
 44
50.0
173
     0
291
     1
 45
0.0
  0
VISUALSTYLE
  5
3A
102
{ACAD_REACTORS
330
2A
102
}
102
{ACAD_XDICTIONARY
360
18D
102
}
330
2A
100
AcDbVisualStyle
  2
ColorChange
 70
    16
 71
     2
 72
     2
 73
     3
 90
        0
 40
-0.6
 41
-30.0
 62
     5
 63
     8
421
  8421504
 74
     1
 91
        4
 64
     7
 65
   257
 75
     1
175
     1
 42
1.0
 92
        8
 66
     8
424
  8421504
 43
1.0
 76
     1
 77
     6
 78
     2
 67
     7
 79
     5
170
     0
171
     0
290
     0
174
     0
 93
        1
 44
0.0
173
     0
291
     1
 45
0.0
  0
VISUALSTYLE
  5
34
102
{ACAD_REACTORS
330
2A
102
}
102
{ACAD_XDICTIONARY
360
181
102
}
330
2A
100
AcDbVisualStyle
  2
Conceptual
 70
     9
 71
     3
 72
     2
 73
     0
 90
        0
 40
-0.6
 41
-30.0
 62
     5
 63
     7
421
 16777215
 74
     2
 91
        2
 64
     7
 65
   257
 75
     1
175
     1
 42
40.0
 92
        8
 66
     7
 43
1.0
 76
     1
 77
     6
 78
     2
 67
     7
 79
     3
170
     0
171
     0
290
     0
174
     0
 93
        1
 44
0.0
173
     0
291
     0
 45
0.0
  0
VISUALSTYLE
  5
35
102
{ACAD_REACTORS
330
2A
102
}
102
{ACAD_XDICTIONARY
360
183
102
}
330
2A
100
AcDbVisualStyle
  2
Dim
 70
    11
 71
     2
 72
     2
 73
     0
 90
        0
 40
-0.6
 41
-30.0
 62
     5
 63
     7
421
 16777215
 74
     1
 91
        4
 64
     7
 65
   257
 75
     1
175
     1
 42
1.0
 92
        8
 66
     7
 43
1.0
 76
     1
 77
     6
 78
     2
 67
     7
 79
     5
170
     0
171
     0
290
     0
174
     0
 93
        1
 44
-50.0
173
     0
291
     1
 45
0.0
  0
VISUALSTYLE
  5
39
102
{ACAD_REACTORS
330
2A
102
}
102
{ACAD_XDICTIONARY
360
18B
102
}
330
2A
100
AcDbVisualStyle
  2
Facepattern
 70
    15
 71
     2
 72
     2
 73
     0
 90
        0
 40
-0.6
 41
-30.0
 62
     5
 63
     7
421
 16777215
 74
     1
 91
        4
 64
     7
 65
   257
 75
     1
175
     1
 42
1.0
 92
        8
 66
     7
 43
1.0
 76
     1
 77
     6
 78
     2
 67
     7
 79
     5
170
     0
171
     0
290
     0
174
     0
 93
        1
 44
0.0
173
     0
291
     1
 45
0.0
  0
VISUALSTYLE
  5
2B
102
{ACAD_REACTORS
330
2A
102
}
102
{ACAD_XDICTIONARY
360
16F
102
}
330
2A
100
AcDbVisualStyle
  2
Flat
 70
     0
 71
     2
 72
     1
 73
     1
 90
        2
 40
-0.6
 41
30.0
 62
     5
 63
     7
421
 16777215
 74
     0
 91
        4
 64
     7
 65
   257
 75
     1
175
     1
 42
1.0
 92
        8
 66
     7
 43
1.0
 76
     1
 77
     6
 78
     2
 67
     7
 79
     5
170
     0
171
     0
290
     0
174
     0
 93
       13
 44
0.0
173
     0
291
     1
 45
0.0
  0
VISUALSTYLE
  5
2C
102
{ACAD_REACTORS
330
2A
102
}
102
{ACAD_XDICTIONARY
360
171
102
}
330
2A
100
AcDbVisualStyle
  2
FlatWithEdges
 70
     1
 71
     2
 72
     1
 73
     1
 90
        2
 40
-0.6
 41
30.0
 62
     5
 63
     7
421
 16777215
 74
     1
 91
        4
 64
     7
 65
   257
 75
     1
175
     1
 42
1.0
 92
        0
 66
   257
 43
1.0
 76
     1
 77
     6
 78
     2
 67
     7
 79
     5
170
     0
171
     0
290
     0
174
     0
 93
       13
 44
0.0
173
     0
291
     1
 45
0.0
  0
VISUALSTYLE
  5
2D
102
{ACAD_REACTORS
330
2A
102
}
102
{ACAD_XDICTIONARY
360
173
102
}
330
2A
100
AcDbVisualStyle
  2
Gouraud
 70
     2
 71
     2
 72
     2
 73
     1
 90
        2
 40
-0.6
 41
30.0
 62
     5
 63
     7
421
 16777215
 74
     0
 91
        4
 64
     7
 65
   257
 75
     1
175
     1
 42
1.0
 92
        0
 66
     7
 43
1.0
 76
     1
 77
     6
 78
     2
 67
     7
 79
     5
170
     0
171
     0
290
     0
174
     0
 93
       13
 44
0.0
173
     0
291
     1
 45
0.0
  0
VISUALSTYLE
  5
2E
102
{ACAD_REACTORS
330
2A
102
}
102
{ACAD_XDICTIONARY
360
175
102
}
330
2A
100
AcDbVisualStyle
  2
GouraudWithEdges
 70
     3
 71
     2
 72
     2
 73
     1
 90
        2
 40
-0.6
 41
30.0
 62
     5
 63
     7
421
 16777215
 74
     1
 91
        4
 64
     7
 65
   257
 75
     1
175
     1
 42
1.0
 92
        0
 66
   257
 43
1.0
 76
     1
 77
     6
 78
     2
 67
     7
 79
     5
170
     0
171
     0
290
     0
174
     0
 93
       13
 44
0.0
173
     0
291
     1
 45
0.0
  0
VISUALSTYLE
  5
38
102
{ACAD_REACTORS
330
2A
102
}
102
{ACAD_XDICTIONARY
360
189
102
}
330
2A
100
AcDbVisualStyle
  2
Linepattern
 70
    14
 71
     2
 72
     2
 73
     0
 90
        0
 40
-0.6
 41
-30.0
 62
     5
 63
     7
421
 16777215
 74
     1
 91
        4
 64
     7
 65
   257
 75
     7
175
     7
 42
1.0
 92
        8
 66
     7
 43
1.0
 76
     1
 77
     6
 78
     2
 67
     7
 79
     5
170
     0
171
     0
290
     0
174
     0
 93
        1
 44
0.0
173
     0
291
     1
 45
0.0
  0
VISUALSTYLE
  5
33
102
{ACAD_REACTORS
330
2A
102
}
102
{ACAD_XDICTIONARY
360
17F
102
}
330
2A
100
AcDbVisualStyle
  2
Realistic
 70
     8
 71
     2
 72
     2
 73
     0
 90
        0
 40
-0.6
 41
-30.0
 62
     5
 63
     7
421
 16777215
 74
     1
 91
        0
 64
     7
 65
   257
 75
     1
175
     1
 42
1.0
 92
        8
 66
     8
424
  7895160
 43
1.0
 76
     1
 77
     6
 78
     2
 67
     7
 79
     5
170
     0
171
     0
290
     0
174
     0
 93
       13
 44
0.0
173
     0
291
     0
 45
0.0
  0
VISUALSTYLE
  5
37
102
{ACAD_REACTORS
330
2A
102
}
102
{ACAD_XDICTIONARY
360
187
102
}
330
2A
100
AcDbVisualStyle
  2
Thicken
 70
    13
 71
     2
 72
     2
 73
     0
 90
        0
 40
-0.6
 41
-30.0
 62
     5
 63
     7
421
 16777215
 74
     1
 91
        4
 64
     7
 65
   257
 75
     1
175
     1
 42
1.0
 92
       12
 66
     7
 43
1.0
 76
     1
 77
     6
 78
     2
 67
     7
 79
     5
170
     0
171
     0
290
     0
174
     0
 93
        1
 44
0.0
173
     0
291
     1
 45
0.0
  0
DICTIONARY
  5
177
330
2F
100
AcDbDictionary
280
     1
281
     1
  3
ACAD_XREC_ROUNDTRIP
360
178
  0
DICTIONARY
  5
17B
330
31
100
AcDbDictionary
280
     1
281
     1
  3
ACAD_XREC_ROUNDTRIP
360
17C
  0
DICTIONARY
  5
179
330
30
100
AcDbDictionary
280
     1
281
     1
  3
ACAD_XREC_ROUNDTRIP
360
17A
  0
DICTIONARY
  5
17D
330
32
100
AcDbDictionary
280
     1
281
     1
  3
ACAD_XREC_ROUNDTRIP
360
17E
  0
DICTIONARY
  5
185
330
36
100
AcDbDictionary
280
     1
281
     1
  3
ACAD_XREC_ROUNDTRIP
360
186
  0
DICTIONARY
  5
18D
330
3A
100
AcDbDictionary
280
     1
281
     1
  3
ACAD_XREC_ROUNDTRIP
360
18E
  0
DICTIONARY
  5
181
330
34
100
AcDbDictionary
280
     1
281
     1
  3
ACAD_XREC_ROUNDTRIP
360
182
  0
DICTIONARY
  5
183
330
35
100
AcDbDictionary
280
     1
281
     1
  3
ACAD_XREC_ROUNDTRIP
360
184
  0
DICTIONARY
  5
18B
330
39
100
AcDbDictionary
280
     1
281
     1
  3
ACAD_XREC_ROUNDTRIP
360
18C
  0
DICTIONARY
  5
16F
330
2B
100
AcDbDictionary
280
     1
281
     1
  3
ACAD_XREC_ROUNDTRIP
360
170
  0
DICTIONARY
  5
171
330
2C
100
AcDbDictionary
280
     1
281
     1
  3
ACAD_XREC_ROUNDTRIP
360
172
  0
DICTIONARY
  5
173
330
2D
100
AcDbDictionary
280
     1
281
     1
  3
ACAD_XREC_ROUNDTRIP
360
174
  0
DICTIONARY
  5
175
330
2E
100
AcDbDictionary
280
     1
281
     1
  3
ACAD_XREC_ROUNDTRIP
360
176
  0
DICTIONARY
  5
189
330
38
100
AcDbDictionary
280
     1
281
     1
  3
ACAD_XREC_ROUNDTRIP
360
18A
  0
DICTIONARY
  5
17F
330
33
100
AcDbDictionary
280
     1
281
     1
  3
ACAD_XREC_ROUNDTRIP
360
180
  0
DICTIONARY
  5
187
330
37
100
AcDbDictionary
280
     1
281
     1
  3
ACAD_XREC_ROUNDTRIP
360
188
  0
XRECORD
  5
178
102
{ACAD_REACTORS
330
177
102
}
330
177
100
AcDbXrecord
280
     1
102
RTVSPropertyOp0
 70
     1
102
RTVSPropertyOp1
 70
     1
102
RTVSPropertyOp2
 70
     1
102
RTVSPropertyOp3
 70
     1
102
RTVSPropertyOp4
 70
     1
102
RTVSPropertyOp5
 70
     1
102
RTVSPropertyOp6
 70
     1
102
RTVSPropertyOp7
 70
     1
102
RTVSPropertyOp8
 70
     1
102
RTVSPropertyOp9
 70
     1
102
RTVSPropertyOp10
 70
     1
102
RTVSPropertyOp11
 70
     1
102
RTVSPropertyOp12
 70
     1
102
RTVSPropertyOp13
 70
     1
102
RTVSPropertyOp14
 70
     1
102
RTVSPropertyOp15
 70
     1
102
RTVSPropertyOp16
 70
     1
102
RTVSPropertyOp17
 70
     1
102
RTVSPropertyOp18
 70
     1
102
RTVSPropertyOp19
 70
     1
102
RTVSPropertyOp20
 70
     1
102
RTVSPropertyOp21
 70
     1
102
RTVSPropertyOp22
 70
     1
102
RTVSPropertyOp23
 70
     1
102
RTVSPropertyOp24
 70
     1
102
RTVSPropertyOp25
 70
     1
102
RTVSPropertyOp26
 70
     1
102
RTVSPropertyOp27
 70
     1
102
RTVSPropertyOp28
 70
     1
102
RTVSPropertyOp29
 70
     1
102
RTVSPropertyOp30
 70
     1
102
RTVSPropertyOp31
 70
     1
102
RTVSPropertyOp32
 70
     1
  0
XRECORD
  5
17C
102
{ACAD_REACTORS
330
17B
102
}
330
17B
100
AcDbXrecord
280
     1
102
RTVSPropertyOp0
 70
     1
102
RTVSPropertyOp1
 70
     1
102
RTVSPropertyOp2
 70
     1
102
RTVSPropertyOp3
 70
     1
102
RTVSPropertyOp4
 70
     1
102
RTVSPropertyOp5
 70
     1
102
RTVSPropertyOp6
 70
     1
102
RTVSPropertyOp7
 70
     1
102
RTVSPropertyOp8
 70
     1
102
RTVSPropertyOp9
 70
     1
102
RTVSPropertyOp10
 70
     1
102
RTVSPropertyOp11
 70
     1
102
RTVSPropertyOp12
 70
     1
102
RTVSPropertyOp13
 70
     1
102
RTVSPropertyOp14
 70
     1
102
RTVSPropertyOp15
 70
     1
102
RTVSPropertyOp16
 70
     1
102
RTVSPropertyOp17
 70
     1
102
RTVSPropertyOp18
 70
     1
102
RTVSPropertyOp19
 70
     1
102
RTVSPropertyOp20
 70
     1
102
RTVSPropertyOp21
 70
     1
102
RTVSPropertyOp22
 70
     1
102
RTVSPropertyOp23
 70
     1
102
RTVSPropertyOp24
 70
     1
102
RTVSPropertyOp25
 70
     1
102
RTVSPropertyOp26
 70
     1
102
RTVSPropertyOp27
 70
     1
102
RTVSPropertyOp28
 70
     1
102
RTVSPropertyOp29
 70
     1
102
RTVSPropertyOp30
 70
     1
102
RTVSPropertyOp31
 70
     1
102
RTVSPropertyOp32
 70
     1
  0
XRECORD
  5
17A
102
{ACAD_REACTORS
330
179
102
}
330
179
100
AcDbXrecord
280
     1
102
RTVSPropertyOp0
 70
     1
102
RTVSPropertyOp1
 70
     1
102
RTVSPropertyOp2
 70
     1
102
RTVSPropertyOp3
 70
     1
102
RTVSPropertyOp4
 70
     1
102
RTVSPropertyOp5
 70
     1
102
RTVSPropertyOp6
 70
     1
102
RTVSPropertyOp7
 70
     1
102
RTVSPropertyOp8
 70
     1
102
RTVSPropertyOp9
 70
     1
102
RTVSPropertyOp10
 70
     1
102
RTVSPropertyOp11
 70
     1
102
RTVSPropertyOp12
 70
     1
102
RTVSPropertyOp13
 70
     1
102
RTVSPropertyOp14
 70
     1
102
RTVSPropertyOp15
 70
     1
102
RTVSPropertyOp16
 70
     1
102
RTVSPropertyOp17
 70
     1
102
RTVSPropertyOp18
 70
     1
102
RTVSPropertyOp19
 70
     1
102
RTVSPropertyOp20
 70
     1
102
RTVSPropertyOp21
 70
     1
102
RTVSPropertyOp22
 70
     1
102
RTVSPropertyOp23
 70
     1
102
RTVSPropertyOp24
 70
     1
102
RTVSPropertyOp25
 70
     1
102
RTVSPropertyOp26
 70
     1
102
RTVSPropertyOp27
 70
     1
102
RTVSPropertyOp28
 70
     1
102
RTVSPropertyOp29
 70
     1
102
RTVSPropertyOp30
 70
     1
102
RTVSPropertyOp31
 70
     1
102
RTVSPropertyOp32
 70
     1
  0
XRECORD
  5
17E
102
{ACAD_REACTORS
330
17D
102
}
330
17D
100
AcDbXrecord
280
     1
102
RTVSPropertyOp0
 70
     1
102
RTVSPropertyOp1
 70
     1
102
RTVSPropertyOp2
 70
     1
102
RTVSPropertyOp3
 70
     1
102
RTVSPropertyOp4
 70
     1
102
RTVSPropertyOp5
 70
     1
102
RTVSPropertyOp6
 70
     1
102
RTVSPropertyOp7
 70
     1
102
RTVSPropertyOp8
 70
     1
102
RTVSPropertyOp9
 70
     1
102
RTVSPropertyOp10
 70
     1
102
RTVSPropertyOp11
 70
     1
102
RTVSPropertyOp12
 70
     1
102
RTVSPropertyOp13
 70
     1
102
RTVSPropertyOp14
 70
     1
102
RTVSPropertyOp15
 70
     1
102
RTVSPropertyOp16
 70
     1
102
RTVSPropertyOp17
 70
     1
102
RTVSPropertyOp18
 70
     1
102
RTVSPropertyOp19
 70
     1
102
RTVSPropertyOp20
 70
     1
102
RTVSPropertyOp21
 70
     1
102
RTVSPropertyOp22
 70
     1
102
RTVSPropertyOp23
 70
     1
102
RTVSPropertyOp24
 70
     1
102
RTVSPropertyOp25
 70
     1
102
RTVSPropertyOp26
 70
     1
102
RTVSPropertyOp27
 70
     1
102
RTVSPropertyOp28
 70
     1
102
RTVSPropertyOp29
 70
     1
102
RTVSPropertyOp30
 70
     1
102
RTVSPropertyOp31
 70
     1
102
RTVSPropertyOp32
 70
     1
  0
XRECORD
  5
186
102
{ACAD_REACTORS
330
185
102
}
330
185
100
AcDbXrecord
280
     1
102
RTVSPropertyOp0
 70
     1
102
RTVSPropertyOp1
 70
     1
102
RTVSPropertyOp2
 70
     1
102
RTVSPropertyOp3
 70
     1
102
RTVSPropertyOp4
 70
     1
102
RTVSPropertyOp5
 70
     1
102
RTVSPropertyOp6
 70
     1
102
RTVSPropertyOp7
 70
     1
102
RTVSPropertyOp8
 70
     1
102
RTVSPropertyOp9
 70
     1
102
RTVSPropertyOp10
 70
     1
102
RTVSPropertyOp11
 70
     1
102
RTVSPropertyOp12
 70
     1
102
RTVSPropertyOp13
 70
     1
102
RTVSPropertyOp14
 70
     1
102
RTVSPropertyOp15
 70
     1
102
RTVSPropertyOp16
 70
     1
102
RTVSPropertyOp17
 70
     1
102
RTVSPropertyOp18
 70
     1
102
RTVSPropertyOp19
 70
     1
102
RTVSPropertyOp20
 70
     1
102
RTVSPropertyOp21
 70
     1
102
RTVSPropertyOp22
 70
     1
102
RTVSPropertyOp23
 70
     1
102
RTVSPropertyOp24
 70
     1
102
RTVSPropertyOp25
 70
     1
102
RTVSPropertyOp26
 70
     1
102
RTVSPropertyOp27
 70
     1
102
RTVSPropertyOp28
 70
     1
102
RTVSPropertyOp29
 70
     1
102
RTVSPropertyOp30
 70
     1
102
RTVSPropertyOp31
 70
     1
102
RTVSPropertyOp32
 70
     1
  0
XRECORD
  5
18E
102
{ACAD_REACTORS
330
18D
102
}
330
18D
100
AcDbXrecord
280
     1
102
RTVSPropertyOp0
 70
     1
102
RTVSPropertyOp1
 70
     1
102
RTVSPropertyOp2
 70
     1
102
RTVSPropertyOp3
 70
     1
102
RTVSPropertyOp4
 70
     1
102
RTVSPropertyOp5
 70
     1
102
RTVSPropertyOp6
 70
     1
102
RTVSPropertyOp7
 70
     1
102
RTVSPropertyOp8
 70
     1
102
RTVSPropertyOp9
 70
     1
102
RTVSPropertyOp10
 70
     1
102
RTVSPropertyOp11
 70
     1
102
RTVSPropertyOp12
 70
     1
102
RTVSPropertyOp13
 70
     1
102
RTVSPropertyOp14
 70
     1
102
RTVSPropertyOp15
 70
     1
102
RTVSPropertyOp16
 70
     1
102
RTVSPropertyOp17
 70
     1
102
RTVSPropertyOp18
 70
     1
102
RTVSPropertyOp19
 70
     1
102
RTVSPropertyOp20
 70
     1
102
RTVSPropertyOp21
 70
     1
102
RTVSPropertyOp22
 70
     1
102
RTVSPropertyOp23
 70
     1
102
RTVSPropertyOp24
 70
     1
102
RTVSPropertyOp25
 70
     1
102
RTVSPropertyOp26
 70
     1
102
RTVSPropertyOp27
 70
     1
102
RTVSPropertyOp28
 70
     1
102
RTVSPropertyOp29
 70
     1
102
RTVSPropertyOp30
 70
     1
102
RTVSPropertyOp31
 70
     1
102
RTVSPropertyOp32
 70
     1
  0
XRECORD
  5
182
102
{ACAD_REACTORS
330
181
102
}
330
181
100
AcDbXrecord
280
     1
102
RTVSPropertyOp0
 70
     1
102
RTVSPropertyOp1
 70
     1
102
RTVSPropertyOp2
 70
     1
102
RTVSPropertyOp3
 70
     1
102
RTVSPropertyOp4
 70
     1
102
RTVSPropertyOp5
 70
     1
102
RTVSPropertyOp6
 70
     1
102
RTVSPropertyOp7
 70
     1
102
RTVSPropertyOp8
 70
     1
102
RTVSPropertyOp9
 70
     1
102
RTVSPropertyOp10
 70
     1
102
RTVSPropertyOp11
 70
     1
102
RTVSPropertyOp12
 70
     1
102
RTVSPropertyOp13
 70
     1
102
RTVSPropertyOp14
 70
     1
102
RTVSPropertyOp15
 70
     1
102
RTVSPropertyOp16
 70
     1
102
RTVSPropertyOp17
 70
     1
102
RTVSPropertyOp18
 70
     1
102
RTVSPropertyOp19
 70
     1
102
RTVSPropertyOp20
 70
     1
102
RTVSPropertyOp21
 70
     1
102
RTVSPropertyOp22
 70
     1
102
RTVSPropertyOp23
 70
     1
102
RTVSPropertyOp24
 70
     1
102
RTVSPropertyOp25
 70
     1
102
RTVSPropertyOp26
 70
     1
102
RTVSPropertyOp27
 70
     1
102
RTVSPropertyOp28
 70
     1
102
RTVSPropertyOp29
 70
     1
102
RTVSPropertyOp30
 70
     1
102
RTVSPropertyOp31
 70
     1
102
RTVSPropertyOp32
 70
     1
  0
XRECORD
  5
184
102
{ACAD_REACTORS
330
183
102
}
330
183
100
AcDbXrecord
280
     1
102
RTVSPropertyOp0
 70
     1
102
RTVSPropertyOp1
 70
     1
102
RTVSPropertyOp2
 70
     1
102
RTVSPropertyOp3
 70
     1
102
RTVSPropertyOp4
 70
     1
102
RTVSPropertyOp5
 70
     1
102
RTVSPropertyOp6
 70
     1
102
RTVSPropertyOp7
 70
     1
102
RTVSPropertyOp8
 70
     1
102
RTVSPropertyOp9
 70
     1
102
RTVSPropertyOp10
 70
     1
102
RTVSPropertyOp11
 70
     1
102
RTVSPropertyOp12
 70
     1
102
RTVSPropertyOp13
 70
     1
102
RTVSPropertyOp14
 70
     1
102
RTVSPropertyOp15
 70
     1
102
RTVSPropertyOp16
 70
     1
102
RTVSPropertyOp17
 70
     1
102
RTVSPropertyOp18
 70
     1
102
RTVSPropertyOp19
 70
     1
102
RTVSPropertyOp20
 70
     1
102
RTVSPropertyOp21
 70
     1
102
RTVSPropertyOp22
 70
     1
102
RTVSPropertyOp23
 70
     1
102
RTVSPropertyOp24
 70
     1
102
RTVSPropertyOp25
 70
     1
102
RTVSPropertyOp26
 70
     1
102
RTVSPropertyOp27
 70
     1
102
RTVSPropertyOp28
 70
     1
102
RTVSPropertyOp29
 70
     1
102
RTVSPropertyOp30
 70
     1
102
RTVSPropertyOp31
 70
     1
102
RTVSPropertyOp32
 70
     1
  0
XRECORD
  5
18C
102
{ACAD_REACTORS
330
18B
102
}
330
18B
100
AcDbXrecord
280
     1
102
RTVSPropertyOp0
 70
     1
102
RTVSPropertyOp1
 70
     1
102
RTVSPropertyOp2
 70
     1
102
RTVSPropertyOp3
 70
     1
102
RTVSPropertyOp4
 70
     1
102
RTVSPropertyOp5
 70
     1
102
RTVSPropertyOp6
 70
     1
102
RTVSPropertyOp7
 70
     1
102
RTVSPropertyOp8
 70
     1
102
RTVSPropertyOp9
 70
     1
102
RTVSPropertyOp10
 70
     1
102
RTVSPropertyOp11
 70
     1
102
RTVSPropertyOp12
 70
     1
102
RTVSPropertyOp13
 70
     1
102
RTVSPropertyOp14
 70
     1
102
RTVSPropertyOp15
 70
     1
102
RTVSPropertyOp16
 70
     1
102
RTVSPropertyOp17
 70
     1
102
RTVSPropertyOp18
 70
     1
102
RTVSPropertyOp19
 70
     1
102
RTVSPropertyOp20
 70
     1
102
RTVSPropertyOp21
 70
     1
102
RTVSPropertyOp22
 70
     1
102
RTVSPropertyOp23
 70
     1
102
RTVSPropertyOp24
 70
     1
102
RTVSPropertyOp25
 70
     1
102
RTVSPropertyOp26
 70
     1
102
RTVSPropertyOp27
 70
     1
102
RTVSPropertyOp28
 70
     1
102
RTVSPropertyOp29
 70
     1
102
RTVSPropertyOp30
 70
     1
102
RTVSPropertyOp31
 70
     1
102
RTVSPropertyOp32
 70
     1
  0
XRECORD
  5
170
102
{ACAD_REACTORS
330
16F
102
}
330
16F
100
AcDbXrecord
280
     1
102
RTVSPropertyOp0
 70
     1
102
RTVSPropertyOp1
 70
     1
102
RTVSPropertyOp2
 70
     1
102
RTVSPropertyOp3
 70
     1
102
RTVSPropertyOp4
 70
     1
102
RTVSPropertyOp5
 70
     1
102
RTVSPropertyOp6
 70
     1
102
RTVSPropertyOp7
 70
     1
102
RTVSPropertyOp8
 70
     1
102
RTVSPropertyOp9
 70
     1
102
RTVSPropertyOp10
 70
     1
102
RTVSPropertyOp11
 70
     1
102
RTVSPropertyOp12
 70
     1
102
RTVSPropertyOp13
 70
     1
102
RTVSPropertyOp14
 70
     1
102
RTVSPropertyOp15
 70
     1
102
RTVSPropertyOp16
 70
     1
102
RTVSPropertyOp17
 70
     1
102
RTVSPropertyOp18
 70
     1
102
RTVSPropertyOp19
 70
     1
102
RTVSPropertyOp20
 70
     1
102
RTVSPropertyOp21
 70
     1
102
RTVSPropertyOp22
 70
     1
102
RTVSPropertyOp23
 70
     1
102
RTVSPropertyOp24
 70
     1
102
RTVSPropertyOp25
 70
     1
102
RTVSPropertyOp26
 70
     1
102
RTVSPropertyOp27
 70
     1
102
RTVSPropertyOp28
 70
     1
102
RTVSPropertyOp29
 70
     1
102
RTVSPropertyOp30
 70
     1
102
RTVSPropertyOp31
 70
     1
102
RTVSPropertyOp32
 70
     1
  0
XRECORD
  5
172
102
{ACAD_REACTORS
330
171
102
}
330
171
100
AcDbXrecord
280
     1
102
RTVSPropertyOp0
 70
     1
102
RTVSPropertyOp1
 70
     1
102
RTVSPropertyOp2
 70
     1
102
RTVSPropertyOp3
 70
     1
102
RTVSPropertyOp4
 70
     1
102
RTVSPropertyOp5
 70
     1
102
RTVSPropertyOp6
 70
     1
102
RTVSPropertyOp7
 70
     1
102
RTVSPropertyOp8
 70
     1
102
RTVSPropertyOp9
 70
     1
102
RTVSPropertyOp10
 70
     1
102
RTVSPropertyOp11
 70
     1
102
RTVSPropertyOp12
 70
     1
102
RTVSPropertyOp13
 70
     1
102
RTVSPropertyOp14
 70
     1
102
RTVSPropertyOp15
 70
     1
102
RTVSPropertyOp16
 70
     1
102
RTVSPropertyOp17
 70
     1
102
RTVSPropertyOp18
 70
     1
102
RTVSPropertyOp19
 70
     1
102
RTVSPropertyOp20
 70
     1
102
RTVSPropertyOp21
 70
     1
102
RTVSPropertyOp22
 70
     1
102
RTVSPropertyOp23
 70
     1
102
RTVSPropertyOp24
 70
     1
102
RTVSPropertyOp25
 70
     1
102
RTVSPropertyOp26
 70
     1
102
RTVSPropertyOp27
 70
     1
102
RTVSPropertyOp28
 70
     1
102
RTVSPropertyOp29
 70
     1
102
RTVSPropertyOp30
 70
     1
102
RTVSPropertyOp31
 70
     1
102
RTVSPropertyOp32
 70
     1
  0
XRECORD
  5
174
102
{ACAD_REACTORS
330
173
102
}
330
173
100
AcDbXrecord
280
     1
102
RTVSPropertyOp0
 70
     1
102
RTVSPropertyOp1
 70
     1
102
RTVSPropertyOp2
 70
     1
102
RTVSPropertyOp3
 70
     1
102
RTVSPropertyOp4
 70
     1
102
RTVSPropertyOp5
 70
     1
102
RTVSPropertyOp6
 70
     1
102
RTVSPropertyOp7
 70
     1
102
RTVSPropertyOp8
 70
     1
102
RTVSPropertyOp9
 70
     1
102
RTVSPropertyOp10
 70
     1
102
RTVSPropertyOp11
 70
     1
102
RTVSPropertyOp12
 70
     1
102
RTVSPropertyOp13
 70
     1
102
RTVSPropertyOp14
 70
     1
102
RTVSPropertyOp15
 70
     1
102
RTVSPropertyOp16
 70
     1
102
RTVSPropertyOp17
 70
     1
102
RTVSPropertyOp18
 70
     1
102
RTVSPropertyOp19
 70
     1
102
RTVSPropertyOp20
 70
     1
102
RTVSPropertyOp21
 70
     1
102
RTVSPropertyOp22
 70
     1
102
RTVSPropertyOp23
 70
     1
102
RTVSPropertyOp24
 70
     1
102
RTVSPropertyOp25
 70
     1
102
RTVSPropertyOp26
 70
     1
102
RTVSPropertyOp27
 70
     1
102
RTVSPropertyOp28
 70
     1
102
RTVSPropertyOp29
 70
     1
102
RTVSPropertyOp30
 70
     1
102
RTVSPropertyOp31
 70
     1
102
RTVSPropertyOp32
 70
     1
  0
XRECORD
  5
176
102
{ACAD_REACTORS
330
175
102
}
330
175
100
AcDbXrecord
280
     1
102
RTVSPropertyOp0
 70
     1
102
RTVSPropertyOp1
 70
     1
102
RTVSPropertyOp2
 70
     1
102
RTVSPropertyOp3
 70
     1
102
RTVSPropertyOp4
 70
     1
102
RTVSPropertyOp5
 70
     1
102
RTVSPropertyOp6
 70
     1
102
RTVSPropertyOp7
 70
     1
102
RTVSPropertyOp8
 70
     1
102
RTVSPropertyOp9
 70
     1
102
RTVSPropertyOp10
 70
     1
102
RTVSPropertyOp11
 70
     1
102
RTVSPropertyOp12
 70
     1
102
RTVSPropertyOp13
 70
     1
102
RTVSPropertyOp14
 70
     1
102
RTVSPropertyOp15
 70
     1
102
RTVSPropertyOp16
 70
     1
102
RTVSPropertyOp17
 70
     1
102
RTVSPropertyOp18
 70
     1
102
RTVSPropertyOp19
 70
     1
102
RTVSPropertyOp20
 70
     1
102
RTVSPropertyOp21
 70
     1
102
RTVSPropertyOp22
 70
     1
102
RTVSPropertyOp23
 70
     1
102
RTVSPropertyOp24
 70
     1
102
RTVSPropertyOp25
 70
     1
102
RTVSPropertyOp26
 70
     1
102
RTVSPropertyOp27
 70
     1
102
RTVSPropertyOp28
 70
     1
102
RTVSPropertyOp29
 70
     1
102
RTVSPropertyOp30
 70
     1
102
RTVSPropertyOp31
 70
     1
102
RTVSPropertyOp32
 70
     1
  0
XRECORD
  5
18A
102
{ACAD_REACTORS
330
189
102
}
330
189
100
AcDbXrecord
280
     1
102
RTVSPropertyOp0
 70
     1
102
RTVSPropertyOp1
 70
     1
102
RTVSPropertyOp2
 70
     1
102
RTVSPropertyOp3
 70
     1
102
RTVSPropertyOp4
 70
     1
102
RTVSPropertyOp5
 70
     1
102
RTVSPropertyOp6
 70
     1
102
RTVSPropertyOp7
 70
     1
102
RTVSPropertyOp8
 70
     1
102
RTVSPropertyOp9
 70
     1
102
RTVSPropertyOp10
 70
     1
102
RTVSPropertyOp11
 70
     1
102
RTVSPropertyOp12
 70
     1
102
RTVSPropertyOp13
 70
     1
102
RTVSPropertyOp14
 70
     1
102
RTVSPropertyOp15
 70
     1
102
RTVSPropertyOp16
 70
     1
102
RTVSPropertyOp17
 70
     1
102
RTVSPropertyOp18
 70
     1
102
RTVSPropertyOp19
 70
     1
102
RTVSPropertyOp20
 70
     1
102
RTVSPropertyOp21
 70
     1
102
RTVSPropertyOp22
 70
     1
102
RTVSPropertyOp23
 70
     1
102
RTVSPropertyOp24
 70
     1
102
RTVSPropertyOp25
 70
     1
102
RTVSPropertyOp26
 70
     1
102
RTVSPropertyOp27
 70
     1
102
RTVSPropertyOp28
 70
     1
102
RTVSPropertyOp29
 70
     1
102
RTVSPropertyOp30
 70
     1
102
RTVSPropertyOp31
 70
     1
102
RTVSPropertyOp32
 70
     1
  0
XRECORD
  5
180
102
{ACAD_REACTORS
330
17F
102
}
330
17F
100
AcDbXrecord
280
     1
102
RTVSPropertyOp0
 70
     1
102
RTVSPropertyOp1
 70
     1
102
RTVSPropertyOp2
 70
     1
102
RTVSPropertyOp3
 70
     1
102
RTVSPropertyOp4
 70
     1
102
RTVSPropertyOp5
 70
     1
102
RTVSPropertyOp6
 70
     1
102
RTVSPropertyOp7
 70
     1
102
RTVSPropertyOp8
 70
     1
102
RTVSPropertyOp9
 70
     1
102
RTVSPropertyOp10
 70
     1
102
RTVSPropertyOp11
 70
     1
102
RTVSPropertyOp12
 70
     1
102
RTVSPropertyOp13
 70
     1
102
RTVSPropertyOp14
 70
     1
102
RTVSPropertyOp15
 70
     1
102
RTVSPropertyOp16
 70
     1
102
RTVSPropertyOp17
 70
     1
102
RTVSPropertyOp18
 70
     1
102
RTVSPropertyOp19
 70
     1
102
RTVSPropertyOp20
 70
     1
102
RTVSPropertyOp21
 70
     1
102
RTVSPropertyOp22
 70
     1
102
RTVSPropertyOp23
 70
     1
102
RTVSPropertyOp24
 70
     1
102
RTVSPropertyOp25
 70
     1
102
RTVSPropertyOp26
 70
     1
102
RTVSPropertyOp27
 70
     1
102
RTVSPropertyOp28
 70
     1
102
RTVSPropertyOp29
 70
     1
102
RTVSPropertyOp30
 70
     1
102
RTVSPropertyOp31
 70
     1
102
RTVSPropertyOp32
 70
     1
  0
XRECORD
  5
188
102
{ACAD_REACTORS
330
187
102
}
330
187
100
AcDbXrecord
280
     1
102
RTVSPropertyOp0
 70
     1
102
RTVSPropertyOp1
 70
     1
102
RTVSPropertyOp2
 70
     1
102
RTVSPropertyOp3
 70
     1
102
RTVSPropertyOp4
 70
     1
102
RTVSPropertyOp5
 70
     1
102
RTVSPropertyOp6
 70
     1
102
RTVSPropertyOp7
 70
     1
102
RTVSPropertyOp8
 70
     1
102
RTVSPropertyOp9
 70
     1
102
RTVSPropertyOp10
 70
     1
102
RTVSPropertyOp11
 70
     1
102
RTVSPropertyOp12
 70
     1
102
RTVSPropertyOp13
 70
     1
102
RTVSPropertyOp14
 70
     1
102
RTVSPropertyOp15
 70
     1
102
RTVSPropertyOp16
 70
     1
102
RTVSPropertyOp17
 70
     1
102
RTVSPropertyOp18
 70
     1
102
RTVSPropertyOp19
 70
     1
102
RTVSPropertyOp20
 70
     1
102
RTVSPropertyOp21
 70
     1
102
RTVSPropertyOp22
 70
     1
102
RTVSPropertyOp23
 70
     1
102
RTVSPropertyOp24
 70
     1
102
RTVSPropertyOp25
 70
     1
102
RTVSPropertyOp26
 70
     1
102
RTVSPropertyOp27
 70
     1
102
RTVSPropertyOp28
 70
     1
102
RTVSPropertyOp29
 70
     1
102
RTVSPropertyOp30
 70
     1
102
RTVSPropertyOp31
 70
     1
102
RTVSPropertyOp32
 70
     1
  0
ENDSEC
  0
EOF
