  0
SECTION
  2
HEADER
  9
$ACADVER
  1
AC1015
  9
$ACADMAINTVER
 70
               6
  9
$DWGCODEPAGE
  3
ANSI_932
  9
$INSBASE
 10
0.0
 20
0.0
 30
0.0
  9
$EXTMIN
 10
202.81723952454246
 20
26.766666666666666
 30
0.0
  9
$EXTMAX
 10
221.61323909390552
 20
31.0
 30
0.0
  9
$LIMMIN
 10
0.0
 20
0.0
  9
$LIMMAX
 10
0.0
 20
0.0
  9
$ORTHOMODE
 70
               0
  9
$REGENMODE
 70
               1
  9
$FILLMODE
 70
               1
  9
$QTEXTMODE
 70
               0
  9
$MIRRTEXT
 70
               1
  9
$LTSCALE
 40
12.699999999999999
  9
$ATTMODE
 70
               1
  9
$TEXTSIZE
 40
0.2
  9
$TRACEWID
 40
1.0
  9
$TEXTSTYLE
  7
Standard
  9
$CLAYER
  8
0
  9
$CELTYPE
  6
Continuous
  9
$CECOLOR
 62
             256
  9
$CELTSCALE
 40
1.0
  9
$DISPSILH
 70
               0
  9
$DIMSCALE
 40
1.0
  9
$DIMASZ
 40
0.18
  9
$DIMEXO
 40
0.0625
  9
$DIMDLI
 40
0.38
  9
$DIMRND
 40
0.0
  9
$DIMDLE
 40
0.0
  9
$DIMEXE
 40
0.18
  9
$DIMTP
 40
0.0
  9
$DIMTM
 40
0.0
  9
$DIMTXT
 40
0.18
  9
$DIMCEN
 40
0.09
  9
$DIMTSZ
 40
0.0
  9
$DIMTOL
 70
               0
  9
$DIMLIM
 70
               0
  9
$DIMTIH
 70
               1
  9
$DIMTOH
 70
               1
  9
$DIMSE1
 70
               0
  9
$DIMSE2
 70
               0
  9
$DIMTAD
 70
               0
  9
$DIMZIN
 70
               0
  9
$DIMBLK
  1

  9
$DIMASO
 70
               1
  9
$DIMSHO
 70
               1
  9
$DIMPOST
  1

  9
$DIMAPOST
  1

  9
$DIMALT
 70
               0
  9
$DIMALTD
 70
               2
  9
$DIMALTF
 40
25.399999999999999
  9
$DIMLFAC
 40
1.0
  9
$DIMTOFL
 70
               0
  9
$DIMTVP
 40
0.0
  9
$DIMTIX
 70
               0
  9
$DIMSOXD
 70
               0
  9
$DIMSAH
 70
               0
  9
$DIMBLK1
  1

  9
$DIMBLK2
  1

  9
$DIMSTYLE
  2
Standard
  9
$DIMCLRD
 70
               0
  9
$DIMCLRE
 70
               0
  9
$DIMCLRT
 70
               0
  9
$DIMTFAC
 40
1.0
  9
$DIMGAP
 40
0.09
  9
$DIMJUST
 70
               0
  9
$DIMSD1
 70
               0
  9
$DIMSD2
 70
               0
  9
$DIMTOLJ
 70
               1
  9
$DIMTZIN
 70
               0
  9
$DIMALTZ
 70
               0
  9
$DIMALTTZ
 70
               0
  9
$DIMUPT
 70
               0
  9
$DIMDEC
 70
               4
  9
$DIMTDEC
 70
               4
  9
$DIMALTU
 70
               2
  9
$DIMALTTD
 70
               2
  9
$DIMTXSTY
  7
Standard
  9
$DIMAUNIT
 70
               0
  9
$DIMADEC
 70
               0
  9
$DIMALTRND
 40
0.0
  9
$DIMAZIN
 70
               0
  9
$DIMDSEP
 70
               0
  9
$DIMATFIT
 70
               3
  9
$DIMFRAC
 70
               0
  9
$DIMLDRBLK
  1

  9
$DIMLUNIT
 70
               2
  9
$DIMLWD
 70
               0
  9
$DIMLWE
 70
               0
  9
$DIMTMOVE
 70
               0
  9
$LUNITS
 70
               2
  9
$LUPREC
 70
               4
  9
$SKETCHINC
 40
0.1
  9
$FILLETRAD
 40
0.0
  9
$AUNITS
 70
               0
  9
$AUPREC
 70
               0
  9
$MENU
  1
acad
  9
$ELEVATION
 40
0.0
  9
$PELEVATION
 40
0.0
  9
$THICKNESS
 40
0.0
  9
$LIMCHECK
 70
               0
  9
$CHAMFERA
 40
0.0
  9
$CHAMFERB
 40
0.0
  9
$CHAMFERC
 40
0.0
  9
$CHAMFERD
 40
0.0
  9
$SKPOLY
 70
               0
  9
$TDCREATE
 40
2458268.697673611
  9
$TDUCREATE
 40
0.000000000
  9
$TDUPDATE
 40
2458268.697673611
  9
$TDUUPDATE
 40
0.000000000
  9
$TDINDWG
 40
0.0000000000
  9
$TDUSRTIMER
 40
0.0000000000
  9
$USRTIMER
 70
               1
  9
$ANGBASE
 50
0.0
  9
$ANGDIR
 70
               0
  9
$PDMODE
 70
               1
  9
$PDSIZE
 40
-2.0
  9
$PLINEWID
 40
0.0
  9
$SPLFRAME
 70
               0
  9
$SPLINETYPE
 70
               6
  9
$SPLINESEGS
 70
               8
  9
$HANDSEED
  5
2CE
  9
$SURFTAB1
 70
               6
  9
$SURFTAB2
 70
               6
  9
$SURFTYPE
 70
               6
  9
$SURFU
 70
               6
  9
$SURFV
 70
               6
  9
$UCSBASE
  2

  9
$UCSNAME
  2

  9
$UCSORG
 10
0.0
 20
0.0
 30
0.0
  9
$UCSXDIR
 10
1.0
 20
0.0
 30
0.0
  9
$UCSYDIR
 10
0.0
 20
1.0
 30
0.0
  9
$UCSORTHOREF
  2

  9
$UCSORTHOVIEW
 70
               0
  9
$UCSORGTOP
 10
0.0
 20
0.0
 30
0.0
  9
$UCSORGBOTTOM
 10
0.0
 20
0.0
 30
0.0
  9
$UCSORGLEFT
 10
0.0
 20
0.0
 30
0.0
  9
$UCSORGRIGHT
 10
0.0
 20
0.0
 30
0.0
  9
$UCSORGFRONT
 10
0.0
 20
0.0
 30
0.0
  9
$UCSORGBACK
 10
0.0
 20
0.0
 30
0.0
  9
$PUCSBASE
  2

  9
$PUCSNAME
  2

  9
$PUCSORG
 10
0.0
 20
0.0
 30
0.0
  9
$PUCSXDIR
 10
1.0
 20
0.0
 30
0.0
  9
$PUCSYDIR
 10
0.0
 20
1.0
 30
0.0
  9
$PUCSORTHOREF
  2

  9
$PUCSORTHOVIEW
 70
               0
  9
$PUCSORGTOP
 10
0.0
 20
0.0
 30
0.0
  9
$PUCSORGBOTTOM
 10
0.0
 20
0.0
 30
0.0
  9
$PUCSORGLEFT
 10
0.0
 20
0.0
 30
0.0
  9
$PUCSORGRIGHT
 10
0.0
 20
0.0
 30
0.0
  9
$PUCSORGFRONT
 10
0.0
 20
0.0
 30
0.0
  9
$PUCSORGBACK
 10
0.0
 20
0.0
 30
0.0
  9
$USERI1
 70
               0
  9
$USERI2
 70
               0
  9
$USERI3
 70
               0
  9
$USERI4
 70
               0
  9
$USERI5
 70
               0
  9
$USERR1
 40
0.0
  9
$USERR2
 40
0.0
  9
$USERR3
 40
0.0
  9
$USERR4
 40
0.0
  9
$USERR5
 40
0.0
  9
$WORLDVIEW
 70
               1
  9
$SHADEDGE
 70
               3
  9
$SHADEDIF
 70
              70
  9
$TILEMODE
 70
               1
  9
$MAXACTVP
 70
              16
  9
$PINSBASE
 10
0.0
 20
0.0
 30
0.0
  9
$PLIMCHECK
 70
               0
  9
$PEXTMIN
 10
1.0000000000000000E+20
 20
1.0000000000000000E+20
 30
1.0000000000000000E+20
  9
$PEXTMAX
 10
-1.0000000000000000E+20
 20
-1.0000000000000000E+20
 30
-1.0000000000000000E+20
  9
$PLIMMIN
 10
0.0
 20
0.0
  9
$PLIMMAX
 10
12.0
 20
9.0
  9
$UNITMODE
 70
               0
  9
$VISRETAIN
 70
               0
  9
$PLINEGEN
 70
               1
  9
$PSLTSCALE
 70
               0
  9
$TREEDEPTH
 70
            3020
  9
$CMLSTYLE
  2
Standard
  9
$CMLJUST
 70
               0
  9
$CMLSCALE
 40
1.0
  9
$PROXYGRAPHICS
 70
               0
  9
$MEASUREMENT
 70
               1
  9
$CELWEIGHT
370
               0
  9
$ENDCAPS
280
               0
  9
$JOINSTYLE
280
               0
  9
$LWDISPLAY
290
               1
  9
$INSUNITS
 70
               4
  9
$HYPERLINKBASE
  1

  9
$STYLESHEET
  1

  9
$XEDIT
290
               1
  9
$CEPSNTYPE
380
               0
  9
$PSTYLEMODE
290
               1
  9
$FINGERPRINTGUID
  2

  9
$VERSIONGUID
  2

  9
$EXTNAMES
290
               1
  9
$PSVPSCALE
 40
0.0
  0
ENDSEC
  0
SECTION
  2
CLASSES
  0
CLASS
  1
LWPOLYLINE
  2
AcDbPolyline
  3
AutoCAD 2000
 90
    32768
280
               0
281
               1
  0
CLASS
  1
IMAGE
  2
AcDbRasterImage
  3
ISM
 90
    32895
280
               0
281
               1
  0
CLASS
  1
OLE2FRAME
  2
AcDbOle2Frame
  3
AutoCAD 2000
 90
    32768
280
               0
281
               1
  0
CLASS
  1
HATCH
  2
AcDbHatch
  3
AutoCAD 2000
 90
    32768
280
               0
281
               1
  0
CLASS
  1
DICTIONARYVAR
  2
AcDbDictionaryVar
  3
AutoCAD 2000
 90
    32768
280
               0
281
               0
  0
CLASS
  1
RASTERVARIABLES
  2
AcDbRasterVariables
  3
ISM
 90
    32768
280
               0
281
               0
  0
CLASS
  1
IMAGEDEF
  2
AcDbRasterImageDef
  3
ISM
 90
    32768
280
               0
281
               0
  0
CLASS
  1
IMAGEDEF_REACTOR
  2
AcDbRasterImageDefReactor
  3
ISM
 90
    32769
280
               0
281
               0
  0
CLASS
  1
IDBUFFER
  2
AcDbIdBuffer
  3
AutoCAD 2000
 90
    32768
280
               0
281
               0
  0
CLASS
  1
SPATIAL_FILTER
  2
AcDbSpatialFilter
  3
AutoCAD 2000
 90
    32768
280
               0
281
               0
  0
CLASS
  1
XRECORD
  2
AcDbXrecord
  3
AutoCAD 2000
 90
    32768
280
               0
281
               0
  0
CLASS
  1
SORTENTSTABLE
  2
AcDbSortentsTable
  3
AutoCAD 2000
 90
    32768
280
               0
281
               0
  0
CLASS
  1
LAYER_INDEX
  2
AcDbLayerIndex
  3
AutoCAD 2000
 90
    32768
280
               0
281
               0
  0
CLASS
  1
SPATIAL_INDEX
  2
AcDbSpatialIndex
  3
AutoCAD 2000
 90
    32768
280
               0
281
               0
  0
CLASS
  1
OBJECT_PTR
  2
CAseDLPNTableRecord
  3
"ASE-LPNTableRecord"
 90
    32769
280
               0
281
               0
  0
CLASS
  1
LAYOUT
  2
AcDbLayout
  3
AutoCAD 2000
 90
        0
280
               0
281
               0
  0
CLASS
  1
PLOTSETTINGS
  2
AcDbPlotSettings
  3
AutoCAD 2000
 90
    32768
280
               0
281
               0
  0
CLASS
  1
ACDBDICTIONARYWDFLT
  2
AcDbDictionaryWithDefault
  3
AutoCAD 2000
 90
        0
280
               0
281
               0
  0
CLASS
  1
ACDBPLACEHOLDER
  2
AcDbPlaceHolder
  3
AutoCAD 2000
 90
        0
280
               0
281
               0
  0
CLASS
  1
VBA_PROJECT
  2
AcDbVbaProject
  3
acadvba
 90
    32768
280
               0
281
               0
  0
CLASS
  1
WIPEOUT
  2
AcDbWipeout
  3
WipeOut|AutoCAD Express Tool|expresstools@autodesk.com
 90
    32895
280
               0
281
               1
  0
CLASS
  1
WIPEOUTVARIABLES
  2
AcDbWipeoutVariables
  3
WipeOut|AutoCAD Express Tool|expresstools@autodesk.com
 90
        0
280
               0
281
               0
  0
CLASS
  1
RTEXT
  2
RText
  3
RText|AutoCAD Express Tool|expresstools@autodesk.com
 90
    32768
280
               0
281
               1
  0
CLASS
  1
ARCALIGNEDTEXT
  2
AcDbArcAlignedText
  3
ATEXT|AutoCAD Express Tool|expresstools@autodesk.com
 90
    32768
280
               0
281
               1
  0
ENDSEC
  0
SECTION
  2
TABLES
  0
TABLE
  2
VPORT
  5
7
100
AcDbSymbolTable
 70
               1
  0
VPORT
  5
15
100
AcDbSymbolTableRecord
100
AcDbViewportTableRecord
  2
*ACTIVE
 70
               0
 10
0.0
 20
0.0
 11
1.0
 21
1.0
 12
212.21523930922399
 22
28.883333333333333
 13
0.0
 23
0.0
 14
1.0
 24
1.0
 15
0.0
 25
0.0
 16
0.0
 26
0.0
 36
1.0
 17
0.0
 27
0.0
 37
0.0
 40
4.2333333333333343
 41
0.688564
 42
50.0
 43
0.0
 44
0.0
 50
0.0
 51
0.0
 71
               0
 72
             100
 73
               1
 74
               1
 75
               0
 76
               0
 77
               0
 78
               0
281
               0
 65
               0
110
0.0
120
0.0
130
0.0
111
1.0
121
0.0
131
0.0
112
0.0
122
1.0
132
0.0
345
0
346
0
 79
               0
146
0.0
  0
ENDTAB
  0
TABLE
  2
LTYPE
  5
4
100
AcDbSymbolTable
 70
              13
  0
LTYPE
  5
11
100
AcDbSymbolTableRecord
100
AcDbLinetypeTableRecord
  2
ByBlock
 70
              64
  3

 72
              65
 73
               0
 40
0.0
  0
LTYPE
  5
12
100
AcDbSymbolTableRecord
100
AcDbLinetypeTableRecord
  2
ByLayer
 70
              64
  3

 72
              65
 73
               0
 40
0.0
  0
LTYPE
  5
13
100
AcDbSymbolTableRecord
100
AcDbLinetypeTableRecord
  2
Continuous
 70
              64
  3
Solid line
 72
              65
 73
               0
 40
0.0
  0
LTYPE
  5
26
100
AcDbSymbolTableRecord
100
AcDbLinetypeTableRecord
  2
STYLE_01
 70
               0
  3

 72
              65
 73
               2
 40
0.15
 49
0.1
 74
               0
 49
-0.05
 74
               0
  0
LTYPE
  5
27
100
AcDbSymbolTableRecord
100
AcDbLinetypeTableRecord
  2
STYLE_02
 70
               0
  3

 72
              65
 73
               6
 40
0.9999999999999999
 49
0.4999999999999999
 74
               0
 49
-0.1
 74
               0
 49
0.1
 74
               0
 49
-0.1
 74
               0
 49
0.1
 74
               0
 49
-0.1
 74
               0
  0
LTYPE
  5
28
100
AcDbSymbolTableRecord
100
AcDbLinetypeTableRecord
  2
STYLE_03
 70
               0
  3

 72
              65
 73
               4
 40
0.7999999999999999
 49
0.4999999999999999
 74
               0
 49
-0.1
 74
               0
 49
0.1
 74
               0
 49
-0.1
 74
               0
  0
LTYPE
  5
29
100
AcDbSymbolTableRecord
100
AcDbLinetypeTableRecord
  2
STYLE_04
 70
               0
  3

 72
              65
 73
               4
 40
1.5999999999999999
 49
0.9999999999999999
 74
               0
 49
-0.2000000000000001
 74
               0
 49
0.2
 74
               0
 49
-0.2
 74
               0
  0
LTYPE
  5
2A
100
AcDbSymbolTableRecord
100
AcDbLinetypeTableRecord
  2
STYLE_05
 70
               0
  3

 72
              65
 73
               2
 40
0.05
 49
0.0002
 74
               0
 49
-0.0498
 74
               0
  0
LTYPE
  5
2B
100
AcDbSymbolTableRecord
100
AcDbLinetypeTableRecord
  2
STYLE_06
 70
               0
  3

 72
              65
 73
               4
 40
0.416656
 49
0.25
 74
               0
 49
-0.083312
 74
               0
 49
0.027772
 74
               0
 49
-0.055572
 74
               0
  0
LTYPE
  5
2C
100
AcDbSymbolTableRecord
100
AcDbLinetypeTableRecord
  2
STYLE_07
 70
               0
  3

 72
              65
 73
               6
 40
0.75
 49
0.25
 74
               0
 49
-0.083312
 74
               0
 49
0.2500000000000001
 74
               0
 49
-0.083344
 74
               0
 49
0.027772
 74
               0
 49
-0.055572
 74
               0
  0
LTYPE
  5
2D
100
AcDbSymbolTableRecord
100
AcDbLinetypeTableRecord
  2
STYLE_08
 70
               0
  3

 72
              65
 73
               6
 40
0.5
 49
0.25
 74
               0
 49
-0.083312
 74
               0
 49
0.027772
 74
               0
 49
-0.055572
 74
               0
 49
0.027772
 74
               0
 49
-0.055572
 74
               0
  0
LTYPE
  5
2E
100
AcDbSymbolTableRecord
100
AcDbLinetypeTableRecord
  2
STYLE_09
 70
               0
  3

 72
              65
 73
               4
 40
2.0
 49
1.5
 74
               0
 49
-0.1111139999999999
 74
               0
 49
0.2777720000000001
 74
               0
 49
-0.1111139999999999
 74
               0
  0
LTYPE
  5
2F
100
AcDbSymbolTableRecord
100
AcDbLinetypeTableRecord
  2
STYLE_10
 70
               0
  3

 72
              65
 73
               6
 40
2.375
 49
1.5
 74
               0
 49
-0.1111139999999999
 74
               0
 49
0.2777720000000001
 74
               0
 49
-0.1111139999999999
 74
               0
 49
0.25
 74
               0
 49
-0.125
 74
               0
  0
ENDTAB
  0
TABLE
  2
LAYER
  5
2
100
AcDbSymbolTable
 70
               6
  0
LAYER
  5
14
100
AcDbSymbolTableRecord
100
AcDbLayerTableRecord
  2
0
 70
               0
 62
               7
  6
Continuous
290
               1
370
              15
390
1D
  0
LAYER
  5
30
100
AcDbSymbolTableRecord
100
AcDbLayerTableRecord
  2
Defpoints
 70
               0
 62
               7
  6
Continuous
290
               0
370
              -3
390
1D
  0
LAYER
  5
31
100
AcDbSymbolTableRecord
100
AcDbLayerTableRecord
  2
一般
 70
               0
 62
               7
  6
Continuous
290
               1
370
               5
390
1D
  0
LAYER
  5
32
100
AcDbSymbolTableRecord
100
AcDbLayerTableRecord
  2
寸法
 70
               0
 62
               7
  6
Continuous
290
               1
370
               5
390
1D
  0
LAYER
  5
33
100
AcDbSymbolTableRecord
100
AcDbLayerTableRecord
  2
レイヤー_1
 70
               0
 62
              19
  6
Continuous
290
               1
370
              15
390
1D
  0
LAYER
  5
34
100
AcDbSymbolTableRecord
100
AcDbLayerTableRecord
  2
FORMAT
 70
               0
 62
               7
  6
Continuous
290
               1
370
              15
390
1D
  0
ENDTAB
  0
TABLE
  2
STYLE
  5
3
100
AcDbSymbolTable
 70
               2
  0
STYLE
  5
17
100
AcDbSymbolTableRecord
100
AcDbTextStyleTableRecord
  2
Standard
 70
               0
 40
0.0
 41
1.0
 50
0.0
 71
               0
 42
0.0
  3
txt
  4
BIGFONT.SHX
  0
STYLE
  5
25
100
AcDbSymbolTableRecord
100
AcDbTextStyleTableRecord
  2
ＭＳ Ｐゴシック
 70
               0
 40
0.0
 41
1.0
 50
0.0
 71
               0
 42
0.0
  3
ＭＳ Ｐゴシック
  4

1001
ACAD
1000
ＭＳ Ｐゴシック
1071
        0
  0
ENDTAB
  0
TABLE
  2
VIEW
  5
5
100
AcDbSymbolTable
 70
               0
  0
ENDTAB
  0
TABLE
  2
UCS
  5
6
100
AcDbSymbolTable
 70
               0
  0
ENDTAB
  0
TABLE
  2
APPID
  5
8
100
AcDbSymbolTable
 70
               1
  0
APPID
  5
16
100
AcDbSymbolTableRecord
100
AcDbRegAppTableRecord
  2
ACAD
 70
               0
  0
ENDTAB
  0
TABLE
  2
DIMSTYLE
  5
9
100
AcDbSymbolTable
 70
               1
100
AcDbDimStyleTable
 71
               0
  0
DIMSTYLE
105
18
100
AcDbSymbolTableRecord
100
AcDbDimStyleTableRecord
  2
Standard
 70
               0
  3

  4

 40
1.0
 41
0.18
 42
0.0625
 43
0.38
 44
0.18
 45
0.0
 46
0.0
 47
0.0
 48
0.0
 71
               0
 72
               0
 73
               1
 74
               1
 75
               0
 76
               0
 77
               0
 78
               0
 79
               0
140
0.18
141
0.09
142
0.0
143
25.399999999999999
144
1.0
145
0.0
146
1.0
147
0.09
148
0.0
170
               0
171
               2
172
               0
173
               0
174
               0
175
               0
176
               0
177
               0
178
               0
179
               0
271
               4
272
               4
273
               2
274
               2
275
               0
276
               0
277
               2
278
              46
279
               0
280
               0
281
               0
282
               0
283
               1
284
               0
285
               0
286
               0
288
               0
340
17
341
0
342
0
343
0
344
0
371
              -2
372
              -2
  0
ENDTAB
  0
TABLE
  2
BLOCK_RECORD
  5
1
100
AcDbSymbolTable
 70
               1
  0
BLOCK_RECORD
  5
A
100
AcDbSymbolTableRecord
100
AcDbBlockTableRecord
  2
*MODEL_SPACE
340
20
  0
BLOCK_RECORD
  5
B
100
AcDbSymbolTableRecord
100
AcDbBlockTableRecord
  2
*PAPER_SPACE
340
21
  0
BLOCK_RECORD
  5
24
100
AcDbSymbolTableRecord
100
AcDbBlockTableRecord
  2
*U0
340
0
102
{BLKREFS
331
2CD
102
}
  0
ENDTAB
  0
ENDSEC
  0
SECTION
  2
BLOCKS
  0
BLOCK
  5
D
100
AcDbEntity
  8
0
100
AcDbBlockBegin
  2
*MODEL_SPACE
 70
               0
 10
0.0
 20
0.0
 30
0.0
  3
*MODEL_SPACE
  1

  0
ENDBLK
  5
E
100
AcDbEntity
  8
0
100
AcDbBlockEnd
  0
BLOCK
  5
F
100
AcDbEntity
 67
               1
  8
0
100
AcDbBlockBegin
  2
*PAPER_SPACE
 70
               0
 10
0.0
 20
0.0
 30
0.0
  3
*PAPER_SPACE
  1

  0
ENDBLK
  5
10
100
AcDbEntity
 67
               1
  8
0
100
AcDbBlockEnd
  0
BLOCK
  5
35
100
AcDbEntity
  8
一般
100
AcDbBlockBegin
  2
*U0
 70
               1
 10
0.0
 20
0.0
 30
0.0
  3
*U0
  1

  0
SPLINE
  5
36
100
AcDbEntity
  8
0
370
              18
  6
Continuous
 62
               7
100
AcDbSpline
210
0.0
220
0.0
230
1.0
 70
               8
 71
               2
 72
              16
 73
              13
 74
               0
 42
0.000001
 43
0.000001
 40
0.0
 40
0.0
 40
0.0
 40
1.0
 40
1.0
 40
2.0
 40
3.0
 40
4.0
 40
5.0
 40
6.0
 40
7.0
 40
8.0
 40
8.0
 40
9.0
 40
9.0
 40
9.0
 10
17.354059643957925
 20
103.12058216224456
 30
0.0
 10
17.344893372384988
 20
103.11682839690131
 30
0.0
 10
17.335727100812051
 20
103.11307463155806
 30
0.0
 10
16.984994071872649
 20
102.98314548370918
 30
0.0
 10
16.358019301784253
 20
102.60132795125755
 30
0.0
 10
15.939934328170551
 20
102.12333922870808
 30
0.0
 10
15.460613485972971
 20
101.43777889617373
 30
0.0
 10
14.991208295398991
 20
100.25470668117943
 30
0.0
 10
14.792397860645337
 20
99.315681774661599
 30
0.0
 10
14.72093276057916
 20
98.610121208834542
 30
0.0
 10
14.701521172247141
 20
98.208232836835023
 30
0.0
 10
14.70095598570299
 20
98.197659869653833
 30
0.0
 10
14.700390799158839
 20
98.187086902472643
 30
0.0
  0
LINE
  5
37
100
AcDbEntity
  8
0
370
              18
  6
Continuous
 62
               7
100
AcDbLine
 10
14.7003878852139
 20
98.186890376194427
 30
0.0
 11
14.631195531313921
 21
92.707677185694465
 31
0.0
  0
LINE
  5
38
100
AcDbEntity
  8
0
370
              18
  6
Continuous
 62
               7
100
AcDbLine
 10
20.536688385813903
 20
103.05523055209444
 30
0.0
 11
20.403927660113908
 21
103.11168973829446
 31
0.0
  0
SPLINE
  5
39
100
AcDbEntity
  8
0
370
              18
  6
Continuous
 62
               7
100
AcDbSpline
210
0.0
220
0.0
230
1.0
 70
               8
 71
               2
 72
              16
 73
              13
 74
               0
 42
0.000001
 43
0.000001
 40
0.0
 40
0.0
 40
0.0
 40
1.0
 40
1.0
 40
2.0
 40
3.0
 40
4.0
 40
5.0
 40
6.0
 40
7.0
 40
8.0
 40
8.0
 40
9.0
 40
9.0
 40
9.0
 10
22.589536801695459
 20
99.266661509118663
 30
0.0
 10
22.588879710240462
 20
99.275611657490984
 30
0.0
 10
22.588222618785466
 20
99.284561805863305
 30
0.0
 10
22.569620450808259
 20
99.553585881335565
 30
0.0
 10
22.489282455494475
 20
100.37985710680273
 30
0.0
 10
22.211114695970792
 20
101.28380083785869
 30
0.0
 10
21.891004201816628
 20
101.94064910887285
 30
0.0
 10
21.516526893083864
 20
102.47156444675024
 30
0.0
 10
21.112012916452727
 20
102.8202393107061
 30
0.0
 10
20.807700310731406
 20
102.9465244130463
 30
0.0
 10
20.708322028225297
 20
102.9826254494392
 30
0.0
 10
20.705015311140414
 20
102.98384459610317
 30
0.0
 10
20.701708594055532
 20
102.98506374276714
 30
0.0
  0
LINE
  5
3A
100
AcDbEntity
  8
0
370
              18
  6
Continuous
 62
               7
100
AcDbLine
 10
20.177800977213906
 20
103.15227329129443
 30
0.0
 11
18.452267994813923
 21
103.29571355579448
 31
0.0
  0
LINE
  5
3B
100
AcDbEntity
  8
0
370
              18
  6
Continuous
 62
               7
100
AcDbLine
 10
17.880099926413919
 20
103.24913075519443
 30
0.0
 11
17.369916933513906
 21
103.12486384909444
 31
0.0
  0
LINE
  5
3C
100
AcDbEntity
  8
0
370
              18
  6
Continuous
 62
               7
100
AcDbLine
 10
22.774631811913906
 20
93.795002840494462
 30
0.0
 11
22.589531761313907
 21
99.266844685794425
 31
0.0
  0
LINE
  5
3D
100
AcDbEntity
  8
0
370
              18
  6
Continuous
 62
               7
100
AcDbLine
 10
-49.605929108386107
 20
92.373540538194462
 30
0.0
 11
-49.643261904586126
 21
79.972432631194451
 31
0.0
  0
SPLINE
  5
3E
100
AcDbEntity
  8
0
370
              18
  6
Continuous
 62
               7
100
AcDbSpline
210
0.0
220
0.0
230
1.0
 70
               8
 71
               2
 72
              17
 73
              14
 74
               0
 42
0.000001
 43
0.000001
 40
0.0
 40
0.0
 40
0.0
 40
1.0
 40
1.0
 40
2.0
 40
3.0
 40
4.0
 40
5.0
 40
6.0
 40
7.0
 40
8.0
 40
9.0
 40
9.0
 40
10.0
 40
10.0
 40
10.0
 10
-48.839998297444509
 20
93.332520525363449
 30
0.0
 10
-48.840392793014502
 20
93.332486002193335
 30
0.0
 10
-48.840787288584494
 20
93.33245147902322
 30
0.0
 10
-48.865293698842976
 20
93.330544445846826
 30
0.0
 10
-48.96185370694073
 20
93.317292775128934
 30
0.0
 10
-49.094109581130084
 20
93.254522488680905
 30
0.0
 10
-49.247163141895982
 20
93.143057746001134
 30
0.0
 10
-49.414056491588354
 20
92.971578200848526
 30
0.0
 10
-49.540790513664916
 20
92.752456517207875
 30
0.0
 10
-49.580858825753438
 20
92.585910977085192
 30
0.0
 10
-49.595527615823443
 20
92.499614560510409
 30
0.0
 10
-49.602056480798268
 20
92.45626280956715
 30
0.0
 10
-49.602276932492543
 20
92.454818464587206
 30
0.0
 10
-49.602497384186819
 20
92.453374119607261
 30
0.0
  0
LINE
  5
3F
100
AcDbEntity
  8
0
370
              18
  6
Continuous
 62
               7
100
AcDbLine
 10
-50.62046191258608
 20
77.806602316194457
 30
0.0
 11
-50.665257527686123
 21
62.927818019194447
 31
0.0
  0
SPLINE
  5
40
100
AcDbEntity
  8
0
370
              18
  6
Continuous
 62
               7
100
AcDbSpline
210
0.0
220
0.0
230
1.0
 70
               8
 71
               2
 72
              16
 73
              13
 74
               0
 42
0.000001
 43
0.000001
 40
0.0
 40
0.0
 40
0.0
 40
1.0
 40
1.0
 40
2.0
 40
3.0
 40
4.0
 40
5.0
 40
6.0
 40
7.0
 40
8.0
 40
8.0
 40
9.0
 40
9.0
 40
9.0
 10
-50.030069068117683
 20
78.699777628410757
 30
0.0
 10
-50.031322509222832
 20
78.699218848290897
 30
0.0
 10
-50.032575950327981
 20
78.698660068171037
 30
0.0
 10
-50.111197897536186
 20
78.665452589387158
 30
0.0
 10
-50.261059623180671
 20
78.581037158706053
 30
0.0
 10
-50.371676812466347
 20
78.470575628861141
 30
0.0
 10
-50.458318880984308
 20
78.354383896768027
 30
0.0
 10
-50.558299592925579
 20
78.176610756324934
 30
0.0
 10
-50.596643380583117
 20
78.012977192243525
 30
0.0
 10
-50.61043008492166
 20
77.930600248833812
 30
0.0
 10
-50.616613013857574
 20
77.88919474342687
 30
0.0
 10
-50.616821601155038
 20
77.887815320547759
 30
0.0
 10
-50.617030188452503
 20
77.886435897668647
 30
0.0
  0
LINE
  5
41
100
AcDbEntity
  8
0
370
              18
  6
Continuous
 62
               7
100
AcDbLine
 10
-15.311220261086106
 20
101.50945850439446
 30
0.0
 11
-23.942457597486083
 21
99.407120372794466
 31
0.0
  0
LINE
  5
42
100
AcDbEntity
  8
0
370
              18
  6
Continuous
 62
               7
100
AcDbLine
 10
-31.997296607086099
 20
97.445177428394473
 30
0.0
 11
-48.842586555886072
 21
93.342116184994453
 31
0.0
  0
SPLINE
  5
43
100
AcDbEntity
  8
0
370
              18
  6
Continuous
 62
               7
100
AcDbSpline
210
0.0
220
0.0
230
1.0
 70
               8
 71
               2
 72
              17
 73
              14
 74
               0
 42
0.000001
 43
0.000001
 40
0.0
 40
0.0
 40
0.0
 40
1.0
 40
1.0
 40
2.0
 40
3.0
 40
4.0
 40
5.0
 40
6.0
 40
7.0
 40
8.0
 40
9.0
 40
9.0
 40
10.0
 40
10.0
 40
10.0
 10
-49.64325795590608
 20
79.972778311138441
 30
0.0
 10
-49.643336016831398
 20
79.970789686977753
 30
0.0
 10
-49.643414077756717
 20
79.968801062817064
 30
0.0
 10
-49.647011595462487
 20
79.861204922919896
 30
0.0
 10
-49.664900266827004
 20
79.609905943895015
 30
0.0
 10
-49.714913451317244
 20
79.367246403138964
 30
0.0
 10
-49.791564132386014
 20
79.103877487686034
 30
0.0
 10
-49.878522521192082
 20
78.923353296478822
 30
0.0
 10
-49.950275927085471
 20
78.801937476312688
 30
0.0
 10
-49.998122420504586
 20
78.743208070430242
 30
0.0
 10
-50.02033501899669
 20
78.723410733828146
 30
0.0
 10
-50.029322591144847
 20
78.716369524135345
 30
0.0
 10
-50.029625139298986
 20
78.716128654551454
 30
0.0
 10
-50.029927687453124
 20
78.715887784967563
 30
0.0
  0
LINE
  5
44
100
AcDbEntity
  8
0
370
              18
  6
Continuous
 62
               7
100
AcDbLine
 10
41.315956479513915
 20
75.314534073794462
 30
0.0
 11
40.358844592613906
 21
96.058924151594468
 31
0.0
  0
SPLINE
  5
45
100
AcDbEntity
  8
0
370
              18
  6
Continuous
 62
               7
100
AcDbSpline
210
0.0
220
0.0
230
1.0
 70
               8
 71
               2
 72
              17
 73
              14
 74
               0
 42
0.000001
 43
0.000001
 40
0.0
 40
0.0
 40
0.0
 40
1.0
 40
1.0
 40
2.0
 40
3.0
 40
4.0
 40
5.0
 40
6.0
 40
7.0
 40
8.0
 40
9.0
 40
9.0
 40
10.0
 40
10.0
 40
10.0
 10
40.351240222801636
 20
95.974582482303461
 30
0.0
 10
40.35116578163975
 20
95.976927214053504
 30
0.0
 10
40.351091340477865
 20
95.979271945803546
 30
0.0
 10
40.349278628916039
 20
96.049712885352633
 30
0.0
 10
40.340440621272506
 20
96.189350644745858
 30
0.0
 10
40.30501197176747
 20
96.360430285932082
 30
0.0
 10
40.207930062239711
 20
96.553193804828723
 30
0.0
 10
40.069095108629767
 20
96.725780615515546
 30
0.0
 10
39.865935269697957
 20
96.892622620148316
 30
0.0
 10
39.654911414663417
 20
96.965028639215078
 30
0.0
 10
39.519877923285605
 20
96.994034682159977
 30
0.0
 10
39.451560194239477
 20
97.006405835215745
 30
0.0
 10
39.449285720057418
 20
97.006825649454797
 30
0.0
 10
39.447011245875359
 20
97.007245463693849
 30
0.0
  0
LINE
  5
46
100
AcDbEntity
  8
0
370
              18
  6
Continuous
 62
               7
100
AcDbLine
 10
39.442749456213903
 20
97.009400742694439
 30
0.0
 11
22.618586265013903
 21
98.407961328194475
 31
0.0
  0
LINE
  5
47
100
AcDbEntity
  8
0
370
              18
  6
Continuous
 62
               7
100
AcDbLine
 10
13.318699883413899
 20
99.181043138894452
 30
0.0
 11
-14.991723508986098
 21
101.53443461919444
 31
0.0
  0
SPLINE
  5
48
100
AcDbEntity
  8
0
370
              18
  6
Continuous
 62
               7
100
AcDbSpline
210
0.0
220
0.0
230
1.0
 70
               8
 71
               2
 72
              16
 73
              13
 74
               0
 42
0.000001
 43
0.000001
 40
0.0
 40
0.0
 40
0.0
 40
1.0
 40
1.0
 40
2.0
 40
3.0
 40
4.0
 40
5.0
 40
6.0
 40
7.0
 40
8.0
 40
8.0
 40
9.0
 40
9.0
 40
9.0
 10
-29.472955520254715
 20
107.01286983888288
 30
0.0
 10
-29.482114801222849
 20
107.00910093183118
 30
0.0
 10
-29.491274082190984
 20
107.00533202477949
 30
0.0
 10
-29.842026379806072
 20
106.87489562220516
 30
0.0
 10
-30.465886100681701
 20
106.49139956414042
 30
0.0
 10
-30.877121419240865
 20
106.01121519919788
 30
0.0
 10
-31.345478537066271
 20
105.32265584143023
 30
0.0
 10
-31.792625517731693
 20
104.13512303503781
 30
0.0
 10
-31.972243412714192
 20
103.19308603055192
 30
0.0
 10
-32.028661687230084
 20
102.4856438121122
 30
0.0
 10
-32.039349189763101
 20
102.08276228276146
 30
0.0
 10
-32.039685243577594
 20
102.07216309698246
 30
0.0
 10
-32.040021297392087
 20
102.06156391120346
 30
0.0
  0
LINE
  5
49
100
AcDbEntity
  8
0
370
              18
  6
Continuous
 62
               7
100
AcDbLine
 10
-32.040021252086092
 20
102.06138114969447
 30
0.0
 11
-31.989315964686085
 21
96.582889584794444
 31
0.0
  0
LINE
  5
4A
100
AcDbEntity
  8
0
370
              18
  6
Continuous
 62
               7
100
AcDbLine
 10
-28.945988384186109
 20
107.14169413219447
 30
0.0
 11
-29.456171377086093
 21
107.01742722599444
 31
0.0
  0
LINE
  5
4B
100
AcDbEntity
  8
0
370
              18
  6
Continuous
 62
               7
100
AcDbLine
 10
-23.845890203686082
 20
97.670720071894451
 30
0.0
 11
-24.019170996586098
 21
100.78651520569447
 31
0.0
  0
SPLINE
  5
4C
100
AcDbEntity
  8
0
370
              18
  6
Continuous
 62
               7
100
AcDbSpline
210
0.0
220
0.0
230
1.0
 70
               8
 71
               2
 72
              13
 73
              10
 74
               0
 42
0.000001
 43
0.000001
 40
0.0
 40
0.0
 40
0.0
 40
1.0
 40
1.0
 40
2.0
 40
3.0
 40
4.0
 40
5.0
 40
5.0
 40
6.0
 40
6.0
 40
6.0
 10
-14.988256287291478
 20
101.53248833896096
 30
0.0
 10
-14.988293143536652
 20
101.53249821087512
 30
0.0
 10
-14.988329999781826
 20
101.53250808278928
 30
0.0
 10
-15.029340793135134
 20
101.54371308909107
 30
0.0
 10
-15.11065846234257
 20
101.54465111517267
 30
0.0
 10
-15.190880326865738
 20
101.53161604078856
 30
0.0
 10
-15.266639326175181
 20
101.51177458375044
 30
0.0
 10
-15.304598069548007
 20
101.50075781011692
 30
0.0
 10
-15.30586308596402
 20
101.50039438835309
 30
0.0
 10
-15.307128102380034
 20
101.50003096658925
 30
0.0
  0
SPLINE
  5
4D
100
AcDbEntity
  8
0
370
              18
  6
Continuous
 62
               7
100
AcDbSpline
210
0.0
220
0.0
230
1.0
 70
               8
 71
               2
 72
              13
 73
              10
 74
               0
 42
0.000001
 43
0.000001
 40
0.0
 40
0.0
 40
0.0
 40
1.0
 40
1.0
 40
2.0
 40
3.0
 40
4.0
 40
5.0
 40
5.0
 40
6.0
 40
6.0
 40
6.0
 10
16.612417766431093
 20
116.81536960852596
 30
0.0
 10
16.612266301601153
 20
116.8185518888037
 30
0.0
 10
16.612114836771212
 20
116.82173416908144
 30
0.0
 10
16.604376531744464
 20
117.01921682983205
 30
0.0
 10
16.574994851514987
 20
117.35155979991619
 30
0.0
 10
16.533378707150604
 20
117.59718205424572
 30
0.0
 10
16.493219706599831
 20
117.79256754247366
 30
0.0
 10
16.472150686774484
 20
117.8901517346775
 30
0.0
 10
16.471451813867588
 20
117.89340491711452
 30
0.0
 10
16.470752940960693
 20
117.89665809955154
 30
0.0
  0
SPLINE
  5
4E
100
AcDbEntity
  8
0
370
              18
  6
Continuous
 62
               7
100
AcDbSpline
210
0.0
220
0.0
230
1.0
 70
               8
 71
               2
 72
              17
 73
              14
 74
               0
 42
0.000001
 43
0.000001
 40
0.0
 40
0.0
 40
0.0
 40
1.0
 40
1.0
 40
2.0
 40
3.0
 40
4.0
 40
5.0
 40
6.0
 40
7.0
 40
8.0
 40
9.0
 40
9.0
 40
10.0
 40
10.0
 40
10.0
 10
16.470752940960693
 20
117.89665809955154
 30
0.0
 10
16.468094883516073
 20
117.90565326614238
 30
0.0
 10
16.465436826071453
 20
117.91464843273322
 30
0.0
 10
16.397433304544819
 20
118.14899872496871
 30
0.0
 10
16.219009519581931
 20
118.69380028838073
 30
0.0
 10
15.864389683725818
 20
119.38243141979059
 30
0.0
 10
15.353382449106704
 20
120.0567812016284
 30
0.0
 10
14.559834980526574
 20
120.78092965684654
 30
0.0
 10
13.658537175368252
 20
121.2026764751043
 30
0.0
 10
13.102864780831311
 20
121.35601909099144
 30
0.0
 10
12.777308522739872
 20
121.38231653296585
 30
0.0
 10
12.669073753204827
 20
121.38765311089971
 30
0.0
 10
12.66546681156909
 20
121.38784100113647
 30
0.0
 10
12.661859869933352
 20
121.38802889137322
 30
0.0
  0
SPLINE
  5
4F
100
AcDbEntity
  8
0
370
              18
  6
Continuous
 62
               7
100
AcDbSpline
210
0.0
220
0.0
230
1.0
 70
               8
 71
               2
 72
              18
 73
              15
 74
               0
 42
0.000001
 43
0.000001
 40
0.0
 40
0.0
 40
0.0
 40
1.0
 40
1.0
 40
2.0
 40
3.0
 40
4.0
 40
5.0
 40
6.0
 40
7.0
 40
8.0
 40
9.0
 40
10.0
 40
10.0
 40
11.0
 40
11.0
 40
11.0
 10
12.293167284707408
 20
117.42647150172213
 30
0.0
 10
12.293144500860222
 20
117.42647573743317
 30
0.0
 10
12.293121717013037
 20
117.4264799731442
 30
0.0
 10
12.283814650334506
 20
117.42849953171709
 30
0.0
 10
12.293882159521161
 20
117.42268457017401
 30
0.0
 10
12.316463164987368
 20
117.40927127666767
 30
0.0
 10
12.353662954581438
 20
117.38162783328148
 30
0.0
 10
12.40142072061991
 20
117.33010322293786
 30
0.0
 10
12.443764762451536
 20
117.27335596702342
 30
0.0
 10
12.493173881545744
 20
117.19532979233738
 30
0.0
 10
12.550040740607898
 20
117.07130108017806
 30
0.0
 10
12.577224359667895
 20
116.97677017565123
 30
0.0
 10
12.584152666674868
 20
116.95088058841414
 30
0.0
 10
12.584265250422291
 20
116.95046354931141
 30
0.0
 10
12.584377834169715
 20
116.95004651020868
 30
0.0
  0
SPLINE
  5
50
100
AcDbEntity
  8
0
370
              18
  6
Continuous
 62
               7
100
AcDbSpline
210
0.0
220
0.0
230
1.0
 70
               8
 71
               2
 72
              13
 73
              10
 74
               0
 42
0.000001
 43
0.000001
 40
0.0
 40
0.0
 40
0.0
 40
1.0
 40
1.0
 40
2.0
 40
3.0
 40
4.0
 40
5.0
 40
5.0
 40
6.0
 40
6.0
 40
6.0
 10
12.584377834169715
 20
116.95004651020868
 30
0.0
 10
12.58450713598755
 20
116.9493979016117
 30
0.0
 10
12.584636437805386
 20
116.94874929301473
 30
0.0
 10
12.592852909139197
 20
116.90843612894351
 30
0.0
 10
12.603252742538331
 20
116.84950874809461
 30
0.0
 10
12.612066849928937
 20
116.78684992435161
 30
0.0
 10
12.613278970782346
 20
116.73690156807864
 30
0.0
 10
12.61345686111855
 20
116.72671797756966
 30
0.0
 10
12.613459900996745
 20
116.72655364115322
 30
0.0
 10
12.613462940874939
 20
116.72638930473677
 30
0.0
  0
LINE
  5
51
100
AcDbEntity
  8
0
370
              18
  6
Continuous
 62
               7
100
AcDbLine
 10
12.613974675913909
 20
116.72728310369446
 30
0.0
 11
12.95442502771391
 21
100.91731996989445
 31
0.0
  0
LINE
  5
52
100
AcDbEntity
  8
0
370
              18
  6
Continuous
 62
               7
100
AcDbLine
 10
16.912839799213913
 20
102.89157721919447
 30
0.0
 11
16.613048517413915
 21
116.81339897389445
 31
0.0
  0
LINE
  5
53
100
AcDbEntity
  8
0
370
              18
  6
Continuous
 62
               7
100
AcDbLine
 10
20.404217447413913
 20
96.564820189994478
 30
0.0
 11
20.505745662313899
 21
96.704030449894461
 31
0.0
  0
LINE
  5
54
100
AcDbEntity
  8
0
370
              18
  6
Continuous
 62
               7
100
AcDbLine
 10
20.725174261913907
 20
99.343669670194473
 30
0.0
 11
20.648026301513909
 21
99.497752486294431
 31
0.0
  0
LINE
  5
55
100
AcDbEntity
  8
0
370
              18
  6
Continuous
 62
               7
100
AcDbLine
 10
19.934898092713894
 20
100.08733300789443
 30
0.0
 11
19.90399740471392
 21
100.08990172319444
 31
0.0
  0
LINE
  5
56
100
AcDbEntity
  8
0
370
              18
  6
Continuous
 62
               7
100
AcDbLine
 10
19.60094123761391
 20
96.101289362494427
 30
0.0
 11
19.60352907081392
 21
96.101074240894448
 31
0.0
  0
LINE
  5
57
100
AcDbEntity
  8
0
370
              18
  6
Continuous
 62
               7
100
AcDbLine
 10
-22.984289029386076
 20
120.35476364719445
 30
0.0
 11
12.331777315113897
 21
117.41900643509446
 31
0.0
  0
LINE
  5
58
100
AcDbEntity
  8
0
370
              18
  6
Continuous
 62
               7
100
AcDbLine
 10
12.663146336913911
 20
121.40526520219443
 30
0.0
 11
-22.652920007486074
 21
124.34102241419443
 31
0.0
  0
SPLINE
  5
59
100
AcDbEntity
  8
0
370
              18
  6
Continuous
 62
               7
100
AcDbSpline
210
0.0
220
0.0
230
1.0
 70
               8
 71
               2
 72
              15
 73
              12
 74
               0
 42
0.000001
 43
0.000001
 40
0.0
 40
0.0
 40
0.0
 40
1.0
 40
1.0
 40
2.0
 40
3.0
 40
4.0
 40
5.0
 40
6.0
 40
7.0
 40
7.0
 40
8.0
 40
8.0
 40
8.0
 10
12.955013799075402
 20
100.91591512129646
 30
0.0
 10
12.955261005218404
 20
100.91114141576172
 30
0.0
 10
12.955508211361405
 20
100.90636771022697
 30
0.0
 10
12.962504470511504
 20
100.763119196039
 30
0.0
 10
13.014354203038891
 20
100.04961892464219
 30
0.0
 10
13.333573247334641
 20
99.049628428854945
 30
0.0
 10
13.715823599123127
 20
98.341643912225621
 30
0.0
 10
14.152012132219539
 20
97.743017825463838
 30
0.0
 10
14.55516014177465
 20
97.368695849156111
 30
0.0
 10
14.680243993889718
 20
97.257947632997869
 30
0.0
 10
14.684403923875095
 20
97.25424564102245
 30
0.0
 10
14.688563853860472
 20
97.250543649047032
 30
0.0
  0
SPLINE
  5
5A
100
AcDbEntity
  8
0
370
              18
  6
Continuous
 62
               7
100
AcDbSpline
210
0.0
220
0.0
230
1.0
 70
               8
 71
               2
 72
              17
 73
              14
 74
               0
 42
0.000001
 43
0.000001
 40
0.0
 40
0.0
 40
0.0
 40
1.0
 40
1.0
 40
2.0
 40
3.0
 40
4.0
 40
5.0
 40
6.0
 40
7.0
 40
8.0
 40
9.0
 40
9.0
 40
10.0
 40
10.0
 40
10.0
 10
-22.653518713361308
 20
124.32373698023913
 30
0.0
 10
-22.657394653140585
 20
124.3241552478237
 30
0.0
 10
-22.661270592919863
 20
124.32457351540826
 30
0.0
 10
-23.016570495337561
 20
124.37475337586211
 30
0.0
 10
-23.740181274534478
 20
124.28910599155894
 30
0.0
 10
-24.636728260783968
 20
123.99760146517657
 30
0.0
 10
-25.505180156898831
 20
123.37828225171479
 30
0.0
 10
-26.146911653583913
 20
122.60743562661817
 30
0.0
 10
-26.680831740207083
 20
121.51064580095591
 30
0.0
 10
-26.806816668014307
 20
120.59706740928711
 30
0.0
 10
-26.840714137378001
 20
120.20156433432938
 30
0.0
 10
-26.827228774355802
 20
120.00482850884971
 30
0.0
 10
-26.827220633083073
 20
120.00472052026784
 30
0.0
 10
-26.827212491810343
 20
120.00461253168596
 30
0.0
  0
SPLINE
  5
5B
100
AcDbEntity
  8
0
370
              18
  6
Continuous
 62
               7
100
AcDbSpline
210
0.0
220
0.0
230
1.0
 70
               8
 71
               2
 72
              18
 73
              15
 74
               0
 42
0.000001
 43
0.000001
 40
0.0
 40
0.0
 40
0.0
 40
1.0
 40
1.0
 40
2.0
 40
3.0
 40
4.0
 40
5.0
 40
6.0
 40
7.0
 40
8.0
 40
9.0
 40
10.0
 40
10.0
 40
11.0
 40
11.0
 40
11.0
 10
-22.828202195657582
 20
120.09264626304527
 30
0.0
 10
-22.828205761063558
 20
120.0927381415194
 30
0.0
 10
-22.828209326469533
 20
120.09283001999354
 30
0.0
 10
-22.829741566071817
 20
120.12593650165532
 30
0.0
 10
-22.827033050364747
 20
120.18305992545591
 30
0.0
 10
-22.81807058964975
 20
120.25667191998015
 30
0.0
 10
-22.801340459355231
 20
120.32945999249075
 30
0.0
 10
-22.786482659158509
 20
120.37139009945618
 30
0.0
 10
-22.772667582075854
 20
120.40166937517951
 30
0.0
 10
-22.760170232520267
 20
120.42330505384878
 30
0.0
 10
-22.759280433981274
 20
120.42509946145289
 30
0.0
 10
-22.759821810454781
 20
120.42466246597446
 30
0.0
 10
-22.760678499538272
 20
120.42361555221841
 30
0.0
 10
-22.760691343161099
 20
120.42360015642517
 30
0.0
 10
-22.760704186783926
 20
120.42358476063193
 30
0.0
  0
LINE
  5
5C
100
AcDbEntity
  8
0
370
              18
  6
Continuous
 62
               7
100
AcDbLine
 10
-22.488274447486077
 20
104.28215520089448
 30
0.0
 11
-22.828724799286107
 21
120.09211833469443
 31
0.0
  0
LINE
  5
5D
100
AcDbEntity
  8
0
370
              18
  6
Continuous
 62
               7
100
AcDbLine
 10
-26.827797872186096
 20
120.00600240059443
 30
0.0
 11
-26.487347520486111
 21
104.19603926689446
 31
0.0
  0
SPLINE
  5
5E
100
AcDbEntity
  8
0
370
              18
  6
Continuous
 62
               7
100
AcDbSpline
210
0.0
220
0.0
230
1.0
 70
               8
 71
               2
 72
              17
 73
              14
 74
               0
 42
0.000001
 43
0.000001
 40
0.0
 40
0.0
 40
0.0
 40
1.0
 40
1.0
 40
2.0
 40
3.0
 40
4.0
 40
5.0
 40
6.0
 40
7.0
 40
8.0
 40
9.0
 40
9.0
 40
10.0
 40
10.0
 40
10.0
 10
-26.662256905438767
 20
99.964397748713239
 30
0.0
 10
-26.658384087146175
 20
99.963979865677729
 30
0.0
 10
-26.654511268853582
 20
99.963561982642219
 30
0.0
 10
-26.299361407723808
 20
99.913411854410654
 30
0.0
 10
-25.57589339287054
 20
99.999053112226719
 30
0.0
 10
-24.679343796869858
 20
100.29055368285977
 30
0.0
 10
-23.81089527779676
 20
100.90987765010864
 30
0.0
 10
-23.16916019797651
 20
101.68072004090267
 30
0.0
 10
-22.635246024222141
 20
102.77751367326961
 30
0.0
 10
-22.509255676849847
 20
103.69108948384685
 30
0.0
 10
-22.475331478281447
 20
104.08686645583568
 30
0.0
 10
-22.488889205244476
 20
104.28388347235831
 30
0.0
 10
-22.48889781178795
 20
104.28399735576819
 30
0.0
 10
-22.488906418331425
 20
104.28411123917807
 30
0.0
  0
SPLINE
  5
5F
100
AcDbEntity
  8
0
370
              18
  6
Continuous
 62
               7
100
AcDbSpline
210
0.0
220
0.0
230
1.0
 70
               8
 71
               2
 72
              18
 73
              15
 74
               0
 42
0.000001
 43
0.000001
 40
0.0
 40
0.0
 40
0.0
 40
1.0
 40
1.0
 40
2.0
 40
3.0
 40
4.0
 40
5.0
 40
6.0
 40
7.0
 40
8.0
 40
9.0
 40
10.0
 40
10.0
 40
11.0
 40
11.0
 40
11.0
 10
-26.487861243887608
 20
104.19513093538878
 30
0.0
 10
-26.487857730285995
 20
104.1950406075416
 30
0.0
 10
-26.487854216684383
 20
104.19495027969442
 30
0.0
 10
-26.486330734105962
 20
104.16204184596798
 30
0.0
 10
-26.48903618995999
 20
104.10509450255115
 30
0.0
 10
-26.498009059757209
 20
104.03148859224366
 30
0.0
 10
-26.514733642121996
 20
103.9586970716107
 30
0.0
 10
-26.529592477082161
 20
103.91676759966749
 30
0.0
 10
-26.54340820041827
 20
103.88648872054024
 30
0.0
 10
-26.555905194492681
 20
103.86485282371747
 30
0.0
 10
-26.556794910894581
 20
103.86305836570689
 30
0.0
 10
-26.556253549862504
 20
103.86349537066168
 30
0.0
 10
-26.555396893123401
 20
103.86454230426689
 30
0.0
 10
-26.555384049978812
 20
103.86455770035361
 30
0.0
 10
-26.555371206834224
 20
103.86457309644034
 30
0.0
  0
LINE
  5
60
100
AcDbEntity
  8
0
370
              18
  6
Continuous
 62
               7
100
AcDbLine
 10
-27.086946789786083
 20
99.982364413594453
 30
0.0
 11
-26.663155386086089
 21
99.947135442794448
 31
0.0
  0
LINE
  5
61
100
AcDbEntity
  8
0
370
              18
  6
Continuous
 62
               7
100
AcDbLine
 10
-26.520099163186075
 20
103.94904829359446
 30
0.0
 11
-26.868872221786091
 21
103.97804113249443
 31
0.0
  0
LINE
  5
62
100
AcDbEntity
  8
0
370
              18
  6
Continuous
 62
               7
100
AcDbLine
 10
-24.022575074686102
 20
56.266015646894445
 30
0.0
 11
-26.822864238886069
 21
55.494144508694447
 31
0.0
  0
LINE
  5
63
100
AcDbEntity
  8
0
370
              18
  6
Continuous
 62
               7
100
AcDbLine
 10
-21.507980755786093
 20
33.673659277094444
 30
0.0
 11
-18.666394804586076
 21
34.275997320894461
 31
0.0
  0
LINE
  5
64
100
AcDbEntity
  8
0
370
              18
  6
Continuous
 62
               7
100
AcDbLine
 10
-16.558085943286102
 20
95.426719230794461
 30
0.0
 11
-16.569734436786092
 21
95.967656407994454
 31
0.0
  0
LINE
  5
65
100
AcDbEntity
  8
0
370
              18
  6
Continuous
 62
               7
100
AcDbLine
 10
-20.168901084286091
 20
95.890152655894454
 30
0.0
 11
-20.157252590786101
 21
95.349215478694461
 31
0.0
  0
LINE
  5
66
100
AcDbEntity
  8
0
370
              18
  6
Continuous
 62
               7
100
AcDbLine
 10
-9.7837858360860821
 20
97.076757211994462
 30
0.0
 11
-9.7954343295860724
 21
97.617694389194426
 31
0.0
  0
LINE
  5
67
100
AcDbEntity
  8
0
370
              18
  6
Continuous
 62
               7
100
AcDbLine
 10
-13.394602028586093
 20
97.540190380994446
 30
0.0
 11
-13.382953535086102
 21
96.999253203794424
 31
0.0
  0
LINE
  5
68
100
AcDbEntity
  8
0
370
              18
  6
Continuous
 62
               7
100
AcDbLine
 10
7.8787741898139245
 20
-118.45007845970555
 30
0.0
 11
9.4887395309139038
 21
-118.11919732850555
 31
0.0
  0
LINE
  5
69
100
AcDbEntity
  8
0
370
              18
  6
Continuous
 62
               7
100
AcDbLine
 10
-23.091798714886096
 20
-122.45408830260554
 30
0.0
 11
-11.449572477086093
 21
-123.42188435640556
 31
0.0
  0
LINE
  5
6A
100
AcDbEntity
  8
0
370
              18
  6
Continuous
 62
               7
100
AcDbLine
 10
-22.075621695786111
 20
51.860143274994456
 30
0.0
 11
-22.681623500786088
 21
51.712537473794455
 31
0.0
  0
LINE
  5
6B
100
AcDbEntity
  8
0
370
              18
  6
Continuous
 62
               7
100
AcDbLine
 10
-19.569622673886073
 20
38.936083540794456
 30
0.0
 11
-18.963620868886096
 21
39.083689341994457
 31
0.0
  0
LINE
  5
6C
100
AcDbEntity
  8
0
370
              18
  6
Continuous
 62
               7
100
AcDbLine
 10
9.6506800101139163
 20
-118.22510845160555
 30
0.0
 11
41.049636854313917
 21
-110.49805041960555
 31
0.0
  0
LINE
  5
6D
100
AcDbEntity
  8
0
370
              18
  6
Continuous
 62
               7
100
AcDbLine
 10
-8.1855929050861107
 20
-123.52113268130555
 30
0.0
 11
-0.5561820602860905
 21
-121.66281263800555
 31
0.0
  0
LINE
  5
6E
100
AcDbEntity
  8
0
370
              18
  6
Continuous
 62
               7
100
AcDbLine
 10
42.370671276813908
 20
-108.60944596670555
 30
0.0
 11
38.426262203513915
 21
74.562525250994454
 31
0.0
  0
LINE
  5
6F
100
AcDbEntity
  8
0
370
              18
  6
Continuous
 62
               7
100
AcDbLine
 10
0.2064671704139016
 20
-120.72857862320555
 30
0.0
 11
0.3131263639139092
 21
-117.87562320060555
 31
0.0
  0
SPLINE
  5
70
100
AcDbEntity
  8
0
370
              18
  6
Continuous
 62
               7
100
AcDbSpline
210
0.0
220
0.0
230
1.0
 70
               8
 71
               2
 72
              17
 73
              14
 74
               0
 42
0.000001
 43
0.000001
 40
0.0
 40
0.0
 40
0.0
 40
1.0
 40
1.0
 40
2.0
 40
3.0
 40
4.0
 40
5.0
 40
6.0
 40
7.0
 40
8.0
 40
9.0
 40
9.0
 40
10.0
 40
10.0
 40
10.0
 10
-0.5602741146122128
 20
-121.65337767404559
 30
0.0
 10
-0.5598701151764374
 20
-121.65334255442534
 30
0.0
 10
-0.559466115740662
 20
-121.65330743480509
 30
0.0
 10
-0.5343690707574069
 20
-121.65137215806438
 30
0.0
 10
-0.4370828425048217
 20
-121.63800260005384
 30
0.0
 10
-0.3046718935822526
 20
-121.57516443435422
 30
0.0
 10
-0.1516025644440902
 20
-121.46376738952523
 30
0.0
 10
0.0152948700691979
 20
-121.29227840444197
 30
0.0
 10
0.1420231762043613
 20
-121.0731477955666
 30
0.0
 10
0.1820892975768231
 20
-120.90660100491267
 30
0.0
 10
0.1967575123380527
 20
-120.82030154286036
 30
0.0
 10
0.2032861079858606
 20
-120.77694819744661
 30
0.0
 10
0.203506550638366
 20
-120.7755037995689
 30
0.0
 10
0.2037269932908714
 20
-120.77405940169116
 30
0.0
  0
SPLINE
  5
71
100
AcDbEntity
  8
0
370
              18
  6
Continuous
 62
               7
100
AcDbSpline
210
0.0
220
0.0
230
1.0
 70
               8
 71
               2
 72
              16
 73
              13
 74
               0
 42
0.000001
 43
0.000001
 40
0.0
 40
0.0
 40
0.0
 40
1.0
 40
1.0
 40
2.0
 40
3.0
 40
4.0
 40
5.0
 40
6.0
 40
7.0
 40
8.0
 40
8.0
 40
9.0
 40
9.0
 40
9.0
 10
41.101215818100314
 20
-110.48003137795205
 30
0.0
 10
41.105820956734036
 20
-110.47801319064475
 30
0.0
 10
41.110426095367757
 20
-110.47599500333745
 30
0.0
 10
41.21197731217552
 20
-110.43197165005891
 30
0.0
 10
41.448797724216917
 20
-110.32289073141445
 30
0.0
 10
41.789022632794058
 20
-110.09819944230723
 30
0.0
 10
42.040679924668297
 20
-109.773799413323
 30
0.0
 10
42.266504412712237
 20
-109.38093619553848
 30
0.0
 10
42.341301832594922
 20
-108.98547348758434
 30
0.0
 10
42.362695492343789
 20
-108.7537346575764
 30
0.0
 10
42.370148039710159
 20
-108.61877986655153
 30
0.0
 10
42.370412114486399
 20
-108.61428542505132
 30
0.0
 10
42.370676189262639
 20
-108.60979098355109
 30
0.0
  0
SPLINE
  5
72
100
AcDbEntity
  8
0
370
              18
  6
Continuous
 62
               7
100
AcDbSpline
210
0.0
220
0.0
230
1.0
 70
               8
 71
               2
 72
              16
 73
              13
 74
               0
 42
0.000001
 43
0.000001
 40
0.0
 40
0.0
 40
0.0
 40
1.0
 40
1.0
 40
2.0
 40
3.0
 40
4.0
 40
5.0
 40
6.0
 40
7.0
 40
8.0
 40
8.0
 40
9.0
 40
9.0
 40
9.0
 10
6.9769277475450622
 20
75.363030164673845
 30
0.0
 10
6.9769438117491234
 20
75.361951453707931
 30
0.0
 10
6.9769598759531846
 20
75.360872742742018
 30
0.0
 10
6.9827179718062951
 20
75.130770188698094
 30
0.0
 10
6.9327207575708201
 20
74.65553761241263
 30
0.0
 10
6.8299156354752029
 20
74.249332245806627
 30
0.0
 10
6.7084023962063668
 20
73.932562865735363
 30
0.0
 10
6.4738937395229073
 20
73.504252425377402
 30
0.0
 10
6.2103286397427553
 20
73.279773182490814
 30
0.0
 10
6.1038589354905355
 20
73.217244699753351
 30
0.0
 10
6.0578992432203052
 20
73.193574586041237
 30
0.0
 10
6.0569012111610903
 20
73.193052652630499
 30
0.0
 10
6.0559031791018754
 20
73.192530719219761
 30
0.0
  0
LINE
  5
73
100
AcDbEntity
  8
0
370
              18
  6
Continuous
 62
               7
100
AcDbLine
 10
6.6531857783139117
 20
87.794150049794453
 30
0.0
 11
6.9769278542139261
 21
75.363026677694464
 31
0.0
  0
LINE
  5
74
100
AcDbEntity
  8
0
370
              18
  6
Continuous
 62
               7
100
AcDbLine
 10
6.6531857783139117
 20
87.794150049794453
 30
0.0
 11
40.184552073113906
 21
95.96149236919446
 31
0.0
  0
LINE
  5
75
100
AcDbEntity
  8
0
370
              18
  6
Continuous
 62
               7
100
AcDbLine
 10
41.141352650213918
 20
75.223852466394462
 30
0.0
 11
40.184552073113906
 21
95.96149236919446
 31
0.0
  0
LINE
  5
76
100
AcDbEntity
  8
0
370
              18
  6
Continuous
 62
               7
100
AcDbLine
 10
10.553600854513917
 20
67.773495761594447
 30
0.0
 11
41.141352650213918
 21
75.223852466394462
 31
0.0
  0
SPLINE
  5
77
100
AcDbEntity
  8
0
370
              18
  6
Continuous
 62
               7
100
AcDbSpline
210
0.0
220
0.0
230
1.0
 70
               8
 71
               2
 72
              15
 73
              12
 74
               0
 42
0.000001
 43
0.000001
 40
0.0
 40
0.0
 40
0.0
 40
1.0
 40
1.0
 40
2.0
 40
3.0
 40
4.0
 40
5.0
 40
6.0
 40
7.0
 40
7.0
 40
8.0
 40
8.0
 40
8.0
 10
10.553601075522039
 20
67.773495507350574
 30
0.0
 10
10.532309982665566
 20
67.768309547604744
 30
0.0
 10
10.511018889809094
 20
67.763123587858914
 30
0.0
 10
10.204097078455817
 20
67.664300573806216
 30
0.0
 10
9.765564525108573
 20
67.249241949552882
 30
0.0
 10
9.4523952202541466
 20
66.773122643534819
 30
0.0
 10
9.2039897967545414
 20
66.185091351361635
 30
0.0
 10
9.0391767264398197
 20
65.534778971914577
 30
0.0
 10
8.9625990792104062
 20
64.878120729639491
 30
0.0
 10
8.96388106506393
 20
64.49365207418488
 30
0.0
 10
8.9650409300265892
 20
64.456295944220685
 30
0.0
 10
8.9662007949892484
 20
64.41893981425649
 30
0.0
  0
LINE
  5
78
100
AcDbEntity
  8
0
370
              18
  6
Continuous
 62
               7
100
AcDbLine
 10
9.1363097284139201
 20
58.940220262594451
 30
0.0
 11
8.9662012186139179
 21
64.418935917594453
 31
0.0
  0
LINE
  5
79
100
AcDbEntity
  8
0
370
              18
  6
Continuous
 62
               7
100
AcDbLine
 10
6.4441507370138993
 20
58.28448247169446
 30
0.0
 11
9.1363097284139201
 21
58.940220262594451
 31
0.0
  0
LINE
  5
7A
100
AcDbEntity
  8
0
370
              18
  6
Continuous
 62
               7
100
AcDbLine
 10
6.0559032786138971
 20
73.192526606194448
 30
0.0
 11
6.4441507370138993
 21
58.28448247169446
 31
0.0
  0
LINE
  5
7B
100
AcDbEntity
  8
0
370
              18
  6
Continuous
 62
               7
100
AcDbLine
 10
5.5874719035139151
 20
75.294126273694459
 30
0.0
 11
5.2637298275139131
 21
87.725249645794449
 31
0.0
  0
ARC
  5
7C
100
AcDbEntity
  8
0
370
              18
  6
Continuous
 62
               7
100
AcDbCircle
 10
5.6558260361138935
 20
93.862617754794442
 30
0.0
 40
6.1498802217633539
100
AcDbArc
 50
266.34452947720013
 51
279.33319114800003
  0
ARC
  5
7D
100
AcDbEntity
  8
0
370
              18
  6
Continuous
 62
               7
100
AcDbCircle
 10
5.9795681120139079
 20
81.431494382694453
 30
0.0
 40
6.1498802217595099
100
AcDbArc
 50
266.34452947720001
 51
279.33319114800003
  0
ARC
  5
7E
100
AcDbEntity
  8
0
370
              18
  6
Continuous
 62
               7
100
AcDbCircle
 10
6.354926873013909
 20
87.87759098129446
 30
0.0
 40
1.1017798666892169
100
AcDbArc
 50
119.80648570759985
 51
187.94765818750034
  0
ARC
  5
7F
100
AcDbEntity
  8
0
370
              18
  6
Continuous
 62
               7
100
AcDbCircle
 10
5.6184153102139192
 20
87.815989088694451
 30
0.0
 40
1.0350009010362442
100
AcDbArc
 50
358.79094054590018
 51
79.4868532998006
  0
LINE
  5
80
100
AcDbEntity
  8
0
370
              18
  6
Continuous
 62
               7
100
AcDbLine
 10
4.6664473759139184
 20
73.123626198194458
 30
0.0
 11
5.0546969373139063
 21
58.215582575894459
 31
0.0
  0
ARC
  5
81
100
AcDbEntity
  8
0
370
              18
  6
Continuous
 62
               7
100
AcDbCircle
 10
5.0585435236139062
 20
79.260994487194452
 30
0.0
 40
6.1498803975289329
100
AcDbArc
 50
266.34453014980011
 51
279.33319099979997
  0
SPLINE
  5
82
100
AcDbEntity
  8
0
370
              18
  6
Continuous
 62
               7
100
AcDbSpline
210
0.0
220
0.0
230
1.0
 70
               8
 71
               2
 72
              15
 73
              12
 74
               0
 42
0.000001
 43
0.000001
 40
0.0
 40
0.0
 40
0.0
 40
1.0
 40
1.0
 40
2.0
 40
3.0
 40
4.0
 40
5.0
 40
6.0
 40
7.0
 40
7.0
 40
8.0
 40
8.0
 40
8.0
 10
5.0546964798450347
 20
58.21557889962061
 30
0.0
 10
5.0623736282500289
 20
58.214940712921688
 30
0.0
 10
5.0700507766550231
 20
58.214302526222767
 30
0.0
 10
5.2151818535041627
 20
58.203201651014595
 30
0.0
 10
5.4588525505663483
 20
58.198906249315044
 30
0.0
 10
5.6303422217536365
 20
58.200535828539373
 30
0.0
 10
5.8041430067580677
 20
58.206794448882974
 30
0.0
 10
6.0584583149608022
 20
58.223098688152689
 30
0.0
 10
6.3322283925581644
 20
58.258727682384531
 30
0.0
 10
6.4336467430802884
 20
58.2819204215008
 30
0.0
 10
6.4388991033173539
 20
58.283199755711806
 30
0.0
 10
6.4441514635544195
 20
58.284479089922812
 30
0.0
  0
LINE
  5
83
100
AcDbEntity
  8
0
370
              18
  6
Continuous
 62
               7
100
AcDbLine
 10
-49.208075933886079
 20
79.849175615394458
 30
0.0
 11
5.5874719035139151
 21
75.294126273694459
 31
0.0
  0
LINE
  5
84
100
AcDbEntity
  8
0
370
              18
  6
Continuous
 62
               7
100
AcDbLine
 10
-49.17074313768606
 20
92.250283522294453
 30
0.0
 11
-49.208075933886079
 21
79.849175615394458
 31
0.0
  0
LINE
  5
85
100
AcDbEntity
  8
0
370
              18
  6
Continuous
 62
               7
100
AcDbLine
 10
-49.17074313768606
 20
92.250283522294453
 30
0.0
 11
5.2637298275139131
 21
87.725249645794449
 31
0.0
  0
ARC
  5
86
100
AcDbEntity
  8
0
370
              18
  6
Continuous
 62
               7
100
AcDbCircle
 10
5.8563394130138988
 20
73.248668326994462
 30
0.0
 40
1.1964441457756589
100
AcDbArc
 50
126.71855649129922
 51
185.99902062440032
  0
SPLINE
  5
87
100
AcDbEntity
  8
0
370
              18
  6
Continuous
 62
               7
100
AcDbSpline
210
0.0
220
0.0
230
1.0
 70
               8
 71
               2
 72
              15
 73
              12
 74
               0
 42
0.000001
 43
0.000001
 40
0.0
 40
0.0
 40
0.0
 40
1.0
 40
1.0
 40
2.0
 40
3.0
 40
4.0
 40
5.0
 40
6.0
 40
7.0
 40
7.0
 40
8.0
 40
8.0
 40
8.0
 10
5.1410035961308154
 20
74.207712874165153
 30
0.0
 10
5.1429089331391253
 20
74.207555984785671
 30
0.0
 10
5.1448142701474353
 20
74.207399095406188
 30
0.0
 10
5.2412414726042584
 20
74.198756225949111
 30
0.0
 10
5.4663614062838803
 20
74.119258596514456
 30
0.0
 10
5.6926645733405223
 20
73.95026691913209
 30
0.0
 10
5.8341910526365552
 20
73.778140526554452
 30
0.0
 10
5.9624222853231572
 20
73.568036047458989
 30
0.0
 10
6.0425508460092487
 20
73.309248404475355
 30
0.0
 10
6.0554210214904742
 20
73.196980311375043
 30
0.0
 10
6.0556621002961748
 20
73.194755515297402
 30
0.0
 10
6.0559031791018754
 20
73.192530719219761
 30
0.0
  0
ARC
  5
88
100
AcDbEntity
  8
0
370
              18
  6
Continuous
 62
               7
100
AcDbCircle
 10
-48.079546092186121
 20
92.402624857794464
 30
0.0
 40
1.101779866689393
100
AcDbArc
 50
119.80648570759803
 51
187.94765818750059
  0
LINE
  5
89
100
AcDbEntity
  8
0
370
              18
  6
Continuous
 62
               7
100
AcDbLine
 10
5.8072627459139028
 20
88.833615499094449
 30
0.0
 11
-48.62721021928607
 21
93.358649375594453
 31
0.0
  0
LINE
  5
8A
100
AcDbEntity
  8
0
370
              18
  6
Continuous
 62
               7
100
AcDbLine
 10
-50.230050796586085
 20
62.811298171594458
 30
0.0
 11
5.0546969373139063
 21
58.215582575894459
 31
0.0
  0
LINE
  5
8B
100
AcDbEntity
  8
0
370
              18
  6
Continuous
 62
               7
100
AcDbLine
 10
-50.230050796586085
 20
62.811298171594458
 30
0.0
 11
-50.185275941986077
 21
77.683345300394464
 31
0.0
  0
LINE
  5
8C
100
AcDbEntity
  8
0
370
              18
  6
Continuous
 62
               7
100
AcDbLine
 10
4.6664473759139184
 20
73.123626198194458
 30
0.0
 11
-50.185275941986077
 21
77.683345300394464
 31
0.0
  0
SPLINE
  5
8D
100
AcDbEntity
  8
0
370
              18
  6
Continuous
 62
               7
100
AcDbSpline
210
0.0
220
0.0
230
1.0
 70
               9
 71
               2
 72
              30
 73
              27
 74
               0
 42
0.000001
 43
0.000001
 40
0.0
 40
0.0
 40
0.0
 40
1.0
 40
1.0
 40
2.0
 40
3.0
 40
4.0
 40
5.0
 40
6.0
 40
7.0
 40
8.0
 40
9.0
 40
10.0
 40
11.0
 40
12.0
 40
13.0
 40
14.0
 40
15.0
 40
16.0
 40
17.0
 40
18.0
 40
19.0
 40
20.0
 40
21.0
 40
22.0
 40
22.0
 40
23.0
 40
23.0
 40
23.0
 10
-22.922151361538653
 20
67.332106195835834
 30
0.0
 10
-22.935259664571817
 20
67.329318063426626
 30
0.0
 10
-22.94836796760498
 20
67.326529931017419
 30
0.0
 10
-23.19304889912155
 20
67.261604844756832
 30
0.0
 10
-23.47232474075858
 20
66.984425658071373
 30
0.0
 10
-23.614362553304289
 20
66.744153498597385
 30
0.0
 10
-23.701797635978238
 20
66.467444310070121
 30
0.0
 10
-23.742230633206162
 20
66.033495543268558
 30
0.0
 10
-23.641602341122905
 20
65.644437974931421
 30
0.0
 10
-23.523755274844319
 20
65.383943589448236
 30
0.0
 10
-23.354203899887352
 20
65.146517367222444
 30
0.0
 10
-23.14189665056179
 20
64.95496796190416
 30
0.0
 10
-22.903807812938538
 20
64.826342628355022
 30
0.0
 10
-22.538744793869029
 20
64.741722667065247
 30
0.0
 10
-22.167722055425912
 20
64.844494755239609
 30
0.0
 10
-21.867272603327109
 20
65.075621612742239
 30
0.0
 10
-21.688978837204985
 20
65.376536568376693
 30
0.0
 10
-21.601508664264259
 20
65.653293091703759
 30
0.0
 10
-21.560812618207876
 20
66.087997821817694
 30
0.0
 10
-21.645278721041535
 20
66.410623642633695
 30
0.0
 10
-21.761140560947979
 20
66.747128395234384
 30
0.0
 10
-22.050822500671785
 20
67.07700839390715
 30
0.0
 10
-22.278502079668243
 20
67.238622761335662
 30
0.0
 10
-22.648240928718764
 20
67.376601752906694
 30
0.0
 10
-22.895934755472325
 20
67.33768246065425
 30
0.0
 10
-22.909043058505489
 20
67.334894328245042
 30
0.0
 10
-22.922151361538653
 20
67.332106195835834
 30
0.0
  0
LINE
  5
8E
100
AcDbEntity
  8
0
370
              18
  6
Continuous
 62
               7
100
AcDbLine
 10
39.338629040713897
 20
97.000957818494456
 30
0.0
 11
5.8072627459139028
 21
88.833615499094449
 31
0.0
  0
ARC
  5
8F
100
AcDbEntity
  8
0
370
              18
  6
Continuous
 62
               7
100
AcDbCircle
 10
39.149781605013914
 20
95.983331408094458
 30
0.0
 40
1.0350009010363861
100
AcDbArc
 50
358.79094054590024
 51
79.48685329980043
  0
ARC
  5
90
100
AcDbEntity
  8
0
370
              18
  6
Continuous
 62
               7
100
AcDbCircle
 10
-48.995383904886097
 20
77.80838742919444
 30
0.0
 40
1.1964441457757782
100
AcDbArc
 50
126.71855649130008
 51
185.99902062439975
  0
LINE
  5
91
100
AcDbEntity
  8
0
370
              18
  6
Continuous
 62
               7
100
AcDbLine
 10
5.141003658313906
 20
74.207716475894458
 30
0.0
 11
-49.71071965958609
 21
78.767435578094464
 31
0.0
  0
SPLINE
  5
92
100
AcDbEntity
  8
0
370
              18
  6
Continuous
 62
               7
100
AcDbSpline
210
0.0
220
0.0
230
1.0
 70
               8
 71
               2
 72
              14
 73
              11
 74
               0
 42
0.000001
 43
0.000001
 40
0.0
 40
0.0
 40
0.0
 40
1.0
 40
1.0
 40
2.0
 40
3.0
 40
4.0
 40
5.0
 40
6.0
 40
6.0
 40
7.0
 40
7.0
 40
7.0
 10
5.5874727638359616
 20
75.294129974374343
 30
0.0
 10
5.5878438360381182
 20
75.284971561199399
 30
0.0
 10
5.5882149082402748
 20
75.275813148024454
 30
0.0
 10
5.5910266084332818
 20
75.110605721153902
 30
0.0
 10
5.5488100018830835
 20
74.830797983176623
 30
0.0
 10
5.4658779259909522
 20
74.580700583539439
 30
0.0
 10
5.3486318230882546
 20
74.37589037523135
 30
0.0
 10
5.2218135495453168
 20
74.250413388733264
 30
0.0
 10
5.151227647723573
 20
74.212468905824053
 30
0.0
 10
5.1461156219271942
 20
74.210090889994603
 30
0.0
 10
5.1410035961308154
 20
74.207712874165153
 30
0.0
  0
LINE
  5
93
100
AcDbEntity
  8
0
370
              18
  6
Continuous
 62
               7
100
AcDbLine
 10
24.783468880713912
 20
95.60589269589444
 30
0.0
 11
22.707535598013919
 21
95.778461068794442
 31
0.0
  0
LINE
  5
94
100
AcDbEntity
  8
0
370
              18
  6
Continuous
 62
               7
100
AcDbLine
 10
14.678401732613906
 20
96.445907647494451
 30
0.0
 11
-16.488019702286095
 21
99.036712795694442
 31
0.0
  0
LINE
  5
95
100
AcDbEntity
  8
0
370
              18
  6
Continuous
 62
               7
100
AcDbLine
 10
-16.488019702286095
 20
99.036712795694442
 30
0.0
 11
-30.610996518886083
 21
95.596734083994463
 31
0.0
  0
LINE
  5
96
100
AcDbEntity
  8
0
370
              18
  6
Continuous
 62
               7
100
AcDbLine
 10
-30.610996518886083
 20
95.596734083994463
 30
0.0
 11
10.660492064013908
 21
92.165913984194461
 31
0.0
  0
LINE
  5
97
100
AcDbEntity
  8
0
370
              18
  6
Continuous
 62
               7
100
AcDbLine
 10
10.660492064013908
 20
92.165913984194461
 30
0.0
 11
14.636584230813895
 21
93.134383492194459
 31
0.0
  0
LINE
  5
98
100
AcDbEntity
  8
0
370
              18
  6
Continuous
 62
               7
100
AcDbLine
 10
22.730291241313893
 20
95.105793640194449
 30
0.0
 11
24.783468880713912
 21
95.60589269589444
 31
0.0
  0
LINE
  5
99
100
AcDbEntity
  8
0
370
              18
  6
Continuous
 62
               7
100
AcDbLine
 10
17.606534787113901
 20
92.51225709559445
 30
0.0
 11
22.687322958113924
 21
93.749800948694443
 31
0.0
  0
SPLINE
  5
9A
100
AcDbEntity
  8
0
370
              18
  6
Continuous
 62
               7
100
AcDbSpline
210
0.0
220
0.0
230
1.0
 70
               8
 71
               2
 72
              12
 73
               9
 74
               0
 42
0.000001
 43
0.000001
 40
0.0
 40
0.0
 40
0.0
 40
1.0
 40
1.0
 40
2.0
 40
3.0
 40
4.0
 40
4.0
 40
5.0
 40
5.0
 40
5.0
 10
22.687323123570167
 20
93.749802691125964
 30
0.0
 10
22.687780240124965
 20
93.749914032469775
 30
0.0
 10
22.688237356679764
 20
93.750025373813585
 30
0.0
 10
22.712829912207468
 20
93.756084600192409
 30
0.0
 10
22.752385381269761
 20
93.770268608081054
 30
0.0
 10
22.774598299563024
 20
93.786579031742534
 30
0.0
 10
22.774640343070331
 20
93.794758176056419
 30
0.0
 10
22.774636176804151
 20
93.794881337436792
 30
0.0
 10
22.774632010537971
 20
93.795004498817164
 30
0.0
  0
SPLINE
  5
9B
100
AcDbEntity
  8
0
370
              18
  6
Continuous
 62
               7
100
AcDbSpline
210
0.0
220
0.0
230
1.0
 70
               8
 71
               2
 72
              14
 73
              11
 74
               0
 42
0.000001
 43
0.000001
 40
0.0
 40
0.0
 40
0.0
 40
1.0
 40
1.0
 40
2.0
 40
3.0
 40
4.0
 40
5.0
 40
6.0
 40
6.0
 40
7.0
 40
7.0
 40
7.0
 10
14.631196021104557
 20
92.707679067934393
 30
0.0
 10
14.631192811112939
 20
92.707424872115595
 30
0.0
 10
14.631189601121321
 20
92.707170676296798
 30
0.0
 10
14.631862351964202
 20
92.69531815260838
 30
0.0
 10
14.673359278368707
 20
92.676632085284055
 30
0.0
 10
14.717301028021268
 20
92.666426218933978
 30
0.0
 10
14.751640608495364
 20
92.660336292609813
 30
0.0
 10
14.804947136304747
 20
92.653051787642468
 30
0.0
 10
14.846210905752883
 20
92.649507125445083
 30
0.0
 10
14.847589233562445
 20
92.649392547684172
 30
0.0
 10
14.848967561372007
 20
92.649277969923261
 30
0.0
  0
LINE
  5
9C
100
AcDbEntity
  8
0
370
              18
  6
Continuous
 62
               7
100
AcDbLine
 10
14.848966981313907
 20
92.649276183394463
 30
0.0
 11
16.911727097913911
 21
92.477802870694447
 31
0.0
  0
SPLINE
  5
9D
100
AcDbEntity
  8
0
370
              18
  6
Continuous
 62
               7
100
AcDbSpline
210
0.0
220
0.0
230
1.0
 70
               8
 71
               2
 72
              15
 73
              12
 74
               0
 42
0.000001
 43
0.000001
 40
0.0
 40
0.0
 40
0.0
 40
1.0
 40
1.0
 40
2.0
 40
3.0
 40
4.0
 40
5.0
 40
6.0
 40
7.0
 40
7.0
 40
8.0
 40
8.0
 40
8.0
 10
16.911727526982901
 20
92.47780466971723
 30
0.0
 10
16.914766398358694
 20
92.477552054137902
 30
0.0
 10
16.917805269734487
 20
92.477299438558575
 30
0.0
 10
17.000636124134786
 20
92.47076363624042
 30
0.0
 10
17.149039898721099
 20
92.469413058445284
 30
0.0
 10
17.234932905160093
 20
92.471383753393482
 30
0.0
 10
17.338061384727126
 20
92.475952457503084
 30
0.0
 10
17.462929238389023
 20
92.487261143403614
 30
0.0
 10
17.562846786092422
 20
92.502095853294705
 30
0.0
 10
17.602376269491856
 20
92.511245894336426
 30
0.0
 10
17.604455328842775
 20
92.511752297483653
 30
0.0
 10
17.606534388193694
 20
92.512258700630881
 30
0.0
  0
SPLINE
  5
9E
100
AcDbEntity
  8
0
370
              18
  6
Continuous
 62
               7
100
AcDbSpline
210
0.0
220
0.0
230
1.0
 70
               8
 71
               2
 72
              14
 73
              11
 74
               0
 42
0.000001
 43
0.000001
 40
0.0
 40
0.0
 40
0.0
 40
1.0
 40
1.0
 40
2.0
 40
3.0
 40
4.0
 40
5.0
 40
6.0
 40
6.0
 40
7.0
 40
7.0
 40
7.0
 10
-31.989315258923881
 20
96.582891239044002
 30
0.0
 10
-31.989312915233796
 20
96.582638006187423
 30
0.0
 10
-31.989310571543712
 20
96.582384773330844
 30
0.0
 10
-31.988382705630613
 20
96.57057884845581
 30
0.0
 10
-31.946770808959144
 20
96.551985956284639
 30
0.0
 10
-31.902911234789002
 20
96.541832719121501
 30
0.0
 10
-31.868669682727159
 20
96.535773505078069
 30
0.0
 10
-31.815547890057104
 20
96.528523908826074
 30
0.0
 10
-31.774442919278442
 20
96.524993125591678
 30
0.0
 10
-31.77306986361414
 20
96.524878986094095
 30
0.0
 10
-31.771696807949837
 20
96.524764846596511
 30
0.0
  0
LINE
  5
9F
100
AcDbEntity
  8
0
370
              18
  6
Continuous
 62
               7
100
AcDbLine
 10
-31.771700013386095
 20
96.524763278294429
 30
0.0
 11
-29.708936822886102
 21
96.353289710094444
 31
0.0
  0
SPLINE
  5
A0
100
AcDbEntity
  8
0
370
              18
  6
Continuous
 62
               7
100
AcDbSpline
210
0.0
220
0.0
230
1.0
 70
               8
 71
               2
 72
              15
 73
              12
 74
               0
 42
0.000001
 43
0.000001
 40
0.0
 40
0.0
 40
0.0
 40
1.0
 40
1.0
 40
2.0
 40
3.0
 40
4.0
 40
5.0
 40
6.0
 40
7.0
 40
7.0
 40
8.0
 40
8.0
 40
8.0
 10
-29.708936842238899
 20
96.353291546306608
 30
0.0
 10
-29.705896581732603
 20
96.35303881525148
 30
0.0
 10
-29.702856321226307
 20
96.352786084196353
 30
0.0
 10
-29.619989288244199
 20
96.34624725486124
 30
0.0
 10
-29.47155534957281
 20
96.344891142294571
 30
0.0
 10
-29.385652171694062
 20
96.346858415596856
 30
0.0
 10
-29.282516381064852
 20
96.351422823981139
 30
0.0
 10
-29.157648428703197
 20
96.362726029253352
 30
0.0
 10
-29.057735914111106
 20
96.377556586088375
 30
0.0
 10
-29.018210631720564
 20
96.386705423618665
 30
0.0
 10
-29.0161318099195
 20
96.387211768905175
 30
0.0
 10
-29.014052988118436
 20
96.387718114191685
 30
0.0
  0
LINE
  5
A1
100
AcDbEntity
  8
0
370
              18
  6
Continuous
 62
               7
100
AcDbLine
 10
-29.014054849386099
 20
96.387716461094456
 30
0.0
 11
-23.933136291286104
 21
97.625292072994469
 31
0.0
  0
SPLINE
  5
A2
100
AcDbEntity
  8
0
370
              18
  6
Continuous
 62
               7
100
AcDbSpline
210
0.0
220
0.0
230
1.0
 70
               8
 71
               2
 72
              13
 73
              10
 74
               0
 42
0.000001
 43
0.000001
 40
0.0
 40
0.0
 40
0.0
 40
1.0
 40
1.0
 40
2.0
 40
3.0
 40
4.0
 40
5.0
 40
5.0
 40
6.0
 40
6.0
 40
6.0
 10
-23.933135310850929
 20
97.625293511625344
 30
0.0
 10
-23.932676021806031
 20
97.6254053821295
 30
0.0
 10
-23.932216732761134
 20
97.625517252633657
 30
0.0
 10
-23.918535587038377
 20
97.628890885360775
 30
0.0
 10
-23.894727092358409
 20
97.635996668566932
 30
0.0
 10
-23.863854466751746
 20
97.647900817654275
 30
0.0
 10
-23.845761554221895
 20
97.663263890660417
 30
0.0
 10
-23.845876332340055
 20
97.670474281931789
 30
0.0
 10
-23.845883211544646
 20
97.670597979045411
 30
0.0
 10
-23.845890090749236
 20
97.670721676159033
 30
0.0
  0
SPLINE
  5
A3
100
AcDbEntity
  8
0
370
              18
  6
Continuous
 62
               7
100
AcDbSpline
210
0.0
220
0.0
230
1.0
 70
               8
 71
               2
 72
              14
 73
              11
 74
               0
 42
0.000001
 43
0.000001
 40
0.0
 40
0.0
 40
0.0
 40
1.0
 40
1.0
 40
2.0
 40
3.0
 40
4.0
 40
5.0
 40
6.0
 40
6.0
 40
7.0
 40
7.0
 40
7.0
 10
-49.710719526610575
 20
78.76743196014236
 30
0.0
 10
-49.705542411591438
 20
78.76980456522891
 30
0.0
 10
-49.700365296572301
 20
78.772177170315459
 30
0.0
 10
-49.628527228133322
 20
78.810151387609508
 30
0.0
 10
-49.496166387236229
 20
78.935409033365758
 30
0.0
 10
-49.368809224462467
 20
79.139343864558285
 30
0.0
 10
-49.272663030068344
 20
79.388354538052525
 30
0.0
 10
-49.214994934777422
 20
79.66680138268363
 30
0.0
 10
-49.208398536781914
 20
79.830951071642303
 30
0.0
 10
-49.208238214810819
 20
79.840065311033527
 30
0.0
 10
-49.208077892839725
 20
79.849179550424751
 30
0.0
  0
ARC
  5
A4
100
AcDbEntity
  8
0
370
              18
  6
Continuous
 62
               7
100
AcDbCircle
 10
-21.297505164586084
 20
66.372030732494451
 30
0.0
 40
1.4096435495797301
100
AcDbArc
 50
178.97090028049999
 51
245.55260869990022
  0
ARC
  5
A5
100
AcDbEntity
  8
0
370
              18
  6
Continuous
 62
               7
100
AcDbCircle
 10
-21.459204294086106
 20
66.470729482394447
 30
0.0
 40
1.2498730494514629
100
AcDbArc
 50
139.18406595019928
 51
183.3658260082
  0
SPLINE
  5
A6
100
AcDbEntity
  8
0
370
              18
  6
Continuous
 62
               7
100
AcDbSpline
210
0.0
220
0.0
230
1.0
 70
               8
 71
               2
 72
              15
 73
              12
 74
               0
 42
0.000001
 43
0.000001
 40
0.0
 40
0.0
 40
0.0
 40
1.0
 40
1.0
 40
2.0
 40
3.0
 40
4.0
 40
5.0
 40
6.0
 40
7.0
 40
7.0
 40
8.0
 40
8.0
 40
8.0
 10
19.198060694116464
 20
102.99011604512613
 30
0.0
 10
19.177336074190961
 20
102.98506808305136
 30
0.0
 10
19.156611454265459
 20
102.98002012097659
 30
0.0
 10
18.69831907222104
 20
102.83834501025429
 30
0.0
 10
18.010532070518394
 20
102.20681712221604
 30
0.0
 10
17.552567918520623
 20
101.50553408648103
 30
0.0
 10
17.175197210976137
 20
100.66750312843631
 30
0.0
 10
16.888599422114538
 20
99.566678827428191
 30
0.0
 10
16.777908774133294
 20
98.545034430337765
 30
0.0
 10
16.77959321532299
 20
98.03392506755138
 30
0.0
 10
16.780428461964263
 20
97.997587259195214
 30
0.0
 10
16.781263708605536
 20
97.961249450839048
 30
0.0
  0
SPLINE
  5
A7
100
AcDbEntity
  8
0
370
              18
  6
Continuous
 62
               7
100
AcDbSpline
210
0.0
220
0.0
230
1.0
 70
               8
 71
               2
 72
              15
 73
              12
 74
               0
 42
0.000001
 43
0.000001
 40
0.0
 40
0.0
 40
0.0
 40
1.0
 40
1.0
 40
2.0
 40
3.0
 40
4.0
 40
5.0
 40
6.0
 40
7.0
 40
7.0
 40
8.0
 40
8.0
 40
8.0
 10
19.621162084151166
 20
102.46607084272684
 30
0.0
 10
19.620137196547674
 20
102.46579738117349
 30
0.0
 10
19.619112308944182
 20
102.46552391962014
 30
0.0
 10
19.252108359532514
 20
102.37478549058865
 30
0.0
 10
18.587867202915987
 20
101.81468215214444
 30
0.0
 10
18.065639591076376
 20
100.99446741952666
 30
0.0
 10
17.719046437281776
 20
100.06678831123232
 30
0.0
 10
17.529259915355937
 20
99.150894274892849
 30
0.0
 10
17.470225531125124
 20
98.354013071467492
 30
0.0
 10
17.476007470847662
 20
98.002901886975977
 30
0.0
 10
17.476039020331953
 20
97.999302684364025
 30
0.0
 10
17.476070569816244
 20
97.995703481752074
 30
0.0
  0
SPLINE
  5
A8
100
AcDbEntity
  8
0
370
              18
  6
Continuous
 62
               7
100
AcDbSpline
210
0.0
220
0.0
230
1.0
 70
               8
 71
               2
 72
              16
 73
              13
 74
               0
 42
0.000001
 43
0.000001
 40
0.0
 40
0.0
 40
0.0
 40
1.0
 40
1.0
 40
2.0
 40
3.0
 40
4.0
 40
5.0
 40
6.0
 40
7.0
 40
8.0
 40
8.0
 40
9.0
 40
9.0
 40
9.0
 10
17.477604995527798
 20
103.13313424471626
 30
0.0
 10
17.476378659463876
 20
103.13280692037829
 30
0.0
 10
17.475152323399954
 20
103.13247959604031
 30
0.0
 10
17.223791187755268
 20
103.07019649784088
 30
0.0
 10
16.654518386546982
 20
102.73327676912864
 30
0.0
 10
16.048785621440885
 20
102.06928341736973
 30
0.0
 10
15.473988534310479
 20
101.04848552884148
 30
0.0
 10
15.161292571301971
 20
100.03407302052462
 30
0.0
 10
14.992511718511338
 20
99.228210981301018
 30
0.0
 10
14.92412773019808
 20
98.445388447646295
 30
0.0
 10
14.918241433826125
 20
98.125429758616932
 30
0.0
 10
14.918122329738424
 20
98.12078424914985
 30
0.0
 10
14.918003225650722
 20
98.116138739682768
 30
0.0
  0
SPLINE
  5
A9
100
AcDbEntity
  8
0
370
              18
  6
Continuous
 62
               7
100
AcDbSpline
210
0.0
220
0.0
230
1.0
 70
               9
 71
               2
 72
              34
 73
              31
 74
               0
 42
0.000001
 43
0.000001
 40
0.0
 40
0.0
 40
0.0
 40
1.0
 40
1.0
 40
2.0
 40
3.0
 40
4.0
 40
5.0
 40
6.0
 40
7.0
 40
8.0
 40
9.0
 40
10.0
 40
11.0
 40
12.0
 40
13.0
 40
14.0
 40
15.0
 40
16.0
 40
17.0
 40
18.0
 40
19.0
 40
20.0
 40
21.0
 40
22.0
 40
23.0
 40
24.0
 40
25.0
 40
26.0
 40
26.0
 40
27.0
 40
27.0
 40
27.0
 10
20.153146700440061
 20
100.11932283603348
 30
0.0
 10
20.137519937317293
 20
100.12045863346934
 30
0.0
 10
20.121893174194525
 20
100.1215944309052
 30
0.0
 10
19.893675008675928
 20
100.11887733680824
 30
0.0
 10
19.546933228038966
 20
99.894202444168585
 30
0.0
 10
19.290985783179565
 20
99.591234438027826
 30
0.0
 10
19.08137213833416
 20
99.190204233776186
 30
0.0
 10
18.935685031080453
 20
98.732897184850927
 30
0.0
 10
18.858070529745959
 20
98.270164454989256
 30
0.0
 10
18.844125765105986
 20
97.931935382197608
 30
0.0
 10
18.851518770666473
 20
97.577297934078175
 30
0.0
 10
18.929857213182459
 20
97.103600345601436
 30
0.0
 10
19.079465468069088
 20
96.676343821984759
 30
0.0
 10
19.28911443715586
 20
96.339906572870021
 30
0.0
 10
19.536295908722167
 20
96.121792544120311
 30
0.0
 10
19.792496183389318
 20
96.024916355947298
 30
0.0
 10
20.1153808059303
 20
96.030234038226624
 30
0.0
 10
20.462131105865495
 20
96.255079645615425
 30
0.0
 10
20.718081330525223
 20
96.558047449712674
 30
0.0
 10
20.927694691531656
 20
96.95907767459461
 30
0.0
 10
21.073381820566766
 20
97.416384721936552
 30
0.0
 10
21.150996321880172
 20
97.879117451799814
 30
0.0
 10
21.164941086521424
 20
98.217346524591349
 30
0.0
 10
21.157547890477787
 20
98.571983986555452
 30
0.0
 10
21.079210424134459
 20
99.045681504081543
 30
0.0
 10
20.929598140705025
 20
99.472938320504241
 30
0.0
 10
20.719965727168841
 20
99.809374366314401
 30
0.0
 10
20.40825783546353
 20
100.08041892527639
 30
0.0
 10
20.184400226685597
 20
100.11705124116175
 30
0.0
 10
20.168773463562829
 20
100.11818703859761
 30
0.0
 10
20.153146700440061
 20
100.11932283603348
 30
0.0
  0
LINE
  5
AA
100
AcDbEntity
  8
0
370
              18
  6
Continuous
 62
               7
100
AcDbLine
 10
22.687322958113924
 20
93.749800948694443
 30
0.0
 11
22.502280745313925
 21
99.219950827494429
 31
0.0
  0
LINE
  5
AB
100
AcDbEntity
  8
0
370
              18
  6
Continuous
 62
               7
100
AcDbLine
 10
17.476070128513896
 20
97.995700604094466
 30
0.0
 11
17.606534787113901
 21
92.51225709559445
 31
0.0
  0
LINE
  5
AC
100
AcDbEntity
  8
0
370
              18
  6
Continuous
 62
               7
100
AcDbLine
 10
20.131344766913912
 20
102.59033571839446
 30
0.0
 11
19.621161774013899
 21
102.46606881219448
 31
0.0
  0
SPLINE
  5
AD
100
AcDbEntity
  8
0
370
              18
  6
Continuous
 62
               7
100
AcDbSpline
210
0.0
220
0.0
230
1.0
 70
               8
 71
               2
 72
              17
 73
              14
 74
               0
 42
0.000001
 43
0.000001
 40
0.0
 40
0.0
 40
0.0
 40
1.0
 40
1.0
 40
2.0
 40
3.0
 40
4.0
 40
5.0
 40
6.0
 40
7.0
 40
8.0
 40
9.0
 40
9.0
 40
10.0
 40
10.0
 40
10.0
 10
22.502280503568642
 20
99.219953538765665
 30
0.0
 10
22.502206315348928
 20
99.221743999099132
 30
0.0
 10
22.502132127129215
 20
99.223534459432599
 30
0.0
 10
22.484834251808707
 20
99.720765311508401
 30
0.0
 10
22.335698381185523
 20
100.51741895428081
 30
0.0
 10
22.1337344269065
 20
101.1489030025585
 30
0.0
 10
21.812207683437947
 20
101.78932615836517
 30
0.0
 10
21.409301464389245
 20
102.24611396562416
 30
0.0
 10
20.889119327025213
 20
102.59980324892406
 30
0.0
 10
20.392704660573742
 20
102.63635934469552
 30
0.0
 10
20.196893479832084
 20
102.60347879808428
 30
0.0
 10
20.135441281581762
 20
102.59114580417851
 30
0.0
 10
20.133392965668904
 20
102.59074172449054
 30
0.0
 10
20.131344649756045
 20
102.59033764480257
 30
0.0
  0
LINE
  5
AE
100
AcDbEntity
  8
0
370
              18
  6
Continuous
 62
               7
100
AcDbLine
 10
16.911727097913911
 20
92.477802870694447
 30
0.0
 11
16.781264542413908
 21
97.961246891394424
 31
0.0
  0
POLYLINE
  5
AF
100
AcDbEntity
  8
0
370
              18
  6
Continuous
 62
               7
100
AcDb2dPolyline
 66
               1
 10
0.0
 20
0.0
 30
0.0
 75
               5
  0
VERTEX
  5
B0
100
AcDbEntity
  8
0
370
              18
  6
Continuous
 62
               7
100
AcDbVertex
100
AcDb2dVertex
 10
11.741891257513913
 20
93.600992390194463
 30
0.0
  0
VERTEX
  5
B1
100
AcDbEntity
  8
0
370
              18
  6
Continuous
 62
               7
100
AcDbVertex
100
AcDb2dVertex
 10
11.264799600113918
 20
93.657656822094438
 30
0.0
  0
VERTEX
  5
B2
100
AcDbEntity
  8
0
370
              18
  6
Continuous
 62
               7
100
AcDbVertex
100
AcDb2dVertex
 10
10.930458857913919
 20
93.73508685799446
 30
0.0
  0
VERTEX
  5
B3
100
AcDbEntity
  8
0
370
              18
  6
Continuous
 62
               7
100
AcDbVertex
100
AcDb2dVertex
 10
10.765954013613907
 20
93.827009274594459
 30
0.0
  0
VERTEX
  5
B4
100
AcDbEntity
  8
0
370
              18
  6
Continuous
 62
               7
100
AcDbVertex
100
AcDb2dVertex
 10
10.784613904513918
 20
93.925976920394461
 30
0.0
  0
VERTEX
  5
B5
100
AcDbEntity
  8
0
370
              18
  6
Continuous
 62
               7
100
AcDbVertex
100
AcDb2dVertex
 10
10.984928922613904
 20
94.023972261794441
 30
0.0
  0
VERTEX
  5
B6
100
AcDbEntity
  8
0
370
              18
  6
Continuous
 62
               7
100
AcDbVertex
100
AcDb2dVertex
 10
11.350667093713895
 20
94.113056279894451
 30
0.0
  0
VERTEX
  5
B7
100
AcDbEntity
  8
0
370
              18
  6
Continuous
 62
               7
100
AcDbVertex
100
AcDb2dVertex
 10
11.852198980313915
 20
94.186012037794441
 30
0.0
  0
VERTEX
  5
B8
100
AcDbEntity
  8
0
370
              18
  6
Continuous
 62
               7
100
AcDbVertex
100
AcDb2dVertex
 10
12.448896175413921
 20
94.23692888889444
 30
0.0
  0
VERTEX
  5
B9
100
AcDbEntity
  8
0
370
              18
  6
Continuous
 62
               7
100
AcDbVertex
100
AcDb2dVertex
 10
13.092416216613913
 20
94.26168173849446
 30
0.0
  0
VERTEX
  5
BA
100
AcDbEntity
  8
0
370
              18
  6
Continuous
 62
               7
100
AcDbVertex
100
AcDb2dVertex
 10
13.730623253713901
 20
94.258265389594456
 30
0.0
  0
VERTEX
  5
BB
100
AcDbEntity
  8
0
370
              18
  6
Continuous
 62
               7
100
AcDbVertex
100
AcDb2dVertex
 10
14.311815412713912
 20
94.226957050494448
 30
0.0
  0
VERTEX
  5
BC
100
AcDbEntity
  8
0
370
              18
  6
Continuous
 62
               7
100
AcDbVertex
100
AcDb2dVertex
 10
14.649926284013901
 20
94.19096859689445
 30
0.0
  0
SEQEND
  5
BD
100
AcDbEntity
  8
0
370
              18
  6
Continuous
 62
               7
  0
ARC
  5
BE
100
AcDbEntity
  8
0
370
              18
  6
Continuous
 62
               7
100
AcDbCircle
 10
12.745250847313912
 20
106.23911992049445
 30
0.0
 40
12.677894065536515
100
AcDbArc
 50
265.46072458530006
 51
278.61250394279995
  0
POLYLINE
  5
BF
100
AcDbEntity
  8
0
370
              18
  6
Continuous
 62
               7
100
AcDb2dPolyline
 66
               1
 10
0.0
 20
0.0
 30
0.0
 75
               5
  0
VERTEX
  5
C0
100
AcDbEntity
  8
0
370
              18
  6
Continuous
 62
               7
100
AcDbVertex
100
AcDb2dVertex
 10
5.965898268813902
 20
94.081139666794442
 30
0.0
  0
VERTEX
  5
C1
100
AcDbEntity
  8
0
370
              18
  6
Continuous
 62
               7
100
AcDbVertex
100
AcDb2dVertex
 10
5.4888066114139065
 20
94.137804098594458
 30
0.0
  0
VERTEX
  5
C2
100
AcDbEntity
  8
0
370
              18
  6
Continuous
 62
               7
100
AcDbVertex
100
AcDb2dVertex
 10
5.1544643323138928
 20
94.215234262294459
 30
0.0
  0
VERTEX
  5
C3
100
AcDbEntity
  8
0
370
              18
  6
Continuous
 62
               7
100
AcDbVertex
100
AcDb2dVertex
 10
4.9899610250139119
 20
94.307156551094451
 30
0.0
  0
VERTEX
  5
C4
100
AcDbEntity
  8
0
370
              18
  6
Continuous
 62
               7
100
AcDbVertex
100
AcDb2dVertex
 10
5.008620915813907
 20
94.406124196894453
 30
0.0
  0
VERTEX
  5
C5
100
AcDbEntity
  8
0
370
              18
  6
Continuous
 62
               7
100
AcDbVertex
100
AcDb2dVertex
 10
5.2089343970139055
 20
94.504119666094439
 30
0.0
  0
VERTEX
  5
C6
100
AcDbEntity
  8
0
370
              18
  6
Continuous
 62
               7
100
AcDbVertex
100
AcDb2dVertex
 10
5.5746725681139253
 20
94.593203684194449
 30
0.0
  0
VERTEX
  5
C7
100
AcDbEntity
  8
0
370
              18
  6
Continuous
 62
               7
100
AcDbVertex
100
AcDb2dVertex
 10
6.0762059917139197
 20
94.666159314294461
 30
0.0
  0
VERTEX
  5
C8
100
AcDbEntity
  8
0
370
              18
  6
Continuous
 62
               7
100
AcDbVertex
100
AcDb2dVertex
 10
6.6729031867139099
 20
94.71707616539446
 30
0.0
  0
VERTEX
  5
C9
100
AcDbEntity
  8
0
370
              18
  6
Continuous
 62
               7
100
AcDbVertex
100
AcDb2dVertex
 10
7.3164216910139146
 20
94.741829142794458
 30
0.0
  0
VERTEX
  5
CA
100
AcDbEntity
  8
0
370
              18
  6
Continuous
 62
               7
100
AcDbVertex
100
AcDb2dVertex
 10
7.9546302650139182
 20
94.738412666094447
 30
0.0
  0
VERTEX
  5
CB
100
AcDbEntity
  8
0
370
              18
  6
Continuous
 62
               7
100
AcDbVertex
100
AcDb2dVertex
 10
8.5358224241139169
 20
94.70710432699444
 30
0.0
  0
VERTEX
  5
CC
100
AcDbEntity
  8
0
370
              18
  6
Continuous
 62
               7
100
AcDbVertex
100
AcDb2dVertex
 10
9.0129145670138939
 20
94.650439511294465
 30
0.0
  0
VERTEX
  5
CD
100
AcDbEntity
  8
0
370
              18
  6
Continuous
 62
               7
100
AcDbVertex
100
AcDb2dVertex
 10
9.3472563607139136
 20
94.573009731594439
 30
0.0
  0
VERTEX
  5
CE
100
AcDbEntity
  8
0
370
              18
  6
Continuous
 62
               7
100
AcDbVertex
100
AcDb2dVertex
 10
9.5117612049139098
 20
94.481087314894452
 30
0.0
  0
VERTEX
  5
CF
100
AcDbEntity
  8
0
370
              18
  6
Continuous
 62
               7
100
AcDbVertex
100
AcDb2dVertex
 10
9.493098725613919
 20
94.382119540794449
 30
0.0
  0
VERTEX
  5
D0
100
AcDbEntity
  8
0
370
              18
  6
Continuous
 62
               7
100
AcDbVertex
100
AcDb2dVertex
 10
9.2927852444139205
 20
94.284124071594462
 30
0.0
  0
VERTEX
  5
D1
100
AcDbEntity
  8
0
370
              18
  6
Continuous
 62
               7
100
AcDbVertex
100
AcDb2dVertex
 10
8.9270470733139007
 20
94.195040053494452
 30
0.0
  0
VERTEX
  5
D2
100
AcDbEntity
  8
0
370
              18
  6
Continuous
 62
               7
100
AcDbVertex
100
AcDb2dVertex
 10
8.4255136497139063
 20
94.12208442339444
 30
0.0
  0
VERTEX
  5
D3
100
AcDbEntity
  8
0
370
              18
  6
Continuous
 62
               7
100
AcDbVertex
100
AcDb2dVertex
 10
7.8288190431138958
 20
94.071167700594444
 30
0.0
  0
VERTEX
  5
D4
100
AcDbEntity
  8
0
370
              18
  6
Continuous
 62
               7
100
AcDbVertex
100
AcDb2dVertex
 10
7.1852990019139042
 20
94.046414850994452
 30
0.0
  0
VERTEX
  5
D5
100
AcDbEntity
  8
0
370
              18
  6
Continuous
 62
               7
100
AcDbVertex
100
AcDb2dVertex
 10
6.5470909133138946
 20
94.049830943794447
 30
0.0
  0
VERTEX
  5
D6
100
AcDbEntity
  8
0
370
              18
  6
Continuous
 62
               7
100
AcDbVertex
100
AcDb2dVertex
 10
5.965898268813902
 20
94.081139666794442
 30
0.0
  0
SEQEND
  5
D7
100
AcDbEntity
  8
0
370
              18
  6
Continuous
 62
               7
  0
LINE
  5
D8
100
AcDbEntity
  8
0
370
              18
  6
Continuous
 62
               7
100
AcDbLine
 10
-9.3880128303860886
 20
94.850296381094452
 30
0.0
 11
1.7946080829139248
 21
93.920706441094453
 31
0.0
  0
LINE
  5
D9
100
AcDbEntity
  8
0
370
              18
  6
Continuous
 62
               7
100
AcDbLine
 10
1.7946080829139248
 20
93.920706441094453
 30
0.0
 11
7.5823230015139131
 21
95.330438706994457
 31
0.0
  0
LINE
  5
DA
100
AcDbEntity
  8
0
370
              18
  6
Continuous
 62
               7
100
AcDbLine
 10
7.5823230015139131
 20
95.330438706994457
 30
0.0
 11
-3.6002979117861003
 21
96.260028647094444
 31
0.0
  0
LINE
  5
DB
100
AcDbEntity
  8
0
370
              18
  6
Continuous
 62
               7
100
AcDbLine
 10
-3.6002979117861003
 20
96.260028647094444
 30
0.0
 11
-9.3880128303860886
 21
94.850296381094452
 31
0.0
  0
POLYLINE
  5
DC
100
AcDbEntity
  8
0
370
              18
  6
Continuous
 62
               7
100
AcDb2dPolyline
 66
               1
 10
0.0
 20
0.0
 30
0.0
 75
               5
  0
VERTEX
  5
DD
100
AcDbEntity
  8
0
370
              18
  6
Continuous
 62
               7
100
AcDbVertex
100
AcDb2dVertex
 10
-12.6153029426861
 20
96.833781126194438
 30
0.0
  0
VERTEX
  5
DE
100
AcDbEntity
  8
0
370
              18
  6
Continuous
 62
               7
100
AcDbVertex
100
AcDb2dVertex
 10
-13.048722258186075
 20
96.888059423594441
 30
0.0
  0
VERTEX
  5
DF
100
AcDbEntity
  8
0
370
              18
  6
Continuous
 62
               7
100
AcDbVertex
100
AcDb2dVertex
 10
-13.323456958086098
 20
96.963666825294425
 30
0.0
  0
VERTEX
  5
E0
100
AcDbEntity
  8
0
370
              18
  6
Continuous
 62
               7
100
AcDbVertex
100
AcDb2dVertex
 10
-13.409734975986083
 20
97.052410730594445
 30
0.0
  0
VERTEX
  5
E1
100
AcDbEntity
  8
0
370
              18
  6
Continuous
 62
               7
100
AcDbVertex
100
AcDb2dVertex
 10
-13.384971842886074
 20
97.093015496594447
 30
0.0
  0
SEQEND
  5
E2
100
AcDbEntity
  8
0
370
              18
  6
Continuous
 62
               7
  0
POLYLINE
  5
E3
100
AcDbEntity
  8
0
370
              18
  6
Continuous
 62
               7
100
AcDb2dPolyline
 66
               1
 10
0.0
 20
0.0
 30
0.0
 75
               5
  0
VERTEX
  5
E4
100
AcDbEntity
  8
0
370
              18
  6
Continuous
 62
               7
100
AcDbVertex
100
AcDb2dVertex
 10
-9.7858041437860948
 20
97.170519504794427
 30
0.0
  0
VERTEX
  5
E5
100
AcDbEntity
  8
0
370
              18
  6
Continuous
 62
               7
100
AcDbVertex
100
AcDb2dVertex
 10
-9.777521090886097
 20
97.162797869994463
 30
0.0
  0
VERTEX
  5
E6
100
AcDbEntity
  8
0
370
              18
  6
Continuous
 62
               7
100
AcDbVertex
100
AcDb2dVertex
 10
-9.7903185514860809
 20
97.071043106394441
 30
0.0
  0
VERTEX
  5
E7
100
AcDbEntity
  8
0
370
              18
  6
Continuous
 62
               7
100
AcDbVertex
100
AcDb2dVertex
 10
-9.9975341323861073
 20
96.980788796094444
 30
0.0
  0
VERTEX
  5
E8
100
AcDbEntity
  8
0
370
              18
  6
Continuous
 62
               7
100
AcDbVertex
100
AcDb2dVertex
 10
-10.376707524486079
 20
96.90181488229446
 30
0.0
  0
VERTEX
  5
E9
100
AcDbEntity
  8
0
370
              18
  6
Continuous
 62
               7
100
AcDbVertex
100
AcDb2dVertex
 10
-10.886748608586089
 20
96.842679687694456
 30
0.0
  0
VERTEX
  5
EA
100
AcDbEntity
  8
0
370
              18
  6
Continuous
 62
               7
100
AcDbVertex
100
AcDb2dVertex
 10
-11.472392740286097
 20
96.809791388694478
 30
0.0
  0
VERTEX
  5
EB
100
AcDbEntity
  8
0
370
              18
  6
Continuous
 62
               7
100
AcDbVertex
100
AcDb2dVertex
 10
-12.070170115486093
 20
96.80671425099446
 30
0.0
  0
VERTEX
  5
EC
100
AcDbEntity
  8
0
370
              18
  6
Continuous
 62
               7
100
AcDbVertex
100
AcDb2dVertex
 10
-12.6153029426861
 20
96.833781126194438
 30
0.0
  0
SEQEND
  5
ED
100
AcDbEntity
  8
0
370
              18
  6
Continuous
 62
               7
  0
LINE
  5
EE
100
AcDbEntity
  8
0
370
              18
  6
Continuous
 62
               7
100
AcDbLine
 10
-16.47510547578608
 20
98.540858681994465
 30
0.0
 11
14.672160998313899
 21
95.951645849094447
 31
0.0
  0
LINE
  5
EF
100
AcDbEntity
  8
0
370
              18
  6
Continuous
 62
               7
100
AcDbLine
 10
22.724320623513904
 20
95.282285182894455
 30
0.0
 11
23.268975172713908
 21
95.237009089494464
 31
0.0
  0
LINE
  5
F0
100
AcDbEntity
  8
0
370
              18
  6
Continuous
 62
               7
100
AcDbLine
 10
-29.083589339386094
 20
95.469769871094442
 30
0.0
 11
-16.47510547578608
 21
98.540858681994465
 31
0.0
  0
POLYLINE
  5
F1
100
AcDbEntity
  8
0
370
              18
  6
Continuous
 62
               7
100
AcDb2dPolyline
 66
               1
 10
0.0
 20
0.0
 30
0.0
 75
               5
  0
VERTEX
  5
F2
100
AcDbEntity
  8
0
370
              18
  6
Continuous
 62
               7
100
AcDbVertex
100
AcDb2dVertex
 10
-19.389603049886091
 20
95.18374314489445
 30
0.0
  0
VERTEX
  5
F3
100
AcDbEntity
  8
0
370
              18
  6
Continuous
 62
               7
100
AcDbVertex
100
AcDb2dVertex
 10
-19.823022365386095
 20
95.238021442294453
 30
0.0
  0
VERTEX
  5
F4
100
AcDbEntity
  8
0
370
              18
  6
Continuous
 62
               7
100
AcDbVertex
100
AcDb2dVertex
 10
-20.097756013686109
 20
95.313629100194461
 30
0.0
  0
VERTEX
  5
F5
100
AcDbEntity
  8
0
370
              18
  6
Continuous
 62
               7
100
AcDbVertex
100
AcDb2dVertex
 10
-20.184036134686096
 20
95.402372493194449
 30
0.0
  0
VERTEX
  5
F6
100
AcDbEntity
  8
0
370
              18
  6
Continuous
 62
               7
100
AcDbVertex
100
AcDb2dVertex
 10
-20.159271949986106
 20
95.442977515394446
 30
0.0
  0
SEQEND
  5
F7
100
AcDbEntity
  8
0
370
              18
  6
Continuous
 62
               7
  0
POLYLINE
  5
F8
100
AcDbEntity
  8
0
370
              18
  6
Continuous
 62
               7
100
AcDb2dPolyline
 66
               1
 10
0.0
 20
0.0
 30
0.0
 75
               5
  0
VERTEX
  5
F9
100
AcDbEntity
  8
0
370
              18
  6
Continuous
 62
               7
100
AcDbVertex
100
AcDb2dVertex
 10
-16.560104250986086
 20
95.520481523594455
 30
0.0
  0
VERTEX
  5
FA
100
AcDbEntity
  8
0
370
              18
  6
Continuous
 62
               7
100
AcDbVertex
100
AcDb2dVertex
 10
-16.551820146486108
 20
95.512760144894443
 30
0.0
  0
VERTEX
  5
FB
100
AcDbEntity
  8
0
370
              18
  6
Continuous
 62
               7
100
AcDbVertex
100
AcDb2dVertex
 10
-16.564618658686101
 20
95.421005125094453
 30
0.0
  0
VERTEX
  5
FC
100
AcDbEntity
  8
0
370
              18
  6
Continuous
 62
               7
100
AcDbVertex
100
AcDb2dVertex
 10
-16.771834239486083
 20
95.330750814794456
 30
0.0
  0
VERTEX
  5
FD
100
AcDbEntity
  8
0
370
              18
  6
Continuous
 62
               7
100
AcDbVertex
100
AcDb2dVertex
 10
-17.151007631586111
 20
95.251776900994443
 30
0.0
  0
VERTEX
  5
FE
100
AcDbEntity
  8
0
370
              18
  6
Continuous
 62
               7
100
AcDbVertex
100
AcDb2dVertex
 10
-17.661049767286073
 20
95.19264145029446
 30
0.0
  0
VERTEX
  5
FF
100
AcDbEntity
  8
0
370
              18
  6
Continuous
 62
               7
100
AcDbVertex
100
AcDb2dVertex
 10
-18.246691795886107
 20
95.159753663594458
 30
0.0
  0
VERTEX
  5
100
100
AcDbEntity
  8
0
370
              18
  6
Continuous
 62
               7
100
AcDbVertex
100
AcDb2dVertex
 10
-18.844470222686084
 20
95.15667626979446
 30
0.0
  0
VERTEX
  5
101
100
AcDbEntity
  8
0
370
              18
  6
Continuous
 62
               7
100
AcDbVertex
100
AcDb2dVertex
 10
-19.389603049886091
 20
95.18374314489445
 30
0.0
  0
SEQEND
  5
102
100
AcDbEntity
  8
0
370
              18
  6
Continuous
 62
               7
  0
LINE
  5
103
100
AcDbEntity
  8
0
370
              18
  6
Continuous
 62
               7
100
AcDbLine
 10
14.918004272113905
 20
98.11613616249447
 30
0.0
 11
14.848966981313907
 21
92.649276183394463
 31
0.0
  0
LINE
  5
104
100
AcDbEntity
  8
0
370
              18
  6
Continuous
 62
               7
100
AcDbLine
 10
17.348414038513909
 20
103.11886149409447
 30
0.0
 11
17.369916933513906
 21
103.12486384909444
 31
0.0
  0
LINE
  5
105
100
AcDbEntity
  8
0
370
              18
  6
Continuous
 62
               7
100
AcDbLine
 10
19.198060239513921
 20
102.99011964029445
 30
0.0
 11
19.708243232413906
 21
103.11438654649443
 31
0.0
  0
LINE
  5
106
100
AcDbEntity
  8
0
370
              18
  6
Continuous
 62
               7
100
AcDbLine
 10
17.477604559013912
 20
103.13313783839443
 30
0.0
 11
17.987787551913897
 21
103.25740474459447
 31
0.0
  0
LINE
  5
107
100
AcDbEntity
  8
0
370
              18
  6
Continuous
 62
               7
100
AcDbLine
 10
17.987787551913897
 20
103.25740474459447
 30
0.0
 11
19.708243232413906
 21
103.11438654649443
 31
0.0
  0
LINE
  5
108
100
AcDbEntity
  8
0
370
              18
  6
Continuous
 62
               7
100
AcDbLine
 10
20.512795060613911
 20
103.04010999339444
 30
0.0
 11
20.170866792113912
 21
103.07167795839446
 31
0.0
  0
POLYLINE
  5
109
100
AcDbEntity
  8
0
370
              18
  6
Continuous
 62
               7
100
AcDb2dPolyline
 66
               1
 10
0.0
 20
0.0
 30
0.0
 75
               5
  0
VERTEX
  5
10A
100
AcDbEntity
  8
0
370
              18
  6
Continuous
 62
               7
100
AcDbVertex
100
AcDb2dVertex
 10
17.987787551913897
 20
103.25740474459447
 30
0.0
  0
VERTEX
  5
10B
100
AcDbEntity
  8
0
370
              18
  6
Continuous
 62
               7
100
AcDbVertex
100
AcDb2dVertex
 10
17.9092611824139
 20
103.25486393099443
 30
0.0
  0
VERTEX
  5
10C
100
AcDbEntity
  8
0
370
              18
  6
Continuous
 62
               7
100
AcDbVertex
100
AcDb2dVertex
 10
17.880099926413919
 20
103.24913075519443
 30
0.0
  0
SEQEND
  5
10D
100
AcDbEntity
  8
0
370
              18
  6
Continuous
 62
               7
  0
SPLINE
  5
10E
100
AcDbEntity
  8
0
370
              18
  6
Continuous
 62
               7
100
AcDbSpline
210
0.0
220
0.0
230
1.0
 70
               8
 71
               2
 72
              14
 73
              11
 74
               0
 42
0.000001
 43
0.000001
 40
0.0
 40
0.0
 40
0.0
 40
1.0
 40
1.0
 40
2.0
 40
3.0
 40
4.0
 40
5.0
 40
6.0
 40
6.0
 40
7.0
 40
7.0
 40
7.0
 10
-50.665255556618803
 20
62.927814152860705
 30
0.0
 10
-50.66525746624103
 20
62.927179872967258
 30
0.0
 10
-50.665259375863258
 20
62.926545593073811
 30
0.0
 10
-50.662296315569876
 20
62.894052581010399
 30
0.0
 10
-50.543657175247091
 20
62.856765448031226
 30
0.0
 10
-50.46679953676275
 20
62.840283799309006
 30
0.0
 10
-50.375055188667062
 20
62.826120334771886
 30
0.0
 10
-50.284749095385592
 20
62.816018730343828
 30
0.0
 10
-50.236927342381392
 20
62.811866091345379
 30
0.0
 10
-50.233488733422803
 20
62.811580246343468
 30
0.0
 10
-50.230050124464213
 20
62.811294401341556
 30
0.0
  0
LINE
  5
10F
100
AcDbEntity
  8
0
370
              18
  6
Continuous
 62
               7
100
AcDbLine
 10
-16.488019702286095
 20
99.036712795694442
 30
0.0
 11
-16.47510547578608
 21
98.540858681994465
 31
0.0
  0
SPLINE
  5
110
100
AcDbEntity
  8
0
370
              18
  6
Continuous
 62
               7
100
AcDbSpline
210
0.0
220
0.0
230
1.0
 70
               8
 71
               2
 72
              13
 73
              10
 74
               0
 42
0.000001
 43
0.000001
 40
0.0
 40
0.0
 40
0.0
 40
1.0
 40
1.0
 40
2.0
 40
3.0
 40
4.0
 40
5.0
 40
5.0
 40
6.0
 40
6.0
 40
6.0
 10
41.141352640465357
 20
75.223852156070919
 30
0.0
 10
41.142492655260952
 20
75.224129833127208
 30
0.0
 10
41.143632670056547
 20
75.224407510183497
 30
0.0
 10
41.173004332692443
 20
75.231672505519228
 30
0.0
 10
41.227493645328423
 20
75.248201982299307
 30
0.0
 10
41.274459133972044
 20
75.268030759693076
 30
0.0
 10
41.315924909548613
 20
75.295983083455283
 30
0.0
 10
41.31598478817196
 20
75.313919678796381
 30
0.0
 10
41.315970621876275
 20
75.314226718318324
 30
0.0
 10
41.31595645558059
 20
75.314533757840266
 30
0.0
  0
LINE
  5
111
100
AcDbEntity
  8
0
370
              18
  6
Continuous
 62
               7
100
AcDbLine
 10
-14.991723508986098
 20
101.53443461919444
 30
0.0
 11
-15.095843924486104
 21
101.52599169499446
 31
0.0
  0
SPLINE
  5
112
100
AcDbEntity
  8
0
370
              18
  6
Continuous
 62
               7
100
AcDbSpline
210
0.0
220
0.0
230
1.0
 70
               8
 71
               2
 72
              15
 73
              12
 74
               0
 42
0.000001
 43
0.000001
 40
0.0
 40
0.0
 40
0.0
 40
1.0
 40
1.0
 40
2.0
 40
3.0
 40
4.0
 40
5.0
 40
6.0
 40
7.0
 40
7.0
 40
8.0
 40
8.0
 40
8.0
 10
-27.205440635802944
 20
106.37158489244554
 30
0.0
 10
-27.20646500678231
 20
106.37131138770827
 30
0.0
 10
-27.207489377761675
 20
106.37103788297101
 30
0.0
 10
-27.57447455025175
 20
106.28029167691706
 30
0.0
 10
-28.230080529466903
 20
105.71944790159655
 30
0.0
 10
-28.737260095110997
 20
104.89796958799475
 30
0.0
 10
-29.065537732816267
 20
103.96877815714886
 30
0.0
 10
-29.236439737651239
 20
103.0513287369193
 30
0.0
 10
-29.27848594007537
 20
102.25304904431194
 30
0.0
 10
-29.265051571174325
 20
101.90130483939971
 30
0.0
 10
-29.264941723546684
 20
101.8976991352955
 30
0.0
 10
-29.264831875919043
 20
101.89409343119128
 30
0.0
  0
SPLINE
  5
113
100
AcDbEntity
  8
0
370
              18
  6
Continuous
 62
               7
100
AcDbSpline
210
0.0
220
0.0
230
1.0
 70
               8
 71
               2
 72
              15
 73
              12
 74
               0
 42
0.000001
 43
0.000001
 40
0.0
 40
0.0
 40
0.0
 40
1.0
 40
1.0
 40
2.0
 40
3.0
 40
4.0
 40
5.0
 40
6.0
 40
7.0
 40
7.0
 40
8.0
 40
8.0
 40
8.0
 10
-27.628027951979647
 20
106.88267944998923
 30
0.0
 10
-27.648752571905419
 20
106.87763148791446
 30
0.0
 10
-27.669477191831191
 20
106.87258352583969
 30
0.0
 10
-28.127189629772658
 20
106.73086020539024
 30
0.0
 10
-28.806020942304571
 20
106.09858784832581
 30
0.0
 10
-29.252602616834025
 20
105.39635860778561
 30
0.0
 10
-29.615572589786183
 20
104.55713054973963
 30
0.0
 10
-29.882270729487317
 20
103.45465205304397
 30
0.0
 10
-29.973763002565221
 20
102.43141172913029
 30
0.0
 10
-29.962205721828724
 20
101.91948163363408
 30
0.0
 10
-29.960665192550209
 20
101.88308519452842
 30
0.0
 10
-29.959124663271695
 20
101.84668875542276
 30
0.0
  0
SPLINE
  5
114
100
AcDbEntity
  8
0
370
              18
  6
Continuous
 62
               7
100
AcDbSpline
210
0.0
220
0.0
230
1.0
 70
               8
 71
               2
 72
              16
 73
              13
 74
               0
 42
0.000001
 43
0.000001
 40
0.0
 40
0.0
 40
0.0
 40
1.0
 40
1.0
 40
2.0
 40
3.0
 40
4.0
 40
5.0
 40
6.0
 40
7.0
 40
8.0
 40
8.0
 40
9.0
 40
9.0
 40
9.0
 10
-29.34848365056834
 20
107.02569764957947
 30
0.0
 10
-29.34970939302157
 20
107.02537027610093
 30
0.0
 10
-29.350935135474799
 20
107.02504290262239
 30
0.0
 10
-29.602261569851549
 20
106.9627580779444
 30
0.0
 10
-30.167554562590482
 20
106.62551746581512
 30
0.0
 10
-30.763266878336225
 20
105.96070485513657
 30
0.0
 10
-31.320833471524708
 20
104.93849957877354
 30
0.0
 10
-31.614985975083954
 20
103.92250373332037
 30
0.0
 10
-31.768988345819395
 20
103.11541543781523
 30
0.0
 10
-31.822634381593787
 20
102.33136078525025
 30
0.0
 10
-31.82232629040098
 20
102.01088400322961
 30
0.0
 10
-31.822355718313787
 20
102.00623102374799
 30
0.0
 10
-31.822385146226594
 20
102.00157804426637
 30
0.0
  0
LINE
  5
115
100
AcDbEntity
  8
0
370
              18
  6
Continuous
 62
               7
100
AcDbLine
 10
-26.695258235986074
 20
106.49584657499447
 30
0.0
 11
-27.205441228986075
 21
106.37157966889443
 31
0.0
  0
LINE
  5
116
100
AcDbEntity
  8
0
370
              18
  6
Continuous
 62
               7
100
AcDbLine
 10
-29.264831600286101
 20
101.89408727739443
 30
0.0
 11
-29.014054849386099
 21
96.387716461094456
 31
0.0
  0
SPLINE
  5
117
100
AcDbEntity
  8
0
370
              18
  6
Continuous
 62
               7
100
AcDbSpline
210
0.0
220
0.0
230
1.0
 70
               8
 71
               2
 72
              10
 73
               7
 74
               0
 42
0.000001
 43
0.000001
 40
0.0
 40
0.0
 40
0.0
 40
1.0
 40
1.0
 40
2.0
 40
2.0
 40
3.0
 40
3.0
 40
3.0
 10
-26.612294656125215
 20
104.00687976914237
 30
0.0
 10
-26.613035838231781
 20
104.00694138219673
 30
0.0
 10
-26.613777020338347
 20
104.00700299525109
 30
0.0
 10
-26.719480611953173
 20
104.01526070075768
 30
0.0
 10
-26.82526457449228
 20
103.99002436639667
 30
0.0
 10
-26.826006295591625
 20
103.98984370301211
 30
0.0
 10
-26.826748016690971
 20
103.98966303962756
 30
0.0
  0
SPLINE
  5
118
100
AcDbEntity
  8
0
370
              18
  6
Continuous
 62
               7
100
AcDbSpline
210
0.0
220
0.0
230
1.0
 70
               8
 71
               2
 72
              21
 73
              18
 74
               0
 42
0.000001
 43
0.000001
 40
0.0
 40
0.0
 40
0.0
 40
1.0
 40
1.0
 40
2.0
 40
3.0
 40
4.0
 40
5.0
 40
6.0
 40
7.0
 40
8.0
 40
9.0
 40
10.0
 40
11.0
 40
12.0
 40
13.0
 40
13.0
 40
14.0
 40
14.0
 40
14.0
 10
-26.826748016690971
 20
103.98966303962756
 30
0.0
 10
-26.842117112189015
 20
103.98591953979609
 30
0.0
 10
-26.85748620768706
 20
103.98217603996461
 30
0.0
 10
-27.079189209866854
 20
103.90962042841871
 30
0.0
 10
-27.38959635990372
 20
103.59790825577495
 30
0.0
 10
-27.604355605517782
 20
103.24250682165821
 30
0.0
 10
-27.765660711477267
 20
102.80901782888436
 30
0.0
 10
-27.861558197263292
 20
102.3391530651955
 30
0.0
 10
-27.885144450104661
 20
101.99216569945629
 30
0.0
 10
-27.889529040899191
 20
101.55187426138549
 30
0.0
 10
-27.783980242241796
 20
100.99279038602147
 30
0.0
 10
-27.633518316640846
 20
100.58078575226575
 30
0.0
 10
-27.42547884557456
 20
100.2462010942091
 30
0.0
 10
-27.178517955742478
 20
100.01951570484836
 30
0.0
 10
-26.917280996253481
 20
99.910350745484905
 30
0.0
 10
-26.759472608384584
 20
99.908709774380796
 30
0.0
 10
-26.74404324369246
 20
99.909948473544986
 30
0.0
 10
-26.728613879000335
 20
99.911187172709177
 30
0.0
  0
LINE
  5
119
100
AcDbEntity
  8
0
370
              18
  6
Continuous
 62
               7
100
AcDbLine
 10
-29.708936822886102
 20
96.353289710094444
 30
0.0
 11
-29.959123262586075
 21
101.84668614879446
 31
0.0
  0
LINE
  5
11A
100
AcDbEntity
  8
0
370
              18
  6
Continuous
 62
               7
100
AcDbLine
 10
-31.822381611686097
 20
102.00157526029444
 30
0.0
 11
-31.771700013386095
 21
96.524763278294429
 31
0.0
  0
LINE
  5
11B
100
AcDbEntity
  8
0
370
              18
  6
Continuous
 62
               7
100
AcDbLine
 10
-29.473144516286084
 20
107.01281206059447
 30
0.0
 11
-29.456171377086093
 21
107.01742722599444
 31
0.0
  0
LINE
  5
11C
100
AcDbEntity
  8
0
370
              18
  6
Continuous
 62
               7
100
AcDbLine
 10
-27.117845846586107
 20
107.00694998729445
 30
0.0
 11
-27.628028839586108
 21
106.88268308119446
 31
0.0
  0
LINE
  5
11D
100
AcDbEntity
  8
0
370
              18
  6
Continuous
 62
               7
100
AcDbLine
 10
-29.348483367386081
 20
107.02570118339447
 30
0.0
 11
-28.83830037438608
 21
107.14996808959445
 31
0.0
  0
LINE
  5
11E
100
AcDbEntity
  8
0
370
              18
  6
Continuous
 62
               7
100
AcDbLine
 10
-28.83830037438608
 20
107.14996808959445
 30
0.0
 11
-27.117845846586107
 21
107.00694998729445
 31
0.0
  0
LINE
  5
11F
100
AcDbEntity
  8
0
370
              18
  6
Continuous
 62
               7
100
AcDbLine
 10
-26.652173754086078
 20
106.96398798059444
 30
0.0
 11
-26.546743810786097
 21
106.95425866059448
 31
0.0
  0
POLYLINE
  5
120
100
AcDbEntity
  8
0
370
              18
  6
Continuous
 62
               7
100
AcDb2dPolyline
 66
               1
 10
0.0
 20
0.0
 30
0.0
 75
               5
  0
VERTEX
  5
121
100
AcDbEntity
  8
0
370
              18
  6
Continuous
 62
               7
100
AcDbVertex
100
AcDb2dVertex
 10
-28.83830037438608
 20
107.14996808959445
 30
0.0
  0
VERTEX
  5
122
100
AcDbEntity
  8
0
370
              18
  6
Continuous
 62
               7
100
AcDbVertex
100
AcDb2dVertex
 10
-28.918148391186094
 20
107.14722848769448
 30
0.0
  0
VERTEX
  5
123
100
AcDbEntity
  8
0
370
              18
  6
Continuous
 62
               7
100
AcDbVertex
100
AcDb2dVertex
 10
-28.945988384186109
 20
107.14169413219447
 30
0.0
  0
SEQEND
  5
124
100
AcDbEntity
  8
0
370
              18
  6
Continuous
 62
               7
  0
POLYLINE
  5
125
100
AcDbEntity
  8
0
370
              18
  6
Continuous
 62
               7
100
AcDb2dPolyline
 66
               1
 10
0.0
 20
0.0
 30
0.0
 75
               5
  0
VERTEX
  5
126
100
AcDbEntity
  8
0
370
              18
  6
Continuous
 62
               7
100
AcDbVertex
100
AcDb2dVertex
 10
18.918097487613892
 20
97.83297214199446
 30
0.0
  0
VERTEX
  5
127
100
AcDbEntity
  8
0
370
              18
  6
Continuous
 62
               7
100
AcDbVertex
100
AcDb2dVertex
 10
18.960718119413912
 20
98.423909343794449
 30
0.0
  0
VERTEX
  5
128
100
AcDbEntity
  8
0
370
              18
  6
Continuous
 62
               7
100
AcDbVertex
100
AcDb2dVertex
 10
19.1088365354139
 20
98.977622157594467
 30
0.0
  0
VERTEX
  5
129
100
AcDbEntity
  8
0
370
              18
  6
Continuous
 62
               7
100
AcDbVertex
100
AcDb2dVertex
 10
19.346399890613924
 20
99.434117973394464
 30
0.0
  0
VERTEX
  5
12A
100
AcDbEntity
  8
0
370
              18
  6
Continuous
 62
               7
100
AcDbVertex
100
AcDb2dVertex
 10
19.64766427241392
 20
99.743920929194431
 30
0.0
  0
VERTEX
  5
12B
100
AcDbEntity
  8
0
370
              18
  6
Continuous
 62
               7
100
AcDbVertex
100
AcDb2dVertex
 10
19.979985207313916
 20
99.873473255694435
 30
0.0
  0
VERTEX
  5
12C
100
AcDbEntity
  8
0
370
              18
  6
Continuous
 62
               7
100
AcDbVertex
100
AcDb2dVertex
 10
20.307348122313925
 20
99.808718662294453
 30
0.0
  0
VERTEX
  5
12D
100
AcDbEntity
  8
0
370
              18
  6
Continuous
 62
               7
100
AcDbVertex
100
AcDb2dVertex
 10
20.594279996313901
 20
99.556691571394438
 30
0.0
  0
VERTEX
  5
12E
100
AcDbEntity
  8
0
370
              18
  6
Continuous
 62
               7
100
AcDbVertex
100
AcDb2dVertex
 10
20.809686195413917
 20
99.144690300794437
 30
0.0
  0
VERTEX
  5
12F
100
AcDbEntity
  8
0
370
              18
  6
Continuous
 62
               7
100
AcDbVertex
100
AcDb2dVertex
 10
20.930223702713903
 20
98.617368734394475
 30
0.0
  0
VERTEX
  5
130
100
AcDbEntity
  8
0
370
              18
  6
Continuous
 62
               7
100
AcDbVertex
100
AcDb2dVertex
 10
20.942831965013909
 20
98.031861443494464
 30
0.0
  0
VERTEX
  5
131
100
AcDbEntity
  8
0
370
              18
  6
Continuous
 62
               7
100
AcDbVertex
100
AcDb2dVertex
 10
20.846144413713915
 20
97.451629673594439
 30
0.0
  0
VERTEX
  5
132
100
AcDbEntity
  8
0
370
              18
  6
Continuous
 62
               7
100
AcDbVertex
100
AcDb2dVertex
 10
20.650637486413899
 20
96.939540976194465
 30
0.0
  0
VERTEX
  5
133
100
AcDbEntity
  8
0
370
              18
  6
Continuous
 62
               7
100
AcDbVertex
100
AcDb2dVertex
 10
20.37749749461392
 20
96.551095386594469
 30
0.0
  0
VERTEX
  5
134
100
AcDbEntity
  8
0
370
              18
  6
Continuous
 62
               7
100
AcDbVertex
100
AcDb2dVertex
 10
20.056325041413913
 20
96.328374955694429
 30
0.0
  0
VERTEX
  5
135
100
AcDbEntity
  8
0
370
              18
  6
Continuous
 62
               7
100
AcDbVertex
100
AcDb2dVertex
 10
19.721921595113912
 20
96.295531088494457
 30
0.0
  0
VERTEX
  5
136
100
AcDbEntity
  8
0
370
              18
  6
Continuous
 62
               7
100
AcDbVertex
100
AcDb2dVertex
 10
19.410528116113909
 20
96.456107006394475
 30
0.0
  0
VERTEX
  5
137
100
AcDbEntity
  8
0
370
              18
  6
Continuous
 62
               7
100
AcDbVertex
100
AcDb2dVertex
 10
19.15588613791391
 20
96.792714792194445
 30
0.0
  0
VERTEX
  5
138
100
AcDbEntity
  8
0
370
              18
  6
Continuous
 62
               7
100
AcDbVertex
100
AcDb2dVertex
 10
18.98559062381392
 20
97.268870504794464
 30
0.0
  0
VERTEX
  5
139
100
AcDbEntity
  8
0
370
              18
  6
Continuous
 62
               7
100
AcDbVertex
100
AcDb2dVertex
 10
18.918097487613892
 20
97.83297214199446
 30
0.0
  0
SEQEND
  5
13A
100
AcDbEntity
  8
0
370
              18
  6
Continuous
 62
               7
  0
ARC
  5
13B
100
AcDbEntity
  8
0
370
              18
  6
Continuous
 62
               7
100
AcDbCircle
 10
19.802559304713924
 20
99.197516383294456
 30
0.0
 40
0.8971934909070902
100
AcDbArc
 50
19.550598766401258
 51
83.65180820220084
  0
ARC
  5
13C
100
AcDbEntity
  8
0
370
              18
  6
Continuous
 62
               7
100
AcDbCircle
 10
19.598423287613912
 20
97.032983690394431
 30
0.0
 40
0.9319234362784004
100
AcDbArc
 50
270.31391129900027
 51
329.84356673839926
  0
LINE
  5
13D
100
AcDbEntity
  8
0
370
              18
  6
Continuous
 62
               7
100
AcDbLine
 10
7.6145772698139069
 20
-47.545630671005554
 30
0.0
 11
5.3374363076138991
 21
58.201108833694448
 31
0.0
  0
LINE
  5
13E
100
AcDbEntity
  8
0
370
              18
  6
Continuous
 62
               7
100
AcDbLine
 10
8.7728044854139
 20
-47.290264618405544
 30
0.0
 11
6.4990792321138997
 21
58.297854902194459
 31
0.0
  0
LINE
  5
13F
100
AcDbEntity
  8
0
370
              18
  6
Continuous
 62
               7
100
AcDbLine
 10
7.6145772698139069
 20
-47.545630671005554
 30
0.0
 11
8.7728044854139
 21
-47.290264618405544
 31
0.0
  0
POLYLINE
  5
140
100
AcDbEntity
  8
0
370
              18
  6
Continuous
 62
               7
100
AcDb2dPolyline
 66
               1
 10
0.0
 20
0.0
 30
0.0
 75
               5
  0
VERTEX
  5
141
100
AcDbEntity
  8
0
370
              18
  6
Continuous
 62
               7
100
AcDbVertex
100
AcDb2dVertex
 10
-21.366488617386096
 20
56.509715753194442
 30
0.0
  0
VERTEX
  5
142
100
AcDbEntity
  8
0
370
              18
  6
Continuous
 62
               7
100
AcDbVertex
100
AcDb2dVertex
 10
-20.170076689986075
 20
56.318604647594455
 30
0.0
  0
VERTEX
  5
143
100
AcDbEntity
  8
0
370
              18
  6
Continuous
 62
               7
100
AcDbVertex
100
AcDb2dVertex
 10
-18.989356488286091
 20
55.946956418694455
 30
0.0
  0
VERTEX
  5
144
100
AcDbEntity
  8
0
370
              18
  6
Continuous
 62
               7
100
AcDbVertex
100
AcDb2dVertex
 10
-17.843710636786085
 20
55.40087984289444
 30
0.0
  0
VERTEX
  5
145
100
AcDbEntity
  8
0
370
              18
  6
Continuous
 62
               7
100
AcDbVertex
100
AcDb2dVertex
 10
-16.751955928686101
 20
54.68934683029444
 30
0.0
  0
VERTEX
  5
146
100
AcDbEntity
  8
0
370
              18
  6
Continuous
 62
               7
100
AcDbVertex
100
AcDb2dVertex
 10
-15.732014956686072
 20
53.824047545594439
 30
0.0
  0
VERTEX
  5
147
100
AcDbEntity
  8
0
370
              18
  6
Continuous
 62
               7
100
AcDbVertex
100
AcDb2dVertex
 10
-14.800638414686091
 20
52.819176251394438
 30
0.0
  0
VERTEX
  5
148
100
AcDbEntity
  8
0
370
              18
  6
Continuous
 62
               7
100
AcDbVertex
100
AcDb2dVertex
 10
-13.97311727518607
 20
51.69124570639444
 30
0.0
  0
VERTEX
  5
149
100
AcDbEntity
  8
0
370
              18
  6
Continuous
 62
               7
100
AcDbVertex
100
AcDb2dVertex
 10
-13.263040977686074
 20
50.458758409094443
 30
0.0
  0
VERTEX
  5
14A
100
AcDbEntity
  8
0
370
              18
  6
Continuous
 62
               7
100
AcDbVertex
100
AcDb2dVertex
 10
-12.682067058886076
 20
49.141981678494446
 30
0.0
  0
VERTEX
  5
14B
100
AcDbEntity
  8
0
370
              18
  6
Continuous
 62
               7
100
AcDbVertex
100
AcDb2dVertex
 10
-12.239736745786075
 20
47.762506087394442
 30
0.0
  0
VERTEX
  5
14C
100
AcDbEntity
  8
0
370
              18
  6
Continuous
 62
               7
100
AcDbVertex
100
AcDb2dVertex
 10
-11.943311576986076
 20
46.342996715594452
 30
0.0
  0
VERTEX
  5
14D
100
AcDbEntity
  8
0
370
              18
  6
Continuous
 62
               7
100
AcDbVertex
100
AcDb2dVertex
 10
-11.797661232486092
 20
44.906757588794463
 30
0.0
  0
VERTEX
  5
14E
100
AcDbEntity
  8
0
370
              18
  6
Continuous
 62
               7
100
AcDbVertex
100
AcDb2dVertex
 10
-11.805174782786111
 20
43.477386250294458
 30
0.0
  0
VERTEX
  5
14F
100
AcDbEntity
  8
0
370
              18
  6
Continuous
 62
               7
100
AcDbVertex
100
AcDb2dVertex
 10
-11.965729659486072
 20
42.078330247194444
 30
0.0
  0
VERTEX
  5
150
100
AcDbEntity
  8
0
370
              18
  6
Continuous
 62
               7
100
AcDbVertex
100
AcDb2dVertex
 10
-12.276689607886084
 20
40.732578305394455
 30
0.0
  0
VERTEX
  5
151
100
AcDbEntity
  8
0
370
              18
  6
Continuous
 62
               7
100
AcDbVertex
100
AcDb2dVertex
 10
-12.732948967686099
 20
39.462223075894443
 30
0.0
  0
VERTEX
  5
152
100
AcDbEntity
  8
0
370
              18
  6
Continuous
 62
               7
100
AcDbVertex
100
AcDb2dVertex
 10
-13.327016060886109
 20
38.288130016594451
 30
0.0
  0
VERTEX
  5
153
100
AcDbEntity
  8
0
370
              18
  6
Continuous
 62
               7
100
AcDbVertex
100
AcDb2dVertex
 10
-14.049135270386074
 20
37.229550698894442
 30
0.0
  0
VERTEX
  5
154
100
AcDbEntity
  8
0
370
              18
  6
Continuous
 62
               7
100
AcDbVertex
100
AcDb2dVertex
 10
-14.887451031886087
 20
36.303901274894443
 30
0.0
  0
VERTEX
  5
155
100
AcDbEntity
  8
0
370
              18
  6
Continuous
 62
               7
100
AcDbVertex
100
AcDb2dVertex
 10
-15.828197221286104
 20
35.526366681494451
 30
0.0
  0
VERTEX
  5
156
100
AcDbEntity
  8
0
370
              18
  6
Continuous
 62
               7
100
AcDbVertex
100
AcDb2dVertex
 10
-16.855927869086088
 20
34.909714049794459
 30
0.0
  0
VERTEX
  5
157
100
AcDbEntity
  8
0
370
              18
  6
Continuous
 62
               7
100
AcDbVertex
100
AcDb2dVertex
 10
-17.953766902686084
 20
34.464063602294445
 30
0.0
  0
VERTEX
  5
158
100
AcDbEntity
  8
0
370
              18
  6
Continuous
 62
               7
100
AcDbVertex
100
AcDb2dVertex
 10
-18.666394804586076
 20
34.275997320894461
 30
0.0
  0
SEQEND
  5
159
100
AcDbEntity
  8
0
370
              18
  6
Continuous
 62
               7
  0
ARC
  5
15A
100
AcDbEntity
  8
0
370
              18
  6
Continuous
 62
               7
100
AcDbCircle
 10
-22.012393728986098
 20
48.953245165594453
 30
0.0
 40
7.5840253924767076
100
AcDbArc
 50
85.114399049599854
 51
105.37020130689982
  0
LINE
  5
15B
100
AcDbEntity
  8
0
370
              18
  6
Continuous
 62
               7
100
AcDbLine
 10
-48.238968421286103
 20
62.645773969694446
 30
0.0
 11
-45.962022456886103
 21
-43.091910160005554
 31
0.0
  0
LINE
  5
15C
100
AcDbEntity
  8
0
370
              18
  6
Continuous
 62
               7
100
AcDbLine
 10
-45.962022456886103
 20
-43.091910160005554
 30
0.0
 11
7.6145772698139069
 21
-47.545630671005554
 31
0.0
  0
ARC
  5
15D
100
AcDbEntity
  8
0
370
              18
  6
Continuous
 62
               7
100
AcDbCircle
 10
-21.430376102786084
 20
66.467626608594443
 30
0.0
 40
1.098355734465245
100
AcDbArc
 50
137.60991087960087
 51
183.4876454647993
  0
ARC
  5
15E
100
AcDbEntity
  8
0
370
              18
  6
Continuous
 62
               7
100
AcDbCircle
 10
-21.284865819786091
 20
66.376597517694464
 30
0.0
 40
1.2420678131680953
100
AcDbArc
 50
178.88302364869938
 51
246.85247847939999
  0
POLYLINE
  5
15F
100
AcDbEntity
  8
0
370
              18
  6
Continuous
 62
               7
100
AcDb2dPolyline
 66
               1
 10
0.0
 20
0.0
 30
0.0
 75
               5
  0
VERTEX
  5
160
100
AcDbEntity
  8
0
370
              18
  6
Continuous
 62
               7
100
AcDbVertex
100
AcDb2dVertex
 10
-24.187255535486088
 20
55.735960621294439
 30
0.0
  0
VERTEX
  5
161
100
AcDbEntity
  8
0
370
              18
  6
Continuous
 62
               7
100
AcDbVertex
100
AcDb2dVertex
 10
-23.000068209086095
 20
55.546321834994458
 30
0.0
  0
VERTEX
  5
162
100
AcDbEntity
  8
0
370
              18
  6
Continuous
 62
               7
100
AcDbVertex
100
AcDb2dVertex
 10
-21.828449035386086
 20
55.177531946894462
 30
0.0
  0
VERTEX
  5
163
100
AcDbEntity
  8
0
370
              18
  6
Continuous
 62
               7
100
AcDbVertex
100
AcDb2dVertex
 10
-20.691638922886085
 20
54.635673254694453
 30
0.0
  0
VERTEX
  5
164
100
AcDbEntity
  8
0
370
              18
  6
Continuous
 62
               7
100
AcDbVertex
100
AcDb2dVertex
 10
-19.608300921486091
 20
53.92963139929445
 30
0.0
  0
VERTEX
  5
165
100
AcDbEntity
  8
0
370
              18
  6
Continuous
 62
               7
100
AcDbVertex
100
AcDb2dVertex
 10
-18.59622354428609
 20
53.070997212494447
 30
0.0
  0
VERTEX
  5
166
100
AcDbEntity
  8
0
370
              18
  6
Continuous
 62
               7
100
AcDbVertex
100
AcDb2dVertex
 10
-17.672028333186091
 20
52.073880731594457
 30
0.0
  0
VERTEX
  5
167
100
AcDbEntity
  8
0
370
              18
  6
Continuous
 62
               7
100
AcDbVertex
100
AcDb2dVertex
 10
-16.850887818986081
 20
50.954637891194452
 30
0.0
  0
VERTEX
  5
168
100
AcDbEntity
  8
0
370
              18
  6
Continuous
 62
               7
100
AcDbVertex
100
AcDb2dVertex
 10
-16.146284709486082
 20
49.731659432594441
 30
0.0
  0
VERTEX
  5
169
100
AcDbEntity
  8
0
370
              18
  6
Continuous
 62
               7
100
AcDbVertex
100
AcDb2dVertex
 10
-15.56978974148609
 20
48.425029085194453
 30
0.0
  0
VERTEX
  5
16A
100
AcDbEntity
  8
0
370
              18
  6
Continuous
 62
               7
100
AcDbVertex
100
AcDb2dVertex
 10
-15.130870271686092
 20
47.056184302994453
 30
0.0
  0
VERTEX
  5
16B
100
AcDbEntity
  8
0
370
              18
  6
Continuous
 62
               7
100
AcDbVertex
100
AcDb2dVertex
 10
-14.836730557786069
 20
45.647623727894441
 30
0.0
  0
VERTEX
  5
16C
100
AcDbEntity
  8
0
370
              18
  6
Continuous
 62
               7
100
AcDbVertex
100
AcDb2dVertex
 10
-14.692202662286093
 20
44.222471884494453
 30
0.0
  0
VERTEX
  5
16D
100
AcDbEntity
  8
0
370
              18
  6
Continuous
 62
               7
100
AcDbVertex
100
AcDb2dVertex
 10
-14.699658603786105
 20
42.804104431394464
 30
0.0
  0
VERTEX
  5
16E
100
AcDbEntity
  8
0
370
              18
  6
Continuous
 62
               7
100
AcDbVertex
100
AcDb2dVertex
 10
-14.858974814486089
 20
41.415851249894459
 30
0.0
  0
VERTEX
  5
16F
100
AcDbEntity
  8
0
370
              18
  6
Continuous
 62
               7
100
AcDbVertex
100
AcDb2dVertex
 10
-15.1675376315861
 20
40.080467778594439
 30
0.0
  0
VERTEX
  5
170
100
AcDbEntity
  8
0
370
              18
  6
Continuous
 62
               7
100
AcDbVertex
100
AcDb2dVertex
 10
-15.620279721686103
 20
38.819902876194462
 30
0.0
  0
VERTEX
  5
171
100
AcDbEntity
  8
0
370
              18
  6
Continuous
 62
               7
100
AcDbVertex
100
AcDb2dVertex
 10
-16.209767079686088
 20
37.654850420994464
 30
0.0
  0
VERTEX
  5
172
100
AcDbEntity
  8
0
370
              18
  6
Continuous
 62
               7
100
AcDbVertex
100
AcDb2dVertex
 10
-16.926318399286089
 20
36.604450578994445
 30
0.0
  0
VERTEX
  5
173
100
AcDbEntity
  8
0
370
              18
  6
Continuous
 62
               7
100
AcDbVertex
100
AcDb2dVertex
 10
-17.758170821886097
 20
35.685936136894455
 30
0.0
  0
VERTEX
  5
174
100
AcDbEntity
  8
0
370
              18
  6
Continuous
 62
               7
100
AcDbVertex
100
AcDb2dVertex
 10
-18.691665127186099
 20
34.91439803369444
 30
0.0
  0
VERTEX
  5
175
100
AcDbEntity
  8
0
370
              18
  6
Continuous
 62
               7
100
AcDbVertex
100
AcDb2dVertex
 10
-19.711471153886094
 20
34.302495444594442
 30
0.0
  0
VERTEX
  5
176
100
AcDbEntity
  8
0
370
              18
  6
Continuous
 62
               7
100
AcDbVertex
100
AcDb2dVertex
 10
-20.800844958286092
 20
33.860286086694444
 30
0.0
  0
VERTEX
  5
177
100
AcDbEntity
  8
0
370
              18
  6
Continuous
 62
               7
100
AcDbVertex
100
AcDb2dVertex
 10
-21.941897318386083
 20
33.595013373794458
 30
0.0
  0
VERTEX
  5
178
100
AcDbEntity
  8
0
370
              18
  6
Continuous
 62
               7
100
AcDbVertex
100
AcDb2dVertex
 10
-23.115896462986086
 20
33.511058092694455
 30
0.0
  0
VERTEX
  5
179
100
AcDbEntity
  8
0
370
              18
  6
Continuous
 62
               7
100
AcDbVertex
100
AcDb2dVertex
 10
-24.303562434886089
 20
33.609786498894451
 30
0.0
  0
VERTEX
  5
17A
100
AcDbEntity
  8
0
370
              18
  6
Continuous
 62
               7
100
AcDbVertex
100
AcDb2dVertex
 10
-25.485394460486106
 20
33.889577530194444
 30
0.0
  0
VERTEX
  5
17B
100
AcDbEntity
  8
0
370
              18
  6
Continuous
 62
               7
100
AcDbVertex
100
AcDb2dVertex
 10
-26.641984486486109
 20
34.345848870694439
 30
0.0
  0
VERTEX
  5
17C
100
AcDbEntity
  8
0
370
              18
  6
Continuous
 62
               7
100
AcDbVertex
100
AcDb2dVertex
 10
-27.754346086986089
 20
34.971084291894456
 30
0.0
  0
VERTEX
  5
17D
100
AcDbEntity
  8
0
370
              18
  6
Continuous
 62
               7
100
AcDbVertex
100
AcDb2dVertex
 10
-28.804210287186095
 20
35.755034618094456
 30
0.0
  0
VERTEX
  5
17E
100
AcDbEntity
  8
0
370
              18
  6
Continuous
 62
               7
100
AcDbVertex
100
AcDb2dVertex
 10
-29.774337612686082
 20
36.684817155394441
 30
0.0
  0
VERTEX
  5
17F
100
AcDbEntity
  8
0
370
              18
  6
Continuous
 62
               7
100
AcDbVertex
100
AcDb2dVertex
 10
-30.648802886486095
 20
37.745174531894449
 30
0.0
  0
VERTEX
  5
180
100
AcDbEntity
  8
0
370
              18
  6
Continuous
 62
               7
100
AcDbVertex
100
AcDb2dVertex
 10
-31.413245262286097
 20
38.918686553994448
 30
0.0
  0
VERTEX
  5
181
100
AcDbEntity
  8
0
370
              18
  6
Continuous
 62
               7
100
AcDbVertex
100
AcDb2dVertex
 10
-32.055111572686087
 20
40.186099090294462
 30
0.0
  0
VERTEX
  5
182
100
AcDbEntity
  8
0
370
              18
  6
Continuous
 62
               7
100
AcDbVertex
100
AcDb2dVertex
 10
-32.563864596086091
 20
41.526591246894455
 30
0.0
  0
VERTEX
  5
183
100
AcDbEntity
  8
0
370
              18
  6
Continuous
 62
               7
100
AcDbVertex
100
AcDb2dVertex
 10
-32.931150826286085
 20
42.91815675999446
 30
0.0
  0
VERTEX
  5
184
100
AcDbEntity
  8
0
370
              18
  6
Continuous
 62
               7
100
AcDbVertex
100
AcDb2dVertex
 10
-33.150936233886085
 20
44.33792393579445
 30
0.0
  0
VERTEX
  5
185
100
AcDbEntity
  8
0
370
              18
  6
Continuous
 62
               7
100
AcDbVertex
100
AcDb2dVertex
 10
-33.219611386486093
 20
45.762620021394454
 30
0.0
  0
VERTEX
  5
186
100
AcDbEntity
  8
0
370
              18
  6
Continuous
 62
               7
100
AcDbVertex
100
AcDb2dVertex
 10
-33.136054925686096
 20
47.168811647394463
 30
0.0
  0
VERTEX
  5
187
100
AcDbEntity
  8
0
370
              18
  6
Continuous
 62
               7
100
AcDbVertex
100
AcDb2dVertex
 10
-32.901632685786097
 20
48.533433875794444
 30
0.0
  0
VERTEX
  5
188
100
AcDbEntity
  8
0
370
              18
  6
Continuous
 62
               7
100
AcDbVertex
100
AcDb2dVertex
 10
-32.520197887586079
 20
49.834084172994451
 30
0.0
  0
VERTEX
  5
189
100
AcDbEntity
  8
0
370
              18
  6
Continuous
 62
               7
100
AcDbVertex
100
AcDb2dVertex
 10
-31.998009922186071
 20
51.049383104394465
 30
0.0
  0
VERTEX
  5
18A
100
AcDbEntity
  8
0
370
              18
  6
Continuous
 62
               7
100
AcDbVertex
100
AcDb2dVertex
 10
-31.343645181586083
 20
52.159393158494439
 30
0.0
  0
VERTEX
  5
18B
100
AcDbEntity
  8
0
370
              18
  6
Continuous
 62
               7
100
AcDbVertex
100
AcDb2dVertex
 10
-30.567849388086103
 20
53.145885730694445
 30
0.0
  0
VERTEX
  5
18C
100
AcDbEntity
  8
0
370
              18
  6
Continuous
 62
               7
100
AcDbVertex
100
AcDb2dVertex
 10
-29.683360136486073
 20
53.992649723094459
 30
0.0
  0
VERTEX
  5
18D
100
AcDbEntity
  8
0
370
              18
  6
Continuous
 62
               7
100
AcDbVertex
100
AcDb2dVertex
 10
-28.704698697186103
 20
54.68579759049446
 30
0.0
  0
VERTEX
  5
18E
100
AcDbEntity
  8
0
370
              18
  6
Continuous
 62
               7
100
AcDbVertex
100
AcDb2dVertex
 10
-27.647937447986095
 20
55.213937078494453
 30
0.0
  0
VERTEX
  5
18F
100
AcDbEntity
  8
0
370
              18
  6
Continuous
 62
               7
100
AcDbVertex
100
AcDb2dVertex
 10
-26.530428614486084
 20
55.568398537894453
 30
0.0
  0
VERTEX
  5
190
100
AcDbEntity
  8
0
370
              18
  6
Continuous
 62
               7
100
AcDbVertex
100
AcDb2dVertex
 10
-25.370518811686082
 20
55.74337287079446
 30
0.0
  0
VERTEX
  5
191
100
AcDbEntity
  8
0
370
              18
  6
Continuous
 62
               7
100
AcDbVertex
100
AcDb2dVertex
 10
-24.187255535486088
 20
55.735960621294439
 30
0.0
  0
SEQEND
  5
192
100
AcDbEntity
  8
0
370
              18
  6
Continuous
 62
               7
  0
POLYLINE
  5
193
100
AcDbEntity
  8
0
370
              18
  6
Continuous
 62
               7
100
AcDb2dPolyline
 66
               1
 10
0.0
 20
0.0
 30
0.0
 75
               5
  0
VERTEX
  5
194
100
AcDbEntity
  8
0
370
              18
  6
Continuous
 62
               7
100
AcDbVertex
100
AcDb2dVertex
 10
-16.258049049386074
 20
43.997523448494448
 30
0.0
  0
VERTEX
  5
195
100
AcDbEntity
  8
0
370
              18
  6
Continuous
 62
               7
100
AcDbVertex
100
AcDb2dVertex
 10
-16.360488409486095
 20
45.285411605894453
 30
0.0
  0
VERTEX
  5
196
100
AcDbEntity
  8
0
370
              18
  6
Continuous
 62
               7
100
AcDbVertex
100
AcDb2dVertex
 10
-16.610615284886109
 20
46.560678621494461
 30
0.0
  0
VERTEX
  5
197
100
AcDbEntity
  8
0
370
              18
  6
Continuous
 62
               7
100
AcDbVertex
100
AcDb2dVertex
 10
-17.003560833186071
 20
47.798491965094442
 30
0.0
  0
VERTEX
  5
198
100
AcDbEntity
  8
0
370
              18
  6
Continuous
 62
               7
100
AcDbVertex
100
AcDb2dVertex
 10
-17.531677139586094
 20
48.974772841994465
 30
0.0
  0
VERTEX
  5
199
100
AcDbEntity
  8
0
370
              18
  6
Continuous
 62
               7
100
AcDbVertex
100
AcDb2dVertex
 10
-18.184684420286089
 20
50.066619969194463
 30
0.0
  0
VERTEX
  5
19A
100
AcDbEntity
  8
0
370
              18
  6
Continuous
 62
               7
100
AcDbVertex
100
AcDb2dVertex
 10
-18.949872969386092
 20
51.052781995394454
 30
0.0
  0
VERTEX
  5
19B
100
AcDbEntity
  8
0
370
              18
  6
Continuous
 62
               7
100
AcDbVertex
100
AcDb2dVertex
 10
-19.812348092686108
 20
51.914060005394461
 30
0.0
  0
VERTEX
  5
19C
100
AcDbEntity
  8
0
370
              18
  6
Continuous
 62
               7
100
AcDbVertex
100
AcDb2dVertex
 10
-20.7553254434861
 20
52.633699516694449
 30
0.0
  0
VERTEX
  5
19D
100
AcDbEntity
  8
0
370
              18
  6
Continuous
 62
               7
100
AcDbVertex
100
AcDb2dVertex
 10
-21.76044872968609
 20
53.197681450494443
 30
0.0
  0
VERTEX
  5
19E
100
AcDbEntity
  8
0
370
              18
  6
Continuous
 62
               7
100
AcDbVertex
100
AcDb2dVertex
 10
-22.808155700686086
 20
53.59504651279444
 30
0.0
  0
VERTEX
  5
19F
100
AcDbEntity
  8
0
370
              18
  6
Continuous
 62
               7
100
AcDbVertex
100
AcDb2dVertex
 10
-23.878051088086096
 20
53.818043777794443
 30
0.0
  0
VERTEX
  5
1A0
100
AcDbEntity
  8
0
370
              18
  6
Continuous
 62
               7
100
AcDbVertex
100
AcDb2dVertex
 10
-24.949314309886091
 20
53.862326256794447
 30
0.0
  0
VERTEX
  5
1A1
100
AcDbEntity
  8
0
370
              18
  6
Continuous
 62
               7
100
AcDbVertex
100
AcDb2dVertex
 10
-26.001092977686085
 20
53.727057098094448
 30
0.0
  0
VERTEX
  5
1A2
100
AcDbEntity
  8
0
370
              18
  6
Continuous
 62
               7
100
AcDbVertex
100
AcDb2dVertex
 10
-27.012915969386086
 20
53.414855738194447
 30
0.0
  0
VERTEX
  5
1A3
100
AcDbEntity
  8
0
370
              18
  6
Continuous
 62
               7
100
AcDbVertex
100
AcDb2dVertex
 10
-27.965086253486078
 20
52.931801160894466
 30
0.0
  0
VERTEX
  5
1A4
100
AcDbEntity
  8
0
370
              18
  6
Continuous
 62
               7
100
AcDbVertex
100
AcDb2dVertex
 10
-28.839076690086102
 20
52.287288425694456
 30
0.0
  0
VERTEX
  5
1A5
100
AcDbEntity
  8
0
370
              18
  6
Continuous
 62
               7
100
AcDbVertex
100
AcDb2dVertex
 10
-29.617870184886073
 20
51.493865871994458
 30
0.0
  0
VERTEX
  5
1A6
100
AcDbEntity
  8
0
370
              18
  6
Continuous
 62
               7
100
AcDbVertex
100
AcDb2dVertex
 10
-30.286310236786079
 20
50.566985000794446
 30
0.0
  0
VERTEX
  5
1A7
100
AcDbEntity
  8
0
370
              18
  6
Continuous
 62
               7
100
AcDbVertex
100
AcDb2dVertex
 10
-30.831388738586071
 20
49.524686349294441
 30
0.0
  0
VERTEX
  5
1A8
100
AcDbEntity
  8
0
370
              18
  6
Continuous
 62
               7
100
AcDbVertex
100
AcDb2dVertex
 10
-31.242495940186103
 20
48.387238125694452
 30
0.0
  0
VERTEX
  5
1A9
100
AcDbEntity
  8
0
370
              18
  6
Continuous
 62
               7
100
AcDbVertex
100
AcDb2dVertex
 10
-31.51162769458611
 20
47.176785992194439
 30
0.0
  0
VERTEX
  5
1AA
100
AcDbEntity
  8
0
370
              18
  6
Continuous
 62
               7
100
AcDbVertex
100
AcDb2dVertex
 10
-31.633544692486083
 20
45.916910668094445
 30
0.0
  0
VERTEX
  5
1AB
100
AcDbEntity
  8
0
370
              18
  6
Continuous
 62
               7
100
AcDbVertex
100
AcDb2dVertex
 10
-31.605877855886092
 20
44.632107570194464
 30
0.0
  0
VERTEX
  5
1AC
100
AcDbEntity
  8
0
370
              18
  6
Continuous
 62
               7
100
AcDbVertex
100
AcDb2dVertex
 10
-31.429166202686105
 20
43.347407816194462
 30
0.0
  0
VERTEX
  5
1AD
100
AcDbEntity
  8
0
370
              18
  6
Continuous
 62
               7
100
AcDbVertex
100
AcDb2dVertex
 10
-31.106844163886109
 20
42.08778925729446
 30
0.0
  0
VERTEX
  5
1AE
100
AcDbEntity
  8
0
370
              18
  6
Continuous
 62
               7
100
AcDbVertex
100
AcDb2dVertex
 10
-30.645187548286088
 20
40.877804540694441
 30
0.0
  0
VERTEX
  5
1AF
100
AcDbEntity
  8
0
370
              18
  6
Continuous
 62
               7
100
AcDbVertex
100
AcDb2dVertex
 10
-30.053183735186082
 20
39.740967707994443
 30
0.0
  0
VERTEX
  5
1B0
100
AcDbEntity
  8
0
370
              18
  6
Continuous
 62
               7
100
AcDbVertex
100
AcDb2dVertex
 10
-29.342355951286095
 20
38.699430933294465
 30
0.0
  0
VERTEX
  5
1B1
100
AcDbEntity
  8
0
370
              18
  6
Continuous
 62
               7
100
AcDbVertex
100
AcDb2dVertex
 10
-28.526537001186085
 20
37.773451289594462
 30
0.0
  0
VERTEX
  5
1B2
100
AcDbEntity
  8
0
370
              18
  6
Continuous
 62
               7
100
AcDbVertex
100
AcDb2dVertex
 10
-27.621604401786072
 20
36.981060076494444
 30
0.0
  0
VERTEX
  5
1B3
100
AcDbEntity
  8
0
370
              18
  6
Continuous
 62
               7
100
AcDbVertex
100
AcDb2dVertex
 10
-26.645177678886085
 20
36.337684909894463
 30
0.0
  0
VERTEX
  5
1B4
100
AcDbEntity
  8
0
370
              18
  6
Continuous
 62
               7
100
AcDbVertex
100
AcDb2dVertex
 10
-25.61625577168607
 20
35.855840320294462
 30
0.0
  0
VERTEX
  5
1B5
100
AcDbEntity
  8
0
370
              18
  6
Continuous
 62
               7
100
AcDbVertex
100
AcDb2dVertex
 10
-24.554868634586086
 20
35.544907720094457
 30
0.0
  0
VERTEX
  5
1B6
100
AcDbEntity
  8
0
370
              18
  6
Continuous
 62
               7
100
AcDbVertex
100
AcDb2dVertex
 10
-23.481673826386071
 20
35.410925494694439
 30
0.0
  0
VERTEX
  5
1B7
100
AcDbEntity
  8
0
370
              18
  6
Continuous
 62
               7
100
AcDbVertex
100
AcDb2dVertex
 10
-22.41756241798609
 20
35.456526846494441
 30
0.0
  0
VERTEX
  5
1B8
100
AcDbEntity
  8
0
370
              18
  6
Continuous
 62
               7
100
AcDbVertex
100
AcDb2dVertex
 10
-21.383242114586096
 20
35.68081695389445
 30
0.0
  0
VERTEX
  5
1B9
100
AcDbEntity
  8
0
370
              18
  6
Continuous
 62
               7
100
AcDbVertex
100
AcDb2dVertex
 10
-20.39884691948609
 20
36.079414012494439
 30
0.0
  0
VERTEX
  5
1BA
100
AcDbEntity
  8
0
370
              18
  6
Continuous
 62
               7
100
AcDbVertex
100
AcDb2dVertex
 10
-19.483536405186072
 20
36.644577599094461
 30
0.0
  0
VERTEX
  5
1BB
100
AcDbEntity
  8
0
370
              18
  6
Continuous
 62
               7
100
AcDbVertex
100
AcDb2dVertex
 10
-18.655127846086089
 20
37.365295674794439
 30
0.0
  0
VERTEX
  5
1BC
100
AcDbEntity
  8
0
370
              18
  6
Continuous
 62
               7
100
AcDbVertex
100
AcDb2dVertex
 10
-17.929742913886088
 20
38.227549171494459
 30
0.0
  0
VERTEX
  5
1BD
100
AcDbEntity
  8
0
370
              18
  6
Continuous
 62
               7
100
AcDbVertex
100
AcDb2dVertex
 10
-17.321501385286098
 20
39.214551091594458
 30
0.0
  0
VERTEX
  5
1BE
100
AcDbEntity
  8
0
370
              18
  6
Continuous
 62
               7
100
AcDbVertex
100
AcDb2dVertex
 10
-16.842241659486092
 20
40.30709072109444
 30
0.0
  0
VERTEX
  5
1BF
100
AcDbEntity
  8
0
370
              18
  6
Continuous
 62
               7
100
AcDbVertex
100
AcDb2dVertex
 10
-16.501292312586088
 20
41.483896782294451
 30
0.0
  0
VERTEX
  5
1C0
100
AcDbEntity
  8
0
370
              18
  6
Continuous
 62
               7
100
AcDbVertex
100
AcDb2dVertex
 10
-16.305289807886084
 20
42.72207791379445
 30
0.0
  0
VERTEX
  5
1C1
100
AcDbEntity
  8
0
370
              18
  6
Continuous
 62
               7
100
AcDbVertex
100
AcDb2dVertex
 10
-16.258049049386074
 20
43.997523448494448
 30
0.0
  0
SEQEND
  5
1C2
100
AcDbEntity
  8
0
370
              18
  6
Continuous
 62
               7
  0
POLYLINE
  5
1C3
100
AcDbEntity
  8
0
370
              18
  6
Continuous
 62
               7
100
AcDb2dPolyline
 66
               1
 10
0.0
 20
0.0
 30
0.0
 75
               5
  0
VERTEX
  5
1C4
100
AcDbEntity
  8
0
370
              18
  6
Continuous
 62
               7
100
AcDbVertex
100
AcDb2dVertex
 10
-20.81955784448607
 20
52.675590931294451
 30
0.0
  0
VERTEX
  5
1C5
100
AcDbEntity
  8
0
370
              18
  6
Continuous
 62
               7
100
AcDbVertex
100
AcDb2dVertex
 10
-21.285209477086084
 20
52.735244069994465
 30
0.0
  0
VERTEX
  5
1C6
100
AcDbEntity
  8
0
370
              18
  6
Continuous
 62
               7
100
AcDbVertex
100
AcDb2dVertex
 10
-22.251348580686084
 20
52.724474920894451
 30
0.0
  0
VERTEX
  5
1C7
100
AcDbEntity
  8
0
370
              18
  6
Continuous
 62
               7
100
AcDbVertex
100
AcDb2dVertex
 10
-23.189768402586111
 20
52.531485389894456
 30
0.0
  0
VERTEX
  5
1C8
100
AcDbEntity
  8
0
370
              18
  6
Continuous
 62
               7
100
AcDbVertex
100
AcDb2dVertex
 10
-24.077365360786104
 20
52.161042432694458
 30
0.0
  0
VERTEX
  5
1C9
100
AcDbEntity
  8
0
370
              18
  6
Continuous
 62
               7
100
AcDbVertex
100
AcDb2dVertex
 10
-24.892277141986085
 20
51.622263861994455
 30
0.0
  0
VERTEX
  5
1CA
100
AcDbEntity
  8
0
370
              18
  6
Continuous
 62
               7
100
AcDbVertex
100
AcDb2dVertex
 10
-25.614442590786069
 20
50.928400329294462
 30
0.0
  0
VERTEX
  5
1CB
100
AcDbEntity
  8
0
370
              18
  6
Continuous
 62
               7
100
AcDbVertex
100
AcDb2dVertex
 10
-26.226077018186089
 20
50.096536785994445
 30
0.0
  0
VERTEX
  5
1CC
100
AcDbEntity
  8
0
370
              18
  6
Continuous
 62
               7
100
AcDbVertex
100
AcDb2dVertex
 10
-26.712123455986074
 20
49.147174362594441
 30
0.0
  0
VERTEX
  5
1CD
100
AcDbEntity
  8
0
370
              18
  6
Continuous
 62
               7
100
AcDbVertex
100
AcDb2dVertex
 10
-27.060611915186087
 20
48.10367232029445
 30
0.0
  0
VERTEX
  5
1CE
100
AcDbEntity
  8
0
370
              18
  6
Continuous
 62
               7
100
AcDbVertex
100
AcDb2dVertex
 10
-27.262958434986075
 20
46.991743788194455
 30
0.0
  0
VERTEX
  5
1CF
100
AcDbEntity
  8
0
370
              18
  6
Continuous
 62
               7
100
AcDbVertex
100
AcDb2dVertex
 10
-27.314186235286087
 20
45.838753953994441
 30
0.0
  0
VERTEX
  5
1D0
100
AcDbEntity
  8
0
370
              18
  6
Continuous
 62
               7
100
AcDbVertex
100
AcDb2dVertex
 10
-27.213028891586106
 20
44.673096633494438
 30
0.0
  0
VERTEX
  5
1D1
100
AcDbEntity
  8
0
370
              18
  6
Continuous
 62
               7
100
AcDbVertex
100
AcDb2dVertex
 10
-26.961982423386104
 20
43.52347840739445
 30
0.0
  0
VERTEX
  5
1D2
100
AcDbEntity
  8
0
370
              18
  6
Continuous
 62
               7
100
AcDbVertex
100
AcDb2dVertex
 10
-26.5672221327861
 20
42.418191514694442
 30
0.0
  0
VERTEX
  5
1D3
100
AcDbEntity
  8
0
370
              18
  6
Continuous
 62
               7
100
AcDbVertex
100
AcDb2dVertex
 10
-26.038472161986107
 20
41.384471002094458
 30
0.0
  0
VERTEX
  5
1D4
100
AcDbEntity
  8
0
370
              18
  6
Continuous
 62
               7
100
AcDbVertex
100
AcDb2dVertex
 10
-25.388753584786087
 20
40.447768287994464
 30
0.0
  0
VERTEX
  5
1D5
100
AcDbEntity
  8
0
370
              18
  6
Continuous
 62
               7
100
AcDbVertex
100
AcDb2dVertex
 10
-24.634060943386089
 20
39.631121662294461
 30
0.0
  0
VERTEX
  5
1D6
100
AcDbEntity
  8
0
370
              18
  6
Continuous
 62
               7
100
AcDbVertex
100
AcDb2dVertex
 10
-23.79298079528607
 20
38.954683642194439
 30
0.0
  0
VERTEX
  5
1D7
100
AcDbEntity
  8
0
370
              18
  6
Continuous
 62
               7
100
AcDbVertex
100
AcDb2dVertex
 10
-22.886217629586071
 20
38.435078951494447
 30
0.0
  0
VERTEX
  5
1D8
100
AcDbEntity
  8
0
370
              18
  6
Continuous
 62
               7
100
AcDbVertex
100
AcDb2dVertex
 10
-21.93610555868608
 20
38.085099367494465
 30
0.0
  0
VERTEX
  5
1D9
100
AcDbEntity
  8
0
370
              18
  6
Continuous
 62
               7
100
AcDbVertex
100
AcDb2dVertex
 10
-20.966037014686094
 20
37.913391668794461
 30
0.0
  0
VERTEX
  5
1DA
100
AcDbEntity
  8
0
370
              18
  6
Continuous
 62
               7
100
AcDbVertex
100
AcDb2dVertex
 10
-19.999897593986105
 20
37.924146093694461
 30
0.0
  0
VERTEX
  5
1DB
100
AcDbEntity
  8
0
370
              18
  6
Continuous
 62
               7
100
AcDbVertex
100
AcDb2dVertex
 10
-19.061477772186095
 20
38.117135624694455
 30
0.0
  0
VERTEX
  5
1DC
100
AcDbEntity
  8
0
370
              18
  6
Continuous
 62
               7
100
AcDbVertex
100
AcDb2dVertex
 10
-18.173880813986074
 20
38.487578581994441
 30
0.0
  0
VERTEX
  5
1DD
100
AcDbEntity
  8
0
370
              18
  6
Continuous
 62
               7
100
AcDbVertex
100
AcDb2dVertex
 10
-17.473250390186109
 20
38.937190614394453
 30
0.0
  0
SEQEND
  5
1DE
100
AcDbEntity
  8
0
370
              18
  6
Continuous
 62
               7
  0
POLYLINE
  5
1DF
100
AcDbEntity
  8
0
370
              18
  6
Continuous
 62
               7
100
AcDb2dPolyline
 66
               1
 10
0.0
 20
0.0
 30
0.0
 75
               5
  0
VERTEX
  5
1E0
100
AcDbEntity
  8
0
370
              18
  6
Continuous
 62
               7
100
AcDbVertex
100
AcDb2dVertex
 10
-16.567209639986089
 20
41.206412146094451
 30
0.0
  0
VERTEX
  5
1E1
100
AcDbEntity
  8
0
370
              18
  6
Continuous
 62
               7
100
AcDbVertex
100
AcDb2dVertex
 10
-16.728798829086088
 20
40.948508116694441
 30
0.0
  0
VERTEX
  5
1E2
100
AcDbEntity
  8
0
370
              18
  6
Continuous
 62
               7
100
AcDbVertex
100
AcDb2dVertex
 10
-17.322659827286088
 20
40.204500509794443
 30
0.0
  0
VERTEX
  5
1E3
100
AcDbEntity
  8
0
370
              18
  6
Continuous
 62
               7
100
AcDbVertex
100
AcDb2dVertex
 10
-18.020258776686092
 20
39.600147590794464
 30
0.0
  0
VERTEX
  5
1E4
100
AcDbEntity
  8
0
370
              18
  6
Continuous
 62
               7
100
AcDbVertex
100
AcDb2dVertex
 10
-18.802561746486077
 20
39.151945435694458
 30
0.0
  0
VERTEX
  5
1E5
100
AcDbEntity
  8
0
370
              18
  6
Continuous
 62
               7
100
AcDbVertex
100
AcDb2dVertex
 10
-19.648231603486096
 20
38.872097965194442
 30
0.0
  0
VERTEX
  5
1E6
100
AcDbEntity
  8
0
370
              18
  6
Continuous
 62
               7
100
AcDbVertex
100
AcDb2dVertex
 10
-20.534202320286084
 20
38.768256031394444
 30
0.0
  0
VERTEX
  5
1E7
100
AcDbEntity
  8
0
370
              18
  6
Continuous
 62
               7
100
AcDbVertex
100
AcDb2dVertex
 10
-21.436303683986097
 20
38.843245996594462
 30
0.0
  0
VERTEX
  5
1E8
100
AcDbEntity
  8
0
370
              18
  6
Continuous
 62
               7
100
AcDbVertex
100
AcDb2dVertex
 10
-22.329932259586087
 20
39.095022624094454
 30
0.0
  0
VERTEX
  5
1E9
100
AcDbEntity
  8
0
370
              18
  6
Continuous
 62
               7
100
AcDbVertex
100
AcDb2dVertex
 10
-23.190709202386103
 20
39.516723761194456
 30
0.0
  0
VERTEX
  5
1EA
100
AcDbEntity
  8
0
370
              18
  6
Continuous
 62
               7
100
AcDbVertex
100
AcDb2dVertex
 10
-23.995155660786082
 20
40.096829368694458
 30
0.0
  0
VERTEX
  5
1EB
100
AcDbEntity
  8
0
370
              18
  6
Continuous
 62
               7
100
AcDbVertex
100
AcDb2dVertex
 10
-24.721329898886097
 20
40.819537836194442
 30
0.0
  0
VERTEX
  5
1EC
100
AcDbEntity
  8
0
370
              18
  6
Continuous
 62
               7
100
AcDbVertex
100
AcDb2dVertex
 10
-25.349424142886079
 20
41.665124250894465
 30
0.0
  0
VERTEX
  5
1ED
100
AcDbEntity
  8
0
370
              18
  6
Continuous
 62
               7
100
AcDbVertex
100
AcDb2dVertex
 10
-25.862301630886094
 20
42.610514163594459
 30
0.0
  0
VERTEX
  5
1EE
100
AcDbEntity
  8
0
370
              18
  6
Continuous
 62
               7
100
AcDbVertex
100
AcDb2dVertex
 10
-26.245973770686106
 20
43.629925864994462
 30
0.0
  0
VERTEX
  5
1EF
100
AcDbEntity
  8
0
370
              18
  6
Continuous
 62
               7
100
AcDbVertex
100
AcDb2dVertex
 10
-26.489980517786108
 20
44.695578105694452
 30
0.0
  0
VERTEX
  5
1F0
100
AcDbEntity
  8
0
370
              18
  6
Continuous
 62
               7
100
AcDbVertex
100
AcDb2dVertex
 10
-26.587656386386101
 20
45.778358913894451
 30
0.0
  0
VERTEX
  5
1F1
100
AcDbEntity
  8
0
370
              18
  6
Continuous
 62
               7
100
AcDbVertex
100
AcDb2dVertex
 10
-26.53634715298611
 20
46.848769572594463
 30
0.0
  0
VERTEX
  5
1F2
100
AcDbEntity
  8
0
370
              18
  6
Continuous
 62
               7
100
AcDbVertex
100
AcDb2dVertex
 10
-26.337442568386081
 20
47.877588741594465
 30
0.0
  0
VERTEX
  5
1F3
100
AcDbEntity
  8
0
370
              18
  6
Continuous
 62
               7
100
AcDbVertex
100
AcDb2dVertex
 10
-25.996376938486094
 20
48.836754374994442
 30
0.0
  0
VERTEX
  5
1F4
100
AcDbEntity
  8
0
370
              18
  6
Continuous
 62
               7
100
AcDbVertex
100
AcDb2dVertex
 10
-25.522448882586076
 20
49.700113025694449
 30
0.0
  0
VERTEX
  5
1F5
100
AcDbEntity
  8
0
370
              18
  6
Continuous
 62
               7
100
AcDbVertex
100
AcDb2dVertex
 10
-24.928584810486086
 20
50.44412037709445
 30
0.0
  0
VERTEX
  5
1F6
100
AcDbEntity
  8
0
370
              18
  6
Continuous
 62
               7
100
AcDbVertex
100
AcDb2dVertex
 10
-24.23098739798607
 20
51.048473423794448
 30
0.0
  0
VERTEX
  5
1F7
100
AcDbEntity
  8
0
370
              18
  6
Continuous
 62
               7
100
AcDbVertex
100
AcDb2dVertex
 10
-23.4486844282861
 20
51.496675578894454
 30
0.0
  0
VERTEX
  5
1F8
100
AcDbEntity
  8
0
370
              18
  6
Continuous
 62
               7
100
AcDbVertex
100
AcDb2dVertex
 10
-22.603014571286081
 20
51.776523049394442
 30
0.0
  0
VERTEX
  5
1F9
100
AcDbEntity
  8
0
370
              18
  6
Continuous
 62
               7
100
AcDbVertex
100
AcDb2dVertex
 10
-21.717043854486093
 20
51.88036498319444
 30
0.0
  0
VERTEX
  5
1FA
100
AcDbEntity
  8
0
370
              18
  6
Continuous
 62
               7
100
AcDbVertex
100
AcDb2dVertex
 10
-20.814942490686093
 20
51.80537501799445
 30
0.0
  0
VERTEX
  5
1FB
100
AcDbEntity
  8
0
370
              18
  6
Continuous
 62
               7
100
AcDbVertex
100
AcDb2dVertex
 10
-19.92131391518609
 20
51.553598390594445
 30
0.0
  0
VERTEX
  5
1FC
100
AcDbEntity
  8
0
370
              18
  6
Continuous
 62
               7
100
AcDbVertex
100
AcDb2dVertex
 10
-19.060536972286087
 20
51.131897253494444
 30
0.0
  0
VERTEX
  5
1FD
100
AcDbEntity
  8
0
370
              18
  6
Continuous
 62
               7
100
AcDbVertex
100
AcDb2dVertex
 10
-18.97147453278609
 20
51.077210745294465
 30
0.0
  0
SEQEND
  5
1FE
100
AcDbEntity
  8
0
370
              18
  6
Continuous
 62
               7
  0
POLYLINE
  5
1FF
100
AcDbEntity
  8
0
370
              18
  6
Continuous
 62
               7
100
AcDb2dPolyline
 66
               1
 10
0.0
 20
0.0
 30
0.0
 75
               5
  0
VERTEX
  5
200
100
AcDbEntity
  8
0
370
              18
  6
Continuous
 62
               7
100
AcDbVertex
100
AcDb2dVertex
 10
-17.353171522886072
 20
96.176410024494444
 30
0.0
  0
VERTEX
  5
201
100
AcDbEntity
  8
0
370
              18
  6
Continuous
 62
               7
100
AcDbVertex
100
AcDb2dVertex
 10
-16.925969705086089
 20
96.122910001894425
 30
0.0
  0
VERTEX
  5
202
100
AcDbEntity
  8
0
370
              18
  6
Continuous
 62
               7
100
AcDbVertex
100
AcDb2dVertex
 10
-16.655174952286103
 20
96.048386572394477
 30
0.0
  0
VERTEX
  5
203
100
AcDbEntity
  8
0
370
              18
  6
Continuous
 62
               7
100
AcDbVertex
100
AcDb2dVertex
 10
-16.570133333586085
 20
95.960915164794457
 30
0.0
  0
VERTEX
  5
204
100
AcDbEntity
  8
0
370
              18
  6
Continuous
 62
               7
100
AcDbVertex
100
AcDb2dVertex
 10
-16.680063105486084
 20
95.869975014994466
 30
0.0
  0
VERTEX
  5
205
100
AcDbEntity
  8
0
370
              18
  6
Continuous
 62
               7
100
AcDbVertex
100
AcDb2dVertex
 10
-16.973048667286093
 20
95.785420829594457
 30
0.0
  0
VERTEX
  5
206
100
AcDbEntity
  8
0
370
              18
  6
Continuous
 62
               7
100
AcDbVertex
100
AcDb2dVertex
 10
-17.417343681186111
 20
95.716415210194455
 30
0.0
  0
VERTEX
  5
207
100
AcDbEntity
  8
0
370
              18
  6
Continuous
 62
               7
100
AcDbVertex
100
AcDb2dVertex
 10
-17.964793858286072
 20
95.670436283794444
 30
0.0
  0
VERTEX
  5
208
100
AcDbEntity
  8
0
370
              18
  6
Continuous
 62
               7
100
AcDbVertex
100
AcDb2dVertex
 10
-18.556085401186095
 20
95.65246629609446
 30
0.0
  0
VERTEX
  5
209
100
AcDbEntity
  8
0
370
              18
  6
Continuous
 62
               7
100
AcDbVertex
100
AcDb2dVertex
 10
-19.12713948688608
 20
95.664452391494464
 30
0.0
  0
VERTEX
  5
20A
100
AcDbEntity
  8
0
370
              18
  6
Continuous
 62
               7
100
AcDbVertex
100
AcDb2dVertex
 10
-19.616069745386085
 20
95.705096230994442
 30
0.0
  0
VERTEX
  5
20B
100
AcDbEntity
  8
0
370
              18
  6
Continuous
 62
               7
100
AcDbVertex
100
AcDb2dVertex
 10
-19.969891492486084
 20
95.769993298894448
 30
0.0
  0
VERTEX
  5
20C
100
AcDbEntity
  8
0
370
              18
  6
Continuous
 62
               7
100
AcDbVertex
100
AcDb2dVertex
 10
-20.150269909086092
 20
95.852110737994465
 30
0.0
  0
VERTEX
  5
20D
100
AcDbEntity
  8
0
370
              18
  6
Continuous
 62
               7
100
AcDbVertex
100
AcDb2dVertex
 10
-20.137655500286087
 20
95.942549541394456
 30
0.0
  0
VERTEX
  5
20E
100
AcDbEntity
  8
0
370
              18
  6
Continuous
 62
               7
100
AcDbVertex
100
AcDb2dVertex
 10
-19.933413042986075
 20
96.031510271694444
 30
0.0
  0
VERTEX
  5
20F
100
AcDbEntity
  8
0
370
              18
  6
Continuous
 62
               7
100
AcDbVertex
100
AcDb2dVertex
 10
-19.559676326586072
 20
96.109351767694434
 30
0.0
  0
VERTEX
  5
210
100
AcDbEntity
  8
0
370
              18
  6
Continuous
 62
               7
100
AcDbVertex
100
AcDb2dVertex
 10
-19.056946134686086
 20
96.167639168094425
 30
0.0
  0
VERTEX
  5
211
100
AcDbEntity
  8
0
370
              18
  6
Continuous
 62
               7
100
AcDbVertex
100
AcDb2dVertex
 10
-18.47969918268609
 20
96.20005579049446
 30
0.0
  0
VERTEX
  5
212
100
AcDbEntity
  8
0
370
              18
  6
Continuous
 62
               7
100
AcDbVertex
100
AcDb2dVertex
 10
-17.890492602686095
 20
96.203088949994438
 30
0.0
  0
VERTEX
  5
213
100
AcDbEntity
  8
0
370
              18
  6
Continuous
 62
               7
100
AcDbVertex
100
AcDb2dVertex
 10
-17.353171522886072
 20
96.176410024494444
 30
0.0
  0
SEQEND
  5
214
100
AcDbEntity
  8
0
370
              18
  6
Continuous
 62
               7
  0
POLYLINE
  5
215
100
AcDbEntity
  8
0
370
              18
  6
Continuous
 62
               7
100
AcDb2dPolyline
 66
               1
 10
0.0
 20
0.0
 30
0.0
 75
               5
  0
VERTEX
  5
216
100
AcDbEntity
  8
0
370
              18
  6
Continuous
 62
               7
100
AcDbVertex
100
AcDb2dVertex
 10
-10.578871415786097
 20
97.826448005794433
 30
0.0
  0
VERTEX
  5
217
100
AcDbEntity
  8
0
370
              18
  6
Continuous
 62
               7
100
AcDbVertex
100
AcDb2dVertex
 10
-10.15166959788607
 20
97.772947983094426
 30
0.0
  0
VERTEX
  5
218
100
AcDbEntity
  8
0
370
              18
  6
Continuous
 62
               7
100
AcDbVertex
100
AcDb2dVertex
 10
-9.8808748450860833
 20
97.698424553694466
 30
0.0
  0
VERTEX
  5
219
100
AcDbEntity
  8
0
370
              18
  6
Continuous
 62
               7
100
AcDbVertex
100
AcDb2dVertex
 10
-9.7958332263860939
 20
97.610953146094474
 30
0.0
  0
VERTEX
  5
21A
100
AcDbEntity
  8
0
370
              18
  6
Continuous
 62
               7
100
AcDbVertex
100
AcDb2dVertex
 10
-9.9057629982860931
 20
97.520012996194467
 30
0.0
  0
VERTEX
  5
21B
100
AcDbEntity
  8
0
370
              18
  6
Continuous
 62
               7
100
AcDbVertex
100
AcDb2dVertex
 10
-10.198748560086102
 20
97.435458810794458
 30
0.0
  0
VERTEX
  5
21C
100
AcDbEntity
  8
0
370
              18
  6
Continuous
 62
               7
100
AcDbVertex
100
AcDb2dVertex
 10
-10.643043573986091
 20
97.366453191494443
 30
0.0
  0
VERTEX
  5
21D
100
AcDbEntity
  8
0
370
              18
  6
Continuous
 62
               7
100
AcDbVertex
100
AcDb2dVertex
 10
-11.190494802586073
 20
97.320474008894465
 30
0.0
  0
VERTEX
  5
21E
100
AcDbEntity
  8
0
370
              18
  6
Continuous
 62
               7
100
AcDbVertex
100
AcDb2dVertex
 10
-11.781786345586085
 20
97.30250402119448
 30
0.0
  0
VERTEX
  5
21F
100
AcDbEntity
  8
0
370
              18
  6
Continuous
 62
               7
100
AcDbVertex
100
AcDb2dVertex
 10
-12.352839379786104
 20
97.314490372794424
 30
0.0
  0
VERTEX
  5
220
100
AcDbEntity
  8
0
370
              18
  6
Continuous
 62
               7
100
AcDbVertex
100
AcDb2dVertex
 10
-12.841769638186094
 20
97.355134212294459
 30
0.0
  0
VERTEX
  5
221
100
AcDbEntity
  8
0
370
              18
  6
Continuous
 62
               7
100
AcDbVertex
100
AcDb2dVertex
 10
-13.195592436886074
 20
97.420031024094456
 30
0.0
  0
VERTEX
  5
222
100
AcDbEntity
  8
0
370
              18
  6
Continuous
 62
               7
100
AcDbVertex
100
AcDb2dVertex
 10
-13.375970853386093
 20
97.502148463094457
 30
0.0
  0
VERTEX
  5
223
100
AcDbEntity
  8
0
370
              18
  6
Continuous
 62
               7
100
AcDbVertex
100
AcDb2dVertex
 10
-13.363355393086096
 20
97.592587522594457
 30
0.0
  0
VERTEX
  5
224
100
AcDbEntity
  8
0
370
              18
  6
Continuous
 62
               7
100
AcDbVertex
100
AcDb2dVertex
 10
-13.159112935786084
 20
97.68154825299446
 30
0.0
  0
VERTEX
  5
225
100
AcDbEntity
  8
0
370
              18
  6
Continuous
 62
               7
100
AcDbVertex
100
AcDb2dVertex
 10
-12.785376219486096
 20
97.759389748994479
 30
0.0
  0
VERTEX
  5
226
100
AcDbEntity
  8
0
370
              18
  6
Continuous
 62
               7
100
AcDbVertex
100
AcDb2dVertex
 10
-12.282646027586082
 20
97.81767714939447
 30
0.0
  0
VERTEX
  5
227
100
AcDbEntity
  8
0
370
              18
  6
Continuous
 62
               7
100
AcDbVertex
100
AcDb2dVertex
 10
-11.705399075486099
 20
97.850093771794448
 30
0.0
  0
VERTEX
  5
228
100
AcDbEntity
  8
0
370
              18
  6
Continuous
 62
               7
100
AcDbVertex
100
AcDb2dVertex
 10
-11.116192495586091
 20
97.853126931294426
 30
0.0
  0
VERTEX
  5
229
100
AcDbEntity
  8
0
370
              18
  6
Continuous
 62
               7
100
AcDbVertex
100
AcDb2dVertex
 10
-10.578871415786097
 20
97.826448005794433
 30
0.0
  0
SEQEND
  5
22A
100
AcDbEntity
  8
0
370
              18
  6
Continuous
 62
               7
  0
LINE
  5
22B
100
AcDbEntity
  8
0
370
              18
  6
Continuous
 62
               7
100
AcDbLine
 10
8.7749694349139133
 20
-47.390801366305553
 30
0.0
 11
8.4422555432139177
 21
-47.36314349530555
 31
0.0
  0
LINE
  5
22C
100
AcDbEntity
  8
0
370
              18
  6
Continuous
 62
               7
100
AcDbLine
 10
7.6178564009138938
 20
-47.697908211605551
 30
0.0
 11
8.7749694349139133
 21
-47.390801366305553
 31
0.0
  0
LINE
  5
22D
100
AcDbEntity
  8
0
370
              18
  6
Continuous
 62
               7
100
AcDbLine
 10
7.6178564009138938
 20
-47.697908211605551
 30
0.0
 11
-45.958743325686072
 21
-43.244187700605551
 31
0.0
  0
LINE
  5
22E
100
AcDbEntity
  8
0
370
              18
  6
Continuous
 62
               7
100
AcDbLine
 10
-45.958743325686072
 20
-43.244187700605551
 30
0.0
 11
-45.544330146086082
 21
-43.126631111905553
 31
0.0
  0
LINE
  5
22F
100
AcDbEntity
  8
0
370
              18
  6
Continuous
 62
               7
100
AcDbLine
 10
9.1023167564138987
 20
-116.63384372600555
 30
0.0
 11
10.260915418813909
 21
-116.39572705830555
 31
0.0
  0
LINE
  5
230
100
AcDbEntity
  8
0
370
              18
  6
Continuous
 62
               7
100
AcDbLine
 10
9.1023167564138987
 20
-116.63384372600555
 30
0.0
 11
7.6178564009138938
 21
-47.697908211605551
 31
0.0
  0
LINE
  5
231
100
AcDbEntity
  8
0
370
              18
  6
Continuous
 62
               7
100
AcDbLine
 10
10.260915418813909
 20
-116.39572705830555
 30
0.0
 11
8.7749694349139133
 21
-47.390801366305553
 31
0.0
  0
SPLINE
  5
232
100
AcDbEntity
  8
0
370
              18
  6
Continuous
 62
               7
100
AcDbSpline
210
0.0
220
0.0
230
1.0
 70
               8
 71
               2
 72
              16
 73
              13
 74
               0
 42
0.000001
 43
0.000001
 40
0.0
 40
0.0
 40
0.0
 40
1.0
 40
1.0
 40
2.0
 40
3.0
 40
4.0
 40
5.0
 40
6.0
 40
7.0
 40
8.0
 40
8.0
 40
9.0
 40
9.0
 40
9.0
 10
7.4948337174875803
 20
-118.4726252402731
 30
0.0
 10
7.5130669449488465
 20
-118.47414093368312
 30
0.0
 10
7.5313001724101127
 20
-118.47565662709312
 30
0.0
 10
7.7932171643331856
 20
-118.48516698330819
 30
0.0
 10
8.1767550677276688
 20
-118.36207413566663
 30
0.0
 10
8.4643620971889675
 20
-118.18289429351191
 30
0.0
 10
8.7133929793270966
 20
-117.92880506751159
 30
0.0
 10
8.9072234535846064
 20
-117.61511687319309
 30
0.0
 10
9.0364454928499356
 20
-117.26386255857284
 30
0.0
 10
9.1000955419014247
 20
-116.89951778142455
 30
0.0
 10
9.103256337513784
 20
-116.67751264136469
 30
0.0
 10
9.1027861521113493
 20
-116.65567799253125
 30
0.0
 10
9.1023159667089146
 20
-116.63384334369781
 30
0.0
  0
LINE
  5
233
100
AcDbEntity
  8
0
370
              18
  6
Continuous
 62
               7
100
AcDbLine
 10
-42.781704558486098
 20
-114.29323232890555
 30
0.0
 11
7.4948345540139201
 21
-118.47262509750554
 31
0.0
  0
SPLINE
  5
234
100
AcDbEntity
  8
0
370
              18
  6
Continuous
 62
               7
100
AcDbSpline
210
0.0
220
0.0
230
1.0
 70
               8
 71
               2
 72
              16
 73
              13
 74
               0
 42
0.000001
 43
0.000001
 40
0.0
 40
0.0
 40
0.0
 40
1.0
 40
1.0
 40
2.0
 40
3.0
 40
4.0
 40
5.0
 40
6.0
 40
7.0
 40
8.0
 40
8.0
 40
9.0
 40
9.0
 40
9.0
 10
-44.474284241637946
 20
-112.18012279263472
 30
0.0
 10
-44.473782710542253
 20
-112.20341308472378
 30
0.0
 10
-44.473281179446559
 20
-112.22670337681284
 30
0.0
 10
-44.459277126641069
 20
-112.46568242786137
 30
0.0
 10
-44.368656386687434
 20
-112.8680394374305
 30
0.0
 10
-44.203492305097285
 20
-113.26475546261183
 30
0.0
 10
-43.967796276039081
 20
-113.62564835703229
 30
0.0
 10
-43.676327992159514
 20
-113.92266664360126
 30
0.0
 10
-43.351844025192946
 20
-114.13703612167699
 30
0.0
 10
-43.019454278968198
 20
-114.26264908035361
 30
0.0
 10
-42.820599854069854
 20
-114.28999924943074
 30
0.0
 10
-42.801151078110365
 20
-114.29161598906788
 30
0.0
 10
-42.781702302150876
 20
-114.29323272870501
 30
0.0
  0
LINE
  5
235
100
AcDbEntity
  8
0
370
              18
  6
Continuous
 62
               7
100
AcDbLine
 10
-45.958743325686072
 20
-43.244187700605551
 30
0.0
 11
-44.474282970186124
 21
-112.18012321500555
 31
0.0
  0
SPLINE
  5
236
100
AcDbEntity
  8
0
370
              18
  6
Continuous
 62
               7
100
AcDbSpline
210
0.0
220
0.0
230
1.0
 70
               8
 71
               2
 72
              10
 73
               7
 74
               0
 42
0.000001
 43
0.000001
 40
0.0
 40
0.0
 40
0.0
 40
1.0
 40
1.0
 40
2.0
 40
2.0
 40
3.0
 40
3.0
 40
3.0
 10
9.3912594116404762
 20
-118.08497461302581
 30
0.0
 10
9.3915154791799011
 20
-118.08492513096829
 30
0.0
 10
9.3917715467193261
 20
-118.08487564891078
 30
0.0
 10
9.4394007985362975
 20
-118.07567177815186
 30
0.0
 10
9.4870891612641515
 20
-118.06644960113907
 30
0.0
 10
9.4873455536038023
 20
-118.06640001850369
 30
0.0
 10
9.4876019459434531
 20
-118.0663504358683
 30
0.0
  0
SPLINE
  5
237
100
AcDbEntity
  8
0
370
              18
  6
Continuous
 62
               7
100
AcDbSpline
210
0.0
220
0.0
230
1.0
 70
               8
 71
               2
 72
              14
 73
              11
 74
               0
 42
0.000001
 43
0.000001
 40
0.0
 40
0.0
 40
0.0
 40
1.0
 40
1.0
 40
2.0
 40
3.0
 40
4.0
 40
5.0
 40
6.0
 40
6.0
 40
7.0
 40
7.0
 40
7.0
 10
9.3912594115747083
 20
-118.08497461260529
 30
0.0
 10
9.402477417120835
 20
-118.07906354745899
 30
0.0
 10
9.4136954226669616
 20
-118.07315248231269
 30
0.0
 10
9.5702254628573939
 20
-117.98351018760847
 30
0.0
 10
9.8560189848955417
 20
-117.72101390448954
 30
0.0
 10
10.041324995314
 20
-117.41417481078818
 30
0.0
 10
10.188135924060333
 20
-117.07494839323583
 30
0.0
 10
10.260821016637038
 20
-116.64142417156988
 30
0.0
 10
10.261570851861734
 20
-116.42621042771252
 30
0.0
 10
10.261242639735329
 20
-116.41096878795514
 30
0.0
 10
10.260914427608924
 20
-116.39572714819778
 30
0.0
  0
LINE
  5
238
100
AcDbEntity
  8
0
370
              18
  6
Continuous
 62
               7
100
AcDbLine
 10
-11.106726981186085
 20
-123.34962386080555
 30
0.0
 11
-11.165223183286088
 21
-120.63315494410556
 31
0.0
  0
LINE
  5
239
100
AcDbEntity
  8
0
370
              18
  6
Continuous
 62
               7
100
AcDbLine
 10
-11.106726981186085
 20
-123.34962386080555
 30
0.0
 11
-11.396190604486094
 21
-123.41777699980555
 31
0.0
  0
SPLINE
  5
23A
100
AcDbEntity
  8
0
370
              18
  6
Continuous
 62
               7
100
AcDbSpline
210
0.0
220
0.0
230
1.0
 70
               8
 71
               2
 72
              15
 73
              12
 74
               0
 42
0.000001
 43
0.000001
 40
0.0
 40
0.0
 40
0.0
 40
1.0
 40
1.0
 40
2.0
 40
3.0
 40
4.0
 40
5.0
 40
6.0
 40
7.0
 40
7.0
 40
8.0
 40
8.0
 40
8.0
 10
-11.696293004843824
 20
-122.99186717429383
 30
0.0
 10
-11.696220668624719
 20
-122.99522635119327
 30
0.0
 10
-11.696148332405613
 20
-122.9985855280927
 30
0.0
 10
-11.69361830387956
 20
-123.07389736245077
 30
0.0
 10
-11.666554803074092
 20
-123.19675458950789
 30
0.0
 10
-11.625133696699322
 20
-123.29363835806275
 30
0.0
 10
-11.569014891662306
 20
-123.3676643591492
 30
0.0
 10
-11.503709232661748
 20
-123.41193232829052
 30
0.0
 10
-11.436099934890393
 20
-123.42564900869051
 30
0.0
 10
-11.400126204081886
 20
-123.41870273063331
 30
0.0
 10
-11.398158108954803
 20
-123.41823935180811
 30
0.0
 10
-11.39619001382772
 20
-123.41777597298291
 30
0.0
  0
LINE
  5
23B
100
AcDbEntity
  8
0
370
              18
  6
Continuous
 62
               7
100
AcDbLine
 10
-11.754807634386083
 20
-120.27453096740554
 30
0.0
 11
-11.696292764886095
 21
-122.99186677060554
 31
0.0
  0
SPLINE
  5
23C
100
AcDbEntity
  8
0
370
              18
  6
Continuous
 62
               7
100
AcDbSpline
210
0.0
220
0.0
230
1.0
 70
               8
 71
               2
 72
              16
 73
              13
 74
               0
 42
0.000001
 43
0.000001
 40
0.0
 40
0.0
 40
0.0
 40
1.0
 40
1.0
 40
2.0
 40
3.0
 40
4.0
 40
5.0
 40
6.0
 40
7.0
 40
8.0
 40
8.0
 40
9.0
 40
9.0
 40
9.0
 10
-11.481033258155861
 20
-119.71358186122839
 30
0.0
 10
-11.48306052707386
 20
-119.7141199150272
 30
0.0
 10
-11.485087795991859
 20
-119.71465796882602
 30
0.0
 10
-11.505579064499841
 20
-119.72105243669742
 30
0.0
 10
-11.55633113948781
 20
-119.74697775086177
 30
0.0
 10
-11.622920600962715
 20
-119.8122400277344
 30
0.0
 10
-11.666457671917357
 20
-119.88246765334939
 30
0.0
 10
-11.705041818565945
 20
-119.96165308109772
 30
0.0
 10
-11.739561454497277
 20
-120.08198991832114
 30
0.0
 10
-11.755386029322466
 20
-120.20406156751777
 30
0.0
 10
-11.754957005061783
 20
-120.26760598726094
 30
0.0
 10
-11.754882434752801
 20
-120.27106891167739
 30
0.0
 10
-11.754807864443819
 20
-120.27453183609383
 30
0.0
  0
LINE
  5
23D
100
AcDbEntity
  8
0
370
              18
  6
Continuous
 62
               7
100
AcDbLine
 10
-11.481033316386089
 20
-119.71358222950555
 30
0.0
 11
-10.027069153886089
 21
-119.32768748300555
 31
0.0
  0
LINE
  5
23E
100
AcDbEntity
  8
0
370
              18
  6
Continuous
 62
               7
100
AcDbLine
 10
-10.005584971286083
 20
-120.32537813950555
 30
0.0
 11
-10.027069153886089
 21
-119.32768748300555
 31
0.0
  0
LINE
  5
23F
100
AcDbEntity
  8
0
370
              18
  6
Continuous
 62
               7
100
AcDbLine
 10
-11.165223183286088
 20
-120.63315494410556
 30
0.0
 11
-10.005584971286083
 21
-120.32537813950555
 31
0.0
  0
LINE
  5
240
100
AcDbEntity
  8
0
370
              18
  6
Continuous
 62
               7
100
AcDbLine
 10
-23.3852777705861
 20
-119.30771217600555
 30
0.0
 11
-11.754807634386083
 21
-120.27453096740554
 31
0.0
  0
SPLINE
  5
241
100
AcDbEntity
  8
0
370
              18
  6
Continuous
 62
               7
100
AcDbSpline
210
0.0
220
0.0
230
1.0
 70
               8
 71
               2
 72
              15
 73
              12
 74
               0
 42
0.000001
 43
0.000001
 40
0.0
 40
0.0
 40
0.0
 40
1.0
 40
1.0
 40
2.0
 40
3.0
 40
4.0
 40
5.0
 40
6.0
 40
7.0
 40
7.0
 40
8.0
 40
8.0
 40
8.0
 10
-23.125654175044758
 20
-118.7455867423471
 30
0.0
 10
-23.127580508061342
 20
-118.74613318675482
 30
0.0
 10
-23.129506841077927
 20
-118.74667963116254
 30
0.0
 10
-23.180953899990897
 20
-118.76312069172725
 30
0.0
 10
-23.260412044446383
 20
-118.84483756837422
 30
0.0
 10
-23.301718895167312
 20
-118.91525058794197
 30
0.0
 10
-23.338308472287963
 20
-118.99460182044952
 30
0.0
 10
-23.370990887091068
 20
-119.11509138235986
 30
0.0
 10
-23.385901912092095
 20
-119.23723897321032
 30
0.0
 10
-23.385426384928536
 20
-119.30078725865106
 30
0.0
 10
-23.385351814619597
 20
-119.3042501830675
 30
0.0
 10
-23.385277244310657
 20
-119.30771310748395
 30
0.0
  0
LINE
  5
242
100
AcDbEntity
  8
0
370
              18
  6
Continuous
 62
               7
100
AcDbLine
 10
-23.125652579486086
 20
-118.74558724810555
 30
0.0
 11
-11.481033316386089
 21
-119.71358222950555
 31
0.0
  0
LINE
  5
243
100
AcDbEntity
  8
0
370
              18
  6
Continuous
 62
               7
100
AcDbLine
 10
-23.326762901086084
 20
-122.02504797910555
 30
0.0
 11
-11.696292764886095
 21
-122.99186677060554
 31
0.0
  0
LINE
  5
244
100
AcDbEntity
  8
0
370
              18
  6
Continuous
 62
               7
100
AcDbLine
 10
-23.326762901086084
 20
-122.02504797910555
 30
0.0
 11
-23.3852777705861
 21
-119.30771217600555
 31
0.0
  0
LINE
  5
245
100
AcDbEntity
  8
0
370
              18
  6
Continuous
 62
               7
100
AcDbLine
 10
-21.744083194886088
 20
-118.35367446180554
 30
0.0
 11
-23.125652579486086
 21
-118.74558724810555
 31
0.0
  0
LINE
  5
246
100
AcDbEntity
  8
0
370
              18
  6
Continuous
 62
               7
100
AcDbLine
 10
-21.744083194886088
 20
-118.35367446180554
 30
0.0
 11
-10.027069153886089
 21
-119.32768748300555
 31
0.0
  0
SPLINE
  5
247
100
AcDbEntity
  8
0
370
              18
  6
Continuous
 62
               7
100
AcDbSpline
210
0.0
220
0.0
230
1.0
 70
               8
 71
               2
 72
              16
 73
              13
 74
               0
 42
0.000001
 43
0.000001
 40
0.0
 40
0.0
 40
0.0
 40
1.0
 40
1.0
 40
2.0
 40
3.0
 40
4.0
 40
5.0
 40
6.0
 40
7.0
 40
8.0
 40
8.0
 40
9.0
 40
9.0
 40
9.0
 10
-23.326762384710662
 20
-122.02504844578394
 30
0.0
 10
-23.32669945373523
 20
-122.0279708583961
 30
0.0
 10
-23.326636522759799
 20
-122.03089327100827
 30
0.0
 10
-23.325234124833088
 20
-122.07211411698493
 30
0.0
 10
-23.315317370309771
 20
-122.15554653373468
 30
0.0
 10
-23.292208016632827
 20
-122.24671275086071
 30
0.0
 10
-23.257681316795271
 20
-122.32682527262664
 30
0.0
 10
-23.213736650872164
 20
-122.38995087220094
 30
0.0
 10
-23.163604746536777
 20
-122.43242121426171
 30
0.0
 10
-23.11771366043385
 20
-122.45097673987389
 30
0.0
 10
-23.095020660324565
 20
-122.45382177798261
 30
0.0
 10
-23.093409804409561
 20
-122.45395568536131
 30
0.0
 10
-23.091798948494556
 20
-122.45408959273999
 30
0.0
  0
LINE
  5
248
100
AcDbEntity
  8
0
370
              18
  6
Continuous
 62
               7
100
AcDbLine
 10
-10.027069153886089
 20
-119.32768748300555
 30
0.0
 11
-9.0484247943860794
 21
-119.40904032130554
 31
0.0
  0
LINE
  5
249
100
AcDbEntity
  8
0
370
              18
  6
Continuous
 62
               7
100
AcDbLine
 10
-22.816736407086097
 20
-118.26450684690555
 30
0.0
 11
-21.744083194886088
 21
-118.35367446180554
 31
0.0
  0
LINE
  5
24A
100
AcDbEntity
  8
0
370
              18
  6
Continuous
 62
               7
100
AcDbLine
 10
-18.51099522978609
 20
-116.31080965170555
 30
0.0
 11
-22.816736407086097
 21
-118.26450684690555
 31
0.0
  0
LINE
  5
24B
100
AcDbEntity
  8
0
370
              18
  6
Continuous
 62
               7
100
AcDbLine
 10
-10.005584971286083
 20
-120.32537813950555
 30
0.0
 11
-10.001328711686085
 21
-120.52303194300555
 31
0.0
  0
LINE
  5
24C
100
AcDbEntity
  8
0
370
              18
  6
Continuous
 62
               7
100
AcDbLine
 10
-22.816736407086097
 20
-118.26450684690555
 30
0.0
 11
-22.808315362386082
 21
-118.65556652600556
 31
0.0
  0
POLYLINE
  5
24D
100
AcDbEntity
  8
0
370
              18
  6
Continuous
 62
               7
100
AcDb2dPolyline
 66
               1
 10
0.0
 20
0.0
 30
0.0
 75
               5
  0
VERTEX
  5
24E
100
AcDbEntity
  8
0
370
              18
  6
Continuous
 62
               7
100
AcDbVertex
100
AcDb2dVertex
 10
-26.55092951948609
 20
45.775305879494439
 30
0.0
  0
VERTEX
  5
24F
100
AcDbEntity
  8
0
370
              18
  6
Continuous
 62
               7
100
AcDbVertex
100
AcDb2dVertex
 10
-26.499962258486079
 20
46.838513633694461
 30
0.0
  0
VERTEX
  5
250
100
AcDbEntity
  8
0
370
              18
  6
Continuous
 62
               7
100
AcDbVertex
100
AcDb2dVertex
 10
-26.302400026486083
 20
47.860418827294453
 30
0.0
  0
VERTEX
  5
251
100
AcDbEntity
  8
0
370
              18
  6
Continuous
 62
               7
100
AcDbVertex
100
AcDb2dVertex
 10
-25.963625604086104
 20
48.813131505494439
 30
0.0
  0
VERTEX
  5
252
100
AcDbEntity
  8
0
370
              18
  6
Continuous
 62
               7
100
AcDbVertex
100
AcDb2dVertex
 10
-25.492883645486103
 20
49.670699504594452
 30
0.0
  0
VERTEX
  5
253
100
AcDbEntity
  8
0
370
              18
  6
Continuous
 62
               7
100
AcDbVertex
100
AcDb2dVertex
 10
-24.903013954486084
 20
50.409688891394453
 30
0.0
  0
VERTEX
  5
254
100
AcDbEntity
  8
0
370
              18
  6
Continuous
 62
               7
100
AcDbVertex
100
AcDb2dVertex
 10
-24.210106520486107
 20
51.009978364694447
 30
0.0
  0
VERTEX
  5
255
100
AcDbEntity
  8
0
370
              18
  6
Continuous
 62
               7
100
AcDbVertex
100
AcDb2dVertex
 10
-23.433065633786072
 20
51.455178654594462
 30
0.0
  0
VERTEX
  5
256
100
AcDbEntity
  8
0
370
              18
  6
Continuous
 62
               7
100
AcDbVertex
100
AcDb2dVertex
 10
-22.593080611886108
 20
51.733132344094443
 30
0.0
  0
VERTEX
  5
257
100
AcDbEntity
  8
0
370
              18
  6
Continuous
 62
               7
100
AcDbVertex
100
AcDb2dVertex
 10
-21.713066007186086
 20
51.836278873894443
 30
0.0
  0
VERTEX
  5
258
100
AcDbEntity
  8
0
370
              18
  6
Continuous
 62
               7
100
AcDbVertex
100
AcDb2dVertex
 10
-20.817029433286081
 20
51.761793063194446
 30
0.0
  0
VERTEX
  5
259
100
AcDbEntity
  8
0
370
              18
  6
Continuous
 62
               7
100
AcDbVertex
100
AcDb2dVertex
 10
-19.929411408886097
 20
51.511706605494439
 30
0.0
  0
VERTEX
  5
25A
100
AcDbEntity
  8
0
370
              18
  6
Continuous
 62
               7
100
AcDbVertex
100
AcDb2dVertex
 10
-19.074421397486077
 20
51.09285287559446
 30
0.0
  0
VERTEX
  5
25B
100
AcDbEntity
  8
0
370
              18
  6
Continuous
 62
               7
100
AcDbVertex
100
AcDb2dVertex
 10
-18.875930201086106
 20
50.967882699394451
 30
0.0
  0
SEQEND
  5
25C
100
AcDbEntity
  8
0
370
              18
  6
Continuous
 62
               7
  0
POLYLINE
  5
25D
100
AcDbEntity
  8
0
370
              18
  6
Continuous
 62
               7
100
AcDb2dPolyline
 66
               1
 10
0.0
 20
0.0
 30
0.0
 75
               5
  0
VERTEX
  5
25E
100
AcDbEntity
  8
0
370
              18
  6
Continuous
 62
               7
100
AcDbVertex
100
AcDb2dVertex
 10
-16.532647807786105
 20
41.347430837794448
 30
0.0
  0
VERTEX
  5
25F
100
AcDbEntity
  8
0
370
              18
  6
Continuous
 62
               7
100
AcDbVertex
100
AcDb2dVertex
 10
-16.758362529186087
 20
40.977921509994459
 30
0.0
  0
VERTEX
  5
260
100
AcDbEntity
  8
0
370
              18
  6
Continuous
 62
               7
100
AcDbVertex
100
AcDb2dVertex
 10
-17.348232220286093
 20
40.238932123294447
 30
0.0
  0
VERTEX
  5
261
100
AcDbEntity
  8
0
370
              18
  6
Continuous
 62
               7
100
AcDbVertex
100
AcDb2dVertex
 10
-18.04113965428607
 20
39.638642649894464
 30
0.0
  0
VERTEX
  5
262
100
AcDbEntity
  8
0
370
              18
  6
Continuous
 62
               7
100
AcDbVertex
100
AcDb2dVertex
 10
-18.818180857986107
 20
39.193457084194463
 30
0.0
  0
VERTEX
  5
263
100
AcDbEntity
  8
0
370
              18
  6
Continuous
 62
               7
100
AcDbVertex
100
AcDb2dVertex
 10
-19.658165562886097
 20
38.91548867049444
 30
0.0
  0
VERTEX
  5
264
100
AcDbEntity
  8
0
370
              18
  6
Continuous
 62
               7
100
AcDbVertex
100
AcDb2dVertex
 10
-20.538177093686073
 20
38.812341885194442
 30
0.0
  0
VERTEX
  5
265
100
AcDbEntity
  8
0
370
              18
  6
Continuous
 62
               7
100
AcDbVertex
100
AcDb2dVertex
 10
-21.434213667586079
 20
38.886827695894439
 30
0.0
  0
VERTEX
  5
266
100
AcDbEntity
  8
0
370
              18
  6
Continuous
 62
               7
100
AcDbVertex
100
AcDb2dVertex
 10
-22.321834765786093
 20
39.136914409094445
 30
0.0
  0
VERTEX
  5
267
100
AcDbEntity
  8
0
370
              18
  6
Continuous
 62
               7
100
AcDbVertex
100
AcDb2dVertex
 10
-23.176825094286102
 20
39.555782863194466
 30
0.0
  0
VERTEX
  5
268
100
AcDbEntity
  8
0
370
              18
  6
Continuous
 62
               7
100
AcDbVertex
100
AcDb2dVertex
 10
-23.975860764086093
 20
40.131984692294466
 30
0.0
  0
VERTEX
  5
269
100
AcDbEntity
  8
0
370
              18
  6
Continuous
 62
               7
100
AcDbVertex
100
AcDb2dVertex
 10
-24.697152879686087
 20
40.849833875894447
 30
0.0
  0
VERTEX
  5
26A
100
AcDbEntity
  8
0
370
              18
  6
Continuous
 62
               7
100
AcDbVertex
100
AcDb2dVertex
 10
-25.321021916186083
 20
41.689719047194458
 30
0.0
  0
VERTEX
  5
26B
100
AcDbEntity
  8
0
370
              18
  6
Continuous
 62
               7
100
AcDbVertex
100
AcDb2dVertex
 10
-25.830452041686073
 20
42.628766881594444
 30
0.0
  0
VERTEX
  5
26C
100
AcDbEntity
  8
0
370
              18
  6
Continuous
 62
               7
100
AcDbVertex
100
AcDb2dVertex
 10
-26.211546343286074
 20
43.641320873294447
 30
0.0
  0
VERTEX
  5
26D
100
AcDbEntity
  8
0
370
              18
  6
Continuous
 62
               7
100
AcDbVertex
100
AcDb2dVertex
 10
-26.453907302486101
 20
44.699796042394453
 30
0.0
  0
VERTEX
  5
26E
100
AcDbEntity
  8
0
370
              18
  6
Continuous
 62
               7
100
AcDbVertex
100
AcDb2dVertex
 10
-26.55092951948609
 20
45.775305879494439
 30
0.0
  0
SEQEND
  5
26F
100
AcDbEntity
  8
0
370
              18
  6
Continuous
 62
               7
  0
LINE
  5
270
100
AcDbEntity
  8
0
370
              18
  6
Continuous
 62
               7
100
AcDbLine
 10
10.264403736513913
 20
-116.55771888120555
 30
0.0
 11
42.198989376913914
 21
-108.69884644800554
 31
0.0
  0
LINE
  5
271
100
AcDbEntity
  8
0
370
              18
  6
Continuous
 62
               7
100
AcDbLine
 10
6.4990792321138997
 20
58.297854902194459
 30
0.0
 11
10.264403736513913
 21
-116.55771888120555
 31
0.0
  0
SPLINE
  5
272
100
AcDbEntity
  8
0
370
              18
  6
Continuous
 62
               7
100
AcDbSpline
210
0.0
220
0.0
230
1.0
 70
               8
 71
               2
 72
              14
 73
              11
 74
               0
 42
0.000001
 43
0.000001
 40
0.0
 40
0.0
 40
0.0
 40
1.0
 40
1.0
 40
2.0
 40
3.0
 40
4.0
 40
5.0
 40
6.0
 40
6.0
 40
7.0
 40
7.0
 40
7.0
 10
9.4903016681974748
 20
-118.19172117151203
 30
0.0
 10
9.4999326633033263
 20
-118.18561357905
 30
0.0
 10
9.5095636584091778
 20
-118.17950598658796
 30
0.0
 10
9.6435414768180863
 20
-118.08857547600938
 30
0.0
 10
9.8867032183630386
 20
-117.84275006343861
 30
0.0
 10
10.101447589241928
 20
-117.4766717717272
 30
0.0
 10
10.200116710716827
 20
-117.1603823647834
 30
0.0
 10
10.264901596478694
 20
-116.83211536143568
 30
0.0
 10
10.264988615038476
 20
-116.58492581928219
 30
0.0
 10
10.264695677602703
 20
-116.57132227904839
 30
0.0
 10
10.264402740166929
 20
-116.55771873881459
 30
0.0
  0
LINE
  5
273
100
AcDbEntity
  8
0
370
              18
  6
Continuous
 62
               7
100
AcDbLine
 10
9.4868117007139006
 20
-118.02961228170555
 30
0.0
 11
9.4903025152139264
 21
-118.19172005750555
 31
0.0
  0
LINE
  5
274
100
AcDbEntity
  8
0
370
              18
  6
Continuous
 62
               7
100
AcDbLine
 10
9.2168572906139161
 20
-118.25891724090555
 30
0.0
 11
8.9263948191139093
 21
-118.23477164980555
 31
0.0
  0
ARC
  5
275
100
AcDbEntity
  8
0
370
              18
  6
Continuous
 62
               7
100
AcDbCircle
 10
-5.5417735248861106
 20
-117.88899969430555
 30
0.0
 40
1.0045716385513948
100
AcDbArc
 50
145.50596300429862
 51
180.65527343499983
  0
LINE
  5
276
100
AcDbEntity
  8
0
370
              18
  6
Continuous
 62
               7
100
AcDbLine
 10
-6.5417323333860793
 20
-117.30579170420555
 30
0.0
 11
-6.5462794663860961
 21
-117.90048840720554
 31
0.0
  0
SPLINE
  5
277
100
AcDbEntity
  8
0
370
              18
  6
Continuous
 62
               7
100
AcDbSpline
210
0.0
220
0.0
230
1.0
 70
               8
 71
               2
 72
              12
 73
               9
 74
               0
 42
0.000001
 43
0.000001
 40
0.0
 40
0.0
 40
0.0
 40
1.0
 40
1.0
 40
2.0
 40
3.0
 40
4.0
 40
4.0
 40
5.0
 40
5.0
 40
5.0
 10
9.2168574493623794
 20
-118.25891655780934
 30
0.0
 10
9.2215264494249425
 20
-118.25930468287615
 30
0.0
 10
9.2261954494875056
 20
-118.25969280794295
 30
0.0
 10
9.3480101521834911
 20
-118.26822249136798
 30
0.0
 10
9.6103526947135833
 20
-118.24302731761516
 30
0.0
 10
9.895963854409132
 20
-118.14765984671952
 30
0.0
 10
10.032624365042381
 20
-118.06504718623081
 30
0.0
 10
10.036600221649053
 20
-118.0625724748964
 30
0.0
 10
10.040576078255725
 20
-118.06009776356198
 30
0.0
  0
SPLINE
  5
278
100
AcDbEntity
  8
0
370
              18
  6
Continuous
 62
               7
100
AcDbSpline
210
0.0
220
0.0
230
1.0
 70
               8
 71
               2
 72
              17
 73
              14
 74
               0
 42
0.000001
 43
0.000001
 40
0.0
 40
0.0
 40
0.0
 40
1.0
 40
1.0
 40
2.0
 40
3.0
 40
4.0
 40
5.0
 40
6.0
 40
7.0
 40
8.0
 40
9.0
 40
9.0
 40
10.0
 40
10.0
 40
10.0
 10
41.021417105238584
 20
-110.5
 30
0.0
 10
41.023788462463386
 20
-110.49927563516721
 30
0.0
 10
41.026159819688189
 20
-110.49855127033443
 30
0.0
 10
41.135806310357935
 20
-110.46672324962636
 30
0.0
 10
41.32222146739133
 20
-110.39530842007765
 30
0.0
 10
41.509984191802033
 20
-110.28275370903152
 30
0.0
 10
41.754059059832628
 20
-110.0635574830463
 30
0.0
 10
41.990602339054448
 20
-109.71838804390894
 30
0.0
 10
42.116018886694093
 20
-109.38424529715246
 30
0.0
 10
42.169475418008631
 20
-109.11079571429723
 30
0.0
 10
42.191466288827172
 20
-108.8431492642719
 30
0.0
 10
42.198493133696644
 20
-108.70785577364718
 30
0.0
 10
42.198741255324194
 20
-108.7033511108223
 30
0.0
 10
42.198989376951744
 20
-108.69884644799743
 30
0.0
  0
SPLINE
  5
279
100
AcDbEntity
  8
0
370
              18
  6
Continuous
 62
               7
100
AcDbSpline
210
0.0
220
0.0
230
1.0
 70
               8
 71
               2
 72
              10
 73
               7
 74
               0
 42
0.000001
 43
0.000001
 40
0.0
 40
0.0
 40
0.0
 40
1.0
 40
1.0
 40
2.0
 40
2.0
 40
3.0
 40
3.0
 40
3.0
 10
9.4903016680976293
 20
-118.19172117098822
 30
0.0
 10
9.4929417168350625
 20
-118.19108995960298
 30
0.0
 10
9.4955817655724957
 20
-118.19045874821772
 30
0.0
 10
9.7648902263296407
 20
-118.12606847945314
 30
0.0
 10
10.035274041742582
 20
-118.0613665437706
 30
0.0
 10
10.037925059933542
 20
-118.06073215339755
 30
0.0
 10
10.040576078124502
 20
-118.0600977630245
 30
0.0
  0
LINE
  5
27A
100
AcDbEntity
  8
0
370
              18
  6
Continuous
 62
               7
100
AcDbLine
 10
0.0325452472139034
 20
-120.79425510700555
 30
0.0
 11
-7.5968655975860884
 21
-122.65257515030554
 31
0.0
  0
LINE
  5
27B
100
AcDbEntity
  8
0
370
              18
  6
Continuous
 62
               7
100
AcDbLine
 10
-7.5968655975860884
 20
-122.65257515030554
 30
0.0
 11
-7.5553409553860718
 21
-117.22153395250554
 31
0.0
  0
ARC
  5
27C
100
AcDbEntity
  8
0
370
              18
  6
Continuous
 62
               7
100
AcDbCircle
 10
-8.3996370165860696
 20
-122.73106409470554
 30
0.0
 40
0.8065993216301213
100
AcDbArc
 50
269.90547055489924
 51
5.5842010389001757
  0
LINE
  5
27D
100
AcDbEntity
  8
0
370
              18
  6
Continuous
 62
               7
100
AcDbLine
 10
-11.107522397386077
 20
-123.31267159770555
 30
0.0
 11
-8.4009677839860899
 21
-123.53766231860554
 31
0.0
  0
LINE
  5
27E
100
AcDbEntity
  8
0
370
              18
  6
Continuous
 62
               7
100
AcDbLine
 10
-9.0148364742860849
 20
-120.96888336880555
 30
0.0
 11
-11.1618366133861
 21
-120.79040734370555
 31
0.0
  0
LINE
  5
27F
100
AcDbEntity
  8
0
370
              18
  6
Continuous
 62
               7
100
AcDbLine
 10
-9.0982935638860738
 20
-117.09327124610554
 30
0.0
 11
-9.0148364742860849
 21
-120.96888336880555
 31
0.0
  0
LINE
  5
280
100
AcDbEntity
  8
0
370
              18
  6
Continuous
 62
               7
100
AcDbLine
 10
-23.37521358478611
 20
-119.77513261930555
 30
0.0
 11
-24.740710382486071
 21
-119.66162147580555
 31
0.0
  0
LINE
  5
281
100
AcDbEntity
  8
0
370
              18
  6
Continuous
 62
               7
100
AcDbLine
 10
-23.421610718986102
 20
-119.30572651890556
 30
0.0
 11
-24.740710382486071
 21
-119.66162147580555
 31
0.0
  0
SPLINE
  5
282
100
AcDbEntity
  8
0
370
              18
  6
Continuous
 62
               7
100
AcDbSpline
210
0.0
220
0.0
230
1.0
 70
               8
 71
               2
 72
              15
 73
              12
 74
               0
 42
0.000001
 43
0.000001
 40
0.0
 40
0.0
 40
0.0
 40
1.0
 40
1.0
 40
2.0
 40
3.0
 40
4.0
 40
5.0
 40
6.0
 40
7.0
 40
7.0
 40
8.0
 40
8.0
 40
8.0
 10
-23.421609819494762
 20
-119.30572636947427
 30
0.0
 10
-23.422782110107079
 20
-119.30604265529766
 30
0.0
 10
-23.423954400719396
 20
-119.30635894112105
 30
0.0
 10
-23.463713983007409
 20
-119.31734190130028
 30
0.0
 10
-23.497221551859099
 20
-119.33513116549882
 30
0.0
 10
-23.516216229335782
 20
-119.35349178547902
 30
0.0
 10
-23.504121860295101
 20
-119.37109606699467
 30
0.0
 10
-23.486105619893777
 20
-119.38201676590849
 30
0.0
 10
-23.452306350685291
 20
-119.39435942304534
 30
0.0
 10
-23.42192044832052
 20
-119.40081239748874
 30
0.0
 10
-23.420736125790327
 20
-119.40105485445203
 30
0.0
 10
-23.419551803260134
 20
-119.40129731141532
 30
0.0
  0
SPLINE
  5
283
100
AcDbEntity
  8
0
370
              18
  6
Continuous
 62
               7
100
AcDbSpline
210
0.0
220
0.0
230
1.0
 70
               8
 71
               2
 72
              10
 73
               7
 74
               0
 42
0.000001
 43
0.000001
 40
0.0
 40
0.0
 40
0.0
 40
1.0
 40
1.0
 40
2.0
 40
2.0
 40
3.0
 40
3.0
 40
3.0
 10
-10.566833089781113
 20
-120.47433717684913
 30
0.0
 10
-10.566677332667652
 20
-120.4743581967
 30
0.0
 10
-10.566521575554191
 20
-120.47437921655087
 30
0.0
 10
-10.534217935196921
 20
-120.47871663600132
 30
0.0
 10
-10.496777655024886
 20
-120.48184680343478
 30
0.0
 10
-10.496596281524489
 20
-120.48186188066779
 30
0.0
 10
-10.496414908024093
 20
-120.48187695790081
 30
0.0
  0
LINE
  5
284
100
AcDbEntity
  8
0
370
              18
  6
Continuous
 62
               7
100
AcDbLine
 10
-9.0226843521860758
 20
-120.60438478140556
 30
0.0
 11
-10.496414439786093
 21
-120.48187641110555
 31
0.0
  0
LINE
  5
285
100
AcDbEntity
  8
0
370
              18
  6
Continuous
 62
               7
100
AcDbLine
 10
-24.740710382486071
 20
-119.66162147580555
 30
0.0
 11
-24.824167472086089
 21
-115.78600935310554
 31
0.0
  0
ARC
  5
286
100
AcDbEntity
  8
0
370
              18
  6
Continuous
 62
               7
100
AcDbCircle
 10
-25.059035871086081
 20
-121.12232426450555
 30
0.0
 40
1.0321127651992821
100
AcDbArc
 50
179.60354879800028
 51
259.56629660679818
  0
LINE
  5
287
100
AcDbEntity
  8
0
370
              18
  6
Continuous
 62
               7
100
AcDbLine
 10
-26.367120080586091
 20
-115.65774664670555
 30
0.0
 11
-26.091123928786089
 21
-121.11518274230555
 31
0.0
  0
LINE
  5
288
100
AcDbEntity
  8
0
370
              18
  6
Continuous
 62
               7
100
AcDbLine
 10
-25.24594910388609
 20
-122.13737116170554
 30
0.0
 11
-23.268179039486085
 21
-122.30177941360556
 31
0.0
  0
LINE
  5
289
100
AcDbEntity
  8
0
370
              18
  6
Continuous
 62
               8
100
AcDbLine
 10
-48.62721021928607
 20
93.358649375594453
 30
0.0
 11
-31.996964498286076
 21
97.409331607394464
 31
0.0
  0
LINE
  5
28A
100
AcDbEntity
  8
0
370
              18
  6
Continuous
 62
               8
100
AcDbLine
 10
-23.940486185086087
 20
99.37167384229447
 30
0.0
 11
-15.095843924486104
 21
101.52599169499446
 31
0.0
  0
LINE
  5
28B
100
AcDbEntity
  8
0
370
              18
  6
Continuous
 62
               8
100
AcDbLine
 10
-15.095843924486104
 20
101.52599169499446
 30
0.0
 11
13.324680147513902
 21
99.163447755294456
 31
0.0
  0
LINE
  5
28C
100
AcDbEntity
  8
0
370
              18
  6
Continuous
 62
               8
100
AcDbLine
 10
22.619165700113911
 20
98.390814905194432
 30
0.0
 11
39.338629040713897
 21
97.000957818494456
 31
0.0
  0
POLYLINE
  5
28D
100
AcDbEntity
  8
0
370
              18
  6
Continuous
 62
               8
100
AcDb2dPolyline
 66
               1
 10
0.0
 20
0.0
 30
0.0
 75
               5
  0
VERTEX
  5
28E
100
AcDbEntity
  8
0
370
              18
  6
Continuous
 62
               8
100
AcDbVertex
100
AcDb2dVertex
 10
17.369916933513906
 20
103.12486384909444
 30
0.0
  0
VERTEX
  5
28F
100
AcDbEntity
  8
0
370
              18
  6
Continuous
 62
               8
100
AcDbVertex
100
AcDb2dVertex
 10
17.399078189513915
 20
103.13059702489444
 30
0.0
  0
VERTEX
  5
290
100
AcDbEntity
  8
0
370
              18
  6
Continuous
 62
               8
100
AcDbVertex
100
AcDb2dVertex
 10
17.477604559013912
 20
103.13313783839443
 30
0.0
  0
SEQEND
  5
291
100
AcDbEntity
  8
0
370
              18
  6
Continuous
 62
               8
  0
LINE
  5
292
100
AcDbEntity
  8
0
370
              18
  6
Continuous
 62
               8
100
AcDbLine
 10
20.170866792113912
 20
103.07167795839446
 30
0.0
 11
19.708243232413906
 21
103.11438654649443
 31
0.0
  0
POLYLINE
  5
293
100
AcDbEntity
  8
0
370
              18
  6
Continuous
 62
               8
100
AcDb2dPolyline
 66
               1
 10
0.0
 20
0.0
 30
0.0
 75
               5
  0
VERTEX
  5
294
100
AcDbEntity
  8
0
370
              18
  6
Continuous
 62
               8
100
AcDbVertex
100
AcDb2dVertex
 10
22.502280745313925
 20
99.219950827494429
 30
0.0
  0
VERTEX
  5
295
100
AcDbEntity
  8
0
370
              18
  6
Continuous
 62
               8
100
AcDbVertex
100
AcDb2dVertex
 10
22.549392942613906
 20
99.234787348794455
 30
0.0
  0
VERTEX
  5
296
100
AcDbEntity
  8
0
370
              18
  6
Continuous
 62
               8
100
AcDbVertex
100
AcDb2dVertex
 10
22.578847245013918
 20
99.250195129694433
 30
0.0
  0
VERTEX
  5
297
100
AcDbEntity
  8
0
370
              18
  6
Continuous
 62
               8
100
AcDbVertex
100
AcDb2dVertex
 10
22.589509066013903
 20
99.265603069394459
 30
0.0
  0
VERTEX
  5
298
100
AcDbEntity
  8
0
370
              18
  6
Continuous
 62
               8
100
AcDbVertex
100
AcDb2dVertex
 10
22.589536944013901
 20
99.266658405494425
 30
0.0
  0
SEQEND
  5
299
100
AcDbEntity
  8
0
370
              18
  6
Continuous
 62
               8
  0
ARC
  5
29A
100
AcDbEntity
  8
0
370
              18
  6
Continuous
 62
               8
100
AcDbCircle
 10
-49.237270733686074
 20
92.845281572194452
 30
0.0
 40
0.5987057711435236
100
AcDbArc
 50
231.99291990799895
 51
276.37982593129999
  0
ARC
  5
29B
100
AcDbEntity
  8
0
370
              18
  6
Continuous
 62
               8
100
AcDbCircle
 10
-49.251129635986075
 20
80.527053404294449
 30
0.0
 40
0.6792436366973698
100
AcDbArc
 50
234.73862980199766
 51
273.63411603719896
  0
POLYLINE
  5
29C
100
AcDbEntity
  8
0
370
              18
  6
Continuous
 62
               8
100
AcDb2dPolyline
 66
               1
 10
0.0
 20
0.0
 30
0.0
 75
               5
  0
VERTEX
  5
29D
100
AcDbEntity
  8
0
370
              18
  6
Continuous
 62
               8
100
AcDbVertex
100
AcDb2dVertex
 10
-48.841994659686094
 20
93.342272751394447
 30
0.0
  0
VERTEX
  5
29E
100
AcDbEntity
  8
0
370
              18
  6
Continuous
 62
               8
100
AcDbVertex
100
AcDb2dVertex
 10
-48.786019580186093
 20
93.353316931694465
 30
0.0
  0
VERTEX
  5
29F
100
AcDbEntity
  8
0
370
              18
  6
Continuous
 62
               8
100
AcDbVertex
100
AcDb2dVertex
 10
-48.62721021928607
 20
93.358649375594453
 30
0.0
  0
SEQEND
  5
2A0
100
AcDbEntity
  8
0
370
              18
  6
Continuous
 62
               8
  0
ARC
  5
2A1
100
AcDbEntity
  8
0
370
              18
  6
Continuous
 62
               8
100
AcDbCircle
 10
-50.251823868386083
 20
78.278271569194445
 30
0.0
 40
0.5986366943449681
100
AcDbArc
 50
231.99022271300035
 51
276.38252312629879
  0
SPLINE
  5
2A2
100
AcDbEntity
  8
0
370
              18
  6
Continuous
 62
               8
100
AcDbSpline
210
0.0
220
0.0
230
1.0
 70
               8
 71
               2
 72
              14
 73
              11
 74
               0
 42
0.000001
 43
0.000001
 40
0.0
 40
0.0
 40
0.0
 40
1.0
 40
1.0
 40
2.0
 40
3.0
 40
4.0
 40
5.0
 40
6.0
 40
6.0
 40
7.0
 40
7.0
 40
7.0
 10
-50.03469782069331
 20
78.708665962592747
 30
0.0
 10
-50.034240897660254
 20
78.70887098231222
 30
0.0
 10
-50.033783974627198
 20
78.709076002031694
 30
0.0
 10
-50.005522459879074
 20
78.722008997392393
 30
0.0
 10
-49.962978735494033
 20
78.739210936561747
 30
0.0
 10
-49.910417412045746
 20
78.756978429966338
 30
0.0
 10
-49.844239282155087
 20
78.765748446642377
 30
0.0
 10
-49.766120988839958
 20
78.768787287269518
 30
0.0
 10
-49.712447005787823
 20
78.767464897424233
 30
0.0
 10
-49.711583332676042
 20
78.767450237764649
 30
0.0
 10
-49.710719659564262
 20
78.767435578105065
 30
0.0
  0
POLYLINE
  5
2A3
100
AcDbEntity
  8
0
370
              18
  6
Continuous
 62
               8
100
AcDb2dPolyline
 66
               1
 10
0.0
 20
0.0
 30
0.0
 75
               5
  0
VERTEX
  5
2A4
100
AcDbEntity
  8
0
370
              18
  6
Continuous
 62
               8
100
AcDbVertex
100
AcDb2dVertex
 10
-15.095843924486104
 20
101.52599169499446
 30
0.0
  0
VERTEX
  5
2A5
100
AcDbEntity
  8
0
370
              18
  6
Continuous
 62
               8
100
AcDbVertex
100
AcDb2dVertex
 10
-15.25465328538607
 20
101.52065925119446
 30
0.0
  0
VERTEX
  5
2A6
100
AcDbEntity
  8
0
370
              18
  6
Continuous
 62
               8
100
AcDbVertex
100
AcDb2dVertex
 10
-15.311220261086106
 20
101.50945850439446
 30
0.0
  0
SEQEND
  5
2A7
100
AcDbEntity
  8
0
370
              18
  6
Continuous
 62
               8
  0
POLYLINE
  5
2A8
100
AcDbEntity
  8
0
370
              18
  6
Continuous
 62
               8
100
AcDb2dPolyline
 66
               1
 10
0.0
 20
0.0
 30
0.0
 75
               5
  0
VERTEX
  5
2A9
100
AcDbEntity
  8
0
370
              18
  6
Continuous
 62
               8
100
AcDbVertex
100
AcDb2dVertex
 10
40.184552073113906
 20
95.96149236919446
 30
0.0
  0
VERTEX
  5
2AA
100
AcDbEntity
  8
0
370
              18
  6
Continuous
 62
               8
100
AcDbVertex
100
AcDb2dVertex
 10
40.278686857213899
 20
95.99266321519444
 30
0.0
  0
VERTEX
  5
2AB
100
AcDbEntity
  8
0
370
              18
  6
Continuous
 62
               8
100
AcDbVertex
100
AcDb2dVertex
 10
40.337527257113919
 20
96.024607333694448
 30
0.0
  0
VERTEX
  5
2AC
100
AcDbEntity
  8
0
370
              18
  6
Continuous
 62
               8
100
AcDbVertex
100
AcDb2dVertex
 10
40.358812484113912
 20
96.056110527194463
 30
0.0
  0
VERTEX
  5
2AD
100
AcDbEntity
  8
0
370
              18
  6
Continuous
 62
               8
100
AcDbVertex
100
AcDb2dVertex
 10
40.358844592613906
 20
96.058924151594468
 30
0.0
  0
SEQEND
  5
2AE
100
AcDbEntity
  8
0
370
              18
  6
Continuous
 62
               8
  0
LINE
  5
2AF
100
AcDbEntity
  8
0
370
              18
  6
Continuous
 62
               8
100
AcDbLine
 10
39.338629040713897
 20
97.000957818494456
 30
0.0
 11
39.444103159013906
 21
97.009286425894473
 31
0.0
  0
LINE
  5
2B0
100
AcDbEntity
  8
0
370
              18
  6
Continuous
 62
               8
100
AcDbLine
 10
-26.536572102986071
 20
106.48190319049446
 30
0.0
 11
-26.695258235986074
 21
106.49584657499447
 31
0.0
  0
LINE
  5
2B1
100
AcDbEntity
  8
0
370
              18
  6
Continuous
 62
               8
100
AcDbLine
 10
-23.933136291286104
 20
97.625292072994469
 30
0.0
 11
-24.104592957486091
 21
100.70830084479446
 31
0.0
  0
POLYLINE
  5
2B2
100
AcDbEntity
  8
0
370
              18
  6
Continuous
 62
               8
100
AcDb2dPolyline
 66
               1
 10
0.0
 20
0.0
 30
0.0
 75
               5
  0
VERTEX
  5
2B3
100
AcDbEntity
  8
0
370
              18
  6
Continuous
 62
               8
100
AcDbVertex
100
AcDb2dVertex
 10
-29.456171377086093
 20
107.01742722599444
 30
0.0
  0
VERTEX
  5
2B4
100
AcDbEntity
  8
0
370
              18
  6
Continuous
 62
               8
100
AcDbVertex
100
AcDb2dVertex
 10
-29.428331384186095
 20
107.02296158149444
 30
0.0
  0
VERTEX
  5
2B5
100
AcDbEntity
  8
0
370
              18
  6
Continuous
 62
               8
100
AcDbVertex
100
AcDb2dVertex
 10
-29.348483367386081
 20
107.02570118339447
 30
0.0
  0
SEQEND
  5
2B6
100
AcDbEntity
  8
0
370
              18
  6
Continuous
 62
               8
  0
LINE
  5
2B7
100
AcDbEntity
  8
0
370
              18
  6
Continuous
 62
               8
100
AcDbLine
 10
-27.117845846586107
 20
107.00694998729445
 30
0.0
 11
-26.652173754086078
 21
106.96398798059444
 31
0.0
  0
LINE
  5
2B8
100
AcDbEntity
  8
0
370
              18
  6
Continuous
 62
               8
100
AcDbLine
 10
38.253560925713913
 20
74.52046303049444
 30
0.0
 11
42.198989376913914
 21
-108.69884644800554
 31
0.0
  0
LINE
  5
2B9
100
AcDbEntity
  8
0
370
              18
  6
Continuous
 62
               8
100
AcDbLine
 10
-4.72481668788609
 20
-117.45682888240555
 30
0.0
 11
-6.5462794663860961
 21
-117.90048840720554
 31
0.0
  0
LINE
  5
2BA
100
AcDbEntity
  8
0
370
              18
  6
Continuous
 62
               8
100
AcDbLine
 10
0.142192413313893
 20
-117.86141489930556
 30
0.0
 11
0.0325452472139034
 21
-120.79425510700555
 31
0.0
  0
ARC
  5
2BB
100
AcDbEntity
  8
0
370
              18
  6
Continuous
 62
               8
100
AcDbCircle
 10
-0.8288341235860912
 20
-120.84419820730555
 30
0.0
 40
0.8628260159091743
100
AcDbArc
 50
288.42112640160099
 51
3.3183157789006263
  0
POLYLINE
  5
2BC
100
AcDbEntity
  8
0
370
              18
  6
Continuous
 62
               8
100
AcDb2dPolyline
 66
               1
 10
0.0
 20
0.0
 30
0.0
 75
               5
  0
VERTEX
  5
2BD
100
AcDbEntity
  8
0
370
              18
  6
Continuous
 62
               8
100
AcDbVertex
100
AcDb2dVertex
 10
42.370671276813908
 20
-108.60944596670555
 30
0.0
  0
VERTEX
  5
2BE
100
AcDbEntity
  8
0
370
              18
  6
Continuous
 62
               8
100
AcDbVertex
100
AcDb2dVertex
 10
42.370647042213903
 20
-108.61111602860555
 30
0.0
  0
VERTEX
  5
2BF
100
AcDbEntity
  8
0
370
              18
  6
Continuous
 62
               8
100
AcDbVertex
100
AcDb2dVertex
 10
42.350069599713919
 20
-108.64112385410554
 30
0.0
  0
VERTEX
  5
2C0
100
AcDbEntity
  8
0
370
              18
  6
Continuous
 62
               8
100
AcDbVertex
100
AcDb2dVertex
 10
42.2921128042139
 20
-108.67074423090556
 30
0.0
  0
VERTEX
  5
2C1
100
AcDbEntity
  8
0
370
              18
  6
Continuous
 62
               8
100
AcDbVertex
100
AcDb2dVertex
 10
42.198989376913914
 20
-108.69884644800554
 30
0.0
  0
SEQEND
  5
2C2
100
AcDbEntity
  8
0
370
              18
  6
Continuous
 62
               8
  0
POLYLINE
  5
2C3
100
AcDbEntity
  8
0
370
              18
  6
Continuous
 62
               8
100
AcDb2dPolyline
 66
               1
 10
0.0
 20
0.0
 30
0.0
 75
               5
  0
VERTEX
  5
2C4
100
AcDbEntity
  8
0
370
              18
  6
Continuous
 62
               8
100
AcDbVertex
100
AcDb2dVertex
 10
0.0325452472139034
 20
-120.79425510700555
 30
0.0
  0
VERTEX
  5
2C5
100
AcDbEntity
  8
0
370
              18
  6
Continuous
 62
               8
100
AcDbVertex
100
AcDb2dVertex
 10
0.1265041640139089
 20
-120.77555970360554
 30
0.0
  0
VERTEX
  5
2C6
100
AcDbEntity
  8
0
370
              18
  6
Continuous
 62
               8
100
AcDbVertex
100
AcDb2dVertex
 10
0.1852122792139141
 20
-120.75363528210555
 30
0.0
  0
VERTEX
  5
2C7
100
AcDbEntity
  8
0
370
              18
  6
Continuous
 62
               8
100
AcDbVertex
100
AcDb2dVertex
 10
0.2064227956139177
 20
-120.72931566690555
 30
0.0
  0
VERTEX
  5
2C8
100
AcDbEntity
  8
0
370
              18
  6
Continuous
 62
               8
100
AcDbVertex
100
AcDb2dVertex
 10
0.2064671704139016
 20
-120.72857862320555
 30
0.0
  0
SEQEND
  5
2C9
100
AcDbEntity
  8
0
370
              18
  6
Continuous
 62
               8
  0
LINE
  5
2CA
100
AcDbEntity
  8
0
370
              18
  6
Continuous
 62
               8
100
AcDbLine
 10
-23.419552701086076
 20
-119.40129753490554
 30
0.0
 11
-23.421610718986102
 21
-119.30572651890556
 31
0.0
  0
ENDBLK
  5
2CB
100
AcDbEntity
  8
一般
100
AcDbBlockEnd
  0
ENDSEC
  0
SECTION
  2
ENTITIES
  0
MTEXT
  5
2CC
100
AcDbEntity
  8
0
 62
               7
100
AcDbMText
 10
202.81723952454246
 20
30.269750000000002
 30
0.0
 40
2.910416666666666
 41
0.0
 71
               1
 72
               1
  1
HEA-020K
  7
ＭＳ Ｐゴシック
 73
               1
 44
0.8762322015334064
  0
INSERT
  5
2CD
100
AcDbEntity
  8
一般
 62
               7
100
AcDbBlockReference
  2
*U0
 10
149.97858289476142
 20
148.5
 30
0.0
  0
ENDSEC
  0
SECTION
  2
OBJECTS
  0
DICTIONARY
  5
19
100
AcDbDictionary
280
               0
281
               1
  3
ACAD_GROUP
350
1A
  3
ACAD_MLINESTYLE
350
1B
  3
ACAD_LAYOUT
350
1E
  3
ACAD_PLOTSETTINGS
350
22
  3
ACAD_PLOTSTYLENAME
350
1F
  3
ACAD_WIPEOUT_VARS
350
23
  0
DICTIONARY
  5
1A
102
{ACAD_REACTORS
330
19
102
}
100
AcDbDictionary
280
               0
281
               1
  0
DICTIONARY
  5
1B
102
{ACAD_REACTORS
330
19
102
}
100
AcDbDictionary
280
               0
281
               1
  3
Standard
350
1C
  0
MLINESTYLE
  5
1C
102
{ACAD_REACTORS
330
1B
102
}
100
AcDbMlineStyle
  2
Standard
 70
               0
  3

 62
               0
 51
90.0
 52
90.0
 71
               2
 49
0.5
 62
             256
  6
ByLayer
 49
-0.5
 62
             256
  6
ByLayer
  0
ACDBDICTIONARYWDFLT
  5
1F
102
{ACAD_REACTORS
330
19
102
}
100
AcDbDictionary
281
               1
  3
Normal
350
1D
100
AcDbDictionaryWithDefault
340
1D
  0
ACDBPLACEHOLDER
  5
1D
102
{ACAD_REACTORS
330
1F
102
}
  0
LAYOUT
  5
20
102
{ACAD_REACTORS
330
1E
102
}
100
AcDbPlotSettings
  1

  2

  4

  6

 40
0.0
 41
0.0
 42
0.0
 43
0.0
 44
0.0
 45
0.0
 46
0.0
 47
0.0
 48
0.0
 49
0.0
140
0.0
141
0.0
142
1.0
143
1.0
 70
            1024
 72
               0
 73
               0
 74
               0
  7

 75
               0
147
1.0
148
0.0
149
0.0
100
AcDbLayout
  1
Model
 70
               0
 71
               0
 10
0.0
 20
0.0
 11
0.0
 21
0.0
 12
0.0
 22
0.0
 32
0.0
 14
0.0
 24
0.0
 34
0.0
 15
0.0
 25
0.0
 35
0.0
146
0.0
 13
0.0
 23
0.0
 33
0.0
 16
0.0
 26
0.0
 36
0.0
 17
0.0
 27
0.0
 37
0.0
 76
               0
330
A
331
0
345
0
346
0
  0
LAYOUT
  5
21
102
{ACAD_REACTORS
330
1E
102
}
100
AcDbPlotSettings
  1

  2

  4

  6

 40
0.0
 41
0.0
 42
0.0
 43
0.0
 44
0.0
 45
0.0
 46
0.0
 47
0.0
 48
0.0
 49
0.0
140
0.0
141
0.0
142
1.0
143
1.0
 70
               0
 72
               0
 73
               0
 74
               0
  7

 75
               0
147
1.0
148
0.0
149
0.0
100
AcDbLayout
  1
Layout1
 70
               0
 71
               0
 10
0.0
 20
0.0
 11
0.0
 21
0.0
 12
0.0
 22
0.0
 32
0.0
 14
0.0
 24
0.0
 34
0.0
 15
0.0
 25
0.0
 35
0.0
146
0.0
 13
0.0
 23
0.0
 33
0.0
 16
0.0
 26
0.0
 36
0.0
 17
0.0
 27
0.0
 37
0.0
 76
               0
330
B
331
0
345
0
346
0
  0
DICTIONARY
  5
1E
102
{ACAD_REACTORS
330
19
102
}
100
AcDbDictionary
280
               0
281
               1
  3
Layout1
350
21
  3
Model
350
20
  0
DICTIONARY
  5
22
102
{ACAD_REACTORS
330
19
102
}
100
AcDbDictionary
280
               0
281
               1
  0
WIPEOUTVARIABLES
  5
23
100
AcDbWipeoutVariables
 70
               1
  0
ENDSEC
  0
EOF
