  0
SECTION
  2
HEADER
  9
$ACADVER
  1
AC1015
  9
$ACADMAINTVER
 70
     6
  9
$DWGCODEPAGE
  3
DOS932
  9
$INSBASE
 10
0.0
 20
0.0
 30
0.0
  9
$EXTMIN
 10
0.0
 20
0.0
 30
0.0
  9
$EXTMAX
 10
210.0
 20
297.0
 30
0.0
  9
$LIMMIN
 10
0.0
 20
0.0
  9
$LIMMAX
 10
210.0
 20
297.0
  9
$ORTHOMODE
 70
     0
  9
$REGENMODE
 70
     1
  9
$FILLMODE
 70
     1
  9
$QTEXTMODE
 70
     0
  9
$MIRRTEXT
 70
     1
  9
$LTSCALE
 40
1.0
  9
$ATTMODE
 70
     1
  9
$TEXTSIZE
 40
3.5
  9
$TRACEWID
 40
1.0
  9
$TEXTSTYLE
  7
Standard
  9
$CLAYER
  8
0
  9
$CELTYPE
  6
ByLayer
  9
$CECOLOR
 62
   256
  9
$CELTSCALE
 40
1.0
  9
$DISPSILH
 70
     0
  9
$DIMSCALE
 40
1.0
  9
$DIMASZ
 40
3.5
  9
$DIMEXO
 40
1.0
  9
$DIMDLI
 40
3.75
  9
$DIMRND
 40
0.0
  9
$DIMDLE
 40
0.0
  9
$DIMEXE
 40
1.0
  9
$DIMTP
 40
0.0
  9
$DIMTM
 40
0.0
  9
$DIMTXT
 40
3.5
  9
$DIMCEN
 40
2.5
  9
$DIMTSZ
 40
0.0
  9
$DIMTOL
 70
     0
  9
$DIMLIM
 70
     0
  9
$DIMTIH
 70
     1
  9
$DIMTOH
 70
     1
  9
$DIMSE1
 70
     0
  9
$DIMSE2
 70
     0
  9
$DIMTAD
 70
     1
  9
$DIMZIN
 70
     1
  9
$DIMBLK
  1

  9
$DIMASO
 70
     1
  9
$DIMSHO
 70
     1
  9
$DIMPOST
  1

  9
$DIMAPOST
  1

  9
$DIMALT
 70
     0
  9
$DIMALTD
 70
     3
  9
$DIMALTF
 40
0.0393700787
  9
$DIMLFAC
 40
2.0
  9
$DIMTOFL
 70
     1
  9
$DIMTVP
 40
0.0
  9
$DIMTIX
 70
     0
  9
$DIMSOXD
 70
     0
  9
$DIMSAH
 70
     0
  9
$DIMBLK1
  1

  9
$DIMBLK2
  1

  9
$DIMSTYLE
  2
ISO-25
  9
$DIMCLRD
 70
     0
  9
$DIMCLRE
 70
     0
  9
$DIMCLRT
 70
     0
  9
$DIMTFAC
 40
1.0
  9
$DIMGAP
 40
1.524
  9
$DIMJUST
 70
     0
  9
$DIMSD1
 70
     0
  9
$DIMSD2
 70
     0
  9
$DIMTOLJ
 70
     0
  9
$DIMTZIN
 70
     1
  9
$DIMALTZ
 70
     0
  9
$DIMALTTZ
 70
     0
  9
$DIMUPT
 70
     0
  9
$DIMDEC
 70
     2
  9
$DIMTDEC
 70
     2
  9
$DIMALTU
 70
     2
  9
$DIMALTTD
 70
     3
  9
$DIMTXSTY
  7
Standard
  9
$DIMAUNIT
 70
     0
  9
$DIMADEC
 70
     2
  9
$DIMALTRND
 40
0.0
  9
$DIMAZIN
 70
     0
  9
$DIMDSEP
 70
    44
  9
$DIMATFIT
 70
     3
  9
$DIMFRAC
 70
     0
  9
$DIMLDRBLK
  1

  9
$DIMLUNIT
 70
     2
  9
$DIMLWD
 70
    -2
  9
$DIMLWE
 70
    -2
  9
$DIMTMOVE
 70
     0
  9
$LUNITS
 70
     2
  9
$LUPREC
 70
     2
  9
$SKETCHINC
 40
1.0
  9
$FILLETRAD
 40
10.0
  9
$AUNITS
 70
     0
  9
$AUPREC
 70
     2
  9
$MENU
  1
.
  9
$ELEVATION
 40
0.0
  9
$PELEVATION
 40
0.0
  9
$THICKNESS
 40
0.0
  9
$LIMCHECK
 70
     0
  9
$CHAMFERA
 40
0.0
  9
$CHAMFERB
 40
0.0
  9
$CHAMFERC
 40
0.0
  9
$CHAMFERD
 40
0.0
  9
$SKPOLY
 70
     0
  9
$TDCREATE
 40
2459242.788254896
  9
$TDUCREATE
 40
2459242.413254896
  9
$TDUPDATE
 40
2459242.788255174
  9
$TDUUPDATE
 40
2459242.413255174
  9
$TDINDWG
 40
0.0000000116
  9
$TDUSRTIMER
 40
0.0000000116
  9
$USRTIMER
 70
     1
  9
$ANGBASE
 50
0.0
  9
$ANGDIR
 70
     0
  9
$PDMODE
 70
     0
  9
$PDSIZE
 40
-1.0
  9
$PLINEWID
 40
0.0
  9
$SPLFRAME
 70
     0
  9
$SPLINETYPE
 70
     6
  9
$SPLINESEGS
 70
     8
  9
$HANDSEED
  5
124
  9
$SURFTAB1
 70
     6
  9
$SURFTAB2
 70
     6
  9
$SURFTYPE
 70
     6
  9
$SURFU
 70
     6
  9
$SURFV
 70
     6
  9
$UCSBASE
  2

  9
$UCSNAME
  2

  9
$UCSORG
 10
0.0
 20
0.0
 30
0.0
  9
$UCSXDIR
 10
1.0
 20
0.0
 30
0.0
  9
$UCSYDIR
 10
0.0
 20
1.0
 30
0.0
  9
$UCSORTHOREF
  2

  9
$UCSORTHOVIEW
 70
     0
  9
$UCSORGTOP
 10
0.0
 20
0.0
 30
0.0
  9
$UCSORGBOTTOM
 10
0.0
 20
0.0
 30
0.0
  9
$UCSORGLEFT
 10
0.0
 20
0.0
 30
0.0
  9
$UCSORGRIGHT
 10
0.0
 20
0.0
 30
0.0
  9
$UCSORGFRONT
 10
0.0
 20
0.0
 30
0.0
  9
$UCSORGBACK
 10
0.0
 20
0.0
 30
0.0
  9
$PUCSBASE
  2

  9
$PUCSNAME
  2

  9
$PUCSORG
 10
0.0
 20
0.0
 30
0.0
  9
$PUCSXDIR
 10
1.0
 20
0.0
 30
0.0
  9
$PUCSYDIR
 10
0.0
 20
1.0
 30
0.0
  9
$PUCSORTHOREF
  2

  9
$PUCSORTHOVIEW
 70
     0
  9
$PUCSORGTOP
 10
0.0
 20
0.0
 30
0.0
  9
$PUCSORGBOTTOM
 10
0.0
 20
0.0
 30
0.0
  9
$PUCSORGLEFT
 10
0.0
 20
0.0
 30
0.0
  9
$PUCSORGRIGHT
 10
0.0
 20
0.0
 30
0.0
  9
$PUCSORGFRONT
 10
0.0
 20
0.0
 30
0.0
  9
$PUCSORGBACK
 10
0.0
 20
0.0
 30
0.0
  9
$USERI1
 70
     0
  9
$USERI2
 70
     0
  9
$USERI3
 70
     0
  9
$USERI4
 70
     0
  9
$USERI5
 70
     0
  9
$USERR1
 40
0.0
  9
$USERR2
 40
0.0
  9
$USERR3
 40
0.0
  9
$USERR4
 40
0.0
  9
$USERR5
 40
0.0
  9
$WORLDVIEW
 70
     1
  9
$SHADEDGE
 70
     3
  9
$SHADEDIF
 70
    70
  9
$TILEMODE
 70
     1
  9
$MAXACTVP
 70
    64
  9
$PINSBASE
 10
0.0
 20
0.0
 30
0.0
  9
$PLIMCHECK
 70
     0
  9
$PEXTMIN
 10
1.0000000000E+20
 20
1.0000000000E+20
 30
1.0000000000E+20
  9
$PEXTMAX
 10
-1.0000000000E+20
 20
-1.0000000000E+20
 30
-1.0000000000E+20
  9
$PLIMMIN
 10
0.0
 20
0.0
  9
$PLIMMAX
 10
420.0
 20
297.0
  9
$UNITMODE
 70
     0
  9
$VISRETAIN
 70
     1
  9
$PLINEGEN
 70
     0
  9
$PSLTSCALE
 70
     1
  9
$TREEDEPTH
 70
  3020
  9
$CMLSTYLE
  2
Standard
  9
$CMLJUST
 70
     0
  9
$CMLSCALE
 40
20.0
  9
$PROXYGRAPHICS
 70
     1
  9
$MEASUREMENT
 70
     1
  9
$CELWEIGHT
370
    -1
  9
$ENDCAPS
280
     0
  9
$JOINSTYLE
280
     0
  9
$LWDISPLAY
290
     1
  9
$INSUNITS
 70
     4
  9
$HYPERLINKBASE
  1

  9
$STYLESHEET
  1

  9
$XEDIT
290
     1
  9
$CEPSNTYPE
380
     0
  9
$PSTYLEMODE
290
     1
  9
$FINGERPRINTGUID
  2
{68bd3f22-bba9-4521-a104-a8e364131d25}
  9
$VERSIONGUID
  2
{FAEB1C32-E019-11D5-929B-00C0DF256EC4}
  9
$EXTNAMES
290
     1
  9
$PSVPSCALE
 40
0.0
  9
$OLESTARTUP
290
     0
  0
ENDSEC
  0
SECTION
  2
CLASSES
  0
CLASS
  1
ACDBDICTIONARYWDFLT
  2
AcDbDictionaryWithDefault
  3
ObjectDBX Classes
 90
        0
280
     0
281
     0
  0
CLASS
  1
VISUALSTYLE
  2
AcDbVisualStyle
  3
ObjectDBX Classes
 90
     4095
280
     0
281
     0
  0
CLASS
  1
MATERIAL
  2
AcDbMaterial
  3
ObjectDBX Classes
 90
     1153
280
     0
281
     0
  0
CLASS
  1
SCALE
  2
AcDbScale
  3
ObjectDBX Classes
 90
     1153
280
     0
281
     0
  0
CLASS
  1
TABLESTYLE
  2
AcDbTableStyle
  3
ObjectDBX Classes
 90
     4095
280
     0
281
     0
  0
CLASS
  1
MLEADERSTYLE
  2
AcDbMLeaderStyle
  3
ACDB_MLEADERSTYLE_CLASS
 90
     4095
280
     0
281
     0
  0
CLASS
  1
SUN
  2
AcDbSun
  3
SCENEOE
 90
     1153
280
     0
281
     0
  0
CLASS
  1
ACDBPLACEHOLDER
  2
AcDbPlaceHolder
  3
ObjectDBX Classes
 90
        0
280
     0
281
     0
  0
CLASS
  1
LAYOUT
  2
AcDbLayout
  3
ObjectDBX Classes
 90
        0
280
     0
281
     0
  0
ENDSEC
  0
SECTION
  2
TABLES
  0
TABLE
  2
VPORT
  5
8
330
0
100
AcDbSymbolTable
 70
     1
  0
VPORT
  5
29
330
8
100
AcDbSymbolTableRecord
100
AcDbViewportTableRecord
  2
*Active
 70
     0
 10
0.0
 20
0.0
 11
1.0
 21
1.0
 12
105.0
 22
148.5
 13
0.0
 23
0.0
 14
10.0
 24
10.0
 15
10.0
 25
10.0
 16
0.0
 26
0.0
 36
1.0
 17
0.0
 27
0.0
 37
0.0
 40
297.0
 41
0.7070707071
 42
50.0
 43
0.0
 44
0.0
 50
0.0
 51
0.0
 71
     0
 72
  2000
 73
     1
 74
     3
 75
     0
 76
     0
 77
     0
 78
     0
281
     0
 65
     1
110
0.0
120
0.0
130
0.0
111
1.0
121
0.0
131
0.0
112
0.0
122
1.0
132
0.0
 79
     0
146
0.0
  0
ENDTAB
  0
TABLE
  2
LTYPE
  5
5
330
0
100
AcDbSymbolTable
 70
     6
  0
LTYPE
  5
14
330
5
100
AcDbSymbolTableRecord
100
AcDbLinetypeTableRecord
  2
ByBlock
 70
     0
  3

 72
    65
 73
     0
 40
0.0
  0
LTYPE
  5
15
330
5
100
AcDbSymbolTableRecord
100
AcDbLinetypeTableRecord
  2
ByLayer
 70
     0
  3

 72
    65
 73
     0
 40
0.0
  0
LTYPE
  5
16
330
5
100
AcDbSymbolTableRecord
100
AcDbLinetypeTableRecord
  2
Continuous
 70
     0
  3
Solid line
 72
    65
 73
     0
 40
0.0
  0
LTYPE
  5
6E
330
5
100
AcDbSymbolTableRecord
100
AcDbLinetypeTableRecord
  2
HIDDEN
 70
     0
  3
Hidden __ __ __ __ __ __ __ __ __ __ __ __ __ __
 72
    65
 73
     2
 40
1.905
 49
1.27
 74
     0
 49
-0.635
 74
     0
  0
LTYPE
  5
6F
330
5
100
AcDbSymbolTableRecord
100
AcDbLinetypeTableRecord
  2
PHANTOM
 70
     0
  3
Phantom ______  __  __  ______  __  __  ______
 72
    65
 73
     6
 40
12.7
 49
6.35
 74
     0
 49
-1.27
 74
     0
 49
1.27
 74
     0
 49
-1.27
 74
     0
 49
1.27
 74
     0
 49
-1.27
 74
     0
  0
LTYPE
  5
70
330
5
100
AcDbSymbolTableRecord
100
AcDbLinetypeTableRecord
  2
CENTER
 70
     0
  3
Center ____ _ ____ _ ____ _ ____ _ ____ _ ____
 72
    65
 73
     4
 40
10.16
 49
6.35
 74
     0
 49
-1.27
 74
     0
 49
1.27
 74
     0
 49
-1.27
 74
     0
  0
LTYPE
  5
71
330
5
100
AcDbSymbolTableRecord
100
AcDbLinetypeTableRecord
  2
CENTERX2
 70
     0
  3
Center (2x) ________  __  ________  __  _____
 72
    65
 73
     4
 40
20.32
 49
12.7
 74
     0
 49
-2.54
 74
     0
 49
2.54
 74
     0
 49
-2.54
 74
     0
  0
LTYPE
  5
72
330
5
100
AcDbSymbolTableRecord
100
AcDbLinetypeTableRecord
  2
DOT2
 70
     0
  3
Dot (.5x) ........................................
 72
    65
 73
     2
 40
0.635
 49
0.0
 74
     0
 49
-0.635
 74
     0
  0
ENDTAB
  0
TABLE
  2
LAYER
  5
2
330
0
100
AcDbSymbolTable
 70
     2
  0
LAYER
  5
10
330
2
100
AcDbSymbolTableRecord
100
AcDbLayerTableRecord
  2
0
 70
     0
 62
     7
  6
Continuous
370
    -3
390
F
  0
LAYER
  5
73
330
2
100
AcDbSymbolTableRecord
100
AcDbLayerTableRecord
  2
FORMAT
 70
     0
 62
     7
  6
Continuous
370
    -3
390
F
  0
ENDTAB
  0
TABLE
  2
STYLE
  5
3
330
0
100
AcDbSymbolTable
 70
     2
  0
STYLE
  5
11
330
3
100
AcDbSymbolTableRecord
100
AcDbTextStyleTableRecord
  2
Standard
 70
     0
 40
0.0
 41
1.0
 50
0.0
 71
     0
 42
3.5
  3
txt
  4
bigfont
  0
STYLE
  5
75
330
3
100
AcDbSymbolTableRecord
100
AcDbTextStyleTableRecord
  2
SLDTEXTSTYLE0
 70
     0
 40
0.0
 41
0.7
 50
0.0
 71
     0
 42
3.5
  3
TXT
  4
bigfont
  0
ENDTAB
  0
TABLE
  2
VIEW
  5
6
330
0
100
AcDbSymbolTable
 70
     0
  0
ENDTAB
  0
TABLE
  2
UCS
  5
7
330
0
100
AcDbSymbolTable
 70
     0
  0
ENDTAB
  0
TABLE
  2
APPID
  5
9
330
0
100
AcDbSymbolTable
 70
     1
  0
APPID
  5
12
330
9
100
AcDbSymbolTableRecord
100
AcDbRegAppTableRecord
  2
ACAD
 70
     0
  0
ENDTAB
  0
TABLE
  2
DIMSTYLE
  5
A
330
0
100
AcDbSymbolTable
 70
     1
100
AcDbDimStyleTable
  0
DIMSTYLE
105
27
330
A
100
AcDbSymbolTableRecord
100
AcDbDimStyleTableRecord
  2
ISO-25
 70
     0
 41
2.5
 42
0.625
 43
3.75
 44
1.25
 73
     0
 74
     0
 77
     1
 78
     8
140
2.5
141
2.5
143
0.0393700787
147
0.625
171
     3
172
     1
178
     0
271
     2
272
     2
274
     3
278
    44
283
     0
284
     8
340
11
  0
ENDTAB
  0
TABLE
  2
BLOCK_RECORD
  5
1
330
0
100
AcDbSymbolTable
 70
     1
  0
BLOCK_RECORD
  5
1F
330
1
100
AcDbSymbolTableRecord
100
AcDbBlockTableRecord
  2
*Model_Space
340
22
  0
BLOCK_RECORD
  5
1B
330
1
100
AcDbSymbolTableRecord
100
AcDbBlockTableRecord
  2
*Paper_Space
340
1E
  0
BLOCK_RECORD
  5
23
330
1
100
AcDbSymbolTableRecord
100
AcDbBlockTableRecord
  2
*Paper_Space0
340
26
  0
ENDTAB
  0
ENDSEC
  0
SECTION
  2
BLOCKS
  0
BLOCK
  5
20
330
1F
100
AcDbEntity
  8
0
100
AcDbBlockBegin
  2
*Model_Space
 70
     0
 10
0.0
 20
0.0
 30
0.0
  3
*Model_Space
  1

  0
ENDBLK
  5
21
330
1F
100
AcDbEntity
  8
0
100
AcDbBlockEnd
  0
BLOCK
  5
1C
330
1B
100
AcDbEntity
 67
     1
  8
0
100
AcDbBlockBegin
  2
*Paper_Space
 70
     0
 10
0.0
 20
0.0
 30
0.0
  3
*Paper_Space
  1

  0
ENDBLK
  5
1D
330
1B
100
AcDbEntity
 67
     1
  8
0
100
AcDbBlockEnd
  0
BLOCK
  5
24
330
23
100
AcDbEntity
  8
0
100
AcDbBlockBegin
  2
*Paper_Space0
 70
     0
 10
0.0
 20
0.0
 30
0.0
  3
*Paper_Space0
  1

  0
ENDBLK
  5
25
330
23
100
AcDbEntity
  8
0
100
AcDbBlockEnd
  0
ENDSEC
  0
SECTION
  2
ENTITIES
  0
LINE
  5
74
330
1F
100
AcDbEntity
  8
0
  6
Continuous
 62
     7
370
    18
100
AcDbLine
 10
111.9880949726
 20
121.6214747141
 30
0.0
 11
112.8751449703
 21
122.3921762964
 31
0.0
  0
MTEXT
  5
76
330
1F
100
AcDbEntity
  8
0
  6
Continuous
 62
     7
370
     0
100
AcDbMText
 10
141.6044514114
 20
131.7858169754
 30
0.0
 40
3.5
 41
0.0
 71
     1
 72
     1
  1
HEA-022S/K
  7
SLDTEXTSTYLE0
 73
     1
 44
1.0
  0
LINE
  5
77
330
1F
100
AcDbEntity
  8
0
  6
Continuous
 62
     7
370
    25
100
AcDbLine
 10
108.8039925476
 20
134.9340001946
 30
0.0
 11
108.8039925476
 21
156.0008681789
 31
0.0
  0
LINE
  5
78
330
1F
100
AcDbEntity
  8
0
  6
Continuous
 62
     7
370
    25
100
AcDbLine
 10
103.5539925476
 20
157.5164126355
 30
0.0
 11
103.5539925476
 21
134.9340001946
 31
0.0
  0
LINE
  5
79
330
1F
100
AcDbEntity
  8
0
  6
Continuous
 62
     7
370
    25
100
AcDbLine
 10
109.848954578
 20
133.6256802675
 30
0.0
 11
109.8034698744
 21
134.9647780583
 31
0.0
  0
LINE
  5
7A
330
1F
100
AcDbEntity
  8
0
  6
Continuous
 62
     7
370
    25
100
AcDbLine
 10
109.9519711157
 20
130.5928097109
 30
0.0
 11
109.8720824206
 21
132.9447822827
 31
0.0
  0
LINE
  5
7B
330
1F
100
AcDbEntity
  8
0
  6
Continuous
 62
     7
370
    25
100
AcDbLine
 10
110.0549876535
 20
127.5599391544
 30
0.0
 11
109.9749187083
 21
129.9172183988
 31
0.0
  0
LINE
  5
7C
330
1F
100
AcDbEntity
  8
0
  6
Continuous
 62
     7
370
    25
100
AcDbLine
 10
110.1784158048
 20
123.9261380769
 30
0.0
 11
110.077754996
 21
126.889654515
 31
0.0
  0
LINE
  5
7D
330
1F
100
AcDbEntity
  8
0
  6
Continuous
 62
     7
370
    25
100
AcDbLine
 10
102.2802976499
 20
126.891643248
 30
0.0
 11
102.1795692905
 21
123.9261380769
 31
0.0
  0
LINE
  5
7E
330
1F
100
AcDbEntity
  8
0
  6
Continuous
 62
     7
370
    25
100
AcDbLine
 10
102.3831321558
 20
129.9191546757
 30
0.0
 11
102.3029301656
 21
127.5579585008
 31
0.0
  0
LINE
  5
7F
330
1F
100
AcDbEntity
  8
0
  6
Continuous
 62
     7
370
    25
100
AcDbLine
 10
102.4859666618
 20
132.9466661034
 30
0.0
 11
102.4059484914
 21
130.5908816993
 31
0.0
  0
LINE
  5
80
330
1F
100
AcDbEntity
  8
0
  6
Continuous
 62
     7
370
    25
100
AcDbLine
 10
102.5545152208
 20
134.9647780583
 30
0.0
 11
102.5089668172
 21
133.6238048978
 31
0.0
  0
SPLINE
  5
81
330
1F
100
AcDbEntity
  8
0
  6
Continuous
 62
     7
370
    25
100
AcDbSpline
210
0.0
220
0.0
230
1.0
 70
     8
 71
     3
 72
    15
 73
    11
 74
     0
 42
0.00000001
 43
0.00000001
 40
0.0
 40
0.0
 40
0.0
 40
0.0
 40
0.0735231256551716
 40
0.2216662292020204
 40
0.3571440550211551
 40
0.4832849634153871
 40
0.6152637922203446
 40
0.7515012199904626
 40
0.8897948558689601
 40
1.0
 40
1.0
 40
1.0
 40
1.0
 10
99.30912883941711
 20
122.419624721723
 30
0.0
 10
99.37736392850555
 20
122.3452526088199
 30
0.0
 10
99.58308715861463
 20
122.1210267522866
 30
0.0
 10
99.87113048785868
 20
121.7229579914564
 30
0.0
 10
100.1527073009071
 20
121.247554326804
 30
0.0
 10
100.3580175557494
 20
120.7778023213877
 30
0.0
 10
100.4894356827973
 20
120.3185360807935
 30
0.0
 10
100.5505757383097
 20
119.8596381520589
 30
0.0
 10
100.5400737495702
 20
119.4985846860575
 30
0.0
 10
100.4919101040692
 20
119.2391265717712
 30
0.0
 10
100.4705503151232
 20
119.124061142155
 30
0.0
  0
LINE
  5
82
330
1F
100
AcDbEntity
  8
0
  6
Continuous
 62
     7
370
    25
100
AcDbLine
 10
99.2818782306
 20
123.7181381907
 30
0.0
 11
99.2818782306
 21
122.508876955
 31
0.0
  0
LINE
  5
83
330
1F
100
AcDbEntity
  8
0
  6
Continuous
 62
     7
370
    25
100
AcDbLine
 10
113.0761068647
 20
122.8569531663
 30
0.0
 11
113.0761068647
 21
124.0662144021
 31
0.0
  0
SPLINE
  5
84
330
1F
100
AcDbEntity
  8
0
  6
Continuous
 62
     7
370
    25
100
AcDbSpline
210
0.0
220
0.0
230
1.0
 70
     8
 71
     3
 72
    12
 73
     8
 74
     0
 42
0.00000001
 43
0.00000001
 40
0.0
 40
0.0
 40
0.0
 40
0.0
 40
0.1451347252220683
 40
0.3362229274511493
 40
0.5325085388393198
 40
0.7745552656758075
 40
1.0
 40
1.0
 40
1.0
 40
1.0
 10
111.8925200875407
 20
120.112357781431
 30
0.0
 10
111.8757693630086
 20
120.2084222283029
 30
0.0
 10
111.8369641933257
 20
120.4309676563651
 30
0.0
 10
111.8091792616438
 20
120.7552221581103
 30
0.0
 10
111.8239443935579
 20
121.0795903164785
 30
0.0
 10
111.8853012617552
 20
121.3982579917744
 30
0.0
 10
111.9603421790198
 20
121.5554626395724
 30
0.0
 10
111.9965301761528
 20
121.6312735644807
 30
0.0
  0
LINE
  5
85
330
1F
100
AcDbEntity
  8
0
  6
Continuous
 62
     7
370
    25
100
AcDbLine
 10
100.5099042155
 20
119.2312206921
 30
0.0
 11
98.7758229692
 21
114.9320693009
 31
0.0
  0
LINE
  5
86
330
1F
100
AcDbEntity
  8
0
  6
Continuous
 62
     7
370
    25
100
AcDbLine
 10
113.6042679611
 20
114.8684231336
 30
0.0
 11
111.8773352204
 21
120.1468969616
 31
0.0
  0
LINE
  5
87
330
1F
100
AcDbEntity
  8
0
  6
Continuous
 62
     7
370
    25
100
AcDbLine
 10
98.7406123532
 20
114.7506465906
 30
0.0
 11
98.7406123532
 21
113.4820833453
 31
0.0
  0
LINE
  5
88
330
1F
100
AcDbEntity
  8
0
  6
Continuous
 62
     7
370
    25
100
AcDbLine
 10
113.617372742
 20
113.5176595566
 30
0.0
 11
113.617372742
 21
114.786222802
 31
0.0
  0
LINE
  5
89
330
1F
100
AcDbEntity
  8
0
  6
Continuous
 62
     7
370
    25
100
AcDbLine
 10
111.9542318174
 20
215.6218654402
 30
0.0
 11
101.9949396739
 21
218.4968654402
 31
0.0
  0
LINE
  5
8A
330
1F
100
AcDbEntity
  8
0
  6
Continuous
 62
     7
370
    25
100
AcDbLine
 10
100.6959015682
 20
218.8718654402
 30
0.0
 11
90.7366094247
 21
221.7468654402
 31
0.0
  0
SPLINE
  5
8B
330
1F
100
AcDbEntity
  8
0
  6
Continuous
 62
     7
370
    25
100
AcDbSpline
210
0.0
220
0.0
230
1.0
 70
     8
 71
     3
 72
    11
 73
     7
 74
     0
 42
0.00000001
 43
0.00000001
 40
0.0
 40
0.0
 40
0.0
 40
0.0
 40
0.2506574299326795
 40
0.5010495350211647
 40
0.7508651139092265
 40
1.0
 40
1.0
 40
1.0
 40
1.0
 10
80.40060374765834
 20
216.3833535340128
 30
0.0
 10
80.25753079985826
 20
216.2189254327516
 30
0.0
 10
79.97153634923055
 20
215.8902432799685
 30
0.0
 10
79.67711157747831
 20
215.2833011797423
 30
0.0
 10
79.48082846325738
 20
214.6176453373535
 30
0.0
 10
79.45536959704597
 20
214.1327983137437
 30
0.0
 10
79.44265753005986
 20
213.8907055280328
 30
0.0
  0
LINE
  5
8C
330
1F
100
AcDbEntity
  8
0
  6
Continuous
 62
     7
370
    25
100
AcDbLine
 10
82.9967401341
 20
218.9936050395
 30
0.0
 11
80.4011336841
 21
216.3856910518
 31
0.0
  0
LINE
  5
8D
330
1F
100
AcDbEntity
  8
0
  6
Continuous
 62
     7
370
    25
100
AcDbLine
 10
79.4425489176
 20
213.8854949464
 30
0.0
 11
79.4425489176
 21
168.7283017783
 31
0.0
  0
SPLINE
  5
8E
330
1F
100
AcDbEntity
  8
0
  6
Continuous
 62
     7
370
    25
100
AcDbSpline
210
0.0
220
0.0
230
1.0
 70
     8
 71
     3
 72
    11
 73
     7
 74
     0
 42
0.00000001
 43
0.00000001
 40
0.0
 40
0.0
 40
0.0
 40
0.0
 40
0.2486806340785709
 40
0.498412047407496
 40
0.7489344725620719
 40
1.0
 40
1.0
 40
1.0
 40
1.0
 10
112.3842921541891
 20
154.967355544658
 30
0.0
 10
112.680505444244
 20
154.9003043473108
 30
0.0
 10
113.2741836488724
 20
154.765918633382
 30
0.0
 10
114.1353141934568
 20
154.8042336285601
 30
0.0
 10
114.9429569202931
 20
154.9999741950895
 30
0.0
 10
115.3916632791096
 20
155.2823852125768
 30
0.0
 10
115.6162593804688
 20
155.4237436138169
 30
0.0
  0
LINE
  5
8F
330
1F
100
AcDbEntity
  8
0
  6
Continuous
 62
     7
370
    25
100
AcDbLine
 10
115.6157940948
 20
155.4233656819
 30
0.0
 11
118.5453661691
 21
157.6004257341
 31
0.0
  0
LINE
  5
90
330
1F
100
AcDbEntity
  8
0
  6
Continuous
 62
     7
370
    25
100
AcDbLine
 10
83.6986148731
 20
163.2481664582
 30
0.0
 11
112.3820195942
 21
154.9679807397
 31
0.0
  0
SPLINE
  5
91
330
1F
100
AcDbEntity
  8
0
  6
Continuous
 62
     7
370
    25
100
AcDbSpline
210
0.0
220
0.0
230
1.0
 70
     8
 71
     3
 72
    15
 73
    11
 74
     0
 42
0.00000001
 43
0.00000001
 40
0.0
 40
0.0
 40
0.0
 40
0.0
 40
0.168232313650246
 40
0.3114179508250497
 40
0.4299630131522419
 40
0.5242757287649483
 40
0.6099719779511249
 40
0.7172635066191118
 40
0.8471592697052802
 40
1.0
 40
1.0
 40
1.0
 40
1.0
 10
79.44266371962527
 20
168.7527648915729
 30
0.0
 10
79.47210279724776
 20
168.3638856516887
 30
0.0
 10
79.52659801893553
 20
167.6440240901643
 30
0.0
 10
79.89486143493224
 20
166.6362351757805
 30
0.0
 10
80.32567664266055
 20
165.8432158129539
 30
0.0
 10
80.7777346694743
 20
165.2248330734492
 30
0.0
 10
81.27573891726641
 20
164.6807624925968
 30
0.0
 10
81.8991706200437
 20
164.1423408510442
 30
0.0
 10
82.72244557628106
 20
163.5993435602537
 30
0.0
 10
83.35756088767687
 20
163.3709856817175
 30
0.0
 10
83.70088935884218
 20
163.2475407577649
 30
0.0
  0
LINE
  5
92
330
1F
100
AcDbEntity
  8
0
  6
Continuous
 62
     7
370
    25
100
AcDbLine
 10
113.2990711784
 20
215.2321629204
 30
0.0
 11
112.0725114638
 21
215.5862402111
 31
0.0
  0
LINE
  5
93
330
1F
100
AcDbEntity
  8
0
  6
Continuous
 62
     7
370
    25
100
AcDbLine
 10
111.2404611695
 20
212.7039334426
 30
0.0
 11
112.467020884
 21
212.3498561519
 31
0.0
  0
LINE
  5
94
330
1F
100
AcDbEntity
  8
0
  6
Continuous
 62
     7
370
    25
100
AcDbLine
 10
101.907942536
 20
218.5204985144
 30
0.0
 11
100.7821095111
 21
218.8454985144
 31
0.0
  0
LINE
  5
95
330
1F
100
AcDbEntity
  8
0
  6
Continuous
 62
     7
370
    25
100
AcDbLine
 10
99.9500592168
 20
215.9631917459
 30
0.0
 11
101.0758922417
 21
215.6381917459
 31
0.0
  0
LINE
  5
96
330
1F
100
AcDbEntity
  8
0
  6
Continuous
 62
     7
370
    25
100
AcDbLine
 10
88.6671663831
 20
219.2202823533
 30
0.0
 11
89.785490289
 21
218.8974500493
 31
0.0
  0
LINE
  5
97
330
1F
100
AcDbEntity
  8
0
  6
Continuous
 62
     7
370
    25
100
AcDbLine
 10
90.6175405833
 20
221.7797568177
 30
0.0
 11
89.4992166774
 21
222.1025891218
 31
0.0
  0
SPLINE
  5
98
330
1F
100
AcDbEntity
  8
0
  6
Continuous
 62
     7
370
    25
100
AcDbSpline
210
0.0
220
0.0
230
1.0
 70
     8
 71
     3
 72
    16
 73
    12
 74
     0
 42
0.00000001
 43
0.00000001
 40
0.0
 40
0.0
 40
0.0
 40
0.0
 40
0.120788402017315
 40
0.2163411419977257
 40
0.2877816459674106
 40
0.370014777414185
 40
0.4821623164593706
 40
0.6243052999325448
 40
0.7965615227985398
 40
0.894374368723552
 40
1.0
 40
1.0
 40
1.0
 40
1.0
 10
127.4689316559702
 20
212.5204871238094
 30
0.0
 10
127.453895257743
 20
212.7998710698093
 30
0.0
 10
127.4269639339596
 20
213.3002687977697
 30
0.0
 10
127.2493827610895
 20
213.9786286123265
 30
0.0
 10
127.0362414084282
 20
214.5554684336446
 30
0.0
 10
126.7457673199202
 20
215.1549697653369
 30
0.0
 10
126.2833995057057
 20
215.8793233305272
 30
0.0
 10
125.5519572661984
 20
216.7044575418364
 30
0.0
 10
124.7164067503773
 20
217.3473248485211
 30
0.0
 10
123.901514861589
 20
217.7932388191453
 30
0.0
 10
123.4464124528883
 20
217.9471068876346
 30
0.0
 10
123.2101224458272
 20
218.0269954715989
 30
0.0
  0
LINE
  5
99
330
1F
100
AcDbEntity
  8
0
  6
Continuous
 62
     7
370
    25
100
AcDbLine
 10
123.2119371032
 20
218.0264913142
 30
0.0
 11
94.9233976016
 21
226.1926892623
 31
0.0
  0
LINE
  5
9A
330
1F
100
AcDbEntity
  8
0
  6
Continuous
 62
     7
370
    25
100
AcDbLine
 10
127.4690409275
 20
167.7826913153
 30
0.0
 11
127.4690409275
 21
212.5257134889
 31
0.0
  0
LINE
  5
9B
330
1F
100
AcDbEntity
  8
0
  6
Continuous
 62
     7
370
    25
100
AcDbLine
 10
91.6438324225
 20
225.7028199051
 30
0.0
 11
83.3235410052
 21
219.2750756879
 31
0.0
  0
LINE
  5
9C
330
1F
100
AcDbEntity
  8
0
  6
Continuous
 62
     7
370
    25
100
AcDbLine
 10
118.8707011431
 20
157.8833671329
 30
0.0
 11
126.4702963275
 21
165.2427819042
 31
0.0
  0
SPLINE
  5
9D
330
1F
100
AcDbEntity
  8
0
  6
Continuous
 62
     7
370
    25
100
AcDbSpline
210
0.0
220
0.0
230
1.0
 70
     8
 71
     3
 72
    11
 73
     7
 74
     0
 42
0.00000001
 43
0.00000001
 40
0.0
 40
0.0
 40
0.0
 40
0.0
 40
0.2486286959087289
 40
0.4983635283732932
 40
0.7489084283840018
 40
1.0
 40
1.0
 40
1.0
 40
1.0
 10
94.92158325253591
 20
226.1931933373845
 30
0.0
 10
94.61997578857972
 20
226.2611698051882
 30
0.0
 10
94.01541902423865
 20
226.39742516468
 30
0.0
 10
93.13961843629903
 20
226.3530352044057
 30
0.0
 10
92.32034408667916
 20
226.1454409334223
 30
0.0
 10
91.8690211674712
 20
225.8500216975383
 30
0.0
 10
91.64311378732654
 20
225.7021511091355
 30
0.0
  0
SPLINE
  5
9E
330
1F
100
AcDbEntity
  8
0
  6
Continuous
 62
     7
370
    25
100
AcDbSpline
210
0.0
220
0.0
230
1.0
 70
     8
 71
     3
 72
    11
 73
     7
 74
     0
 42
0.00000001
 43
0.00000001
 40
0.0
 40
0.0
 40
0.0
 40
0.0
 40
0.0994387826879453
 40
0.4003848849692881
 40
0.7006235622115883
 40
0.9999999999999999
 40
0.9999999999999999
 40
0.9999999999999999
 40
0.9999999999999999
 10
126.7545747493555
 20
165.5906098391468
 30
0.0
 10
126.8024843256496
 20
165.6462578949677
 30
0.0
 10
126.995389645636
 20
165.8703217845925
 30
0.0
 10
127.2208966487891
 20
166.3598033867446
 30
0.0
 10
127.4299570357444
 20
167.0341987495945
 30
0.0
 10
127.4559525842093
 20
167.5299473654429
 30
0.0
 10
127.4689316677959
 20
167.7774652330397
 30
0.0
  0
LINE
  5
9F
330
1F
100
AcDbEntity
  8
0
  6
Continuous
 62
     7
370
    25
100
AcDbLine
 10
126.4708849912
 20
165.2448187561
 30
0.0
 11
126.5622020118
 21
165.3561255993
 31
0.0
  0
LWPOLYLINE
  5
A0
330
1F
100
AcDbEntity
  8
0
  6
Continuous
 62
     7
370
    25
100
AcDbPolyline
 90
       17
 70
   128
 43
0.0
 10
108.8039925476
 20
134.9340001946
 10
108.802281298
 20
134.8866157773
 10
108.7205777667
 20
134.6057588299
 10
108.5200325353
 20
134.3402500839
 10
108.210022876
 20
134.1025044332
 10
107.8050444958
 20
133.9036386001
 10
107.3240337338
 20
133.7529513301
 10
106.7894821185
 20
133.6574885923
 10
106.2263846894
 20
133.6217141183
 10
105.6610712564
 20
133.6473006827
 10
105.1199752474
 20
133.7330518862
 10
104.6283977103
 20
133.8749580979
 10
104.2093242645
 20
134.066383941
 10
103.8823503184
 20
134.2983785558
 10
103.6627648104
 20
134.560094132
 10
103.5608353149
 20
134.8392931401
 10
103.5539925476
 20
134.9340001946
  0
LWPOLYLINE
  5
A1
330
1F
100
AcDbEntity
  8
0
  6
Continuous
 62
     7
370
    25
100
AcDbPolyline
 90
       27
 70
   128
 43
0.0
 10
108.8039925476
 20
136.1840001946
 10
109.0031596303
 20
136.0702995928
 10
109.3726617519
 20
135.7914822664
 10
109.6334072992
 20
135.4834644165
 10
109.7765168952
 20
135.1567352215
 10
109.7971171143
 20
134.8224210523
 10
109.6945064408
 20
134.4919065769
 10
109.472179158
 20
134.1764470695
 10
109.1377063549
 20
133.8867851252
 10
108.7024781017
 20
133.6327848341
 10
108.1813155746
 20
133.4230958714
 10
107.5919663383
 20
133.2648589434
 10
106.9544999743
 20
133.1634626187
 10
106.2906246349
 20
133.1223598277
 10
105.6229477987
 20
133.1429502765
 10
104.9742063995
 20
133.2245327822
 10
104.3664925476
 20
133.3643291503
 10
103.8205012094
 20
133.5575787832
 10
103.354825465
 20
133.7977007965
 10
102.9853233433
 20
134.0765181229
 10
102.7245777961
 20
134.3845359728
 10
102.5814682001
 20
134.7112651678
 10
102.560867981
 20
135.045579337
 10
102.6634786545
 20
135.3760938123
 10
102.8858059373
 20
135.6915533197
 10
103.2202787403
 20
135.9812152641
 10
103.5539925476
 20
136.1840001946
  0
LWPOLYLINE
  5
A2
330
1F
100
AcDbEntity
  8
0
  6
Continuous
 62
     7
370
    25
100
AcDbPolyline
 90
       20
 70
   128
 43
0.0
 10
110.1784158048
 20
123.9261380769
 10
110.1772022768
 20
123.832345364
 10
110.0915829506
 20
123.4763529147
 10
109.8802097495
 20
123.1337253711
 10
109.5498763822
 20
122.8154750642
 10
109.1112000349
 20
122.5318308208
 10
108.5782801264
 20
122.2919092004
 10
107.9682451409
 20
122.1034214811
 10
107.3007021049
 20
121.9724258133
 10
106.5971064007
 20
121.9031325056
 10
105.8800721733
 20
121.897768702
 10
105.1726454927
 20
121.9565067995
 10
104.4975636344
 20
122.0774589072
 10
103.8765242849
 20
122.2567375251
 10
103.3294881598
 20
122.4885804906
 10
102.8740374504
 20
122.7655361803
 10
102.5248107171
 20
123.0787030102
 10
102.2930323945
 20
123.418015541
 10
102.1861520286
 20
123.7725679885
 10
102.1795692905
 20
123.9261380769
  0
ELLIPSE
  5
A3
330
1F
100
AcDbEntity
  8
0
  6
Continuous
 62
     7
370
    25
100
AcDbEllipse
 10
106.1824180671
 20
127.6258656411
 30
0.0
 11
3.872519607513595
 21
-0.1372113711510679
 31
0.0
210
0.0
220
0.0
230
1.0
 40
0.5145602803
 41
5.777816671593139
 42
6.31892295116601
  0
LINE
  5
A4
330
1F
100
AcDbEntity
  8
0
  6
Continuous
 62
     7
370
    25
100
AcDbLine
 10
109.5366762055
 20
126.5411070607
 30
0.0
 11
109.5554155321
 21
125.898560381
 31
0.0
  0
ELLIPSE
  5
A5
330
1F
100
AcDbEntity
  8
0
  6
Continuous
 62
     7
370
    25
100
AcDbEllipse
 10
106.1755408674
 20
126.7568890284
 30
0.0
 11
3.90221183364875
 21
0.1328329778677926
 31
0.0
210
0.0
220
0.0
230
1.0
 40
0.4845351399
 41
5.743094467184037
 42
6.456820538067872
  0
ELLIPSE
  5
A6
330
1F
100
AcDbEntity
  8
0
  6
Continuous
 62
     7
370
    25
100
AcDbEllipse
 10
106.1823270233
 20
130.6569839977
 30
0.0
 11
3.769595441852246
 21
-0.1335645552982783
 31
0.0
210
0.0
220
0.0
230
1.0
 40
0.5145602803
 41
5.777816671593126
 42
6.318922951165995
  0
LINE
  5
A7
330
1F
100
AcDbEntity
  8
0
  6
Continuous
 62
     7
370
    25
100
AcDbLine
 10
109.4474353949
 20
129.6010562259
 30
0.0
 11
109.4663568089
 21
128.9522660067
 31
0.0
  0
ELLIPSE
  5
A8
330
1F
100
AcDbEntity
  8
0
  6
Continuous
 62
     7
370
    25
100
AcDbEllipse
 10
106.1756319112
 20
129.7879548208
 30
0.0
 11
3.799284562707499
 21
0.1293292890662201
 31
0.0
210
0.0
220
0.0
230
1.0
 40
0.4845351399
 41
5.743094467184031
 42
6.463042702997093
  0
ELLIPSE
  5
A9
330
1F
100
AcDbEntity
  8
0
  6
Continuous
 62
     7
370
    25
100
AcDbEllipse
 10
106.1822359796
 20
133.6881023543
 30
0.0
 11
3.666671276190911
 21
-0.1299177394454887
 31
0.0
210
0.0
220
0.0
230
1.0
 40
0.5145602803
 41
5.777816671593147
 42
6.318922951166026
  0
LINE
  5
AA
330
1F
100
AcDbEntity
  8
0
  6
Continuous
 62
     7
370
    25
100
AcDbLine
 10
109.3581945842
 20
132.6610053911
 30
0.0
 11
109.3772980858
 21
132.0059716324
 31
0.0
  0
ELLIPSE
  5
AB
330
1F
100
AcDbEntity
  8
0
  6
Continuous
 62
     7
370
    25
100
AcDbEllipse
 10
106.175722955
 20
132.8190206132
 30
0.0
 11
3.696357291766233
 21
0.1258256002646476
 31
0.0
210
0.0
220
0.0
230
1.0
 40
0.4845351399
 41
5.743094467184032
 42
6.469622065307636
  0
ELLIPSE
  5
AC
330
1F
100
AcDbEntity
  8
0
  6
Continuous
 62
     7
370
    25
100
AcDbEllipse
 10
106.1755863428
 20
128.2708741942
 30
0.0
 11
3.850800755159824
 21
0.1310829225293446
 31
0.0
210
0.0
220
0.0
230
1.0
 40
0.4845351399
 41
4.208000118624287
 42
5.743094467184042
  0
LINE
  5
AD
330
1F
100
AcDbEntity
  8
0
  6
Continuous
 62
     7
370
    25
100
AcDbLine
 10
109.5109316459
 20
127.423853903
 30
0.0
 11
109.4920102318
 21
128.0726441222
 31
0.0
  0
ELLIPSE
  5
AE
330
1F
100
AcDbEntity
  8
0
  6
Continuous
 62
     7
370
    25
100
AcDbEllipse
 10
106.1823724987
 20
129.1429725767
 30
0.0
 11
3.821004969286833
 21
-0.1353861010783817
 31
0.0
210
0.0
220
0.0
230
1.0
 40
0.5145602803
 41
4.240948080857121
 42
5.777816671593159
  0
SPLINE
  5
AF
330
1F
100
AcDbEntity
  8
0
  6
Continuous
 62
     7
370
    25
100
AcDbSpline
210
0.0
220
0.0
230
1.0
 70
     8
 71
     3
 72
    17
 73
    13
 74
     0
 42
0.00000001
 43
0.00000001
 40
0.0
 40
0.0
 40
0.0
 40
0.0
 40
0.106184720003729
 40
0.2124149687687198
 40
0.3191859505691383
 40
0.4268242388614803
 40
0.5344022659368032
 40
0.6414106551200397
 40
0.7483354206290801
 40
0.855603643312845
 40
0.9628614404310348
 40
1.0
 40
1.0
 40
1.0
 40
1.0
 10
104.3702050924488
 20
126.5740312564772
 30
0.0
 10
104.321499244211
 20
126.5921741203772
 30
0.0
 10
104.2240666641571
 20
126.6284676272826
 30
0.0
 10
104.0990236473335
 20
126.7421000170844
 30
0.0
 10
104.0057824823909
 20
126.8838204966725
 30
0.0
 10
103.9535934448825
 20
127.0415458597391
 30
0.0
 10
103.9475211443064
 20
127.1947624662849
 30
0.0
 10
103.9880048017108
 20
127.3256812515477
 30
0.0
 10
104.071239389457
 20
127.4207379021191
 30
0.0
 10
104.1897637487282
 20
127.4704825035257
 30
0.0
 10
104.3014840365743
 20
127.4722453093826
 30
0.0
 10
104.3678505170046
 20
127.4567781768816
 30
0.0
 10
104.3849198914915
 20
127.4528000500443
 30
0.0
  0
ELLIPSE
  5
B0
330
1F
100
AcDbEntity
  8
0
  6
Continuous
 62
     7
370
    25
100
AcDbEllipse
 10
106.1755670282
 20
127.6278433657
 30
0.0
 11
3.87263644360624
 21
0.1318262188043349
 31
0.0
210
0.0
220
0.0
230
1.0
 40
0.4845351399
 41
3.108614634784604
 42
4.152129401848494
  0
ELLIPSE
  5
B1
330
1F
100
AcDbEntity
  8
0
  6
Continuous
 62
     7
370
    25
100
AcDbEllipse
 10
106.1824442278
 20
126.7548961999
 30
0.0
 11
3.902094105276874
 21
-0.1382592567140648
 31
0.0
210
0.0
220
0.0
230
1.0
 40
0.5145602803
 41
2.969695046898674
 42
4.184969287919487
  0
SPLINE
  5
B2
330
1F
100
AcDbEntity
  8
0
  6
Continuous
 62
     7
370
    25
100
AcDbSpline
210
0.0
220
0.0
230
1.0
 70
     8
 71
     3
 72
    17
 73
    13
 74
     0
 42
0.00000001
 43
0.00000001
 40
0.0
 40
0.0
 40
0.0
 40
0.0
 40
0.1068595335307094
 40
0.2137726378249948
 40
0.3209494346100418
 40
0.4282981034902512
 40
0.5352527197954585
 40
0.6419923791165961
 40
0.7492649590460367
 40
0.8570850517804681
 40
0.9644480786195214
 40
1.0
 40
1.0
 40
1.0
 40
1.0
 10
104.1717334958073
 20
125.9682353047846
 30
0.0
 10
104.2199202278207
 20
125.9492176385186
 30
0.0
 10
104.316317848794
 20
125.9111727720604
 30
0.0
 10
104.4478769482757
 20
125.8016266792787
 30
0.0
 10
104.5491307848057
 20
125.6659636791627
 30
0.0
 10
104.6068969895832
 20
125.5135950994103
 30
0.0
 10
104.6131795471987
 20
125.3619914616006
 30
0.0
 10
104.5674916640316
 20
125.2277130268299
 30
0.0
 10
104.4757859720306
 20
125.1260518195322
 30
0.0
 10
104.3497638176739
 20
125.0707041026496
 30
0.0
 10
104.2369030184577
 20
125.0683346042203
 30
0.0
 10
104.1729367609549
 20
125.0852607899288
 30
0.0
 10
104.157024336215
 20
125.0894713951249
 30
0.0
  0
ELLIPSE
  5
B3
330
1F
100
AcDbEntity
  8
0
  6
Continuous
 62
     7
370
    25
100
AcDbEllipse
 10
106.1756580719
 20
130.6589091581
 30
0.0
 11
3.769709172664988
 21
0.1283225300027766
 31
0.0
210
0.0
220
0.0
230
1.0
 40
0.4845351399
 41
3.108614634784588
 42
4.151550751655792
  0
ELLIPSE
  5
B4
330
1F
100
AcDbEntity
  8
0
  6
Continuous
 62
     7
370
    25
100
AcDbEllipse
 10
106.1823531841
 20
129.7860145565
 30
0.0
 11
3.799169939615538
 21
-0.1346124408612752
 31
0.0
210
0.0
220
0.0
230
1.0
 40
0.5145602803
 41
2.963472881745633
 42
4.184399470836739
  0
SPLINE
  5
B5
330
1F
100
AcDbEntity
  8
0
  6
Continuous
 62
     7
370
    25
100
AcDbSpline
210
0.0
220
0.0
230
1.0
 70
     8
 71
     3
 72
    17
 73
    13
 74
     0
 42
0.00000001
 43
0.00000001
 40
0.0
 40
0.0
 40
0.0
 40
0.0
 40
0.1068293362633889
 40
0.213711581610477
 40
0.3208761771146126
 40
0.4282293608398555
 40
0.5351668296538067
 40
0.6418693704794479
 40
0.7491260159576136
 40
0.8569613506124221
 40
0.9643254169641947
 40
1.0
 40
1.0
 40
1.0
 40
1.0
 10
104.2232159571762
 20
129.0439093374248
 30
0.0
 10
104.2713843471247
 20
129.0248920847161
 30
0.0
 10
104.3677449832534
 20
128.986848160674
 30
0.0
 10
104.4993776738052
 20
128.8774232069555
 30
0.0
 10
104.6007615198683
 20
128.7418987708519
 30
0.0
 10
104.6586492608322
 20
128.589623653299
 30
0.0
 10
104.6649790357797
 20
128.4380430052055
 30
0.0
 10
104.6192745697409
 20
128.3037143485981
 30
0.0
 10
104.5275158746701
 20
128.2019230640662
 30
0.0
 10
104.4014265531423
 20
128.1464215734342
 30
0.0
 10
104.2884777106278
 20
128.1439702945177
 30
0.0
 10
104.2244703783688
 20
128.1609183404369
 30
0.0
 10
104.2085066168306
 20
128.1651452712282
 30
0.0
  0
ELLIPSE
  5
B6
330
1F
100
AcDbEntity
  8
0
  6
Continuous
 62
     7
370
    25
100
AcDbEllipse
 10
106.1756773866
 20
131.3019399866
 30
0.0
 11
3.747873484218559
 21
0.127579233727829
 31
0.0
210
0.0
220
0.0
230
1.0
 40
0.4845351399
 41
4.208952965516325
 42
5.743094467184024
  0
LINE
  5
B7
330
1F
100
AcDbEntity
  8
0
  6
Continuous
 62
     7
370
    25
100
AcDbLine
 10
109.4218729227
 20
130.4775595287
 30
0.0
 11
109.4027694212
 21
131.1325932874
 31
0.0
  0
ELLIPSE
  5
B8
330
1F
100
AcDbEntity
  8
0
  6
Continuous
 62
     7
370
    25
100
AcDbEllipse
 10
106.1822814549
 20
132.1740909333
 30
0.0
 11
3.718080803625498
 21
-0.1317392852255921
 31
0.0
210
0.0
220
0.0
230
1.0
 40
0.5145602803
 41
4.241915933785249
 42
5.777816671593128
  0
SPLINE
  5
B9
330
1F
100
AcDbEntity
  8
0
  6
Continuous
 62
     7
370
    25
100
AcDbSpline
210
0.0
220
0.0
230
1.0
 70
     8
 71
     3
 72
    17
 73
    13
 74
     0
 42
0.00000001
 43
0.00000001
 40
0.0
 40
0.0
 40
0.0
 40
0.0
 40
0.1061355387762879
 40
0.2123158722598601
 40
0.3190597500369389
 40
0.4267078010742578
 40
0.5342882221894961
 40
0.6412712670572159
 40
0.7481730644615578
 40
0.855440417139665
 40
0.9626926555814324
 40
0.9999999999999999
 40
0.9999999999999999
 40
0.9999999999999999
 40
0.9999999999999999
 10
104.4217075018894
 20
129.6497225646544
 30
0.0
 10
104.3730065209762
 20
129.6678406953194
 30
0.0
 10
104.2755840048077
 20
129.7040846034411
 30
0.0
 10
104.1506412533858
 20
129.8177023632146
 30
0.0
 10
104.0574891605106
 20
129.9594466923646
 30
0.0
 10
104.0053351070419
 20
130.1172262849629
 30
0.0
 10
103.9992241520025
 20
130.2704703520969
 30
0.0
 10
104.039586318855
 20
130.4013559616851
 30
0.0
 10
104.1226459206273
 20
130.4963656821727
 30
0.0
 10
104.2410280923047
 20
130.5461056641901
 30
0.0
 10
104.3527951291251
 20
130.5479262753779
 30
0.0
 10
104.4192678044137
 20
130.5324784911534
 30
0.0
 10
104.4364227998997
 20
130.52849179034
 30
0.0
  0
ELLIPSE
  5
BA
330
1F
100
AcDbEntity
  8
0
  6
Continuous
 62
     7
370
    25
100
AcDbEllipse
 10
106.1757491157
 20
133.6899749506
 30
0.0
 11
3.666781901723724
 21
0.1248188412012041
 31
0.0
210
0.0
220
0.0
230
1.0
 40
0.4845351399
 41
3.108614634784597
 42
4.150939608271395
  0
ELLIPSE
  5
BB
330
1F
100
AcDbEntity
  8
0
  6
Continuous
 62
     7
370
    25
100
AcDbEllipse
 10
106.1822621403
 20
132.817132913
 30
0.0
 11
3.696245773954189
 21
-0.1309656250084572
 31
0.0
210
0.0
220
0.0
230
1.0
 40
0.5145602803
 41
2.956893519389489
 42
4.183797911986751
  0
SPLINE
  5
BC
330
1F
100
AcDbEntity
  8
0
  6
Continuous
 62
     7
370
    25
100
AcDbSpline
210
0.0
220
0.0
230
1.0
 70
     8
 71
     3
 72
    17
 73
    13
 74
     0
 42
0.00000001
 43
0.00000001
 40
0.0
 40
0.0
 40
0.0
 40
0.0
 40
0.1067963405150733
 40
0.2136448686085394
 40
0.3207960980894461
 40
0.4281543656002854
 40
0.5350735068773367
 40
0.6417358088854159
 40
0.7489749090344963
 40
0.8568265322095837
 40
0.9641918114749805
 40
0.9999999999999999
 40
0.9999999999999999
 40
0.9999999999999999
 40
0.9999999999999999
 10
104.2746990853357
 20
132.1195839475228
 30
0.0
 10
104.3228476496603
 20
132.1005673465999
 30
0.0
 10
104.4191683068026
 20
132.0625248520165
 30
0.0
 10
104.5508777504583
 20
131.9532292158103
 30
0.0
 10
104.652399170528
 20
131.8178524240636
 30
0.0
 10
104.7104165467938
 20
131.6656765508877
 30
0.0
 10
104.7167975384606
 20
131.5141203237679
 30
0.0
 10
104.671077318824
 20
131.3797388305342
 30
0.0
 10
104.5792647892184
 20
131.2778094269213
 30
0.0
 10
104.4531058410828
 20
131.222143527435
 30
0.0
 10
104.3400620229303
 20
131.219603749478
 30
0.0
 10
104.2760093483516
 20
131.236575113547
 30
0.0
 10
104.2599895488578
 20
131.2408197114706
 30
0.0
  0
ELLIPSE
  5
BD
330
1F
100
AcDbEntity
  8
0
  6
Continuous
 62
     7
370
    25
100
AcDbEllipse
 10
106.1789925476
 20
131.3010980922
 30
0.0
 11
2.624643007529471
 21
0.08934474798863334
 31
0.0
210
0.0
220
0.0
230
1.0
 40
0.4845352589
 41
4.223191190725966
 42
5.516159774195236
  0
LINE
  5
BE
330
1F
100
AcDbEntity
  8
0
  6
Continuous
 62
     7
370
    25
100
AcDbLine
 10
109.4218729227
 20
130.4775595287
 30
0.0
 11
108.6449398084
 21
130.6748638714
 31
0.0
  0
ELLIPSE
  5
BF
330
1F
100
AcDbEntity
  8
0
  6
Continuous
 62
     7
370
    25
100
AcDbEllipse
 10
106.1789925476
 20
132.818190291
 30
0.0
 11
2.624563836632404
 21
-0.09299290710399079
 31
0.0
210
0.0
220
0.0
230
1.0
 40
0.5145604229
 41
3.640384408003943
 42
4.102755467519829
  0
SPLINE
  5
C0
330
1F
100
AcDbEntity
  8
0
  6
Continuous
 62
     7
370
    25
100
AcDbSpline
210
0.0
220
0.0
230
1.0
 70
     8
 71
     3
 72
    11
 73
     7
 74
     0
 42
0.00000001
 43
0.00000001
 40
0.0
 40
0.0
 40
0.0
 40
0.0
 40
0.2852127194915255
 40
0.5842246829405418
 40
0.8858457761989211
 40
1.0
 40
1.0
 40
1.0
 40
1.0
 10
104.9838388857571
 20
130.1365426233483
 30
0.0
 10
104.9371948235423
 20
130.1531626325659
 30
0.0
 10
104.8416499526577
 20
130.1872067650747
 30
0.0
 10
104.7196013223247
 20
130.2965395789623
 30
0.0
 10
104.6380725789691
 20
130.4058731800496
 30
0.0
 10
104.6152336295329
 20
130.4763985779538
 30
0.0
 10
104.6089630251021
 20
130.4957618535637
 30
0.0
  0
ELLIPSE
  5
C1
330
1F
100
AcDbEntity
  8
0
  6
Continuous
 62
     7
370
    25
100
AcDbEllipse
 10
106.1789925476
 20
128.2700091789
 30
0.0
 11
2.624643007529471
 21
0.08934474798860494
 31
0.0
210
0.0
220
0.0
230
1.0
 40
0.4845352589
 41
4.223191190725975
 42
5.378109504492587
  0
LINE
  5
C2
330
1F
100
AcDbEntity
  8
0
  6
Continuous
 62
     7
370
    25
100
AcDbLine
 10
109.5109316459
 20
127.423853903
 30
0.0
 11
108.7483299295
 21
127.617518747
 31
0.0
  0
ELLIPSE
  5
C3
330
1F
100
AcDbEntity
  8
0
  6
Continuous
 62
     7
370
    25
100
AcDbEllipse
 10
106.1789925476
 20
129.7871013778
 30
0.0
 11
2.624563836632404
 21
-0.09299290710396235
 31
0.0
210
0.0
220
0.0
230
1.0
 40
0.5145604229
 41
3.724506773059456
 42
4.040519244561067
  0
SPLINE
  5
C4
330
1F
100
AcDbEntity
  8
0
  6
Continuous
 62
     7
370
    25
100
AcDbSpline
210
0.0
220
0.0
230
1.0
 70
     8
 71
     3
 72
    10
 73
     6
 74
     0
 42
0.00000001
 43
0.00000001
 40
0.0
 40
0.0
 40
0.0
 40
0.0
 40
0.3230717489275927
 40
0.6617744482810137
 40
1.0
 40
1.0
 40
1.0
 40
1.0
 10
104.9838388857571
 20
127.1054537101029
 30
0.0
 10
104.9374623751746
 20
127.1221505529729
 30
0.0
 10
104.8424655523151
 20
127.1563520701746
 30
0.0
 10
104.7165734848497
 20
127.2640872402972
 30
0.0
 10
104.6592250825437
 20
127.358533368623
 30
0.0
 10
104.6305710930264
 20
127.4057231465797
 30
0.0
  0
ARC
  5
C5
330
1F
100
AcDbEntity
  8
0
  6
Continuous
 62
     7
370
    25
100
AcDbCircle
 10
108.5593688097
 20
123.129851313
 30
0.0
 40
2.42476127634299
100
AcDbArc
 50
252.3978397297
 51
302.8636406952
  0
LINE
  5
C6
330
1F
100
AcDbEntity
  8
0
  6
Continuous
 62
     7
370
    25
100
AcDbLine
 10
112.3261068647
 20
124.7157334549
 30
0.0
 11
110.1300629255
 21
125.3496767346
 31
0.0
  0
LWPOLYLINE
  5
C7
330
1F
100
AcDbEntity
  8
0
  6
Continuous
 62
     7
370
    25
100
AcDbPolyline
 90
        9
 70
   128
 43
0.0
 10
112.8751449703
 20
123.6912144021
 10
112.9965020589
 20
123.8251348031
 10
113.0632741567
 20
123.9683197579
 10
113.0728952495
 20
124.115266749
 10
113.0249956041
 20
124.2603286859
 10
112.921415977
 20
124.3979309197
 10
112.7661368751
 20
124.5227854738
 10
112.5651255873
 20
124.6300942577
 10
112.3261068647
 20
124.7157334549
  0
LINE
  5
C8
330
1F
100
AcDbEntity
  8
0
  6
Continuous
 62
     7
370
    25
100
AcDbLine
 10
109.8751449703
 20
121.0931381907
 30
0.0
 11
112.8751449703
 21
123.6912144021
 31
0.0
  0
LINE
  5
C9
330
1F
100
AcDbEntity
  8
0
  6
Continuous
 62
     7
370
    25
100
AcDbLine
 10
107.8261068647
 20
120.8186191379
 30
0.0
 11
100.0318782306
 21
123.0686191379
 31
0.0
  0
LWPOLYLINE
  5
CA
330
1F
100
AcDbEntity
  8
0
  6
Continuous
 62
     7
370
    25
100
AcDbPolyline
 90
        9
 70
   128
 43
0.0
 10
99.4828401249
 20
124.0931381907
 10
99.3614830364
 20
123.9592177897
 10
99.2947109385
 20
123.8160328349
 10
99.2850898457
 20
123.6690858438
 10
99.3329894912
 20
123.5240239069
 10
99.4365691183
 20
123.386421673
 10
99.5918482202
 20
123.261567119
 10
99.792859508
 20
123.1542583351
 10
100.0318782306
 20
123.0686191379
  0
LINE
  5
CB
330
1F
100
AcDbEntity
  8
0
  6
Continuous
 62
     7
370
    25
100
AcDbLine
 10
99.4828401249
 20
124.0931381907
 30
0.0
 11
102.2671448544
 21
126.5044168183
 31
0.0
  0
LINE
  5
CC
330
1F
100
AcDbEntity
  8
0
  6
Continuous
 62
     7
370
    25
100
AcDbLine
 10
99.4906123532
 20
112.8325642925
 30
0.0
 11
108.367372742
 21
110.2700642925
 31
0.0
  0
ELLIPSE
  5
CD
330
1F
100
AcDbEntity
  8
0
  6
Continuous
 62
     7
370
    25
100
AcDbEllipse
 10
106.1789925476
 20
126.7560124645
 30
0.0
 11
2.624563836632404
 21
-0.09299290710399079
 31
0.0
210
0.0
220
0.0
230
1.0
 40
0.5145604229
 41
3.811753714532369
 42
3.929085763756708
  0
ARC
  5
CE
330
1F
100
AcDbEntity
  8
0
  6
Continuous
 62
     7
370
    25
100
AcDbCircle
 10
109.1006346871
 20
112.5812964676
 30
0.0
 40
2.424761276342941
100
AcDbArc
 50
252.3978397297
 51
302.8636406952
  0
SPLINE
  5
CF
330
1F
100
AcDbEntity
  8
0
  6
Continuous
 62
     7
370
    25
100
AcDbSpline
210
0.0
220
0.0
230
1.0
 70
     8
 71
     3
 72
     9
 73
     5
 74
     0
 42
0.00000001
 43
0.00000001
 40
0.0
 40
0.0
 40
0.0
 40
0.0
 40
0.4093290715869297
 40
1.0
 40
1.0
 40
1.0
 40
1.0
 10
113.0613161095538
 20
122.8573905226795
 30
0.0
 10
113.0617292736734
 20
122.7819264590015
 30
0.0
 10
113.0627386427808
 20
122.597566077792
 30
0.0
 10
112.9448049651778
 20
122.4684445997175
 30
0.0
 10
112.8751449703369
 20
122.3921762963851
 30
0.0
  0
LINE
  5
D0
330
1F
100
AcDbEntity
  8
0
  6
Continuous
 62
     7
370
    25
100
AcDbLine
 10
110.4164108477
 20
110.5445833453
 30
0.0
 11
113.4164108477
 21
113.1426595566
 31
0.0
  0
LINE
  5
D1
330
1F
100
AcDbEntity
  8
0
  6
Continuous
 62
     7
370
    25
100
AcDbLine
 10
110.6430941628
 20
106.0046809226
 30
0.0
 11
110.6430941628
 21
110.7408968548
 31
0.0
  0
LINE
  5
D2
330
1F
100
AcDbEntity
  8
0
  6
Continuous
 62
     7
370
    25
100
AcDbLine
 10
110.6430941628
 20
106.0046809226
 30
0.0
 11
108.6430941628
 21
104.272630115
 31
0.0
  0
LINE
  5
D3
330
1F
100
AcDbEntity
  8
0
  6
Continuous
 62
     7
370
    25
100
AcDbLine
 10
108.6430941628
 20
104.272630115
 30
0.0
 11
108.6430941628
 21
110.2080603609
 31
0.0
  0
LWPOLYLINE
  5
D4
330
1F
100
AcDbEntity
  8
0
  6
Continuous
 62
     7
370
    25
100
AcDbPolyline
 90
       17
 70
   128
 43
0.0
 10
109.2680941628
 20
106.9789595018
 10
109.2966393381
 20
107.2522405293
 10
109.3779291198
 20
107.5333586917
 10
109.4995878756
 20
107.7795162969
 10
109.6430941628
 20
107.9532380811
 10
109.7866004499
 20
108.0280764774
 10
109.9082592057
 20
107.9926380184
 10
109.9895489875
 20
107.8523178882
 10
110.0180941628
 20
107.6284785547
 10
109.9895489875
 20
107.3551975272
 10
109.9082592057
 20
107.0740793649
 10
109.7866004499
 20
106.8279217596
 10
109.6430941628
 20
106.6541999754
 10
109.4995878756
 20
106.5793615791
 10
109.3779291198
 20
106.6148000381
 10
109.2966393381
 20
106.7551201683
 10
109.2680941628
 20
106.9789595018
  0
LINE
  5
D5
330
1F
100
AcDbEntity
  8
0
  6
Continuous
 62
     7
370
    25
100
AcDbLine
 10
108.6430941628
 20
104.272630115
 30
0.0
 11
107.9935751099
 21
104.460130115
 31
0.0
  0
LINE
  5
D6
330
1F
100
AcDbEntity
  8
0
  6
Continuous
 62
     7
370
    25
100
AcDbLine
 10
107.9935751099
 20
104.460130115
 30
0.0
 11
107.9935751099
 21
110.3779703742
 31
0.0
  0
LWPOLYLINE
  5
D7
330
1F
100
AcDbEntity
  8
0
  6
Continuous
 62
     7
370
    25
100
AcDbPolyline
 90
        7
 70
   128
 43
0.0
 10
99.4906123532
 20
112.8325642925
 10
99.2515936306
 20
112.9182034897
 10
99.0505823428
 20
113.0255122735
 10
98.8953032409
 20
113.1503668276
 10
98.7917236138
 20
113.2879690615
 10
98.7438239684
 20
113.4330309984
 10
98.7406123532
 20
113.4820833453
  0
ARC
  5
D8
330
1F
100
AcDbEntity
  8
0
  6
Continuous
 62
     7
370
    25
100
AcDbCircle
 10
113.1190621887
 20
113.5433558001
 30
0.0
 40
0.4989726490735502
100
AcDbArc
 50
306.5783701825
 51
357.0480589534
  0
LINE
  5
D9
330
1F
100
AcDbEntity
  8
0
  6
Continuous
 62
     7
370
    25
100
AcDbLine
 10
102.3644099853
 20
106.085130115
 30
0.0
 11
102.3644099853
 21
112.0029703742
 31
0.0
  0
LINE
  5
DA
330
1F
100
AcDbEntity
  8
0
  6
Continuous
 62
     7
370
    25
100
AcDbLine
 10
102.3644099853
 20
106.085130115
 30
0.0
 11
101.7148909325
 21
106.272630115
 31
0.0
  0
LINE
  5
DB
330
1F
100
AcDbEntity
  8
0
  6
Continuous
 62
     7
370
    25
100
AcDbLine
 10
101.7148909325
 20
106.272630115
 30
0.0
 11
101.7148909325
 21
112.1904703742
 31
0.0
  0
LINE
  5
DC
330
1F
100
AcDbEntity
  8
0
  6
Continuous
 62
     7
370
    25
100
AcDbLine
 10
104.3644099853
 20
107.8171809226
 30
0.0
 11
104.3644099853
 21
111.425620105
 31
0.0
  0
LINE
  5
DD
330
1F
100
AcDbEntity
  8
0
  6
Continuous
 62
     7
370
    25
100
AcDbLine
 10
104.3644099853
 20
107.8171809226
 30
0.0
 11
102.3644099853
 21
106.085130115
 31
0.0
  0
LWPOLYLINE
  5
DE
330
1F
100
AcDbEntity
  8
0
  6
Continuous
 62
     7
370
    25
100
AcDbPolyline
 90
       17
 70
   128
 43
0.0
 10
103.3644099853
 20
108.4666999754
 10
103.2209036982
 20
108.3918615791
 10
103.0992449424
 20
108.4273000381
 10
103.0179551606
 20
108.5676201683
 10
102.9894099853
 20
108.7914595018
 10
103.0179551606
 20
109.0647405293
 10
103.0992449424
 20
109.3458586917
 10
103.2209036982
 20
109.5920162969
 10
103.3644099853
 20
109.7657380811
 10
103.5079162725
 20
109.8405764774
 10
103.6295750283
 20
109.8051380184
 10
103.71086481
 20
109.6648178882
 10
103.7394099853
 20
109.4409785547
 10
103.71086481
 20
109.1676975272
 10
103.6295750283
 20
108.8865793649
 10
103.5079162725
 20
108.6404217596
 10
103.3644099853
 20
108.4666999754
  0
SPLINE
  5
DF
330
1F
100
AcDbEntity
  8
0
  6
Continuous
 62
     7
370
    25
100
AcDbSpline
210
0.0
220
0.0
230
1.0
 70
     8
 71
     3
 72
    10
 73
     6
 74
     0
 42
0.00000001
 43
0.00000001
 40
0.0
 40
0.0
 40
0.0
 40
0.0
 40
0.5
 40
0.5
 40
1.0
 40
1.0
 40
1.0
 40
1.0
 10
116.8394597371935
 20
203.2241996325123
 30
0.0
 10
116.8370354521623
 20
204.3587383506941
 30
0.0
 10
116.3694345458253
 20
205.6148461349514
 30
0.0
 10
114.7674903520666
 20
207.6792317844515
 30
0.0
 10
113.6461630499891
 20
208.470736273033
 30
0.0
 10
112.511970514655
 20
208.8009273888246
 30
0.0
  0
ELLIPSE
  5
E0
330
1F
100
AcDbEntity
  8
0
  6
Continuous
 62
     7
370
    25
100
AcDbEllipse
 10
115.4322784125
 20
206.977502012
 30
0.0
 11
-3.274421013502306
 21
3.778687694849168
 31
0.0
210
0.0
220
0.0
230
1.0
 40
0.7509046167
 41
3.855604862788272
 42
5.425210690780836
  0
LWPOLYLINE
  5
E1
330
1F
100
AcDbEntity
  8
0
  6
Continuous
 62
     7
370
    25
100
AcDbPolyline
 90
       17
 70
   128
 43
0.0
 10
110.3044918642
 20
193.1142549265
 10
110.3539335582
 20
193.3485425194
 10
110.4947315903
 20
193.5186167748
 10
110.7054507366
 20
193.598585429
 10
110.9540109171
 20
193.5762739794
 10
111.2025710976
 20
193.4550791418
 10
111.4132902439
 20
193.2534517318
 10
111.554088276
 20
193.0020876947
 10
111.6035299699
 20
192.7392549265
 10
111.554088276
 20
192.5049673336
 10
111.4132902439
 20
192.3348930783
 10
111.2025710976
 20
192.2549244241
 10
110.9540109171
 20
192.2772358737
 10
110.7054507366
 20
192.3984307112
 10
110.4947315903
 20
192.6000581212
 10
110.3539335582
 20
192.8514221583
 10
110.3044918642
 20
193.1142549265
  0
LINE
  5
E2
330
1F
100
AcDbEntity
  8
0
  6
Continuous
 62
     7
370
    25
100
AcDbLine
 10
112.5119705147
 20
208.8009273888
 30
0.0
 11
83.8285643437
 21
217.0811135259
 31
0.0
  0
LINE
  5
E3
330
1F
100
AcDbEntity
  8
0
  6
Continuous
 62
     7
370
    25
100
AcDbLine
 10
111.5378120714
 20
212.4345040287
 30
0.0
 11
111.0401332989
 21
211.9733996937
 31
0.0
  0
LINE
  5
E4
330
1F
100
AcDbEntity
  8
0
  6
Continuous
 62
     7
370
    25
100
AcDbLine
 10
115.4374762469
 20
211.3087679476
 30
0.0
 11
111.5378120701
 21
212.4345040274
 31
0.0
  0
LINE
  5
E5
330
1F
100
AcDbEntity
  8
0
  6
Continuous
 62
     7
370
    25
100
AcDbLine
 10
89.8225109062
 20
218.7031715169
 30
0.0
 11
86.4205083602
 21
219.6852450594
 31
0.0
  0
LINE
  5
E6
330
1F
100
AcDbEntity
  8
0
  6
Continuous
 62
     7
370
    25
100
AcDbLine
 10
99.7818030497
 20
215.2233996937
 30
0.0
 11
89.8225109062
 21
218.0983996937
 31
0.0
  0
LINE
  5
E7
330
1F
100
AcDbEntity
  8
0
  6
Continuous
 62
     7
370
    25
100
AcDbLine
 10
100.2794818236
 20
215.6845040299
 30
0.0
 11
99.7818030497
 21
215.2233996937
 31
0.0
  0
LINE
  5
E8
330
1F
100
AcDbEntity
  8
0
  6
Continuous
 62
     7
370
    25
100
AcDbLine
 10
101.0808411554
 20
215.4531715169
 30
0.0
 11
100.2794818236
 21
215.6845040299
 31
0.0
  0
LINE
  5
E9
330
1F
100
AcDbEntity
  8
0
  6
Continuous
 62
     7
370
    25
100
AcDbLine
 10
111.0401332989
 20
211.9733996937
 30
0.0
 11
101.0808411554
 21
214.8483996937
 31
0.0
  0
LINE
  5
EA
330
1F
100
AcDbEntity
  8
0
  6
Continuous
 62
     7
370
    25
100
AcDbLine
 10
116.8394597372
 20
158.0863114607
 30
0.0
 11
116.8394597372
 21
203.2241996325
 31
0.0
  0
LINE
  5
EB
330
1F
100
AcDbEntity
  8
0
  6
Continuous
 62
     7
370
    25
100
AcDbLine
 10
119.7650448357
 20
160.2604079908
 30
0.0
 11
119.7650448356
 21
205.7319775998
 31
0.0
  0
LINE
  5
EC
330
1F
100
AcDbEntity
  8
0
  6
Continuous
 62
     7
370
    25
100
AcDbLine
 10
111.0401332989
 20
211.9733996937
 30
0.0
 11
111.0401332989
 21
212.7748694026
 31
0.0
  0
LWPOLYLINE
  5
ED
330
1F
100
AcDbEntity
  8
0
  6
Continuous
 62
     7
370
    25
100
AcDbPolyline
 90
       12
 70
   128
 43
0.0
 10
112.040117404
 20
215.5806724481
 10
111.862082325
 20
215.6328815567
 10
111.6576393858
 20
215.5667178372
 10
111.4434379722
 20
215.3875695181
 10
111.236922179
 20
215.110026047
 10
111.0549102008
 20
214.7566899571
 10
110.9122246951
 20
214.356336167
 10
110.8204856574
 20
213.9415686139
 10
110.7871641145
 20
213.5461650603
 10
110.8149736998
 20
213.202326307
 10
110.9016496615
 20
212.9380538302
 10
111.0401332989
 20
212.7748694026
  0
LINE
  5
EE
330
1F
100
AcDbEntity
  8
0
  6
Continuous
 62
     7
370
    25
100
AcDbLine
 10
111.5378120728
 20
212.4345040298
 30
0.0
 11
111.5378120728
 21
212.6180956306
 31
0.0
  0
LWPOLYLINE
  5
EF
330
1F
100
AcDbEntity
  8
0
  6
Continuous
 62
     7
370
    25
100
AcDbPolyline
 90
       12
 70
   128
 43
0.0
 10
101.9949396739
 20
218.4968654402
 10
101.9027901815
 20
218.5078815567
 10
101.6983472423
 20
218.4417178372
 10
101.4841458287
 20
218.2625695181
 10
101.2776300355
 20
217.985026047
 10
101.0956180573
 20
217.6316899571
 10
100.9529325516
 20
217.231336167
 10
100.8611935139
 20
216.8165686139
 10
100.8278719709
 20
216.4211650603
 10
100.8556815562
 20
216.077326307
 10
100.942357518
 20
215.8130538302
 10
101.0808411554
 20
215.6498694026
  0
LINE
  5
F0
330
1F
100
AcDbEntity
  8
0
  6
Continuous
 62
     7
370
    25
100
AcDbLine
 10
111.0401332989
 20
212.7748694026
 30
0.0
 11
101.0808411554
 21
215.6498694026
 31
0.0
  0
LINE
  5
F1
330
1F
100
AcDbEntity
  8
0
  6
Continuous
 62
     7
370
    25
100
AcDbLine
 10
101.0808411554
 20
215.6498694026
 30
0.0
 11
101.0808411554
 21
214.8483996937
 31
0.0
  0
LINE
  5
F2
330
1F
100
AcDbEntity
  8
0
  6
Continuous
 62
     7
370
    25
100
AcDbLine
 10
99.7818030497
 20
215.2233996937
 30
0.0
 11
99.7818030497
 21
216.0248694026
 31
0.0
  0
LWPOLYLINE
  5
F3
330
1F
100
AcDbEntity
  8
0
  6
Continuous
 62
     7
370
    25
100
AcDbPolyline
 90
       12
 70
   128
 43
0.0
 10
99.7818030497
 20
216.0248694026
 10
99.6433194123
 20
216.1880538302
 10
99.5566434506
 20
216.452326307
 10
99.5288338653
 20
216.7961650603
 10
99.5621554082
 20
217.1915686139
 10
99.6538944459
 20
217.606336167
 10
99.7965799516
 20
218.0066899571
 10
99.9785919298
 20
218.360026047
 10
100.185107723
 20
218.6375695181
 10
100.3993091366
 20
218.8167178372
 10
100.6037520758
 20
218.8828815567
 10
100.7817871548
 20
218.8306724481
  0
LINE
  5
F4
330
1F
100
AcDbEntity
  8
0
  6
Continuous
 62
     7
370
    25
100
AcDbLine
 10
100.2794818236
 20
215.6845040299
 30
0.0
 11
100.2794818236
 21
215.8680956306
 31
0.0
  0
LINE
  5
F5
330
1F
100
AcDbEntity
  8
0
  6
Continuous
 62
     7
370
    25
100
AcDbLine
 10
99.7818030497
 20
216.0248694026
 30
0.0
 11
89.8225109062
 21
218.8998694026
 31
0.0
  0
LWPOLYLINE
  5
F6
330
1F
100
AcDbEntity
  8
0
  6
Continuous
 62
     7
370
    25
100
AcDbPolyline
 90
       12
 70
   128
 43
0.0
 10
89.8225109062
 20
218.8998694026
 10
89.6840272688
 20
219.0630538302
 10
89.597351307
 20
219.327326307
 10
89.5695417217
 20
219.6711650603
 10
89.6028632647
 20
220.0665686139
 10
89.6946023024
 20
220.481336167
 10
89.8372878081
 20
220.8816899571
 10
90.0192997863
 20
221.235026047
 10
90.2258155795
 20
221.5125695181
 10
90.4400169931
 20
221.6917178372
 10
90.6444599323
 20
221.7578815567
 10
90.7366094247
 20
221.7468654402
  0
ARC
  5
F7
330
1F
100
AcDbEntity
  8
0
  6
Continuous
 62
     7
370
    25
100
AcDbCircle
 10
111.7545889467
 20
193.6203186672
 30
0.0
 40
0.9005885889570684
100
AcDbArc
 50
181.8930356921
 51
260.3416506142
  0
LINE
  5
F8
330
1F
100
AcDbEntity
  8
0
  6
Continuous
 62
     7
370
    25
100
AcDbLine
 10
89.8225109062
 20
218.0983996937
 30
0.0
 11
89.8225109062
 21
218.8998694026
 31
0.0
  0
LINE
  5
F9
330
1F
100
AcDbEntity
  8
0
  6
Continuous
 62
     7
370
    25
100
AcDbLine
 10
80.414527648
 20
216.3716861016
 30
0.0
 11
80.3511277149
 21
216.313361363
 31
0.0
  0
ELLIPSE
  5
FA
330
1F
100
AcDbEntity
  8
0
  6
Continuous
 62
     7
370
    25
100
AcDbEllipse
 10
86.4257061942
 20
215.3509781512
 30
0.0
 11
-3.276113097571922
 21
3.785200689367171
 31
0.0
210
0.0
220
0.0
230
1.0
 40
0.7490963921
 41
5.427013457225403
 42
6.338915175301114
  0
SPLINE
  5
FB
330
1F
100
AcDbEntity
  8
0
  6
Continuous
 62
     7
370
    25
100
AcDbSpline
210
0.0
220
0.0
230
1.0
 70
     8
 71
     3
 72
     9
 73
     5
 74
     0
 42
0.00000001
 43
0.00000001
 40
0.0
 40
0.0
 40
0.0
 40
0.0
 40
0.9446744805753738
 40
0.9999999999999999
 40
0.9999999999999999
 40
0.9999999999999999
 40
0.9999999999999999
 10
115.0391527641054
 20
155.1038426152547
 30
0.0
 10
115.2299377085293
 20
155.1803045480733
 30
0.0
 10
115.431896106207
 20
155.2612445272838
 30
0.0
 10
115.5856197743925
 20
155.4046277045207
 30
0.0
 10
115.5941246161826
 20
155.4125604532782
 30
0.0
  0
ELLIPSE
  5
FC
330
1F
100
AcDbEntity
  8
0
  6
Continuous
 62
     7
370
    25
100
AcDbEllipse
 10
115.4322784125
 20
161.5164471217
 30
0.0
 11
-3.276113097571922
 21
3.785200689367171
 31
0.0
210
0.0
220
0.0
230
1.0
 40
0.7490963921
 41
3.085862785468268
 42
3.855017473047147
  0
ELLIPSE
  5
FD
330
1F
100
AcDbEntity
  8
0
  6
Continuous
 62
     7
370
    25
100
AcDbEllipse
 10
115.4334334817
 20
161.5149586128
 30
0.0
 11
-3.27486737548466
 21
3.782770582401838
 31
0.0
210
0.0
220
0.0
230
1.0
 40
0.7494915063
 41
3.18342330027098
 42
3.855148814607432
  0
ELLIPSE
  5
FE
330
1F
100
AcDbEntity
  8
0
  6
Continuous
 62
     7
370
    25
100
AcDbEllipse
 10
86.424551125
 20
215.3524666602
 30
0.0
 11
-3.274867375484676
 21
3.782770582401839
 31
0.0
210
0.0
220
0.0
230
1.0
 40
0.7494915063
 41
5.492887749150679
 42
6.241354660498439
  0
SPLINE
  5
FF
330
1F
100
AcDbEntity
  8
0
  6
Continuous
 62
     7
370
    25
100
AcDbSpline
210
0.0
220
0.0
230
1.0
 70
     8
 71
     3
 72
     9
 73
     5
 74
     0
 42
0.00000001
 43
0.00000001
 40
0.0
 40
0.0
 40
0.0
 40
0.0
 40
0.5005814447754778
 40
1.0
 40
1.0
 40
1.0
 40
1.0
 10
86.42050835841269
 20
219.6852450603137
 30
0.0
 10
86.37279533064573
 20
219.6986127091878
 30
0.0
 10
86.27748011617892
 20
219.7253169528501
 30
0.0
 10
86.18232102092388
 20
219.7472746983497
 30
0.0
 10
86.1347968030552
 20
219.7582408038831
 30
0.0
  0
LINE
  5
100
330
1F
100
AcDbEntity
  8
0
  6
Continuous
 62
     7
370
    25
100
AcDbLine
 10
86.4205083563
 20
219.6852450609
 30
0.0
 11
89.107094515
 21
218.90969444
 31
0.0
  0
LINE
  5
101
330
1F
100
AcDbEntity
  8
0
  6
Continuous
 62
     7
370
    25
100
AcDbLine
 10
89.107094515
 20
219.0932860406
 30
0.0
 11
89.107094515
 21
218.90969444
 31
0.0
  0
LINE
  5
102
330
1F
100
AcDbEntity
  8
0
  6
Continuous
 62
     7
370
    25
100
AcDbLine
 10
100.2794818236
 20
215.6845040299
 30
0.0
 11
100.3660843639
 21
215.6595040299
 31
0.0
  0
LINE
  5
103
330
1F
100
AcDbEntity
  8
0
  6
Continuous
 62
     7
370
    25
100
AcDbLine
 10
100.3660843639
 20
215.8430956306
 30
0.0
 11
100.3660843639
 21
215.6595040299
 31
0.0
  0
LINE
  5
104
330
1F
100
AcDbEntity
  8
0
  6
Continuous
 62
     7
370
    25
100
AcDbLine
 10
111.5378120728
 20
212.4345040299
 30
0.0
 11
111.6677158833
 21
212.3970040299
 31
0.0
  0
LINE
  5
105
330
1F
100
AcDbEntity
  8
0
  6
Continuous
 62
     7
370
    25
100
AcDbLine
 10
111.6677158833
 20
212.5805956306
 30
0.0
 11
111.6677158833
 21
212.3970040299
 31
0.0
  0
LINE
  5
106
330
1F
100
AcDbEntity
  8
0
  6
Continuous
 62
     7
370
    25
100
AcDbLine
 10
112.8591604133
 20
212.0530636199
 30
0.0
 11
112.8591604133
 21
212.4988666144
 31
0.0
  0
LINE
  5
107
330
1F
100
AcDbEntity
  8
0
  6
Continuous
 62
     7
370
    25
100
AcDbLine
 10
112.8591604133
 20
212.0530636199
 30
0.0
 11
115.4374762483
 21
211.3087678825
 31
0.0
  0
ELLIPSE
  5
108
330
1F
100
AcDbEntity
  8
0
  6
Continuous
 62
     7
370
    25
100
AcDbEllipse
 10
115.4334334817
 20
206.9783236414
 30
0.0
 11
-3.2739156501884
 21
3.779107361563007
 31
0.0
210
0.0
220
0.0
230
1.0
 40
0.750508813
 41
3.855741682425482
 42
5.425347446504389
  0
LINE
  5
109
330
1F
100
AcDbEntity
  8
0
  6
Continuous
 62
     7
370
    25
100
AcDbLine
 10
119.765044764
 20
205.7319776205
 30
0.0
 11
119.7650448357
 21
160.2615619608
 31
0.0
  0
SPLINE
  5
10A
330
1F
100
AcDbEntity
  8
0
  6
Continuous
 62
     7
370
    25
100
AcDbSpline
210
0.0
220
0.0
230
1.0
 70
     8
 71
     3
 72
    10
 73
     6
 74
     0
 42
0.00000001
 43
0.00000001
 40
0.0
 40
0.0
 40
0.0
 40
0.0
 40
0.5
 40
0.5
 40
1.0
 40
1.0
 40
1.0
 40
1.0
 10
123.0798062912677
 20
217.9846386475582
 30
0.0
 10
124.2181455317341
 20
217.6579322300775
 30
0.0
 10
125.3421398955853
 20
216.8681563816781
 30
0.0
 10
126.9446278173709
 20
214.8030700433812
 30
0.0
 10
127.4100878086084
 20
213.5445555868033
 30
0.0
 10
127.4084494838081
 20
212.4064237987985
 30
0.0
  0
SPLINE
  5
10B
330
1F
100
AcDbEntity
  8
0
  6
Continuous
 62
     7
370
    25
100
AcDbSpline
210
0.0
220
0.0
230
1.0
 70
     8
 71
     3
 72
    33
 73
    29
 74
     0
 42
0.00000001
 43
0.00000001
 40
0.0
 40
0.0
 40
0.0
 40
0.0
 40
0.0120381751814673
 40
0.0240360578955985
 40
0.0360229031598862
 40
0.0480280466827075
 40
0.0600806905612359
 40
0.0918152377381614
 40
0.1235937392291994
 40
0.1560789340945994
 40
0.1886071867813763
 40
0.2527230331574108
 40
0.3139928745427832
 40
0.3729870302618321
 40
0.4354080275691437
 40
0.5000173026433216
 40
0.5646244517010206
 40
0.6270399034456834
 40
0.6860269621960657
 40
0.7472892958216268
 40
0.8113991345218069
 40
0.8438829667877156
 40
0.8764100877083137
 40
0.9081455340249871
 40
0.9399247888987449
 40
0.9599626688137824
 40
0.9799423946832967
 40
1.0
 40
1.0
 40
1.0
 40
1.0
 10
113.4575463413429
 20
215.076094795148
 30
0.0
 10
113.4506050145602
 20
215.0872479906926
 30
0.0
 10
113.4367455940162
 20
215.1095170513925
 30
0.0
 10
113.4141876361292
 20
215.1388873521903
 30
0.0
 10
113.3904019138965
 20
215.1651846762547
 30
0.0
 10
113.3652560508656
 20
215.1881285410597
 30
0.0
 10
113.3244580284927
 20
215.2184563089322
 30
0.0
 10
113.2647241613658
 20
215.2466101561748
 30
0.0
 10
113.1818679317886
 20
215.2573206591443
 30
0.0
 10
113.0927320611177
 20
215.2429845184079
 30
0.0
 10
112.9683541656276
 20
215.189606492823
 30
0.0
 10
112.8097074235659
 20
215.063874723824
 30
0.0
 10
112.6281287193461
 20
214.8352590082976
 30
0.0
 10
112.4625612471835
 20
214.5452196562084
 30
0.0
 10
112.3188076301035
 20
214.2020664280718
 30
0.0
 10
112.2074456371454
 20
213.820617349349
 30
0.0
 10
112.1413086085736
 20
213.4375899830467
 30
0.0
 10
112.1246845009856
 20
213.0900019147172
 30
0.0
 10
112.1539918175762
 20
212.79316812258
 30
0.0
 10
112.2273487954119
 20
212.5556671759724
 30
0.0
 10
112.3255071961738
 20
212.4210246427525
 30
0.0
 10
112.4232920243485
 20
212.3598868324428
 30
0.0
 10
112.5043529676709
 20
212.3396082930809
 30
0.0
 10
112.5908500244633
 20
212.3444197886609
 30
0.0
 10
112.670162916639
 20
212.3704252135399
 30
0.0
 10
112.740084794698
 20
212.4075564555342
 30
0.0
 10
112.7994135161621
 20
212.4474704930514
 30
0.0
 10
112.8392189714569
 20
212.4817123718785
 30
0.0
 10
112.8591604133088
 20
212.4988666144434
 30
0.0
  0
SPLINE
  5
10C
330
1F
100
AcDbEntity
  8
0
  6
Continuous
 62
     7
370
    25
100
AcDbSpline
210
0.0
220
0.0
230
1.0
 70
     8
 71
     3
 72
    20
 73
    16
 74
     0
 42
0.00000001
 43
0.00000001
 40
0.0
 40
0.0
 40
0.0
 40
0.0
 40
0.0580339367644312
 40
0.1397518437995589
 40
0.2214697508346869
 40
0.3031876578698159
 40
0.3849055649049425
 40
0.4666234719400706
 40
0.5483413789751995
 40
0.6300592860103272
 40
0.7117771930454551
 40
0.793495100080583
 40
0.8752130071157109
 40
0.956930914150839
 40
1.0
 40
1.0
 40
1.0
 40
1.0
 10
111.2547345192296
 20
212.7103814388013
 30
0.0
 10
111.2169587986601
 20
212.7220855761201
 30
0.0
 10
111.1259908772202
 20
212.7502703738708
 30
0.0
 10
111.0194656175055
 20
212.9024190122925
 30
0.0
 10
110.9403033782685
 20
213.1395308898332
 30
0.0
 10
110.9098266073584
 20
213.4457109385284
 30
0.0
 10
110.9287620807991
 20
213.796620923851
 30
0.0
 10
110.9962113067365
 20
214.1704090823959
 30
0.0
 10
111.1076528174839
 20
214.5422358714436
 30
0.0
 10
111.2558387482249
 20
214.887923979617
 30
0.0
 10
111.4309258070096
 20
215.1843629698521
 30
0.0
 10
111.6218969060428
 20
215.4137234087749
 30
0.0
 10
111.8145219647369
 20
215.5550090834832
 30
0.0
 10
111.9729154587691
 20
215.6107651742507
 30
0.0
 10
112.0527941455891
 20
215.5813261278959
 30
0.0
 10
112.0803635415706
 20
215.5711655111083
 30
0.0
  0
LINE
  5
10D
330
1F
100
AcDbEntity
  8
0
  6
Continuous
 62
     7
370
    25
100
AcDbLine
 10
113.974228148
 20
213.0067303748
 30
0.0
 11
112.8591604133
 21
212.0530636199
 31
0.0
  0
LINE
  5
10E
330
1F
100
AcDbEntity
  8
0
  6
Continuous
 62
     7
370
    25
100
AcDbLine
 10
113.974228148
 20
213.0067303748
 30
0.0
 11
113.4575463413
 21
215.0760947951
 31
0.0
  0
LINE
  5
10F
330
1F
100
AcDbEntity
  8
0
  6
Continuous
 62
     7
370
    25
100
AcDbLine
 10
103.8070529349
 20
221.0449168173
 30
0.0
 11
105.0637123692
 21
222.0688319757
 31
0.0
  0
LINE
  5
110
330
1F
100
AcDbEntity
  8
0
  6
Continuous
 62
     7
370
    25
100
AcDbLine
 10
109.5509316719
 20
219.3868018498
 30
0.0
 11
103.8070529349
 21
221.0449168173
 31
0.0
  0
LINE
  5
111
330
1F
100
AcDbEntity
  8
0
  6
Continuous
 62
     7
370
    25
100
AcDbLine
 10
110.7942722375
 20
220.4145618344
 30
0.0
 11
109.5509316719
 21
219.3868018498
 31
0.0
  0
LINE
  5
112
330
1F
100
AcDbEntity
  8
0
  6
Continuous
 62
     7
370
    25
100
AcDbLine
 10
105.0637123692
 20
222.0688319757
 30
0.0
 11
110.7942722375
 21
220.4145618344
 31
0.0
  0
LINE
  5
113
330
1F
100
AcDbEntity
  8
0
  6
Continuous
 62
     7
370
    25
100
AcDbLine
 10
94.7912667896
 20
226.1508365957
 30
0.0
 11
123.0798062913
 21
217.9846386476
 31
0.0
  0
LINE
  5
114
330
1F
100
AcDbEntity
  8
0
  6
Continuous
 62
     7
370
    25
100
AcDbLine
 10
127.4084494838
 20
212.4064237988
 30
0.0
 11
127.4084494838
 21
167.6634016252
 31
0.0
  0
SPLINE
  5
115
330
1F
100
AcDbEntity
  8
0
  6
Continuous
 62
     7
370
    25
100
AcDbSpline
210
0.0
220
0.0
230
1.0
 70
     8
 71
     3
 72
    20
 73
    16
 74
     0
 42
0.00000001
 43
0.00000001
 40
0.0
 40
0.0
 40
0.0
 40
0.0
 40
0.0580339367649396
 40
0.1397518438000281
 40
0.2214697508351177
 40
0.3031876578702056
 40
0.3849055649052952
 40
0.4666234719403837
 40
0.548341378975473
 40
0.6300592860105616
 40
0.7117771930456502
 40
0.7934951000807391
 40
0.8752130071158281
 40
0.9569309141509171
 40
1.0
 40
1.0
 40
1.0
 40
1.0
 10
101.0789360247619
 20
215.6478814388012
 30
0.0
 10
101.0411603041921
 20
215.6595855761203
 30
0.0
 10
100.950192382752
 20
215.6877703738714
 30
0.0
 10
100.8436671230373
 20
215.8399190122937
 30
0.0
 10
100.7645048838008
 20
216.0770308898347
 30
0.0
 10
100.7340281128907
 20
216.3832109385301
 30
0.0
 10
100.7529635863317
 20
216.7341209238527
 30
0.0
 10
100.8204128122693
 20
217.1079090823974
 30
0.0
 10
100.9318543230167
 20
217.4797358714449
 30
0.0
 10
101.0800402537578
 20
217.825423979618
 30
0.0
 10
101.2551273125424
 20
218.1218629698528
 30
0.0
 10
101.4460984115755
 20
218.3512234087754
 30
0.0
 10
101.6387234702696
 20
218.4925090834834
 30
0.0
 10
101.7971169643017
 20
218.5482651742508
 30
0.0
 10
101.8769956511216
 20
218.518826127896
 30
0.0
 10
101.904565047103
 20
218.5086655111085
 30
0.0
  0
SPLINE
  5
116
330
1F
100
AcDbEntity
  8
0
  6
Continuous
 62
     7
370
    25
100
AcDbSpline
210
0.0
220
0.0
230
1.0
 70
     8
 71
     3
 72
    20
 73
    16
 74
     0
 42
0.00000001
 43
0.00000001
 40
0.0
 40
0.0
 40
0.0
 40
0.0
 40
0.0430690858491617
 40
0.1247869928842896
 40
0.2065048999194174
 40
0.2882228069545453
 40
0.369940713989673
 40
0.4516586210248007
 40
0.5333765280599295
 40
0.6150944350950576
 40
0.6968123421301842
 40
0.7785302491653131
 40
0.860248156200441
 40
0.9419660632355686
 40
1.0
 40
1.0
 40
1.0
 40
1.0
 10
100.7787320221836
 20
218.8336655111083
 30
0.0
 10
100.7511626262022
 20
218.8438261278959
 30
0.0
 10
100.6712839393822
 20
218.8732651742507
 30
0.0
 10
100.5128904453499
 20
218.8175090834832
 30
0.0
 10
100.3202653866559
 20
218.6762234087749
 30
0.0
 10
100.1292942876227
 20
218.446862969852
 30
0.0
 10
99.95420722883802
 20
218.150423979617
 30
0.0
 10
99.80602129809685
 20
217.8047358714435
 30
0.0
 10
99.69457978734958
 20
217.4329090823958
 30
0.0
 10
99.6271305614122
 20
217.059120923851
 30
0.0
 10
99.60819508797137
 20
216.7082109385284
 30
0.0
 10
99.63867185888175
 20
216.4020308898331
 30
0.0
 10
99.71783409811863
 20
216.1649190122924
 30
0.0
 10
99.82435935783313
 20
216.0127703738708
 30
0.0
 10
99.9153272792731
 20
215.9845855761201
 30
0.0
 10
99.95310299984256
 20
215.9728814388013
 30
0.0
  0
SPLINE
  5
117
330
1F
100
AcDbEntity
  8
0
  6
Continuous
 62
     7
370
    25
100
AcDbSpline
210
0.0
220
0.0
230
1.0
 70
     8
 71
     3
 72
    21
 73
    17
 74
     0
 42
0.00000001
 43
0.00000001
 40
0.0
 40
0.0
 40
0.0
 40
0.0
 40
0.0095342647047857
 40
0.0874612648874589
 40
0.1653882650701325
 40
0.243315265252806
 40
0.3212422654354793
 40
0.3991692656181523
 40
0.477096265800826
 40
0.5550232659834996
 40
0.6329502661661726
 40
0.7108772663488466
 40
0.7888042665315191
 40
0.8667312667141933
 40
0.9446582668968664
 40
1.0
 40
1.0
 40
1.0
 40
1.0
 10
90.69456543307308
 20
221.7339321093229
 30
0.0
 10
90.68939365595568
 20
221.7396570161813
 30
0.0
 10
90.64195107045886
 20
221.7921736612186
 30
0.0
 10
90.51975473748215
 20
221.8045608041021
 30
0.0
 10
90.33853221692323
 20
221.7594676263241
 30
0.0
 10
90.14408097406617
 20
221.6125287458217
 30
0.0
 10
89.95359919960471
 20
221.3846830788264
 30
0.0
 10
89.77838102669622
 20
221.0878382066769
 30
0.0
 10
89.63023022787876
 20
220.7422588542354
 30
0.0
 10
89.5187793035605
 20
220.3704029241761
 30
0.0
 10
89.45133259998322
 20
219.9966225739471
 30
0.0
 10
89.43239645067175
 20
219.6457104963736
 30
0.0
 10
89.46287340270365
 20
219.3395310083662
 30
0.0
 10
89.54203559332308
 20
219.1024189803241
 30
0.0
 10
89.64856086509492
 20
218.9502703792268
 30
0.0
 10
89.73952878531271
 20
218.9220855776916
 30
0.0
 10
89.77730450537491
 20
218.9103814388012
 30
0.0
  0
SPLINE
  5
118
330
1F
100
AcDbEntity
  8
0
  6
Continuous
 62
     7
370
    25
100
AcDbSpline
210
0.0
220
0.0
230
1.0
 70
     8
 71
     3
 72
    20
 73
    16
 74
     0
 42
0.00000001
 43
0.00000001
 40
0.0
 40
0.0
 40
0.0
 40
0.0
 40
0.0591249209767903
 40
0.1430214903739774
 40
0.2231917065008212
 40
0.300384411525885
 40
0.3820636418113015
 40
0.4666110104269469
 40
0.5511611612284882
 40
0.6328476486477715
 40
0.7100496410355339
 40
0.7902296821019602
 40
0.8741341133719033
 40
0.9590224520387352
 40
1.0
 40
1.0
 40
1.0
 40
1.0
 10
88.68195986621747
 20
219.227725723228
 30
0.0
 10
88.64222235881437
 20
219.2397270242834
 30
0.0
 10
88.54609846657668
 20
219.2687578277926
 30
0.0
 10
88.43660491206057
 20
219.4258661693235
 30
0.0
 10
88.35777772421388
 20
219.6619392370625
 30
0.0
 10
88.32687376529647
 20
219.960007888687
 30
0.0
 10
88.34446899493759
 20
220.3070962797331
 30
0.0
 10
88.41475004318522
 20
220.688995057588
 30
0.0
 10
88.5330432982438
 20
221.0684035373401
 30
0.0
 10
88.6857874641066
 20
221.4090477686117
 30
0.0
 10
88.86158529981559
 20
221.6958410706299
 30
0.0
 10
89.05484586606005
 20
221.92221880667
 30
0.0
 10
89.25647791759245
 20
222.0661925063781
 30
0.0
 10
89.42261939220303
 20
222.1219859860359
 30
0.0
 10
89.50517856397983
 20
222.090220471606
 30
0.0
 10
89.53205695423915
 20
222.0798787267064
 30
0.0
  0
LINE
  5
119
330
1F
100
AcDbEntity
  8
0
  6
Continuous
 62
     7
370
    25
100
AcDbLine
 10
127.4690409275
 20
167.7826913153
 30
0.0
 11
127.4689270719
 21
167.7773564629
 31
0.0
  0
SPLINE
  5
11A
330
1F
100
AcDbEntity
  8
0
  6
Continuous
 62
     7
370
    25
100
AcDbSpline
210
0.0
220
0.0
230
1.0
 70
     8
 71
     3
 72
    12
 73
     8
 74
     0
 42
0.00000001
 43
0.00000001
 40
0.0
 40
0.0
 40
0.0
 40
0.0
 40
0.0363572820856041
 40
0.2673884330142348
 40
0.5050014058181854
 40
0.7492031792510272
 40
1.0
 40
1.0
 40
1.0
 40
1.0
 10
91.65144829224903
 20
225.6938910629687
 30
0.0
 10
91.67830941403781
 20
225.7193620706331
 30
0.0
 10
91.87585864907626
 20
225.9066877571526
 30
0.0
 10
92.35853362604163
 20
226.1278031230892
 30
0.0
 10
93.08819587599237
 20
226.3258005061792
 30
0.0
 10
93.91590080760525
 20
226.3527189434199
 30
0.0
 10
94.4968978502489
 20
226.2187257915215
 30
0.0
 10
94.79126678962018
 20
226.1508365956869
 30
0.0
  0
LINE
  5
11B
330
1F
100
AcDbEntity
  8
0
  6
Continuous
 62
     7
370
    25
100
AcDbLine
 10
105.2265952928
 20
220.6351302361
 30
0.0
 11
105.0637123692
 21
222.0688319757
 31
0.0
  0
SPLINE
  5
11C
330
1F
100
AcDbEntity
  8
0
  6
Continuous
 62
     7
370
    25
100
AcDbSpline
210
0.0
220
0.0
230
1.0
 70
     8
 71
     3
 72
    11
 73
     7
 74
     0
 42
0.00000001
 43
0.00000001
 40
0.0
 40
0.0
 40
0.0
 40
0.0
 40
0.3041854921257567
 40
0.6003704605361762
 40
0.8885624808877631
 40
1.0
 40
1.0
 40
1.0
 40
1.0
 10
127.4084494838082
 20
167.6634016252467
 30
0.0
 10
127.3918781821782
 20
167.3733624812738
 30
0.0
 10
127.3591714284085
 20
166.8009126473791
 30
0.0
 10
127.0847717931398
 20
166.0600219353108
 30
0.0
 10
126.7805054080524
 20
165.5387794854815
 30
0.0
 10
126.5265791547711
 20
165.319394873194
 30
0.0
 10
126.4557712967205
 20
165.2582190227864
 30
0.0
  0
SPLINE
  5
11D
330
1F
100
AcDbEntity
  8
0
  6
Continuous
 62
     8
370
    25
100
AcDbSpline
210
0.0
220
0.0
230
1.0
 70
     8
 71
     3
 72
    12
 73
     8
 74
     0
 42
0.00000001
 43
0.00000001
 40
0.0
 40
0.0
 40
0.0
 40
0.0
 40
0.2239921971572209
 40
0.4420800045882755
 40
0.6542745596021551
 40
0.8605881299762411
 40
1.0
 40
1.0
 40
1.0
 40
1.0
 10
83.82856434372799
 20
217.0811135258545
 30
0.0
 10
83.53313567183062
 20
217.1482161108966
 30
0.0
 10
82.9500657690152
 20
217.2806524701976
 30
0.0
 10
82.1218531217065
 20
217.2502285328557
 30
0.0
 10
81.3862274145376
 20
217.0576322403009
 30
0.0
 10
80.80560191308727
 20
216.7639205386598
 30
0.0
 10
80.52690901603238
 20
216.4844008633408
 30
0.0
 10
80.4145276480427
 20
216.3716861015928
 30
0.0
  0
SPLINE
  5
11E
330
1F
100
AcDbEntity
  8
0
  6
Continuous
 62
     8
370
    25
100
AcDbSpline
210
0.0
220
0.0
230
1.0
 70
     8
 71
     3
 72
    11
 73
     7
 74
     0
 42
0.00000001
 43
0.00000001
 40
0.0
 40
0.0
 40
0.0
 40
0.0
 40
0.2306129776905955
 40
0.4801422221558762
 40
0.7366001971290239
 40
1.0
 40
1.0
 40
1.0
 40
1.0
 10
115.5941246161826
 20
155.4125604532782
 30
0.0
 10
115.7666464393722
 20
155.5554296035253
 30
0.0
 10
116.1258413658081
 20
155.8528868930679
 30
0.0
 10
116.5141157274872
 20
156.4754391386612
 30
0.0
 10
116.7862487604863
 20
157.2222934442157
 30
0.0
 10
116.821565546163
 20
157.7957529751542
 30
0.0
 10
116.8394597371933
 20
158.0863115352859
 30
0.0
  0
ARC
  5
11F
330
1F
100
AcDbEntity
  8
0
  6
Continuous
 62
     8
370
    25
100
AcDbCircle
 10
123.1858047014
 20
217.8801550663
 30
0.0
 40
0.1488370978509952
100
AcDbArc
 50
80.5838026303
 51
135.4123478855
  0
ARC
  5
120
330
1F
100
AcDbEntity
  8
0
  6
Continuous
 62
     8
370
    25
100
AcDbCircle
 10
127.307541201
 20
212.5327117884
 30
0.0
 40
0.1616512847185322
100
AcDbArc
 50
308.6260119914
 51
357.5187429802
  0
ARC
  5
121
330
1F
100
AcDbEntity
  8
0
  6
Continuous
 62
     8
370
    25
100
AcDbCircle
 10
94.8968006339
 20
226.0471592363
 30
0.0
 40
0.1479404851413454
100
AcDbArc
 50
79.6429648433
 51
135.5084143043
  0
ARC
  5
122
330
1F
100
AcDbEntity
  8
0
  6
Continuous
 62
     8
370
    25
100
AcDbCircle
 10
127.3062129359
 20
167.7906857492
 30
0.0
 40
0.1632591802105497
100
AcDbArc
 50
308.7719612218
 51
355.3168766983
  0
ENDSEC
  0
SECTION
  2
OBJECTS
  0
DICTIONARY
  5
C
330
0
100
AcDbDictionary
281
     1
  3
ACAD_GROUP
350
D
  3
ACAD_LAYOUT
350
1A
  3
ACAD_MLINESTYLE
350
17
  3
ACAD_PLOTSETTINGS
350
19
  3
ACAD_PLOTSTYLENAME
350
E
  3
ACAD_SCALELIST
350
47
  3
DWGPROPS
350
123
  0
DICTIONARY
  5
D
102
{ACAD_REACTORS
330
C
102
}
330
C
100
AcDbDictionary
281
     1
  0
DICTIONARY
  5
1A
102
{ACAD_REACTORS
330
C
102
}
330
C
100
AcDbDictionary
281
     1
  3
Layout1
350
1E
  3
Layout2
350
26
  3
Model
350
22
  0
DICTIONARY
  5
17
102
{ACAD_REACTORS
330
C
102
}
330
C
100
AcDbDictionary
281
     1
  3
Standard
350
18
  0
DICTIONARY
  5
19
102
{ACAD_REACTORS
330
C
102
}
330
C
100
AcDbDictionary
281
     1
  0
ACDBDICTIONARYWDFLT
  5
E
102
{ACAD_REACTORS
330
C
102
}
330
C
100
AcDbDictionary
281
     1
  3
Normal
350
F
100
AcDbDictionaryWithDefault
340
F
  0
DICTIONARY
  5
47
102
{ACAD_REACTORS
330
C
102
}
330
C
100
AcDbDictionary
281
     1
  3
A0
350
48
  3
A1
350
49
  3
A2
350
4A
  3
A3
350
4B
  3
A4
350
4C
  3
A5
350
4D
  3
A6
350
4E
  3
A7
350
4F
  3
A8
350
50
  3
A9
350
51
  3
B0
350
52
  3
B1
350
53
  3
B2
350
54
  3
B3
350
55
  3
B4
350
56
  3
B5
350
57
  3
B6
350
58
  3
B7
350
59
  3
B8
350
5A
  3
B9
350
5B
  3
C0
350
5C
  3
C1
350
5D
  3
C2
350
5E
  3
C3
350
5F
  3
C4
350
60
  3
C5
350
61
  3
C6
350
62
  3
C7
350
63
  3
C8
350
64
  3
C9
350
65
  3
D0
350
66
  3
D1
350
67
  3
D2
350
68
  0
XRECORD
  5
123
102
{ACAD_REACTORS
330
C
102
}
330
C
100
AcDbXrecord
280
     1
  1
DWGPROPS COOKIE
  2

  3

  4

  6

  7

  8
9128
  9

300
=
301
=
302
=
303
=
304
=
305
=
306
=
307
=
308
=
309
=
 40
0.0
 41
2459242.413254896
 42
2459242.413255174
  1

 90
        0
  0
LAYOUT
  5
1E
102
{ACAD_REACTORS
330
1A
102
}
330
1A
100
AcDbPlotSettings
  1

  2
none_device
  4

  6

 40
0.0
 41
0.0
 42
0.0
 43
0.0
 44
0.0
 45
0.0
 46
0.0
 47
0.0
 48
0.0
 49
0.0
140
0.0
141
0.0
142
1.0
143
1.0
 70
   688
 72
     1
 73
     0
 74
     5
  7

 75
    16
147
1.0
148
0.0
149
0.0
100
AcDbLayout
  1
Layout1
 70
     1
 71
     1
 10
0.0
 20
0.0
 11
420.0
 21
297.0
 12
0.0
 22
0.0
 32
0.0
 14
1.0000000000E+20
 24
1.0000000000E+20
 34
1.0000000000E+20
 15
-1.0000000000E+20
 25
-1.0000000000E+20
 35
-1.0000000000E+20
146
0.0
 13
0.0
 23
0.0
 33
0.0
 16
1.0
 26
0.0
 36
0.0
 17
0.0
 27
1.0
 37
0.0
 76
     0
330
1B
  0
LAYOUT
  5
26
102
{ACAD_REACTORS
330
1A
102
}
330
1A
100
AcDbPlotSettings
  1

  2
none_device
  4

  6

 40
0.0
 41
0.0
 42
0.0
 43
0.0
 44
0.0
 45
0.0
 46
0.0
 47
0.0
 48
0.0
 49
0.0
140
0.0
141
0.0
142
1.0
143
1.0
 70
   688
 72
     1
 73
     0
 74
     5
  7

 75
    16
147
1.0
148
0.0
149
0.0
100
AcDbLayout
  1
Layout2
 70
     1
 71
     2
 10
0.0
 20
0.0
 11
0.0
 21
0.0
 12
0.0
 22
0.0
 32
0.0
 14
0.0
 24
0.0
 34
0.0
 15
0.0
 25
0.0
 35
0.0
146
0.0
 13
0.0
 23
0.0
 33
0.0
 16
1.0
 26
0.0
 36
0.0
 17
0.0
 27
1.0
 37
0.0
 76
     0
330
23
  0
LAYOUT
  5
22
102
{ACAD_REACTORS
330
1A
102
}
330
1A
100
AcDbPlotSettings
  1

  2
none_device
  4
Letter_(8.50_x_11.00_Inches)
  6

 40
6.35
 41
6.35
 42
6.35000508
 43
6.35000508
 44
215.9
 45
279.4
 46
0.0
 47
0.0
 48
0.0
 49
0.0
140
0.0
141
0.0
142
1.0
143
1.0
 70
  1712
 72
     1
 73
     0
 74
     0
  7

 75
     0
147
1.0
148
0.0
149
0.0
100
AcDbLayout
  1
Model
 70
     1
 71
     0
 10
0.0
 20
0.0
 11
210.0
 21
297.0
 12
0.0
 22
0.0
 32
0.0
 14
0.0
 24
0.0
 34
0.0
 15
210.0
 25
297.0
 35
0.0
146
0.0
 13
0.0
 23
0.0
 33
0.0
 16
1.0
 26
0.0
 36
0.0
 17
0.0
 27
1.0
 37
0.0
 76
     0
330
1F
331
29
  0
MLINESTYLE
  5
18
102
{ACAD_REACTORS
330
17
102
}
330
17
100
AcDbMlineStyle
  2
Standard
 70
     0
  3

 62
   256
 51
90.0
 52
90.0
 71
     2
 49
0.5
 62
   256
  6
BYLAYER
 49
-0.5
 62
   256
  6
BYLAYER
  0
ACDBPLACEHOLDER
  5
F
102
{ACAD_REACTORS
330
E
102
}
330
E
  0
SCALE
  5
48
102
{ACAD_REACTORS
330
47
102
}
330
47
100
AcDbScale
 70
     0
300
1:1
140
1.0
141
1.0
290
     1
  0
SCALE
  5
49
102
{ACAD_REACTORS
330
47
102
}
330
47
100
AcDbScale
 70
     0
300
1:2
140
1.0
141
2.0
290
     0
  0
SCALE
  5
4A
102
{ACAD_REACTORS
330
47
102
}
330
47
100
AcDbScale
 70
     0
300
1:4
140
1.0
141
4.0
290
     0
  0
SCALE
  5
4B
102
{ACAD_REACTORS
330
47
102
}
330
47
100
AcDbScale
 70
     0
300
1:5
140
1.0
141
5.0
290
     0
  0
SCALE
  5
4C
102
{ACAD_REACTORS
330
47
102
}
330
47
100
AcDbScale
 70
     0
300
1:8
140
1.0
141
8.0
290
     0
  0
SCALE
  5
4D
102
{ACAD_REACTORS
330
47
102
}
330
47
100
AcDbScale
 70
     0
300
1:10
140
1.0
141
10.0
290
     0
  0
SCALE
  5
4E
102
{ACAD_REACTORS
330
47
102
}
330
47
100
AcDbScale
 70
     0
300
1:16
140
1.0
141
16.0
290
     0
  0
SCALE
  5
4F
102
{ACAD_REACTORS
330
47
102
}
330
47
100
AcDbScale
 70
     0
300
1:20
140
1.0
141
20.0
290
     0
  0
SCALE
  5
50
102
{ACAD_REACTORS
330
47
102
}
330
47
100
AcDbScale
 70
     0
300
1:30
140
1.0
141
30.0
290
     0
  0
SCALE
  5
51
102
{ACAD_REACTORS
330
47
102
}
330
47
100
AcDbScale
 70
     0
300
1:40
140
1.0
141
40.0
290
     0
  0
SCALE
  5
52
102
{ACAD_REACTORS
330
47
102
}
330
47
100
AcDbScale
 70
     0
300
1:50
140
1.0
141
50.0
290
     0
  0
SCALE
  5
53
102
{ACAD_REACTORS
330
47
102
}
330
47
100
AcDbScale
 70
     0
300
1:100
140
1.0
141
100.0
290
     0
  0
SCALE
  5
54
102
{ACAD_REACTORS
330
47
102
}
330
47
100
AcDbScale
 70
     0
300
2:1
140
2.0
141
1.0
290
     0
  0
SCALE
  5
55
102
{ACAD_REACTORS
330
47
102
}
330
47
100
AcDbScale
 70
     0
300
4:1
140
4.0
141
1.0
290
     0
  0
SCALE
  5
56
102
{ACAD_REACTORS
330
47
102
}
330
47
100
AcDbScale
 70
     0
300
8:1
140
8.0
141
1.0
290
     0
  0
SCALE
  5
57
102
{ACAD_REACTORS
330
47
102
}
330
47
100
AcDbScale
 70
     0
300
10:1
140
10.0
141
1.0
290
     0
  0
SCALE
  5
58
102
{ACAD_REACTORS
330
47
102
}
330
47
100
AcDbScale
 70
     0
300
100:1
140
100.0
141
1.0
290
     0
  0
SCALE
  5
59
102
{ACAD_REACTORS
330
47
102
}
330
47
100
AcDbScale
 70
     0
300
1/128" = 1'-0"
140
0.0078125
141
12.0
290
     0
  0
SCALE
  5
5A
102
{ACAD_REACTORS
330
47
102
}
330
47
100
AcDbScale
 70
     0
300
1/64" = 1'-0"
140
0.015625
141
12.0
290
     0
  0
SCALE
  5
5B
102
{ACAD_REACTORS
330
47
102
}
330
47
100
AcDbScale
 70
     0
300
1/32" = 1'-0"
140
0.03125
141
12.0
290
     0
  0
SCALE
  5
5C
102
{ACAD_REACTORS
330
47
102
}
330
47
100
AcDbScale
 70
     0
300
1/16" = 1'-0"
140
0.0625
141
12.0
290
     0
  0
SCALE
  5
5D
102
{ACAD_REACTORS
330
47
102
}
330
47
100
AcDbScale
 70
     0
300
3/32" = 1'-0"
140
0.09375
141
12.0
290
     0
  0
SCALE
  5
5E
102
{ACAD_REACTORS
330
47
102
}
330
47
100
AcDbScale
 70
     0
300
1/8" = 1'-0"
140
0.125
141
12.0
290
     0
  0
SCALE
  5
5F
102
{ACAD_REACTORS
330
47
102
}
330
47
100
AcDbScale
 70
     0
300
3/16" = 1'-0"
140
0.1875
141
12.0
290
     0
  0
SCALE
  5
60
102
{ACAD_REACTORS
330
47
102
}
330
47
100
AcDbScale
 70
     0
300
1/4" = 1'-0"
140
0.25
141
12.0
290
     0
  0
SCALE
  5
61
102
{ACAD_REACTORS
330
47
102
}
330
47
100
AcDbScale
 70
     0
300
3/8" = 1'-0"
140
0.375
141
12.0
290
     0
  0
SCALE
  5
62
102
{ACAD_REACTORS
330
47
102
}
330
47
100
AcDbScale
 70
     0
300
1/2" = 1'-0"
140
0.5
141
12.0
290
     0
  0
SCALE
  5
63
102
{ACAD_REACTORS
330
47
102
}
330
47
100
AcDbScale
 70
     0
300
3/4" = 1'-0"
140
0.75
141
12.0
290
     0
  0
SCALE
  5
64
102
{ACAD_REACTORS
330
47
102
}
330
47
100
AcDbScale
 70
     0
300
1" = 1'-0"
140
1.0
141
12.0
290
     0
  0
SCALE
  5
65
102
{ACAD_REACTORS
330
47
102
}
330
47
100
AcDbScale
 70
     0
300
1-1/2" = 1'-0"
140
1.5
141
12.0
290
     0
  0
SCALE
  5
66
102
{ACAD_REACTORS
330
47
102
}
330
47
100
AcDbScale
 70
     0
300
3" = 1'-0"
140
3.0
141
12.0
290
     0
  0
SCALE
  5
67
102
{ACAD_REACTORS
330
47
102
}
330
47
100
AcDbScale
 70
     0
300
6" = 1'-0"
140
6.0
141
12.0
290
     0
  0
SCALE
  5
68
102
{ACAD_REACTORS
330
47
102
}
330
47
100
AcDbScale
 70
     0
300
1'-0" = 1'-0"
140
12.0
141
12.0
290
     0
  0
ENDSEC
  0
EOF
