  0
SECTION
  2
HEADER
  9
$ACADVER
  1
AC1015
  9
$ACADMAINTVER
 70
     6
  9
$DWGCODEPAGE
  3
DOS932
  9
$INSBASE
 10
0.0
 20
0.0
 30
0.0
  9
$EXTMIN
 10
0.0
 20
0.0
 30
0.0
  9
$EXTMAX
 10
210.0
 20
297.0
 30
0.0
  9
$LIMMIN
 10
0.0
 20
0.0
  9
$LIMMAX
 10
210.0
 20
297.0
  9
$ORTHOMODE
 70
     0
  9
$REGENMODE
 70
     1
  9
$FILLMODE
 70
     1
  9
$QTEXTMODE
 70
     0
  9
$MIRRTEXT
 70
     1
  9
$LTSCALE
 40
1.0
  9
$ATTMODE
 70
     1
  9
$TEXTSIZE
 40
3.5
  9
$TRACEWID
 40
1.0
  9
$TEXTSTYLE
  7
Standard
  9
$CLAYER
  8
0
  9
$CELTYPE
  6
ByLayer
  9
$CECOLOR
 62
   256
  9
$CELTSCALE
 40
1.0
  9
$DISPSILH
 70
     0
  9
$DIMSCALE
 40
1.0
  9
$DIMASZ
 40
3.5
  9
$DIMEXO
 40
1.0
  9
$DIMDLI
 40
3.75
  9
$DIMRND
 40
0.0
  9
$DIMDLE
 40
0.0
  9
$DIMEXE
 40
1.0
  9
$DIMTP
 40
0.0
  9
$DIMTM
 40
0.0
  9
$DIMTXT
 40
3.5
  9
$DIMCEN
 40
2.5
  9
$DIMTSZ
 40
0.0
  9
$DIMTOL
 70
     0
  9
$DIMLIM
 70
     0
  9
$DIMTIH
 70
     1
  9
$DIMTOH
 70
     1
  9
$DIMSE1
 70
     0
  9
$DIMSE2
 70
     0
  9
$DIMTAD
 70
     1
  9
$DIMZIN
 70
     1
  9
$DIMBLK
  1

  9
$DIMASO
 70
     1
  9
$DIMSHO
 70
     1
  9
$DIMPOST
  1

  9
$DIMAPOST
  1

  9
$DIMALT
 70
     0
  9
$DIMALTD
 70
     3
  9
$DIMALTF
 40
0.0393700787
  9
$DIMLFAC
 40
2.0
  9
$DIMTOFL
 70
     1
  9
$DIMTVP
 40
0.0
  9
$DIMTIX
 70
     0
  9
$DIMSOXD
 70
     0
  9
$DIMSAH
 70
     0
  9
$DIMBLK1
  1

  9
$DIMBLK2
  1

  9
$DIMSTYLE
  2
ISO-25
  9
$DIMCLRD
 70
     0
  9
$DIMCLRE
 70
     0
  9
$DIMCLRT
 70
     0
  9
$DIMTFAC
 40
1.0
  9
$DIMGAP
 40
1.524
  9
$DIMJUST
 70
     0
  9
$DIMSD1
 70
     0
  9
$DIMSD2
 70
     0
  9
$DIMTOLJ
 70
     0
  9
$DIMTZIN
 70
     1
  9
$DIMALTZ
 70
     0
  9
$DIMALTTZ
 70
     0
  9
$DIMUPT
 70
     0
  9
$DIMDEC
 70
     2
  9
$DIMTDEC
 70
     2
  9
$DIMALTU
 70
     2
  9
$DIMALTTD
 70
     3
  9
$DIMTXSTY
  7
Standard
  9
$DIMAUNIT
 70
     0
  9
$DIMADEC
 70
     2
  9
$DIMALTRND
 40
0.0
  9
$DIMAZIN
 70
     0
  9
$DIMDSEP
 70
    44
  9
$DIMATFIT
 70
     3
  9
$DIMFRAC
 70
     0
  9
$DIMLDRBLK
  1

  9
$DIMLUNIT
 70
     2
  9
$DIMLWD
 70
    -2
  9
$DIMLWE
 70
    -2
  9
$DIMTMOVE
 70
     0
  9
$LUNITS
 70
     2
  9
$LUPREC
 70
     2
  9
$SKETCHINC
 40
1.0
  9
$FILLETRAD
 40
10.0
  9
$AUNITS
 70
     0
  9
$AUPREC
 70
     2
  9
$MENU
  1
.
  9
$ELEVATION
 40
0.0
  9
$PELEVATION
 40
0.0
  9
$THICKNESS
 40
0.0
  9
$LIMCHECK
 70
     0
  9
$CHAMFERA
 40
0.0
  9
$CHAMFERB
 40
0.0
  9
$CHAMFERC
 40
0.0
  9
$CHAMFERD
 40
0.0
  9
$SKPOLY
 70
     0
  9
$TDCREATE
 40
2459242.788953878
  9
$TDUCREATE
 40
2459242.413953878
  9
$TDUPDATE
 40
2459242.788954213
  9
$TDUUPDATE
 40
2459242.413954213
  9
$TDINDWG
 40
0.0000000116
  9
$TDUSRTIMER
 40
0.0000000116
  9
$USRTIMER
 70
     1
  9
$ANGBASE
 50
0.0
  9
$ANGDIR
 70
     0
  9
$PDMODE
 70
     0
  9
$PDSIZE
 40
-1.0
  9
$PLINEWID
 40
0.0
  9
$SPLFRAME
 70
     0
  9
$SPLINETYPE
 70
     6
  9
$SPLINESEGS
 70
     8
  9
$HANDSEED
  5
11E
  9
$SURFTAB1
 70
     6
  9
$SURFTAB2
 70
     6
  9
$SURFTYPE
 70
     6
  9
$SURFU
 70
     6
  9
$SURFV
 70
     6
  9
$UCSBASE
  2

  9
$UCSNAME
  2

  9
$UCSORG
 10
0.0
 20
0.0
 30
0.0
  9
$UCSXDIR
 10
1.0
 20
0.0
 30
0.0
  9
$UCSYDIR
 10
0.0
 20
1.0
 30
0.0
  9
$UCSORTHOREF
  2

  9
$UCSORTHOVIEW
 70
     0
  9
$UCSORGTOP
 10
0.0
 20
0.0
 30
0.0
  9
$UCSORGBOTTOM
 10
0.0
 20
0.0
 30
0.0
  9
$UCSORGLEFT
 10
0.0
 20
0.0
 30
0.0
  9
$UCSORGRIGHT
 10
0.0
 20
0.0
 30
0.0
  9
$UCSORGFRONT
 10
0.0
 20
0.0
 30
0.0
  9
$UCSORGBACK
 10
0.0
 20
0.0
 30
0.0
  9
$PUCSBASE
  2

  9
$PUCSNAME
  2

  9
$PUCSORG
 10
0.0
 20
0.0
 30
0.0
  9
$PUCSXDIR
 10
1.0
 20
0.0
 30
0.0
  9
$PUCSYDIR
 10
0.0
 20
1.0
 30
0.0
  9
$PUCSORTHOREF
  2

  9
$PUCSORTHOVIEW
 70
     0
  9
$PUCSORGTOP
 10
0.0
 20
0.0
 30
0.0
  9
$PUCSORGBOTTOM
 10
0.0
 20
0.0
 30
0.0
  9
$PUCSORGLEFT
 10
0.0
 20
0.0
 30
0.0
  9
$PUCSORGRIGHT
 10
0.0
 20
0.0
 30
0.0
  9
$PUCSORGFRONT
 10
0.0
 20
0.0
 30
0.0
  9
$PUCSORGBACK
 10
0.0
 20
0.0
 30
0.0
  9
$USERI1
 70
     0
  9
$USERI2
 70
     0
  9
$USERI3
 70
     0
  9
$USERI4
 70
     0
  9
$USERI5
 70
     0
  9
$USERR1
 40
0.0
  9
$USERR2
 40
0.0
  9
$USERR3
 40
0.0
  9
$USERR4
 40
0.0
  9
$USERR5
 40
0.0
  9
$WORLDVIEW
 70
     1
  9
$SHADEDGE
 70
     3
  9
$SHADEDIF
 70
    70
  9
$TILEMODE
 70
     1
  9
$MAXACTVP
 70
    64
  9
$PINSBASE
 10
0.0
 20
0.0
 30
0.0
  9
$PLIMCHECK
 70
     0
  9
$PEXTMIN
 10
1.0000000000E+20
 20
1.0000000000E+20
 30
1.0000000000E+20
  9
$PEXTMAX
 10
-1.0000000000E+20
 20
-1.0000000000E+20
 30
-1.0000000000E+20
  9
$PLIMMIN
 10
0.0
 20
0.0
  9
$PLIMMAX
 10
420.0
 20
297.0
  9
$UNITMODE
 70
     0
  9
$VISRETAIN
 70
     1
  9
$PLINEGEN
 70
     0
  9
$PSLTSCALE
 70
     1
  9
$TREEDEPTH
 70
  3020
  9
$CMLSTYLE
  2
Standard
  9
$CMLJUST
 70
     0
  9
$CMLSCALE
 40
20.0
  9
$PROXYGRAPHICS
 70
     1
  9
$MEASUREMENT
 70
     1
  9
$CELWEIGHT
370
    -1
  9
$ENDCAPS
280
     0
  9
$JOINSTYLE
280
     0
  9
$LWDISPLAY
290
     1
  9
$INSUNITS
 70
     4
  9
$HYPERLINKBASE
  1

  9
$STYLESHEET
  1

  9
$XEDIT
290
     1
  9
$CEPSNTYPE
380
     0
  9
$PSTYLEMODE
290
     1
  9
$FINGERPRINTGUID
  2
{9def52e6-96c2-4c4d-b1c4-de48bf339461}
  9
$VERSIONGUID
  2
{FAEB1C32-E019-11D5-929B-00C0DF256EC4}
  9
$EXTNAMES
290
     1
  9
$PSVPSCALE
 40
0.0
  9
$OLESTARTUP
290
     0
  0
ENDSEC
  0
SECTION
  2
CLASSES
  0
CLASS
  1
ACDBDICTIONARYWDFLT
  2
AcDbDictionaryWithDefault
  3
ObjectDBX Classes
 90
        0
280
     0
281
     0
  0
CLASS
  1
VISUALSTYLE
  2
AcDbVisualStyle
  3
ObjectDBX Classes
 90
     4095
280
     0
281
     0
  0
CLASS
  1
MATERIAL
  2
AcDbMaterial
  3
ObjectDBX Classes
 90
     1153
280
     0
281
     0
  0
CLASS
  1
SCALE
  2
AcDbScale
  3
ObjectDBX Classes
 90
     1153
280
     0
281
     0
  0
CLASS
  1
TABLESTYLE
  2
AcDbTableStyle
  3
ObjectDBX Classes
 90
     4095
280
     0
281
     0
  0
CLASS
  1
MLEADERSTYLE
  2
AcDbMLeaderStyle
  3
ACDB_MLEADERSTYLE_CLASS
 90
     4095
280
     0
281
     0
  0
CLASS
  1
SUN
  2
AcDbSun
  3
SCENEOE
 90
     1153
280
     0
281
     0
  0
CLASS
  1
ACDBPLACEHOLDER
  2
AcDbPlaceHolder
  3
ObjectDBX Classes
 90
        0
280
     0
281
     0
  0
CLASS
  1
LAYOUT
  2
AcDbLayout
  3
ObjectDBX Classes
 90
        0
280
     0
281
     0
  0
ENDSEC
  0
SECTION
  2
TABLES
  0
TABLE
  2
VPORT
  5
8
330
0
100
AcDbSymbolTable
 70
     1
  0
VPORT
  5
29
330
8
100
AcDbSymbolTableRecord
100
AcDbViewportTableRecord
  2
*Active
 70
     0
 10
0.0
 20
0.0
 11
1.0
 21
1.0
 12
105.0
 22
148.5
 13
0.0
 23
0.0
 14
10.0
 24
10.0
 15
10.0
 25
10.0
 16
0.0
 26
0.0
 36
1.0
 17
0.0
 27
0.0
 37
0.0
 40
297.0
 41
0.7070707071
 42
50.0
 43
0.0
 44
0.0
 50
0.0
 51
0.0
 71
     0
 72
  2000
 73
     1
 74
     3
 75
     0
 76
     0
 77
     0
 78
     0
281
     0
 65
     1
110
0.0
120
0.0
130
0.0
111
1.0
121
0.0
131
0.0
112
0.0
122
1.0
132
0.0
 79
     0
146
0.0
  0
ENDTAB
  0
TABLE
  2
LTYPE
  5
5
330
0
100
AcDbSymbolTable
 70
     6
  0
LTYPE
  5
14
330
5
100
AcDbSymbolTableRecord
100
AcDbLinetypeTableRecord
  2
ByBlock
 70
     0
  3

 72
    65
 73
     0
 40
0.0
  0
LTYPE
  5
15
330
5
100
AcDbSymbolTableRecord
100
AcDbLinetypeTableRecord
  2
ByLayer
 70
     0
  3

 72
    65
 73
     0
 40
0.0
  0
LTYPE
  5
16
330
5
100
AcDbSymbolTableRecord
100
AcDbLinetypeTableRecord
  2
Continuous
 70
     0
  3
Solid line
 72
    65
 73
     0
 40
0.0
  0
LTYPE
  5
6E
330
5
100
AcDbSymbolTableRecord
100
AcDbLinetypeTableRecord
  2
HIDDEN
 70
     0
  3
Hidden __ __ __ __ __ __ __ __ __ __ __ __ __ __
 72
    65
 73
     2
 40
1.905
 49
1.27
 74
     0
 49
-0.635
 74
     0
  0
LTYPE
  5
6F
330
5
100
AcDbSymbolTableRecord
100
AcDbLinetypeTableRecord
  2
PHANTOM
 70
     0
  3
Phantom ______  __  __  ______  __  __  ______
 72
    65
 73
     6
 40
12.7
 49
6.35
 74
     0
 49
-1.27
 74
     0
 49
1.27
 74
     0
 49
-1.27
 74
     0
 49
1.27
 74
     0
 49
-1.27
 74
     0
  0
LTYPE
  5
70
330
5
100
AcDbSymbolTableRecord
100
AcDbLinetypeTableRecord
  2
CENTER
 70
     0
  3
Center ____ _ ____ _ ____ _ ____ _ ____ _ ____
 72
    65
 73
     4
 40
10.16
 49
6.35
 74
     0
 49
-1.27
 74
     0
 49
1.27
 74
     0
 49
-1.27
 74
     0
  0
LTYPE
  5
71
330
5
100
AcDbSymbolTableRecord
100
AcDbLinetypeTableRecord
  2
CENTERX2
 70
     0
  3
Center (2x) ________  __  ________  __  _____
 72
    65
 73
     4
 40
20.32
 49
12.7
 74
     0
 49
-2.54
 74
     0
 49
2.54
 74
     0
 49
-2.54
 74
     0
  0
LTYPE
  5
72
330
5
100
AcDbSymbolTableRecord
100
AcDbLinetypeTableRecord
  2
DOT2
 70
     0
  3
Dot (.5x) ........................................
 72
    65
 73
     2
 40
0.635
 49
0.0
 74
     0
 49
-0.635
 74
     0
  0
ENDTAB
  0
TABLE
  2
LAYER
  5
2
330
0
100
AcDbSymbolTable
 70
     2
  0
LAYER
  5
10
330
2
100
AcDbSymbolTableRecord
100
AcDbLayerTableRecord
  2
0
 70
     0
 62
     7
  6
Continuous
370
    -3
390
F
  0
LAYER
  5
73
330
2
100
AcDbSymbolTableRecord
100
AcDbLayerTableRecord
  2
FORMAT
 70
     0
 62
     7
  6
Continuous
370
    -3
390
F
  0
ENDTAB
  0
TABLE
  2
STYLE
  5
3
330
0
100
AcDbSymbolTable
 70
     2
  0
STYLE
  5
11
330
3
100
AcDbSymbolTableRecord
100
AcDbTextStyleTableRecord
  2
Standard
 70
     0
 40
0.0
 41
1.0
 50
0.0
 71
     0
 42
3.5
  3
txt
  4
bigfont
  0
STYLE
  5
74
330
3
100
AcDbSymbolTableRecord
100
AcDbTextStyleTableRecord
  2
SLDTEXTSTYLE0
 70
     0
 40
0.0
 41
0.7
 50
0.0
 71
     0
 42
3.5
  3
TXT
  4
bigfont
  0
ENDTAB
  0
TABLE
  2
VIEW
  5
6
330
0
100
AcDbSymbolTable
 70
     0
  0
ENDTAB
  0
TABLE
  2
UCS
  5
7
330
0
100
AcDbSymbolTable
 70
     0
  0
ENDTAB
  0
TABLE
  2
APPID
  5
9
330
0
100
AcDbSymbolTable
 70
     1
  0
APPID
  5
12
330
9
100
AcDbSymbolTableRecord
100
AcDbRegAppTableRecord
  2
ACAD
 70
     0
  0
ENDTAB
  0
TABLE
  2
DIMSTYLE
  5
A
330
0
100
AcDbSymbolTable
 70
     1
100
AcDbDimStyleTable
  0
DIMSTYLE
105
27
330
A
100
AcDbSymbolTableRecord
100
AcDbDimStyleTableRecord
  2
ISO-25
 70
     0
 41
2.5
 42
0.625
 43
3.75
 44
1.25
 73
     0
 74
     0
 77
     1
 78
     8
140
2.5
141
2.5
143
0.0393700787
147
0.625
171
     3
172
     1
178
     0
271
     2
272
     2
274
     3
278
    44
283
     0
284
     8
340
11
  0
ENDTAB
  0
TABLE
  2
BLOCK_RECORD
  5
1
330
0
100
AcDbSymbolTable
 70
     1
  0
BLOCK_RECORD
  5
1F
330
1
100
AcDbSymbolTableRecord
100
AcDbBlockTableRecord
  2
*Model_Space
340
22
  0
BLOCK_RECORD
  5
1B
330
1
100
AcDbSymbolTableRecord
100
AcDbBlockTableRecord
  2
*Paper_Space
340
1E
  0
BLOCK_RECORD
  5
23
330
1
100
AcDbSymbolTableRecord
100
AcDbBlockTableRecord
  2
*Paper_Space0
340
26
  0
ENDTAB
  0
ENDSEC
  0
SECTION
  2
BLOCKS
  0
BLOCK
  5
20
330
1F
100
AcDbEntity
  8
0
100
AcDbBlockBegin
  2
*Model_Space
 70
     0
 10
0.0
 20
0.0
 30
0.0
  3
*Model_Space
  1

  0
ENDBLK
  5
21
330
1F
100
AcDbEntity
  8
0
100
AcDbBlockEnd
  0
BLOCK
  5
1C
330
1B
100
AcDbEntity
 67
     1
  8
0
100
AcDbBlockBegin
  2
*Paper_Space
 70
     0
 10
0.0
 20
0.0
 30
0.0
  3
*Paper_Space
  1

  0
ENDBLK
  5
1D
330
1B
100
AcDbEntity
 67
     1
  8
0
100
AcDbBlockEnd
  0
BLOCK
  5
24
330
23
100
AcDbEntity
  8
0
100
AcDbBlockBegin
  2
*Paper_Space0
 70
     0
 10
0.0
 20
0.0
 30
0.0
  3
*Paper_Space0
  1

  0
ENDBLK
  5
25
330
23
100
AcDbEntity
  8
0
100
AcDbBlockEnd
  0
ENDSEC
  0
SECTION
  2
ENTITIES
  0
MTEXT
  5
75
330
1F
100
AcDbEntity
  8
0
  6
Continuous
 62
     7
370
     0
100
AcDbMText
 10
141.6044514114
 20
131.7858169754
 30
0.0
 40
3.5
 41
0.0
 71
     1
 72
     1
  1
HEA-023S/K
  7
SLDTEXTSTYLE0
 73
     1
 44
1.0
  0
LINE
  5
76
330
1F
100
AcDbEntity
  8
0
  6
Continuous
 62
     7
370
    25
100
AcDbLine
 10
107.0871166735
 20
128.3046606928
 30
0.0
 11
107.0871166735
 21
146.7060144151
 31
0.0
  0
LINE
  5
77
330
1F
100
AcDbEntity
  8
0
  6
Continuous
 62
     7
370
    25
100
AcDbLine
 10
101.8371166735
 20
148.2215588717
 30
0.0
 11
101.8371166735
 21
128.3046606928
 31
0.0
  0
LINE
  5
78
330
1F
100
AcDbEntity
  8
0
  6
Continuous
 62
     7
370
    25
100
AcDbLine
 10
108.1320787038
 20
126.9963407656
 30
0.0
 11
108.0865940003
 21
128.3354385564
 31
0.0
  0
LINE
  5
79
330
1F
100
AcDbEntity
  8
0
  6
Continuous
 62
     7
370
    25
100
AcDbLine
 10
108.2350952416
 20
123.9634702091
 30
0.0
 11
108.1552065465
 21
126.3154427808
 31
0.0
  0
LINE
  5
7A
330
1F
100
AcDbEntity
  8
0
  6
Continuous
 62
     7
370
    25
100
AcDbLine
 10
108.3381117794
 20
120.9305996526
 30
0.0
 11
108.2580428342
 21
123.287878897
 31
0.0
  0
LINE
  5
7B
330
1F
100
AcDbEntity
  8
0
  6
Continuous
 62
     7
370
    25
100
AcDbLine
 10
108.4615399307
 20
117.2967985751
 30
0.0
 11
108.3608791219
 21
120.2603150132
 31
0.0
  0
LINE
  5
7C
330
1F
100
AcDbEntity
  8
0
  6
Continuous
 62
     7
370
    25
100
AcDbLine
 10
100.5634217758
 20
120.2623037461
 30
0.0
 11
100.4626934164
 21
117.2967985751
 31
0.0
  0
LINE
  5
7D
330
1F
100
AcDbEntity
  8
0
  6
Continuous
 62
     7
370
    25
100
AcDbLine
 10
100.6662562817
 20
123.2898151738
 30
0.0
 11
100.5860542914
 21
120.9286189989
 31
0.0
  0
LINE
  5
7E
330
1F
100
AcDbEntity
  8
0
  6
Continuous
 62
     7
370
    25
100
AcDbLine
 10
100.7690907877
 20
126.3173266015
 30
0.0
 11
100.6890726173
 21
123.9615421974
 31
0.0
  0
LINE
  5
7F
330
1F
100
AcDbEntity
  8
0
  6
Continuous
 62
     7
370
    25
100
AcDbLine
 10
100.8376393467
 20
128.3354385564
 30
0.0
 11
100.7920909431
 21
126.9944653959
 31
0.0
  0
SPLINE
  5
80
330
1F
100
AcDbEntity
  8
0
  6
Continuous
 62
     7
370
    25
100
AcDbSpline
210
0.0
220
0.0
230
1.0
 70
     8
 71
     3
 72
    15
 73
    11
 74
     0
 42
0.00000001
 43
0.00000001
 40
0.0
 40
0.0
 40
0.0
 40
0.0
 40
0.082243338403694
 40
0.2347770552515094
 40
0.3748281235948362
 40
0.5191921021126287
 40
0.6566560223413348
 40
0.7659249638343545
 40
0.910486952997496
 40
1.0
 40
1.0
 40
1.0
 40
1.0
 10
97.59185311932526
 20
115.7902329896316
 30
0.0
 10
97.66795614989952
 20
115.7068176597586
 30
0.0
 10
97.88520469258664
 20
115.4686949632517
 30
0.0
 10
98.18462800000026
 20
115.0491588271799
 30
0.0
 10
98.47740957020255
 20
114.5394863463549
 30
0.0
 10
98.68199512074781
 20
114.0358477392289
 30
0.0
 10
98.79069658684979
 20
113.5843456132523
 30
0.0
 10
98.83526143077846
 20
113.1530042043206
 30
0.0
 10
98.8191671995403
 20
112.8358932509911
 30
0.0
 10
98.77081246885187
 20
112.5880629893476
 30
0.0
 10
98.7523210510921
 20
112.4932897823344
 30
0.0
  0
LINE
  5
81
330
1F
100
AcDbEntity
  8
0
  6
Continuous
 62
     7
370
    25
100
AcDbLine
 10
97.5650023565
 20
117.0887986889
 30
0.0
 11
97.5650023565
 21
115.8795374531
 31
0.0
  0
LINE
  5
82
330
1F
100
AcDbEntity
  8
0
  6
Continuous
 62
     7
370
    25
100
AcDbLine
 10
111.3592309905
 20
116.2276136645
 30
0.0
 11
111.3592309905
 21
117.4368749002
 31
0.0
  0
SPLINE
  5
83
330
1F
100
AcDbEntity
  8
0
  6
Continuous
 62
     7
370
    25
100
AcDbSpline
210
0.0
220
0.0
230
1.0
 70
     8
 71
     3
 72
    12
 73
     8
 74
     0
 42
0.00000001
 43
0.00000001
 40
0.0
 40
0.0
 40
0.0
 40
0.0
 40
0.1895732417487286
 40
0.3780963661236218
 40
0.5731100978697191
 40
0.823865428418286
 40
1.0
 40
1.0
 40
1.0
 40
1.0
 10
110.1768323920096
 20
113.4821718379231
 30
0.0
 10
110.1550260398865
 20
113.6091647207704
 30
0.0
 10
110.1115341292134
 20
113.8624470251988
 30
0.0
 10
110.0910531155744
 20
114.1998441513079
 30
0.0
 10
110.1179914185223
 20
114.5258281958989
 30
0.0
 10
110.1828283951646
 20
114.8145471279908
 30
0.0
 10
110.2572251146148
 20
114.9522692813945
 30
0.0
 10
110.2879211658497
 20
115.009093376708
 30
0.0
  0
LINE
  5
84
330
1F
100
AcDbEntity
  8
0
  6
Continuous
 62
     7
370
    25
100
AcDbLine
 10
98.7930283414
 20
112.6018811902
 30
0.0
 11
97.0589470951
 21
108.302729799
 31
0.0
  0
LINE
  5
85
330
1F
100
AcDbEntity
  8
0
  6
Continuous
 62
     7
370
    25
100
AcDbLine
 10
111.8873920869
 20
108.2390836317
 30
0.0
 11
110.1604593462
 21
113.5175574597
 31
0.0
  0
LINE
  5
86
330
1F
100
AcDbEntity
  8
0
  6
Continuous
 62
     7
370
    25
100
AcDbLine
 10
97.0237364791
 20
108.1213070888
 30
0.0
 11
97.0237364791
 21
106.8527438434
 31
0.0
  0
LINE
  5
87
330
1F
100
AcDbEntity
  8
0
  6
Continuous
 62
     7
370
    25
100
AcDbLine
 10
111.9004968679
 20
106.8883200548
 30
0.0
 11
111.9004968679
 21
108.1568833001
 31
0.0
  0
LINE
  5
88
330
1F
100
AcDbEntity
  8
0
  6
Continuous
 62
     7
370
    25
100
AcDbLine
 10
107.9576326674
 20
206.9851110999
 30
0.0
 11
97.9983405238
 21
209.8601110999
 31
0.0
  0
LINE
  5
89
330
1F
100
AcDbEntity
  8
0
  6
Continuous
 62
     7
370
    25
100
AcDbLine
 10
96.6993024182
 20
210.2351110999
 30
0.0
 11
86.7400102746
 21
213.1101110999
 31
0.0
  0
SPLINE
  5
8A
330
1F
100
AcDbEntity
  8
0
  6
Continuous
 62
     7
370
    25
100
AcDbSpline
210
0.0
220
0.0
230
1.0
 70
     8
 71
     3
 72
    12
 73
     8
 74
     0
 42
0.00000001
 43
0.00000001
 40
0.0
 40
0.0
 40
0.0
 40
0.0
 40
0.1440723447161071
 40
0.3686280516802313
 40
0.5939364224951122
 40
0.8210588540052757
 40
0.9999999999999999
 40
0.9999999999999999
 40
0.9999999999999999
 40
0.9999999999999999
 10
68.20549181735434
 20
210.1327480973856
 30
0.0
 10
68.11380607668536
 20
210.0431199180025
 30
0.0
 10
67.87921604473833
 20
209.8137944273488
 30
0.0
 10
67.59905906838247
 20
209.3532741576928
 30
0.0
 10
67.36553512908692
 20
208.7777998194342
 30
0.0
 10
67.23904631798248
 20
208.1938267841019
 30
0.0
 10
67.22492938087231
 20
207.7981184699182
 30
0.0
 10
67.2187084316309
 20
207.6237406061
 30
0.0
  0
LINE
  5
8B
330
1F
100
AcDbEntity
  8
0
  6
Continuous
 62
     7
370
    25
100
AcDbLine
 10
70.7728996481
 20
212.7318506992
 30
0.0
 11
68.1777401229
 21
210.1243857555
 31
0.0
  0
SPLINE
  5
8C
330
1F
100
AcDbEntity
  8
0
  6
Continuous
 62
     7
370
    25
100
AcDbSpline
210
0.0
220
0.0
230
1.0
 70
     8
 71
     3
 72
    13
 73
     9
 74
     0
 42
0.00000001
 43
0.00000001
 40
0.0
 40
0.0
 40
0.0
 40
0.0
 40
0.1033075937379754
 40
0.2939962659209477
 40
0.4842757999588495
 40
0.6730850000120723
 40
0.8599008281590502
 40
1.0
 40
1.0
 40
1.0
 40
1.0
 10
116.6126616953034
 20
143.9562264238571
 30
0.0
 10
116.7361228967546
 20
143.9237434117132
 30
0.0
 10
117.0874729853539
 20
143.8313021503243
 30
0.0
 10
117.6660653110711
 20
143.7633049417208
 30
0.0
 10
118.3291822140169
 20
143.7892871340895
 30
0.0
 10
118.9518867719119
 20
143.9323203681937
 30
0.0
 10
119.4823827246043
 20
144.1519692687473
 30
0.0
 10
119.7676512102857
 20
144.366523484445
 30
0.0
 10
119.8899028004475
 20
144.4584705285859
 30
0.0
  0
LINE
  5
8D
330
1F
100
AcDbEntity
  8
0
  6
Continuous
 62
     7
370
    25
100
AcDbLine
 10
119.8466002661
 20
144.4117332046
 30
0.0
 11
122.776008355
 21
146.5886713938
 31
0.0
  0
LINE
  5
8E
330
1F
100
AcDbEntity
  8
0
  6
Continuous
 62
     7
370
    25
100
AcDbLine
 10
67.2187084316
 20
207.6237406061
 30
0.0
 11
67.2187084316
 21
162.4858524912
 31
0.0
  0
LINE
  5
8F
330
1F
100
AcDbEntity
  8
0
  6
Continuous
 62
     7
370
    25
100
AcDbLine
 10
71.4747743753
 20
156.9864121213
 30
0.0
 11
116.6126617801
 21
143.9562263994
 31
0.0
  0
SPLINE
  5
90
330
1F
100
AcDbEntity
  8
0
  6
Continuous
 62
     7
370
    25
100
AcDbSpline
210
0.0
220
0.0
230
1.0
 70
     8
 71
     3
 72
    18
 73
    14
 74
     0
 42
0.00000001
 43
0.00000001
 40
0.0
 40
0.0
 40
0.0
 40
0.0
 40
0.0546925540765209
 40
0.1546849070311259
 40
0.2549271738521185
 40
0.3553838921100287
 40
0.4559195667885427
 40
0.5565047683887258
 40
0.6571619440654652
 40
0.7579211426078459
 40
0.8588150464218981
 40
0.9598551709290882
 40
1.0
 40
1.0
 40
1.0
 40
1.0
 10
67.21870843163312
 20
162.4858524783952
 30
0.0
 10
67.22189398197897
 20
162.3605572206758
 30
0.0
 10
67.2309035549895
 20
162.0061893251001
 30
0.0
 10
67.32842551908867
 20
161.4088380573585
 30
0.0
 10
67.53979200077174
 20
160.7065255043089
 30
0.0
 10
67.84961702945434
 20
160.0191123888125
 30
0.0
 10
68.24857873384103
 20
159.363315785963
 30
0.0
 10
68.7276272304994
 20
158.7545411458734
 30
0.0
 10
69.27548236584134
 20
158.2072566876243
 30
0.0
 10
69.87970048344314
 20
157.7340214218769
 30
0.0
 10
70.5266109496596
 20
157.3478908942513
 30
0.0
 10
71.06589576447585
 20
157.112306452144
 30
0.0
 10
71.38425223493559
 20
157.0142840227976
 30
0.0
 10
71.47477438879345
 20
156.9864121173892
 30
0.0
  0
LINE
  5
91
330
1F
100
AcDbEntity
  8
0
  6
Continuous
 62
     7
370
    25
100
AcDbLine
 10
109.2660086975
 20
206.605934637
 30
0.0
 11
108.0871418805
 21
206.9462441741
 31
0.0
  0
LINE
  5
92
330
1F
100
AcDbEntity
  8
0
  6
Continuous
 62
     7
370
    25
100
AcDbLine
 10
107.2550915861
 20
204.0639374056
 30
0.0
 11
108.459113829
 21
203.7163661226
 31
0.0
  0
LINE
  5
93
330
1F
100
AcDbEntity
  8
0
  6
Continuous
 62
     7
370
    25
100
AcDbLine
 10
97.911343386
 20
209.8837441741
 30
0.0
 11
96.7855103611
 21
210.2087441741
 31
0.0
  0
LINE
  5
94
330
1F
100
AcDbEntity
  8
0
  6
Continuous
 62
     7
370
    25
100
AcDbLine
 10
95.9534600667
 20
207.3264374056
 30
0.0
 11
97.0792930917
 21
207.0014374056
 31
0.0
  0
SPLINE
  5
95
330
1F
100
AcDbEntity
  8
0
  6
Continuous
 62
     7
370
    25
100
AcDbSpline
210
0.0
220
0.0
230
1.0
 70
     8
 71
     3
 72
    18
 73
    14
 74
     0
 42
0.00000001
 43
0.00000001
 40
0.0
 40
0.0
 40
0.0
 40
0.0
 40
0.0546752242718324
 40
0.1546415478246389
 40
0.2548662561659312
 40
0.3553140480552566
 40
0.4558489407869222
 40
0.556435469138843
 40
0.6570926916257261
 40
0.7578486270094623
 40
0.8587330267522302
 40
0.9597552229636386
 40
0.9999999999999999
 40
0.9999999999999999
 40
0.9999999999999999
 40
0.9999999999999999
 10
132.8929889301422
 20
202.5561629210302
 30
0.0
 10
132.8898031515589
 20
202.6814471655475
 30
0.0
 10
132.8807926035871
 20
203.0357968686939
 30
0.0
 10
132.7832637377168
 20
203.6331388294983
 30
0.0
 10
132.571888465594
 20
204.3354831710928
 30
0.0
 10
132.2620419594087
 20
205.0229899716553
 30
0.0
 10
131.8630411247757
 20
205.6789308463136
 30
0.0
 10
131.3839385204626
 20
206.2878803271941
 30
0.0
 10
130.8360257688988
 20
206.8353486174583
 30
0.0
 10
130.2317566556442
 20
207.308763688855
 30
0.0
 10
129.5848123217778
 20
207.6950551998638
 30
0.0
 10
129.0452659186269
 20
207.9308696097228
 30
0.0
 10
128.7266530011308
 20
208.0289882596416
 30
0.0
 10
128.6358851059125
 20
208.0569407463291
 30
0.0
  0
LINE
  5
96
330
1F
100
AcDbEntity
  8
0
  6
Continuous
 62
     7
370
    25
100
AcDbLine
 10
84.6818925048
 20
210.5802586887
 30
0.0
 11
85.7776615723
 21
210.2639374056
 31
0.0
  0
LINE
  5
97
330
1F
100
AcDbEntity
  8
0
  6
Continuous
 62
     7
370
    25
100
AcDbLine
 10
86.6097118666
 20
213.1462441741
 30
0.0
 11
85.539098225
 21
213.4553037112
 31
0.0
  0
LINE
  5
98
330
1F
100
AcDbEntity
  8
0
  6
Continuous
 62
     7
370
    25
100
AcDbLine
 10
128.6358851059
 20
208.0569407463
 30
0.0
 11
84.0062512989
 21
220.9404062925
 31
0.0
  0
LINE
  5
99
330
1F
100
AcDbEntity
  8
0
  6
Continuous
 62
     7
370
    25
100
AcDbLine
 10
132.8929889301
 20
157.926529114
 30
0.0
 11
132.8929889301
 21
202.556162921
 31
0.0
  0
LINE
  5
9A
330
1F
100
AcDbEntity
  8
0
  6
Continuous
 62
     7
370
    25
100
AcDbLine
 10
80.7264738884
 20
220.4503729784
 30
0.0
 11
71.0475055305
 21
212.9729987171
 31
0.0
  0
LINE
  5
9B
330
1F
100
AcDbEntity
  8
0
  6
Continuous
 62
     7
370
    25
100
AcDbLine
 10
123.101343329
 20
146.8716127926
 30
0.0
 11
131.8938785814
 21
155.3862655134
 31
0.0
  0
SPLINE
  5
9C
330
1F
100
AcDbEntity
  8
0
  6
Continuous
 62
     7
370
    25
100
AcDbSpline
210
0.0
220
0.0
230
1.0
 70
     8
 71
     3
 72
    13
 73
     9
 74
     0
 42
0.00000001
 43
0.00000001
 40
0.0
 40
0.0
 40
0.0
 40
0.0
 40
0.1098444645558513
 40
0.3126084305148757
 40
0.5149571938360056
 40
0.7157601597178515
 40
0.914456868307553
 40
1.0
 40
1.0
 40
1.0
 40
1.0
 10
84.00625129886184
 20
220.9404062924965
 30
0.0
 10
83.88279854532708
 20
220.9728897573241
 30
0.0
 10
83.5314620289058
 20
221.065335061678
 30
0.0
 10
82.95297389238574
 20
221.1331855871571
 30
0.0
 10
82.28944664037606
 20
221.1077719407649
 30
0.0
 10
81.66807648437934
 20
220.9626572696643
 30
0.0
 10
81.19464516893736
 20
220.7746718851961
 30
0.0
 10
80.95968396954899
 20
220.6017852781377
 30
0.0
 10
80.888971444514
 20
220.5497543531951
 30
0.0
  0
SPLINE
  5
9D
330
1F
100
AcDbEntity
  8
0
  6
Continuous
 62
     7
370
    25
100
AcDbSpline
210
0.0
220
0.0
230
1.0
 70
     8
 71
     3
 72
    12
 73
     8
 74
     0
 42
0.00000001
 43
0.00000001
 40
0.0
 40
0.0
 40
0.0
 40
0.0
 40
0.1038758888041841
 40
0.338936777753006
 40
0.5747699303229981
 40
0.8124796590164007
 40
0.9999999999999999
 40
0.9999999999999999
 40
0.9999999999999999
 40
0.9999999999999999
 10
131.9883183507775
 20
155.5031799953739
 30
0.0
 10
132.0510531110002
 20
155.5653226431728
 30
0.0
 10
132.2557504447872
 20
155.7680879725336
 30
0.0
 10
132.51133622166
 20
156.19715680522
 30
0.0
 10
132.7461855734149
 20
156.7715458016342
 30
0.0
 10
132.8725558930612
 20
157.3560123562691
 30
0.0
 10
132.8867357967065
 20
157.7519335607477
 30
0.0
 10
132.8929889301425
 20
157.9265291139805
 30
0.0
  0
LWPOLYLINE
  5
9E
330
1F
100
AcDbEntity
  8
0
  6
Continuous
 62
     7
370
    25
100
AcDbPolyline
 90
       16
 70
   128
 43
0.0
 10
107.0871166735
 20
128.3046606928
 10
107.0797766411
 20
128.206577445
 10
106.9704952887
 20
127.9177945264
 10
106.7354333584
 20
127.6484106928
 10
106.3863778371
 20
127.4119339745
 10
105.9408318259
 20
127.2202223015
 10
105.4211368625
 20
127.0828888977
 10
104.8533526222
 20
127.0068202334
 10
104.2659501778
 20
126.995830709
 10
103.6883843407
 20
127.0504713852
 10
103.1496166735
 20
127.1680023503
 10
102.6766632369
 20
127.342530111
 10
102.2932398909
 20
127.5653031166
 10
102.0185730833
 20
127.8251505983
 10
101.8664357547
 20
128.1090427184
 10
101.8371166735
 20
128.3046606928
  0
LWPOLYLINE
  5
9F
330
1F
100
AcDbEntity
  8
0
  6
Continuous
 62
     7
370
    25
100
AcDbPolyline
 90
       26
 70
   128
 43
0.0
 10
107.0871166735
 20
129.5546606928
 10
107.3380225321
 20
129.4080407829
 10
107.7132803616
 20
129.1063089438
 10
107.9635977938
 20
128.773770212
 10
108.0793552702
 20
128.4232038645
 10
108.056104296
 20
128.0680819694
 10
107.8947383929
 20
127.7220516619
 10
107.6014587622
 20
127.3984106928
 10
107.1875359756
 20
127.1095964029
 10
106.6688768537
 20
126.8667077635
 10
106.0654131755
 20
126.6790788488
 10
105.400335712
 20
126.5539201326
 10
104.699203017
 20
126.4960413944
 10
103.9889592267
 20
126.5076668815
 10
103.2968986118
 20
126.5883498331
 10
102.6496166735
 20
126.7349896484
 10
102.0719880938
 20
126.9419510417
 10
101.5862108149
 20
127.2012806027
 10
101.2109529854
 20
127.5030124418
 10
100.9606355532
 20
127.8355511735
 10
100.8448780768
 20
128.1861175211
 10
100.868129051
 20
128.5412394162
 10
101.0294949541
 20
128.8872697236
 10
101.3227745848
 20
129.2109106928
 10
101.7366973714
 20
129.4997249827
 10
101.8371166735
 20
129.5546606928
  0
LWPOLYLINE
  5
A0
330
1F
100
AcDbEntity
  8
0
  6
Continuous
 62
     7
370
    25
100
AcDbPolyline
 90
       19
 70
   128
 43
0.0
 10
108.4615399307
 20
117.2967985751
 10
108.4545299885
 20
117.1397149823
 10
108.3413044176
 20
116.7750093543
 10
108.0959777608
 20
116.4269161048
 10
107.7269043229
 20
116.1072891317
 10
107.2466524574
 20
115.8270129484
 10
106.6715765653
 20
115.5956320241
 10
106.0212601667
 20
115.4210257586
 10
105.3178490063
 20
115.309140159
 10
104.5852969077
 20
115.2637853551
 10
103.848550054
 20
115.2865058504
 10
103.1326974756
 20
115.3765279256
 10
102.4621166735
 20
115.530785987
 10
101.8596434727
 20
115.7440269612
 10
101.3457943754
 20
116.0089891827
 10
100.9380678964
 20
116.3166496809
 10
100.6503486718
 20
116.6565314463
 10
100.4924346348
 20
117.0170602132
 10
100.4626934164
 20
117.2967985751
  0
ELLIPSE
  5
A1
330
1F
100
AcDbEntity
  8
0
  6
Continuous
 62
     7
370
    25
100
AcDbEllipse
 10
104.4655421929
 20
120.9965261393
 30
0.0
 11
3.87251960751361
 21
-0.1372113711510678
 31
0.0
210
0.0
220
0.0
230
1.0
 40
0.5145602803
 41
5.777816671593149
 42
6.318922951166024
  0
LINE
  5
A2
330
1F
100
AcDbEntity
  8
0
  6
Continuous
 62
     7
370
    25
100
AcDbLine
 10
107.8198003314
 20
119.9117675588
 30
0.0
 11
107.8385396579
 21
119.2692208792
 31
0.0
  0
ELLIPSE
  5
A3
330
1F
100
AcDbEntity
  8
0
  6
Continuous
 62
     7
370
    25
100
AcDbEllipse
 10
104.4586649933
 20
120.1275495265
 30
0.0
 11
3.90221183364875
 21
0.1328329778677642
 31
0.0
210
0.0
220
0.0
230
1.0
 40
0.4845351399
 41
5.743094467184028
 42
6.456820538020873
  0
ELLIPSE
  5
A4
330
1F
100
AcDbEntity
  8
0
  6
Continuous
 62
     7
370
    25
100
AcDbEllipse
 10
104.4654511492
 20
124.0276444959
 30
0.0
 11
3.769595441852247
 21
-0.1335645552982499
 31
0.0
210
0.0
220
0.0
230
1.0
 40
0.5145602803
 41
5.777816671593138
 42
6.318922951166017
  0
LINE
  5
A5
330
1F
100
AcDbEntity
  8
0
  6
Continuous
 62
     7
370
    25
100
AcDbLine
 10
107.7305595207
 20
122.971716724
 30
0.0
 11
107.7494809348
 21
122.3229265049
 31
0.0
  0
ELLIPSE
  5
A6
330
1F
100
AcDbEntity
  8
0
  6
Continuous
 62
     7
370
    25
100
AcDbEllipse
 10
104.4587560371
 20
123.158615319
 30
0.0
 11
3.799284562707484
 21
0.1293292890662059
 31
0.0
210
0.0
220
0.0
230
1.0
 40
0.4845351399
 41
5.743094467184033
 42
6.463042703241679
  0
ELLIPSE
  5
A7
330
1F
100
AcDbEntity
  8
0
  6
Continuous
 62
     7
370
    25
100
AcDbEllipse
 10
104.4653601054
 20
127.0587628524
 30
0.0
 11
3.666671276190911
 21
-0.129917739445446
 31
0.0
210
0.0
220
0.0
230
1.0
 40
0.5145602803
 41
5.777816671593144
 42
6.318922951166009
  0
LINE
  5
A8
330
1F
100
AcDbEntity
  8
0
  6
Continuous
 62
     7
370
    25
100
AcDbLine
 10
107.6413187101
 20
126.0316658893
 30
0.0
 11
107.6604222116
 21
125.3766321306
 31
0.0
  0
ELLIPSE
  5
A9
330
1F
100
AcDbEntity
  8
0
  6
Continuous
 62
     7
370
    25
100
AcDbEllipse
 10
104.4588470808
 20
126.1896811114
 30
0.0
 11
3.696357291766234
 21
0.125825600264605
 31
0.0
210
0.0
220
0.0
230
1.0
 40
0.4845351399
 41
5.74309446718404
 42
6.469622065373705
  0
ELLIPSE
  5
AA
330
1F
100
AcDbEntity
  8
0
  6
Continuous
 62
     7
370
    25
100
AcDbEllipse
 10
104.4587104687
 20
121.6415346923
 30
0.0
 11
3.850800755159824
 21
0.131082922529373
 31
0.0
210
0.0
220
0.0
230
1.0
 40
0.4845351399
 41
4.208000118624218
 42
5.743094467184028
  0
LINE
  5
AB
330
1F
100
AcDbEntity
  8
0
  6
Continuous
 62
     7
370
    25
100
AcDbLine
 10
107.7940557717
 20
120.7945144012
 30
0.0
 11
107.7751343577
 21
121.4433046204
 31
0.0
  0
ELLIPSE
  5
AC
330
1F
100
AcDbEntity
  8
0
  6
Continuous
 62
     7
370
    25
100
AcDbEllipse
 10
104.4654966246
 20
122.5136330748
 30
0.0
 11
3.821004969286833
 21
-0.1353861010783817
 31
0.0
210
0.0
220
0.0
230
1.0
 40
0.5145602803
 41
4.240948080857105
 42
5.777816671593133
  0
SPLINE
  5
AD
330
1F
100
AcDbEntity
  8
0
  6
Continuous
 62
     7
370
    25
100
AcDbSpline
210
0.0
220
0.0
230
1.0
 70
     8
 71
     3
 72
    17
 73
    13
 74
     0
 42
0.00000001
 43
0.00000001
 40
0.0
 40
0.0
 40
0.0
 40
0.0
 40
0.1061847200036678
 40
0.2124149687687296
 40
0.319185950569133
 40
0.4268242388614839
 40
0.5344022659368068
 40
0.6414106551200704
 40
0.7483354206290993
 40
0.8556036433129018
 40
0.9628614404311031
 40
1.0
 40
1.0
 40
1.0
 40
1.0
 10
102.653329218321
 20
119.9446917546229
 30
0.0
 10
102.6046233700835
 20
119.9628346185229
 30
0.0
 10
102.5071907900297
 20
119.9991281254283
 30
0.0
 10
102.382147773206
 20
120.1127605152301
 30
0.0
 10
102.2889066082633
 20
120.2544809948183
 30
0.0
 10
102.2367175707551
 20
120.4122063578847
 30
0.0
 10
102.2306452701787
 20
120.5654229644307
 30
0.0
 10
102.2711289275834
 20
120.6963417496934
 30
0.0
 10
102.3543635153293
 20
120.7913984002648
 30
0.0
 10
102.4728878746007
 20
120.8411430016714
 30
0.0
 10
102.5846081624468
 20
120.8429058075282
 30
0.0
 10
102.6509746428769
 20
120.8274386750273
 30
0.0
 10
102.6680440173638
 20
120.82346054819
 30
0.0
  0
ELLIPSE
  5
AE
330
1F
100
AcDbEntity
  8
0
  6
Continuous
 62
     7
370
    25
100
AcDbEllipse
 10
104.4586911541
 20
120.9985038639
 30
0.0
 11
3.87263644360624
 21
0.1318262188043349
 31
0.0
210
0.0
220
0.0
230
1.0
 40
0.4845351399
 41
3.108614634784587
 42
4.152129401848481
  0
ELLIPSE
  5
AF
330
1F
100
AcDbEntity
  8
0
  6
Continuous
 62
     7
370
    25
100
AcDbEllipse
 10
104.4655683537
 20
120.125556698
 30
0.0
 11
3.902094105276874
 21
-0.1382592567140648
 31
0.0
210
0.0
220
0.0
230
1.0
 40
0.5145602803
 41
2.969695046589266
 42
4.184969287919479
  0
SPLINE
  5
B0
330
1F
100
AcDbEntity
  8
0
  6
Continuous
 62
     7
370
    25
100
AcDbSpline
210
0.0
220
0.0
230
1.0
 70
     8
 71
     3
 72
    17
 73
    13
 74
     0
 42
0.00000001
 43
0.00000001
 40
0.0
 40
0.0
 40
0.0
 40
0.0
 40
0.1068595335306761
 40
0.2137726378249943
 40
0.3209494346100668
 40
0.4282981034902506
 40
0.5352527197954616
 40
0.641992379116601
 40
0.7492649590460566
 40
0.8570850517804659
 40
0.964448078619521
 40
1.0
 40
1.0
 40
1.0
 40
1.0
 10
102.4548576216797
 20
119.3388958029303
 30
0.0
 10
102.5030443536932
 20
119.3198781366643
 30
0.0
 10
102.5994419746662
 20
119.2818332702062
 30
0.0
 10
102.7310010741482
 20
119.1722871774245
 30
0.0
 10
102.8322549106783
 20
119.0366241773084
 30
0.0
 10
102.8900211154556
 20
118.884255597556
 30
0.0
 10
102.8963036730712
 20
118.7326519597463
 30
0.0
 10
102.8506157899038
 20
118.5983735249756
 30
0.0
 10
102.7589100979033
 20
118.4967123176779
 30
0.0
 10
102.6328879435462
 20
118.4413646007953
 30
0.0
 10
102.5200271443302
 20
118.4389951023661
 30
0.0
 10
102.4560608868274
 20
118.4559212880744
 30
0.0
 10
102.4401484620875
 20
118.4601318932706
 30
0.0
  0
ELLIPSE
  5
B1
330
1F
100
AcDbEntity
  8
0
  6
Continuous
 62
     7
370
    25
100
AcDbEllipse
 10
104.4587821978
 20
124.0295696563
 30
0.0
 11
3.769709172664989
 21
0.1283225300027624
 31
0.0
210
0.0
220
0.0
230
1.0
 40
0.4845351399
 41
3.10861463478459
 42
4.151550751655837
  0
ELLIPSE
  5
B2
330
1F
100
AcDbEntity
  8
0
  6
Continuous
 62
     7
370
    25
100
AcDbEllipse
 10
104.4654773099
 20
123.1566750546
 30
0.0
 11
3.799169939615538
 21
-0.1346124408612752
 31
0.0
210
0.0
220
0.0
230
1.0
 40
0.5145602803
 41
2.963472881648293
 42
4.184399470836723
  0
SPLINE
  5
B3
330
1F
100
AcDbEntity
  8
0
  6
Continuous
 62
     7
370
    25
100
AcDbSpline
210
0.0
220
0.0
230
1.0
 70
     8
 71
     3
 72
    17
 73
    13
 74
     0
 42
0.00000001
 43
0.00000001
 40
0.0
 40
0.0
 40
0.0
 40
0.0
 40
0.1068293362633866
 40
0.2137115816105034
 40
0.3208761771145894
 40
0.4282293608398571
 40
0.535166829653804
 40
0.6418693704794332
 40
0.749126015957617
 40
0.8569613506124231
 40
0.9643254169641959
 40
1.0
 40
1.0
 40
1.0
 40
1.0
 10
102.5063400830487
 20
122.4145698355705
 30
0.0
 10
102.5545084729973
 20
122.3955525828617
 30
0.0
 10
102.6508691091259
 20
122.3575086588196
 30
0.0
 10
102.7825017996777
 20
122.2480837051012
 30
0.0
 10
102.8838856457407
 20
122.1125592689976
 30
0.0
 10
102.9417733867046
 20
121.9602841514448
 30
0.0
 10
102.9481031616522
 20
121.8087035033511
 30
0.0
 10
102.9023986956134
 20
121.6743748467437
 30
0.0
 10
102.8106400005424
 20
121.572583562212
 30
0.0
 10
102.6845506790148
 20
121.5170820715799
 30
0.0
 10
102.5716018365
 20
121.5146307926635
 30
0.0
 10
102.5075945042412
 20
121.5315788385826
 30
0.0
 10
102.4916307427029
 20
121.5358057693739
 30
0.0
  0
ELLIPSE
  5
B4
330
1F
100
AcDbEntity
  8
0
  6
Continuous
 62
     7
370
    25
100
AcDbEllipse
 10
104.4588015125
 20
124.6726004847
 30
0.0
 11
3.747873484218559
 21
0.1275792337277863
 31
0.0
210
0.0
220
0.0
230
1.0
 40
0.4845351399
 41
4.208952965516335
 42
5.743094467184076
  0
LINE
  5
B5
330
1F
100
AcDbEntity
  8
0
  6
Continuous
 62
     7
370
    25
100
AcDbLine
 10
107.7049970486
 20
123.8482200269
 30
0.0
 11
107.6858935471
 21
124.5032537856
 31
0.0
  0
ELLIPSE
  5
B6
330
1F
100
AcDbEntity
  8
0
  6
Continuous
 62
     7
370
    25
100
AcDbEllipse
 10
104.4654055808
 20
125.5447514314
 30
0.0
 11
3.718080803625497
 21
-0.1317392852255779
 31
0.0
210
0.0
220
0.0
230
1.0
 40
0.5145602803
 41
4.241915933785242
 42
5.777816671593132
  0
SPLINE
  5
B7
330
1F
100
AcDbEntity
  8
0
  6
Continuous
 62
     7
370
    25
100
AcDbSpline
210
0.0
220
0.0
230
1.0
 70
     8
 71
     3
 72
    17
 73
    13
 74
     0
 42
0.00000001
 43
0.00000001
 40
0.0
 40
0.0
 40
0.0
 40
0.0
 40
0.1061355387763149
 40
0.2123158722598807
 40
0.319059750036953
 40
0.4267078010742654
 40
0.5342882221894972
 40
0.6412712670572202
 40
0.7481730644615148
 40
0.8554404171396733
 40
0.9626926555814341
 40
1.0
 40
1.0
 40
1.0
 40
1.0
 10
102.7048316277618
 20
123.0203830628001
 30
0.0
 10
102.6561306468486
 20
123.0385011934652
 30
0.0
 10
102.5587081306801
 20
123.0747451015869
 30
0.0
 10
102.4337653792581
 20
123.1883628613603
 30
0.0
 10
102.3406132863832
 20
123.3301071905102
 30
0.0
 10
102.2884592329143
 20
123.4878867831086
 30
0.0
 10
102.282348277875
 20
123.6411308502427
 30
0.0
 10
102.3227104447278
 20
123.7720164598306
 30
0.0
 10
102.4057700464994
 20
123.8670261803186
 30
0.0
 10
102.5241522181773
 20
123.9167661623357
 30
0.0
 10
102.6359192549972
 20
123.9185867735237
 30
0.0
 10
102.7023919302863
 20
123.9031389892991
 30
0.0
 10
102.7195469257721
 20
123.8991522884857
 30
0.0
  0
ELLIPSE
  5
B8
330
1F
100
AcDbEntity
  8
0
  6
Continuous
 62
     7
370
    25
100
AcDbEllipse
 10
104.4588732416
 20
127.0606354487
 30
0.0
 11
3.666781901723724
 21
0.1248188412011899
 31
0.0
210
0.0
220
0.0
230
1.0
 40
0.4845351399
 41
3.108614634784587
 42
4.15093960827137
  0
ELLIPSE
  5
B9
330
1F
100
AcDbEntity
  8
0
  6
Continuous
 62
     7
370
    25
100
AcDbEllipse
 10
104.4653862662
 20
126.1877934112
 30
0.0
 11
3.696245773954189
 21
-0.1309656250084714
 31
0.0
210
0.0
220
0.0
230
1.0
 40
0.5145602803
 41
2.956893519380931
 42
4.183797911986724
  0
SPLINE
  5
BA
330
1F
100
AcDbEntity
  8
0
  6
Continuous
 62
     7
370
    25
100
AcDbSpline
210
0.0
220
0.0
230
1.0
 70
     8
 71
     3
 72
    17
 73
    13
 74
     0
 42
0.00000001
 43
0.00000001
 40
0.0
 40
0.0
 40
0.0
 40
0.0
 40
0.1067963405150681
 40
0.21364486860856
 40
0.3207960980894851
 40
0.4281543656003055
 40
0.5350735068773496
 40
0.6417358088854235
 40
0.7489749090344985
 40
0.8568265322095231
 40
0.9641918114749827
 40
1.0
 40
1.0
 40
1.0
 40
1.0
 10
102.5578232112081
 20
125.4902444456685
 30
0.0
 10
102.6059717755328
 20
125.4712278447456
 30
0.0
 10
102.702292432675
 20
125.4331853501623
 30
0.0
 10
102.8340018763309
 20
125.323889713956
 30
0.0
 10
102.9355232964007
 20
125.1885129222092
 30
0.0
 10
102.993540672666
 20
125.0363370490334
 30
0.0
 10
102.9999216643331
 20
124.8847808219135
 30
0.0
 10
102.9542014446962
 20
124.7503993286799
 30
0.0
 10
102.8623889150908
 20
124.648469925067
 30
0.0
 10
102.7362299669553
 20
124.5928040255807
 30
0.0
 10
102.6231861488026
 20
124.5902642476237
 30
0.0
 10
102.5591334742242
 20
124.6072356116927
 30
0.0
 10
102.5431136747303
 20
124.6114802096163
 30
0.0
  0
LINE
  5
BB
330
1F
100
AcDbEntity
  8
0
  6
Continuous
 62
     7
370
    25
100
AcDbLine
 10
102.7048316278
 20
123.0203830628
 30
0.0
 11
103.2669630116
 21
123.5072031215
 31
0.0
  0
ELLIPSE
  5
BC
330
1F
100
AcDbEntity
  8
0
  6
Continuous
 62
     7
370
    25
100
AcDbEllipse
 10
104.4621166735
 20
124.6717585903
 30
0.0
 11
2.624643007529471
 21
0.0893447479885765
 31
0.0
210
0.0
220
0.0
230
1.0
 40
0.4845352589
 41
4.22319119072599
 42
5.516159774049814
  0
LINE
  5
BD
330
1F
100
AcDbEntity
  8
0
  6
Continuous
 62
     7
370
    25
100
AcDbLine
 10
107.7049970486
 20
123.8482200269
 30
0.0
 11
106.9280639343
 21
124.0455243696
 31
0.0
  0
LINE
  5
BE
330
1F
100
AcDbEntity
  8
0
  6
Continuous
 62
     7
370
    25
100
AcDbLine
 10
102.5431136747
 20
124.6114802096
 30
0.0
 11
102.9866870796
 21
124.9956260466
 31
0.0
  0
ELLIPSE
  5
BF
330
1F
100
AcDbEntity
  8
0
  6
Continuous
 62
     7
370
    25
100
AcDbEllipse
 10
104.4621166735
 20
126.1888507892
 30
0.0
 11
2.624563836632404
 21
-0.09299290710399079
 31
0.0
210
0.0
220
0.0
230
1.0
 40
0.5145604229
 41
3.640384407843118
 42
4.101802419166142
  0
SPLINE
  5
C0
330
1F
100
AcDbEntity
  8
0
  6
Continuous
 62
     7
370
    25
100
AcDbSpline
210
0.0
220
0.0
230
1.0
 70
     8
 71
     3
 72
    11
 73
     7
 74
     0
 42
0.00000001
 43
0.00000001
 40
0.0
 40
0.0
 40
0.0
 40
0.0
 40
0.2847931352527929
 40
0.5833652140173622
 40
0.8845425842290292
 40
1.0
 40
1.0
 40
1.0
 40
1.0
 10
103.2669630116295
 20
123.507203121494
 30
0.0
 10
103.2203199841198
 20
123.5238234223194
 30
0.0
 10
103.1247772327071
 20
123.5578681521523
 30
0.0
 10
103.0027120673956
 20
123.6671963060384
 30
0.0
 10
102.9210660610225
 20
123.7767695732644
 30
0.0
 10
102.898166380863
 20
123.8475505696275
 30
0.0
 10
102.8918204443687
 20
123.867165328646
 30
0.0
  0
LINE
  5
C1
330
1F
100
AcDbEntity
  8
0
  6
Continuous
 62
     7
370
    25
100
AcDbLine
 10
102.6533292183
 20
119.9446917546
 30
0.0
 11
103.2669630116
 21
120.4761142082
 31
0.0
  0
ELLIPSE
  5
C2
330
1F
100
AcDbEntity
  8
0
  6
Continuous
 62
     7
370
    25
100
AcDbEllipse
 10
104.4621166735
 20
121.6406696771
 30
0.0
 11
2.624643007529471
 21
0.0893447479885765
 31
0.0
210
0.0
220
0.0
230
1.0
 40
0.4845352589
 41
4.223191190725956
 42
5.378109504818572
  0
LINE
  5
C3
330
1F
100
AcDbEntity
  8
0
  6
Continuous
 62
     7
370
    25
100
AcDbLine
 10
107.7940557717
 20
120.7945144012
 30
0.0
 11
107.0314540554
 21
120.9881792452
 31
0.0
  0
LINE
  5
C4
330
1F
100
AcDbEntity
  8
0
  6
Continuous
 62
     7
370
    25
100
AcDbLine
 10
102.4916307427
 20
121.5358057694
 30
0.0
 11
102.9349124145
 21
121.9196989582
 31
0.0
  0
ELLIPSE
  5
C5
330
1F
100
AcDbEntity
  8
0
  6
Continuous
 62
     7
370
    25
100
AcDbEllipse
 10
104.4621166735
 20
123.1577618759
 30
0.0
 11
2.624563836632404
 21
-0.09299290710399079
 31
0.0
210
0.0
220
0.0
230
1.0
 40
0.5145604229
 41
3.724506773095171
 42
4.037879765388642
  0
SPLINE
  5
C6
330
1F
100
AcDbEntity
  8
0
  6
Continuous
 62
     7
370
    25
100
AcDbSpline
210
0.0
220
0.0
230
1.0
 70
     8
 71
     3
 72
    10
 73
     6
 74
     0
 42
0.00000001
 43
0.00000001
 40
0.0
 40
0.0
 40
0.0
 40
0.0
 40
0.3221762738478576
 40
0.6599401729883885
 40
1.0
 40
1.0
 40
1.0
 40
1.0
 10
103.2669630116294
 20
120.4761142082485
 30
0.0
 10
103.2205841357773
 20
120.4928092251001
 30
0.0
 10
103.1255824679407
 20
120.5270070019181
 30
0.0
 10
102.9993782621947
 20
120.6350707787743
 30
0.0
 10
102.9418121663245
 20
120.7299184263543
 30
0.0
 10
102.9129316243072
 20
120.7775028843543
 30
0.0
  0
ARC
  5
C7
330
1F
100
AcDbEntity
  8
0
  6
Continuous
 62
     7
370
    25
100
AcDbCircle
 10
106.8424929356
 20
116.5005118111
 30
0.0
 40
2.424761276343707
100
AcDbArc
 50
252.3978397297
 51
302.8636406951
  0
LINE
  5
C8
330
1F
100
AcDbEntity
  8
0
  6
Continuous
 62
     7
370
    25
100
AcDbLine
 10
110.6092309905
 20
118.086393953
 30
0.0
 11
108.4131870514
 21
118.7203372328
 31
0.0
  0
LWPOLYLINE
  5
C9
330
1F
100
AcDbEntity
  8
0
  6
Continuous
 62
     7
370
    25
100
AcDbPolyline
 90
        9
 70
   128
 43
0.0
 10
111.1582690962
 20
117.0618749002
 10
111.2796261848
 20
117.1957953012
 10
111.3463982826
 20
117.338980256
 10
111.3560193754
 20
117.4859272471
 10
111.30811973
 20
117.630989184
 10
111.2045401028
 20
117.7685914179
 10
111.049261001
 20
117.893445972
 10
110.8482497132
 20
118.0007547558
 10
110.6092309905
 20
118.086393953
  0
LINE
  5
CA
330
1F
100
AcDbEntity
  8
0
  6
Continuous
 62
     7
370
    25
100
AcDbLine
 10
108.1582690962
 20
114.4637986889
 30
0.0
 11
111.1582690962
 21
117.0618749002
 31
0.0
  0
LINE
  5
CB
330
1F
100
AcDbEntity
  8
0
  6
Continuous
 62
     7
370
    25
100
AcDbLine
 10
106.1092309905
 20
114.189279636
 30
0.0
 11
98.3150023565
 21
116.439279636
 31
0.0
  0
LWPOLYLINE
  5
CC
330
1F
100
AcDbEntity
  8
0
  6
Continuous
 62
     7
370
    25
100
AcDbPolyline
 90
        9
 70
   128
 43
0.0
 10
97.7659642508
 20
117.4637986889
 10
97.6446071622
 20
117.3298782878
 10
97.5778350644
 20
117.186693333
 10
97.5682139716
 20
117.0397463419
 10
97.616113617
 20
116.894684405
 10
97.7196932442
 20
116.7570821712
 10
97.874972346
 20
116.6322276171
 10
98.0759836338
 20
116.5249188332
 10
98.3150023565
 20
116.439279636
  0
LINE
  5
CD
330
1F
100
AcDbEntity
  8
0
  6
Continuous
 62
     7
370
    25
100
AcDbLine
 10
97.7659642508
 20
117.4637986889
 30
0.0
 11
100.5502689803
 21
119.8750773165
 31
0.0
  0
LINE
  5
CE
330
1F
100
AcDbEntity
  8
0
  6
Continuous
 62
     7
370
    25
100
AcDbLine
 10
97.7737364791
 20
106.2032247906
 30
0.0
 11
106.6504968679
 21
103.6407247906
 31
0.0
  0
LINE
  5
CF
330
1F
100
AcDbEntity
  8
0
  6
Continuous
 62
     7
370
    25
100
AcDbLine
 10
102.4401484621
 20
118.4601318933
 30
0.0
 11
102.8831537675
 21
118.8437857418
 31
0.0
  0
ELLIPSE
  5
D0
330
1F
100
AcDbEntity
  8
0
  6
Continuous
 62
     7
370
    25
100
AcDbEllipse
 10
104.4621166735
 20
120.1266729627
 30
0.0
 11
2.624563836632405
 21
-0.09299290710397658
 31
0.0
210
0.0
220
0.0
230
1.0
 40
0.5145604229
 41
3.81175371451866
 42
3.919349001324548
  0
ARC
  5
D1
330
1F
100
AcDbEntity
  8
0
  6
Continuous
 62
     7
370
    25
100
AcDbCircle
 10
107.3837588129
 20
105.9519569657
 30
0.0
 40
2.424761276342916
100
AcDbArc
 50
252.3978397297
 51
302.8636406952
  0
SPLINE
  5
D2
330
1F
100
AcDbEntity
  8
0
  6
Continuous
 62
     7
370
    25
100
AcDbSpline
210
0.0
220
0.0
230
1.0
 70
     8
 71
     3
 72
     9
 73
     5
 74
     0
 42
0.00000001
 43
0.00000001
 40
0.0
 40
0.0
 40
0.0
 40
0.0
 40
0.4093290715869736
 40
1.0
 40
1.0
 40
1.0
 40
1.0
 10
111.3444402354261
 20
116.2280510208252
 30
0.0
 10
111.3448533995457
 20
116.1525869571473
 30
0.0
 10
111.3458627686532
 20
115.9682265759377
 30
0.0
 10
111.2279290910503
 20
115.8391050978632
 30
0.0
 10
111.1582690962094
 20
115.7628367945308
 30
0.0
  0
LINE
  5
D3
330
1F
100
AcDbEntity
  8
0
  6
Continuous
 62
     7
370
    25
100
AcDbLine
 10
108.6995349736
 20
103.9152438434
 30
0.0
 11
111.6995349736
 21
106.5133200548
 31
0.0
  0
LINE
  5
D4
330
1F
100
AcDbEntity
  8
0
  6
Continuous
 62
     7
370
    25
100
AcDbLine
 10
106.9262182886
 20
97.6432906132
 30
0.0
 11
106.9262182886
 21
103.5787208591
 31
0.0
  0
LINE
  5
D5
330
1F
100
AcDbEntity
  8
0
  6
Continuous
 62
     7
370
    25
100
AcDbLine
 10
106.9262182886
 20
97.6432906132
 30
0.0
 11
106.2766992358
 21
97.8307906132
 31
0.0
  0
LINE
  5
D6
330
1F
100
AcDbEntity
  8
0
  6
Continuous
 62
     7
370
    25
100
AcDbLine
 10
106.2766992358
 20
97.8307906132
 30
0.0
 11
106.2766992358
 21
103.7486308724
 31
0.0
  0
LINE
  5
D7
330
1F
100
AcDbEntity
  8
0
  6
Continuous
 62
     7
370
    25
100
AcDbLine
 10
108.9262182886
 20
99.3753414207
 30
0.0
 11
108.9262182886
 21
104.1115573529
 31
0.0
  0
LINE
  5
D8
330
1F
100
AcDbEntity
  8
0
  6
Continuous
 62
     7
370
    25
100
AcDbLine
 10
108.9262182886
 20
99.3753414207
 30
0.0
 11
106.9262182886
 21
97.6432906132
 31
0.0
  0
LWPOLYLINE
  5
D9
330
1F
100
AcDbEntity
  8
0
  6
Continuous
 62
     7
370
    25
100
AcDbPolyline
 90
       17
 70
   128
 43
0.0
 10
107.5512182886
 20
100.34962
 10
107.5797634639
 20
100.6229010275
 10
107.6610532457
 20
100.9040191898
 10
107.7827120015
 20
101.150176795
 10
107.9262182886
 20
101.3238985792
 10
108.0697245758
 20
101.3987369756
 10
108.1913833316
 20
101.3632985166
 10
108.2726731133
 20
101.2229783864
 10
108.3012182886
 20
100.9991390528
 10
108.2726731133
 20
100.7258580253
 10
108.1913833316
 20
100.444739863
 10
108.0697245758
 20
100.1985822578
 10
107.9262182886
 20
100.0248604736
 10
107.7827120015
 20
99.9500220773
 10
107.6610532457
 20
99.9854605363
 10
107.5797634639
 20
100.1257806664
 10
107.5512182886
 20
100.34962
  0
LWPOLYLINE
  5
DA
330
1F
100
AcDbEntity
  8
0
  6
Continuous
 62
     7
370
    25
100
AcDbPolyline
 90
        7
 70
   128
 43
0.0
 10
97.7737364791
 20
106.2032247906
 10
97.5347177565
 20
106.2888639878
 10
97.3337064687
 20
106.3961727717
 10
97.1784273668
 20
106.5210273258
 10
97.0748477397
 20
106.6586295596
 10
97.0269480942
 20
106.8036914965
 10
97.0237364791
 20
106.8527438434
  0
ARC
  5
DB
330
1F
100
AcDbEntity
  8
0
  6
Continuous
 62
     7
370
    25
100
AcDbCircle
 10
111.4021863145
 20
106.9140162982
 30
0.0
 40
0.4989726490734598
100
AcDbArc
 50
306.5783701825
 51
357.0480589535
  0
LINE
  5
DC
330
1F
100
AcDbEntity
  8
0
  6
Continuous
 62
     7
370
    25
100
AcDbLine
 10
102.6475341112
 20
101.1878414207
 30
0.0
 11
102.6475341112
 21
104.7962806032
 31
0.0
  0
LINE
  5
DD
330
1F
100
AcDbEntity
  8
0
  6
Continuous
 62
     7
370
    25
100
AcDbLine
 10
102.6475341112
 20
101.1878414207
 30
0.0
 11
100.6475341112
 21
99.4557906132
 31
0.0
  0
LINE
  5
DE
330
1F
100
AcDbEntity
  8
0
  6
Continuous
 62
     7
370
    25
100
AcDbLine
 10
100.6475341112
 20
99.4557906132
 30
0.0
 11
100.6475341112
 21
105.3736308724
 31
0.0
  0
LWPOLYLINE
  5
DF
330
1F
100
AcDbEntity
  8
0
  6
Continuous
 62
     7
370
    25
100
AcDbPolyline
 90
       17
 70
   128
 43
0.0
 10
101.6475341112
 20
101.8373604736
 10
101.5040278241
 20
101.7625220773
 10
101.3823690683
 20
101.7979605363
 10
101.3010792865
 20
101.9382806664
 10
101.2725341112
 20
102.16212
 10
101.3010792865
 20
102.4354010275
 10
101.3823690683
 20
102.7165191898
 10
101.5040278241
 20
102.962676795
 10
101.6475341112
 20
103.1363985792
 10
101.7910403983
 20
103.2112369756
 10
101.9126991541
 20
103.1757985166
 10
101.9939889359
 20
103.0354783864
 10
102.0225341112
 20
102.8116390528
 10
101.9939889359
 20
102.5383580253
 10
101.9126991541
 20
102.257239863
 10
101.7910403983
 20
102.0110822578
 10
101.6475341112
 20
101.8373604736
  0
LINE
  5
E0
330
1F
100
AcDbEntity
  8
0
  6
Continuous
 62
     7
370
    25
100
AcDbLine
 10
100.6475341112
 20
99.4557906132
 30
0.0
 11
99.9980150584
 21
99.6432906132
 31
0.0
  0
LINE
  5
E1
330
1F
100
AcDbEntity
  8
0
  6
Continuous
 62
     7
370
    25
100
AcDbLine
 10
99.9980150584
 20
99.6432906132
 30
0.0
 11
99.9980150584
 21
105.5611308724
 31
0.0
  0
SPLINE
  5
E2
330
1F
100
AcDbEntity
  8
0
  6
Continuous
 62
     7
370
    25
100
AcDbSpline
210
0.0
220
0.0
230
1.0
 70
     8
 71
     3
 72
    27
 73
    23
 74
     0
 42
0.00000001
 43
0.00000001
 40
0.0
 40
0.0
 40
0.0
 40
0.0
 40
0.0208915684047164
 40
0.041736201123149
 40
0.0625561728773711
 40
0.0833738375506937
 40
0.1042115564512508
 40
0.1250916264566226
 40
0.1875927406019448
 40
0.2501235670560356
 40
0.3126182269811185
 40
0.3751437564788089
 40
0.5000062995253284
 40
0.6248688425718493
 40
0.6873611663203609
 40
0.7498890319975596
 40
0.8123866495589045
 40
0.8749209726016111
 40
0.9062082702898004
 40
0.9374335488701971
 40
0.968672320558694
 40
1.0
 40
1.0
 40
1.0
 40
1.0
 10
119.6681184342045
 20
200.2970134755807
 30
0.0
 10
119.7154276136197
 20
200.2828972708228
 30
0.0
 10
119.8099396860876
 20
200.2546965752383
 30
0.0
 10
119.9514466464827
 20
200.2066196467871
 30
0.0
 10
120.0924831055746
 20
200.1543906220301
 30
0.0
 10
120.2330474532569
 20
200.0975934476791
 30
0.0
 10
120.3731430306363
 20
200.0363362821597
 30
0.0
 10
120.6053433473821
 20
199.9270104467682
 30
0.0
 10
120.926449667039
 20
199.7539719487794
 30
0.0
 10
121.3268233400064
 20
199.4949591783735
 30
0.0
 10
121.7114396809773
 20
199.2021518178049
 30
0.0
 10
122.1973701269532
 20
198.7704871782757
 30
0.0
 10
122.7478303068989
 20
198.1601205613105
 30
0.0
 10
123.1992443247268
 20
197.4794069617581
 30
0.0
 10
123.4906462174433
 20
196.9093642379039
 30
0.0
 10
123.6723991026663
 20
196.4723535193905
 30
0.0
 10
123.8158828134728
 20
196.0304886954411
 30
0.0
 10
123.9019238815777
 20
195.6616577444764
 30
0.0
 10
123.950497082864
 20
195.3685738888373
 30
0.0
 10
123.9763948816752
 20
195.1503193399112
 30
0.0
 10
123.9926290243205
 20
194.9337422106184
 30
0.0
 10
123.9946666257239
 20
194.7914636647735
 30
0.0
 10
123.9956868741547
 20
194.7202233020054
 30
0.0
  0
LWPOLYLINE
  5
E3
330
1F
100
AcDbEntity
  8
0
  6
Continuous
 62
     7
370
    25
100
AcDbPolyline
 90
       17
 70
   128
 43
0.0
 10
106.3078927142
 20
184.4775005862
 10
106.3573344082
 20
184.7117881791
 10
106.4981324403
 20
184.8818624345
 10
106.7088515865
 20
184.9618310887
 10
106.957411767
 20
184.9395196391
 10
107.2059719476
 20
184.8183248015
 10
107.4166910938
 20
184.6166973915
 10
107.5574891259
 20
184.3653333544
 10
107.6069308199
 20
184.1025005862
 10
107.5574891259
 20
183.8682129933
 10
107.4166910938
 20
183.698138738
 10
107.2059719476
 20
183.6181700838
 10
106.957411767
 20
183.6404815334
 10
106.7088515865
 20
183.7616763709
 10
106.4981324403
 20
183.9633037809
 10
106.3573344082
 20
184.214667818
 10
106.3078927142
 20
184.4775005862
  0
LINE
  5
E4
330
1F
100
AcDbEntity
  8
0
  6
Continuous
 62
     7
370
    25
100
AcDbLine
 10
97.0842420054
 20
206.2116453534
 30
0.0
 11
107.0435341489
 21
203.3366453534
 31
0.0
  0
LINE
  5
E5
330
1F
100
AcDbEntity
  8
0
  6
Continuous
 62
     7
370
    25
100
AcDbLine
 10
107.0435341489
 20
203.3366453534
 30
0.0
 11
107.5412129227
 21
203.7977496896
 31
0.0
  0
LINE
  5
E6
330
1F
100
AcDbEntity
  8
0
  6
Continuous
 62
     7
370
    25
100
AcDbLine
 10
107.5412129227
 20
203.7977496896
 30
0.0
 11
108.861364292
 21
203.4166548154
 31
0.0
  0
LINE
  5
E7
330
1F
100
AcDbEntity
  8
0
  6
Continuous
 62
     7
370
    25
100
AcDbLine
 10
74.1966678725
 20
213.42349072
 30
0.0
 11
85.8259117562
 21
210.0664171766
 31
0.0
  0
LINE
  5
E8
330
1F
100
AcDbEntity
  8
0
  6
Continuous
 62
     7
370
    25
100
AcDbLine
 10
85.8259117562
 20
209.4616453534
 30
0.0
 11
95.7852038997
 21
206.5866453534
 31
0.0
  0
LINE
  5
E9
330
1F
100
AcDbEntity
  8
0
  6
Continuous
 62
     7
370
    25
100
AcDbLine
 10
96.2828826735
 20
207.0477496896
 30
0.0
 11
95.7852038997
 21
206.5866453534
 31
0.0
  0
LINE
  5
EA
330
1F
100
AcDbEntity
  8
0
  6
Continuous
 62
     7
370
    25
100
AcDbLine
 10
96.2828826735
 20
207.0477496896
 30
0.0
 11
97.0842420054
 21
206.8164171766
 31
0.0
  0
LINE
  5
EB
330
1F
100
AcDbEntity
  8
0
  6
Continuous
 62
     7
370
    25
100
AcDbLine
 10
123.9956870216
 20
194.7202232595
 30
0.0
 11
123.9956870216
 21
149.2486536505
 31
0.0
  0
LINE
  5
EC
330
1F
100
AcDbEntity
  8
0
  6
Continuous
 62
     7
370
    25
100
AcDbLine
 10
107.0435341489
 20
203.3366453534
 30
0.0
 11
107.0435341489
 21
204.1381150623
 31
0.0
  0
LWPOLYLINE
  5
ED
330
1F
100
AcDbEntity
  8
0
  6
Continuous
 62
     7
370
    25
100
AcDbPolyline
 90
       11
 70
   128
 43
0.0
 10
107.0435341489
 20
204.1381150623
 10
106.8938995518
 20
204.3234731494
 10
106.8079594532
 20
204.6287902705
 10
106.7941702078
 20
205.0240237573
 10
106.8538886531
 20
205.4702833291
 10
106.981238599
 20
205.923657828
 10
107.1636890346
 20
206.3395359998
 10
107.3832871576
 20
206.6769961631
 10
107.6184248983
 20
206.9028328306
 10
107.8459651164
 20
206.994824071
 10
108.0229691715
 20
206.9570177767
  0
LINE
  5
EE
330
1F
100
AcDbEntity
  8
0
  6
Continuous
 62
     7
370
    25
100
AcDbLine
 10
107.5412129227
 20
203.9813412903
 30
0.0
 11
107.5412129227
 21
203.7977496896
 31
0.0
  0
LINE
  5
EF
330
1F
100
AcDbEntity
  8
0
  6
Continuous
 62
     7
370
    25
100
AcDbLine
 10
107.0435341489
 20
204.1381150623
 30
0.0
 11
97.0842420054
 21
207.0131150623
 31
0.0
  0
LWPOLYLINE
  5
F0
330
1F
100
AcDbEntity
  8
0
  6
Continuous
 62
     7
370
    25
100
AcDbPolyline
 90
       11
 70
   128
 43
0.0
 10
97.9983405238
 20
209.8601110999
 10
97.8866729729
 20
209.869824071
 10
97.6591327548
 20
209.7778328306
 10
97.423995014
 20
209.5519961631
 10
97.2043968911
 20
209.2145359998
 10
97.0219464555
 20
208.798657828
 10
96.8945965096
 20
208.3452833291
 10
96.8348780643
 20
207.8990237573
 10
96.8486673097
 20
207.5037902705
 10
96.9346074083
 20
207.1984731494
 10
97.0842420054
 20
207.0131150623
  0
LINE
  5
F1
330
1F
100
AcDbEntity
  8
0
  6
Continuous
 62
     7
370
    25
100
AcDbLine
 10
97.0842420054
 20
206.2116453534
 30
0.0
 11
97.0842420054
 21
207.0131150623
 31
0.0
  0
LINE
  5
F2
330
1F
100
AcDbEntity
  8
0
  6
Continuous
 62
     7
370
    25
100
AcDbLine
 10
95.7852038997
 20
207.3881150623
 30
0.0
 11
95.7852038997
 21
206.5866453534
 31
0.0
  0
LWPOLYLINE
  5
F3
330
1F
100
AcDbEntity
  8
0
  6
Continuous
 62
     7
370
    25
100
AcDbPolyline
 90
       11
 70
   128
 43
0.0
 10
95.7852038997
 20
207.3881150623
 10
95.6355693026
 20
207.5734731494
 10
95.549629204
 20
207.8787902705
 10
95.5358399586
 20
208.2740237573
 10
95.5955584039
 20
208.7202833291
 10
95.7229083498
 20
209.173657828
 10
95.9053587854
 20
209.5895359998
 10
96.1249569084
 20
209.9269961631
 10
96.3600946491
 20
210.1528328306
 10
96.5876348672
 20
210.244824071
 10
96.7456615061
 20
210.2171902607
  0
LINE
  5
F4
330
1F
100
AcDbEntity
  8
0
  6
Continuous
 62
     7
370
    25
100
AcDbLine
 10
96.2828826735
 20
207.2313412903
 30
0.0
 11
96.2828826735
 21
207.0477496896
 31
0.0
  0
LWPOLYLINE
  5
F5
330
1F
100
AcDbEntity
  8
0
  6
Continuous
 62
     7
370
    25
100
AcDbPolyline
 90
       11
 70
   128
 43
0.0
 10
85.8259117562
 20
210.2631150623
 10
85.6762771591
 20
210.4484731494
 10
85.5903370605
 20
210.7537902705
 10
85.5765478151
 20
211.1490237573
 10
85.6362662604
 20
211.5952833291
 10
85.7636162063
 20
212.048657828
 10
85.9460666419
 20
212.4645359998
 10
86.1656647648
 20
212.8019961631
 10
86.4008025056
 20
213.0278328306
 10
86.6283427237
 20
213.119824071
 10
86.7400102746
 20
213.1101110999
  0
LINE
  5
F6
330
1F
100
AcDbEntity
  8
0
  6
Continuous
 62
     7
370
    25
100
AcDbLine
 10
95.7852038997
 20
207.3881150623
 30
0.0
 11
85.8259117562
 21
210.2631150623
 31
0.0
  0
ARC
  5
F7
330
1F
100
AcDbEntity
  8
0
  6
Continuous
 62
     7
370
    25
100
AcDbCircle
 10
107.7607659262
 20
184.9859875793
 30
0.0
 40
0.9034462575421853
100
AcDbArc
 50
182.0408166478
 51
260.1938696582
  0
LINE
  5
F8
330
1F
100
AcDbEntity
  8
0
  6
Continuous
 62
     7
370
    25
100
AcDbLine
 10
85.8259117562
 20
209.4616453534
 30
0.0
 11
85.8259117562
 21
210.2631150623
 31
0.0
  0
SPLINE
  5
F9
330
1F
100
AcDbEntity
  8
0
  6
Continuous
 62
     7
370
    25
100
AcDbSpline
210
0.0
220
0.0
230
1.0
 70
     8
 71
     3
 72
    12
 73
     8
 74
     0
 42
0.00000001
 43
0.00000001
 40
0.0
 40
0.0
 40
0.0
 40
0.0
 40
0.1502351978032576
 40
0.3821099165811223
 40
0.6139964879951326
 40
0.8069497149770178
 40
1.0
 40
1.0
 40
1.0
 40
1.0
 10
70.78809879019309
 20
212.7149832577722
 30
0.0
 10
70.89984450925189
 20
212.8284313568183
 30
0.0
 10
71.18405984635133
 20
213.116976546605
 30
0.0
 10
71.78018072079172
 20
213.4125961133566
 30
0.0
 10
72.48722875373457
 20
213.5894608967485
 30
0.0
 10
73.20800846823992
 20
213.6191115693068
 30
0.0
 10
73.67660283051501
 20
213.5373731601557
 30
0.0
 10
73.9109589241359
 20
213.4964936792877
 30
0.0
  0
SPLINE
  5
FA
330
1F
100
AcDbEntity
  8
0
  6
Continuous
 62
     7
370
    25
100
AcDbSpline
210
0.0
220
0.0
230
1.0
 70
     8
 71
     3
 72
     9
 73
     5
 74
     0
 42
0.00000001
 43
0.00000001
 40
0.0
 40
0.0
 40
0.0
 40
0.0
 40
0.4989472345205136
 40
1.0
 40
1.0
 40
1.0
 40
1.0
 10
73.91094268242547
 20
213.4965304524479
 30
0.0
 10
73.95841270059321
 20
213.4855755364045
 30
0.0
 10
74.05355305789628
 20
213.463619475151
 30
0.0
 10
74.14884314562619
 20
213.4369009976907
 30
0.0
 10
74.19658850760622
 20
213.4235136306698
 30
0.0
  0
SPLINE
  5
FB
330
1F
100
AcDbEntity
  8
0
  6
Continuous
 62
     7
370
    25
100
AcDbSpline
210
0.0
220
0.0
230
1.0
 70
     8
 71
     3
 72
    46
 73
    42
 74
     0
 42
0.00000001
 43
0.00000001
 40
0.0
 40
0.0
 40
0.0
 40
0.0
 40
0.0202473912499298
 40
0.0404133968351848
 40
0.0604980334664858
 40
0.080501318059805
 40
0.100423267739606
 40
0.1202638998423611
 40
0.1400232319197722
 40
0.1597012817425259
 40
0.179298067303643
 40
0.1988136068222849
 40
0.2182479187473913
 40
0.2376010217615665
 40
0.2568729347848388
 40
0.2760636769787161
 40
0.2951732677502052
 40
0.314201726755885
 40
0.3331490739061909
 40
0.3520153293696573
 40
0.3708005135773266
 40
0.3895046472272032
 40
0.4081277512888873
 40
0.4266698470081828
 40
0.4451309559118827
 40
0.4635110998126586
 40
0.4818103008140149
 40
0.5000285813154023
 40
0.5365417602250735
 40
0.5733787012754017
 40
0.6105395783838181
 40
0.6480245608764306
 40
0.6858338136424347
 40
0.7239674972821616
 40
0.7624257682490119
 40
0.8012087789856877
 40
0.8403166780548887
 40
0.8797496102648017
 40
0.9195077167895789
 40
0.9595911352850637
 40
1.0
 40
1.0
 40
1.0
 40
1.0
 10
119.668197799015
 20
200.2969905445171
 30
0.0
 10
119.7140717251104
 20
200.2833156035088
 30
0.0
 10
119.8056351841652
 20
200.2560206887792
 30
0.0
 10
119.9425697901058
 20
200.2096941980741
 30
0.0
 10
120.0786801068405
 20
200.1596435314066
 30
0.0
 10
120.2138345006793
 20
200.1055738609936
 30
0.0
 10
120.3479046028766
 20
200.0476925440493
 30
0.0
 10
120.4807659915613
 20
199.9860764647099
 30
0.0
 10
120.612298101074
 20
199.9208402693995
 30
0.0
 10
120.7423843270899
 20
199.8520913092534
 30
0.0
 10
120.870912069828
 20
199.7799413892294
 30
0.0
 10
120.9977727841779
 20
199.7045033926547
 30
0.0
 10
121.1228620186289
 20
199.6258919374006
 30
0.0
 10
121.2460794480592
 20
199.5442229626165
 30
0.0
 10
121.3673288992609
 20
199.4596136046655
 30
0.0
 10
121.4865183697516
 20
199.3721820007031
 30
0.0
 10
121.6035600399641
 20
199.2820471163878
 30
0.0
 10
121.718370279041
 20
199.1893285722486
 30
0.0
 10
121.8308696444816
 20
199.0941464755957
 30
0.0
 10
121.9409828756213
 20
198.9966212566197
 30
0.0
 10
122.0486388820372
 20
198.8968735080147
 30
0.0
 10
122.1537707238
 20
198.7950238328173
 30
0.0
 10
122.2563155960062
 20
198.6911926830857
 30
0.0
 10
122.3562147725056
 20
198.585500254395
 30
0.0
 10
122.4534136770031
 20
198.4780661955741
 30
0.0
 10
122.547861459
 20
198.3690100259757
 30
0.0
 10
122.6395123837063
 20
198.258448952336
 30
0.0
 10
122.7581791065723
 20
198.108868208435
 30
0.0
 10
122.9006971160718
 20
197.9168080764532
 30
0.0
 10
123.0619249860751
 20
197.6785471583624
 30
0.0
 10
123.2130688773986
 20
197.4323913335063
 30
0.0
 10
123.3532966982179
 20
197.179037043776
 30
0.0
 10
123.4817953369463
 20
196.9192363705551
 30
0.0
 10
123.5977701148938
 20
196.6538039780385
 30
0.0
 10
123.7004484409441
 20
196.3836149362563
 30
0.0
 10
123.7890969065413
 20
196.1096003320177
 30
0.0
 10
123.8629806957435
 20
195.8327586422914
 30
0.0
 10
123.9215437890103
 20
195.5541028536082
 30
0.0
 10
123.9637548643833
 20
195.2748488600222
 30
0.0
 10
123.9906060570215
 20
194.9956897540036
 30
0.0
 10
123.9939887053565
 20
194.8123190435086
 30
0.0
 10
123.9956868678819
 20
194.7202629862378
 30
0.0
  0
LINE
  5
FC
330
1F
100
AcDbEntity
  8
0
  6
Continuous
 62
     7
370
    25
100
AcDbLine
 10
123.9956870216
 20
194.7191089719
 30
0.0
 11
123.9956870216
 21
149.2498076205
 31
0.0
  0
ELLIPSE
  5
FD
330
1F
100
AcDbEntity
  8
0
  6
Continuous
 62
     7
370
    25
100
AcDbEllipse
 10
119.6640756676
 20
150.5032042725
 30
0.0
 11
-3.274867375484674
 21
3.782770582401865
 31
0.0
210
0.0
220
0.0
230
1.0
 40
0.7494915063
 41
3.183423300271026
 42
3.855148814607437
  0
SPLINE
  5
FE
330
1F
100
AcDbEntity
  8
0
  6
Continuous
 62
     7
370
    25
100
AcDbSpline
210
0.0
220
0.0
230
1.0
 70
     8
 71
     3
 72
    12
 73
     8
 74
     0
 42
0.00000001
 43
0.00000001
 40
0.0
 40
0.0
 40
0.0
 40
0.0
 40
0.1783173570724336
 40
0.3933606148339219
 40
0.614529912191706
 40
0.8418336392390047
 40
1.0
 40
1.0
 40
1.0
 40
1.0
 10
70.70675619375132
 20
212.6436262402875
 30
0.0
 10
70.84407523193835
 20
212.7827201624228
 30
0.0
 10
71.14699527391575
 20
213.0895555239886
 30
0.0
 10
71.75735210434141
 20
213.4035955396365
 30
0.0
 10
72.49335492546336
 20
213.5951538362994
 30
0.0
 10
73.22855824583684
 20
213.620011138135
 30
0.0
 10
73.71242651498454
 20
213.532414412321
 30
0.0
 10
73.91096768754068
 20
213.4964716614441
 30
0.0
  0
SPLINE
  5
FF
330
1F
100
AcDbEntity
  8
0
  6
Continuous
 62
     7
370
    25
100
AcDbSpline
210
0.0
220
0.0
230
1.0
 70
     8
 71
     3
 72
     9
 73
     5
 74
     0
 42
0.00000001
 43
0.00000001
 40
0.0
 40
0.0
 40
0.0
 40
0.0
 40
0.5005647736506421
 40
1.0
 40
1.0
 40
1.0
 40
1.0
 10
74.19666787245737
 20
213.4234905867143
 30
0.0
 10
74.1489564328651
 20
213.4368578273253
 30
0.0
 10
74.05364121672585
 20
213.4635621447576
 30
0.0
 10
73.95848207197196
 20
213.4855207184211
 30
0.0
 10
73.91095624297249
 20
213.496487603629
 30
0.0
  0
LINE
  5
100
330
1F
100
AcDbEntity
  8
0
  6
Continuous
 62
     7
370
    25
100
AcDbLine
 10
85.1104953649
 20
210.4565317003
 30
0.0
 11
85.1104953649
 21
210.2729400997
 31
0.0
  0
LINE
  5
101
330
1F
100
AcDbEntity
  8
0
  6
Continuous
 62
     7
370
    25
100
AcDbLine
 10
96.3694852139
 20
207.0227496896
 30
0.0
 11
96.2828826735
 21
207.0477496896
 31
0.0
  0
LINE
  5
102
330
1F
100
AcDbEntity
  8
0
  6
Continuous
 62
     7
370
    25
100
AcDbLine
 10
96.3694852139
 20
207.0227496896
 30
0.0
 11
96.3694852139
 21
207.2063412903
 31
0.0
  0
LINE
  5
103
330
1F
100
AcDbEntity
  8
0
  6
Continuous
 62
     7
370
    25
100
AcDbLine
 10
107.6711167333
 20
203.7602496896
 30
0.0
 11
107.6711167333
 21
203.9438412903
 31
0.0
  0
LINE
  5
104
330
1F
100
AcDbEntity
  8
0
  6
Continuous
 62
     7
370
    25
100
AcDbLine
 10
108.8625612633
 20
203.8621122741
 30
0.0
 11
108.8625612633
 21
203.4163092796
 31
0.0
  0
LINE
  5
105
330
1F
100
AcDbEntity
  8
0
  6
Continuous
 62
     7
370
    25
100
AcDbLine
 10
119.6681184342
 20
200.2970136089
 30
0.0
 11
108.8625612633
 21
203.4163092796
 31
0.0
  0
LINE
  5
106
330
1F
100
AcDbEntity
  8
0
  6
Continuous
 62
     7
370
    25
100
AcDbLine
 10
108.0410136532
 20
212.8055674787
 30
0.0
 11
106.7976730875
 21
211.7778074941
 31
0.0
  0
LINE
  5
107
330
1F
100
AcDbEntity
  8
0
  6
Continuous
 62
     7
370
    25
100
AcDbLine
 10
102.3237726535
 20
214.4559927938
 30
0.0
 11
108.0410136532
 21
212.8055674787
 31
0.0
  0
LINE
  5
108
330
1F
100
AcDbEntity
  8
0
  6
Continuous
 62
     7
370
    25
100
AcDbLine
 10
101.0671132192
 20
213.4320776354
 30
0.0
 11
102.3237726535
 21
214.4559927938
 31
0.0
  0
LINE
  5
109
330
1F
100
AcDbEntity
  8
0
  6
Continuous
 62
     7
370
    25
100
AcDbLine
 10
101.0671132192
 20
213.4320776354
 30
0.0
 11
106.7976730875
 21
211.7778074941
 31
0.0
  0
LINE
  5
10A
330
1F
100
AcDbEntity
  8
0
  6
Continuous
 62
     7
370
    25
100
AcDbLine
 10
108.8625612633
 20
203.4163092796
 30
0.0
 11
109.9776289979
 21
204.3699760345
 31
0.0
  0
ELLIPSE
  5
10B
330
1F
100
AcDbEntity
  8
0
  6
Continuous
 62
     7
370
    25
100
AcDbEllipse
 10
108.8625612633
 20
205.1611503798
 30
0.0
 11
0.4007510792036301
 21
1.44554717692705
 31
0.0
210
0.0
220
0.0
230
1.0
 40
0.4198825747
 41
5.900557157760553
 42
10.00833162261585
  0
LINE
  5
10C
330
1F
100
AcDbEntity
  8
0
  6
Continuous
 62
     7
370
    25
100
AcDbLine
 10
109.9776289979
 20
204.3699760345
 30
0.0
 11
109.4609471913
 21
206.4393404549
 31
0.0
  0
LWPOLYLINE
  5
10D
330
1F
100
AcDbEntity
  8
0
  6
Continuous
 62
     7
370
    25
100
AcDbPolyline
 90
       12
 70
   128
 43
0.0
 10
108.0871418805
 20
206.9462441741
 10
107.9171385823
 20
206.9453111803
 10
107.6847913689
 20
206.8157555354
 10
107.4510901335
 20
206.5564217429
 10
107.2391752814
 20
206.192988268
 10
107.0700299947
 20
205.7614412187
 10
106.9604025396
 20
205.304511108
 10
106.9211479025
 20
204.8674418043
 10
106.9561529615
 20
204.4935106178
 10
107.0619516191
 20
204.2197431088
 10
107.2280680052
 20
204.0732469267
 10
107.2550915861
 20
204.0639374056
  0
LWPOLYLINE
  5
10E
330
1F
100
AcDbEntity
  8
0
  6
Continuous
 62
     7
370
    25
100
AcDbPolyline
 90
       13
 70
   128
 43
0.0
 10
97.9495628954
 20
209.8696538648
 10
97.9493269452
 20
209.8697604605
 10
97.7413400879
 20
209.8828111803
 10
97.5089928744
 20
209.7532555354
 10
97.275291639
 20
209.4939217429
 10
97.0633767869
 20
209.130488268
 10
96.8942315003
 20
208.6989412187
 10
96.7846040451
 20
208.242011108
 10
96.745349408
 20
207.8049418043
 10
96.780354467
 20
207.4310106178
 10
96.8861531246
 20
207.1572431088
 10
97.0522695107
 20
207.0107469267
 10
97.0792930917
 20
207.0014374056
  0
LWPOLYLINE
  5
10F
330
1F
100
AcDbEntity
  8
0
  6
Continuous
 62
     7
370
    25
100
AcDbPolyline
 90
       12
 70
   128
 43
0.0
 10
96.7855103611
 20
210.2087441741
 10
96.6155070629
 20
210.2078111803
 10
96.3831598495
 20
210.0782555354
 10
96.1494586141
 20
209.8189217429
 10
95.937543762
 20
209.455488268
 10
95.7683984753
 20
209.0239412187
 10
95.6587710202
 20
208.567011108
 10
95.6195163831
 20
208.1299418043
 10
95.6545214421
 20
207.7560106178
 10
95.7603200997
 20
207.4822431088
 10
95.9264364858
 20
207.3357469267
 10
95.9534600667
 20
207.3264374056
  0
LWPOLYLINE
  5
110
330
1F
100
AcDbEntity
  8
0
  6
Continuous
 62
     7
370
    25
100
AcDbPolyline
 90
       13
 70
   128
 43
0.0
 10
86.6697535167
 20
213.1211601798
 10
86.6476954258
 20
213.1322604605
 10
86.4397085685
 20
213.1453111803
 10
86.207361355
 20
213.0157555354
 10
85.9736601196
 20
212.7564217429
 10
85.7617452676
 20
212.392988268
 10
85.5925999809
 20
211.9614412187
 10
85.4829725257
 20
211.504511108
 10
85.4437178886
 20
211.0674418043
 10
85.4787229476
 20
210.6935106178
 10
85.5845216053
 20
210.4197431088
 10
85.7506379913
 20
210.2732469267
 10
85.8259117562
 20
210.2544555057
  0
ELLIPSE
  5
111
330
1F
100
AcDbEntity
  8
0
  6
Continuous
 62
     7
370
    25
100
AcDbEllipse
 10
85.1104953649
 20
212.0177811999
 30
0.0
 11
0.43172236256639
 21
1.436603549740681
 31
0.0
210
0.0
220
0.0
230
1.0
 40
0.4460615836
 41
0.0048600961347874
 42
3.146452749724763
  0
LINE
  5
112
330
1F
100
AcDbEntity
  8
0
  6
Continuous
 62
     7
370
    25
100
AcDbLine
 10
102.3237726535
 20
214.4559927938
 30
0.0
 11
102.4866555771
 21
213.0222910541
 31
0.0
  0
ELLIPSE
  5
113
330
1F
100
AcDbEntity
  8
0
  6
Continuous
 62
     8
370
    25
100
AcDbEllipse
 10
116.4965880942
 20
193.2493550141
 30
0.0
 11
-2.94697891215209
 21
3.400818925364263
 31
0.0
210
0.0
220
0.0
230
1.0
 40
0.7509046167
 41
3.855614021472068
 42
5.425192373095703
  0
LINE
  5
114
330
1F
100
AcDbEntity
  8
0
  6
Continuous
 62
     8
370
    25
100
AcDbLine
 10
120.396077875
 20
146.9905305855
 30
0.0
 11
120.396077875
 21
192.1284187573
 31
0.0
  0
ELLIPSE
  5
115
330
1F
100
AcDbEntity
  8
0
  6
Continuous
 62
     8
370
    25
100
AcDbEllipse
 10
116.4965880942
 20
148.1209651324
 30
0.0
 11
-2.948501787814721
 21
3.406680620430479
 31
0.0
210
0.0
220
0.0
230
1.0
 40
0.7490963921
 41
2.285438930219189
 42
3.855017645131753
  0
LINE
  5
116
330
1F
100
AcDbEntity
  8
0
  6
Continuous
 62
     8
370
    25
100
AcDbLine
 10
71.3634493658
 20
157.2502902487
 30
0.0
 11
116.5013368291
 21
144.2201045099
 31
0.0
  0
ELLIPSE
  5
117
330
1F
100
AcDbEntity
  8
0
  6
Continuous
 62
     8
370
    25
100
AcDbEllipse
 10
71.3681982125
 20
161.1484091555
 30
0.0
 11
-2.946978912152076
 21
3.400818925364263
 31
0.0
210
0.0
220
0.0
230
1.0
 40
0.7509046167
 41
0.7140211872740131
 42
2.283599882053799
  0
LINE
  5
118
330
1F
100
AcDbEntity
  8
0
  6
Continuous
 62
     8
370
    25
100
AcDbLine
 10
67.4687084316
 20
207.4072342552
 30
0.0
 11
67.4687084316
 21
162.2693461166
 31
0.0
  0
ELLIPSE
  5
119
330
1F
100
AcDbEntity
  8
0
  6
Continuous
 62
     8
370
    25
100
AcDbEllipse
 10
71.3681982125
 20
206.2767990373
 30
0.0
 11
-2.948501787814735
 21
3.406680620430479
 31
0.0
210
0.0
220
0.0
230
1.0
 40
0.7490963921
 41
5.427031775013445
 42
6.996610126637071
  0
LINE
  5
11A
330
1F
100
AcDbEntity
  8
0
  6
Continuous
 62
     8
370
    25
100
AcDbLine
 10
116.5013375747
 20
197.147473738
 30
0.0
 11
71.3634487319
 21
210.177659875
 31
0.0
  0
LINE
  5
11B
330
1F
100
AcDbEntity
  8
0
  6
Continuous
 62
     8
370
    25
100
AcDbLine
 10
104.8055193024
 20
195.207258294
 30
0.0
 11
104.7412732874
 21
195.3562376613
 31
0.0
  0
LINE
  5
11C
330
1F
100
AcDbEntity
  8
0
  6
Continuous
 62
     7
370
    25
100
AcDbLine
 10
111.1582690962
 20
115.7628367945
 30
0.0
 11
110.2719662537
 21
114.9952760174
 31
0.0
  0
ENDSEC
  0
SECTION
  2
OBJECTS
  0
DICTIONARY
  5
C
330
0
100
AcDbDictionary
281
     1
  3
ACAD_GROUP
350
D
  3
ACAD_LAYOUT
350
1A
  3
ACAD_MLINESTYLE
350
17
  3
ACAD_PLOTSETTINGS
350
19
  3
ACAD_PLOTSTYLENAME
350
E
  3
ACAD_SCALELIST
350
47
  3
DWGPROPS
350
11D
  0
DICTIONARY
  5
D
102
{ACAD_REACTORS
330
C
102
}
330
C
100
AcDbDictionary
281
     1
  0
DICTIONARY
  5
1A
102
{ACAD_REACTORS
330
C
102
}
330
C
100
AcDbDictionary
281
     1
  3
Layout1
350
1E
  3
Layout2
350
26
  3
Model
350
22
  0
DICTIONARY
  5
17
102
{ACAD_REACTORS
330
C
102
}
330
C
100
AcDbDictionary
281
     1
  3
Standard
350
18
  0
DICTIONARY
  5
19
102
{ACAD_REACTORS
330
C
102
}
330
C
100
AcDbDictionary
281
     1
  0
ACDBDICTIONARYWDFLT
  5
E
102
{ACAD_REACTORS
330
C
102
}
330
C
100
AcDbDictionary
281
     1
  3
Normal
350
F
100
AcDbDictionaryWithDefault
340
F
  0
DICTIONARY
  5
47
102
{ACAD_REACTORS
330
C
102
}
330
C
100
AcDbDictionary
281
     1
  3
A0
350
48
  3
A1
350
49
  3
A2
350
4A
  3
A3
350
4B
  3
A4
350
4C
  3
A5
350
4D
  3
A6
350
4E
  3
A7
350
4F
  3
A8
350
50
  3
A9
350
51
  3
B0
350
52
  3
B1
350
53
  3
B2
350
54
  3
B3
350
55
  3
B4
350
56
  3
B5
350
57
  3
B6
350
58
  3
B7
350
59
  3
B8
350
5A
  3
B9
350
5B
  3
C0
350
5C
  3
C1
350
5D
  3
C2
350
5E
  3
C3
350
5F
  3
C4
350
60
  3
C5
350
61
  3
C6
350
62
  3
C7
350
63
  3
C8
350
64
  3
C9
350
65
  3
D0
350
66
  3
D1
350
67
  3
D2
350
68
  0
XRECORD
  5
11D
102
{ACAD_REACTORS
330
C
102
}
330
C
100
AcDbXrecord
280
     1
  1
DWGPROPS COOKIE
  2

  3

  4

  6

  7

  8
9128
  9

300
=
301
=
302
=
303
=
304
=
305
=
306
=
307
=
308
=
309
=
 40
0.0
 41
2459242.413953878
 42
2459242.413954213
  1

 90
        0
  0
LAYOUT
  5
1E
102
{ACAD_REACTORS
330
1A
102
}
330
1A
100
AcDbPlotSettings
  1

  2
none_device
  4

  6

 40
0.0
 41
0.0
 42
0.0
 43
0.0
 44
0.0
 45
0.0
 46
0.0
 47
0.0
 48
0.0
 49
0.0
140
0.0
141
0.0
142
1.0
143
1.0
 70
   688
 72
     1
 73
     0
 74
     5
  7

 75
    16
147
1.0
148
0.0
149
0.0
100
AcDbLayout
  1
Layout1
 70
     1
 71
     1
 10
0.0
 20
0.0
 11
420.0
 21
297.0
 12
0.0
 22
0.0
 32
0.0
 14
1.0000000000E+20
 24
1.0000000000E+20
 34
1.0000000000E+20
 15
-1.0000000000E+20
 25
-1.0000000000E+20
 35
-1.0000000000E+20
146
0.0
 13
0.0
 23
0.0
 33
0.0
 16
1.0
 26
0.0
 36
0.0
 17
0.0
 27
1.0
 37
0.0
 76
     0
330
1B
  0
LAYOUT
  5
26
102
{ACAD_REACTORS
330
1A
102
}
330
1A
100
AcDbPlotSettings
  1

  2
none_device
  4

  6

 40
0.0
 41
0.0
 42
0.0
 43
0.0
 44
0.0
 45
0.0
 46
0.0
 47
0.0
 48
0.0
 49
0.0
140
0.0
141
0.0
142
1.0
143
1.0
 70
   688
 72
     1
 73
     0
 74
     5
  7

 75
    16
147
1.0
148
0.0
149
0.0
100
AcDbLayout
  1
Layout2
 70
     1
 71
     2
 10
0.0
 20
0.0
 11
0.0
 21
0.0
 12
0.0
 22
0.0
 32
0.0
 14
0.0
 24
0.0
 34
0.0
 15
0.0
 25
0.0
 35
0.0
146
0.0
 13
0.0
 23
0.0
 33
0.0
 16
1.0
 26
0.0
 36
0.0
 17
0.0
 27
1.0
 37
0.0
 76
     0
330
23
  0
LAYOUT
  5
22
102
{ACAD_REACTORS
330
1A
102
}
330
1A
100
AcDbPlotSettings
  1

  2
none_device
  4
Letter_(8.50_x_11.00_Inches)
  6

 40
6.35
 41
6.35
 42
6.35000508
 43
6.35000508
 44
215.9
 45
279.4
 46
0.0
 47
0.0
 48
0.0
 49
0.0
140
0.0
141
0.0
142
1.0
143
1.0
 70
  1712
 72
     1
 73
     0
 74
     0
  7

 75
     0
147
1.0
148
0.0
149
0.0
100
AcDbLayout
  1
Model
 70
     1
 71
     0
 10
0.0
 20
0.0
 11
210.0
 21
297.0
 12
0.0
 22
0.0
 32
0.0
 14
0.0
 24
0.0
 34
0.0
 15
210.0
 25
297.0
 35
0.0
146
0.0
 13
0.0
 23
0.0
 33
0.0
 16
1.0
 26
0.0
 36
0.0
 17
0.0
 27
1.0
 37
0.0
 76
     0
330
1F
331
29
  0
MLINESTYLE
  5
18
102
{ACAD_REACTORS
330
17
102
}
330
17
100
AcDbMlineStyle
  2
Standard
 70
     0
  3

 62
   256
 51
90.0
 52
90.0
 71
     2
 49
0.5
 62
   256
  6
BYLAYER
 49
-0.5
 62
   256
  6
BYLAYER
  0
ACDBPLACEHOLDER
  5
F
102
{ACAD_REACTORS
330
E
102
}
330
E
  0
SCALE
  5
48
102
{ACAD_REACTORS
330
47
102
}
330
47
100
AcDbScale
 70
     0
300
1:1
140
1.0
141
1.0
290
     1
  0
SCALE
  5
49
102
{ACAD_REACTORS
330
47
102
}
330
47
100
AcDbScale
 70
     0
300
1:2
140
1.0
141
2.0
290
     0
  0
SCALE
  5
4A
102
{ACAD_REACTORS
330
47
102
}
330
47
100
AcDbScale
 70
     0
300
1:4
140
1.0
141
4.0
290
     0
  0
SCALE
  5
4B
102
{ACAD_REACTORS
330
47
102
}
330
47
100
AcDbScale
 70
     0
300
1:5
140
1.0
141
5.0
290
     0
  0
SCALE
  5
4C
102
{ACAD_REACTORS
330
47
102
}
330
47
100
AcDbScale
 70
     0
300
1:8
140
1.0
141
8.0
290
     0
  0
SCALE
  5
4D
102
{ACAD_REACTORS
330
47
102
}
330
47
100
AcDbScale
 70
     0
300
1:10
140
1.0
141
10.0
290
     0
  0
SCALE
  5
4E
102
{ACAD_REACTORS
330
47
102
}
330
47
100
AcDbScale
 70
     0
300
1:16
140
1.0
141
16.0
290
     0
  0
SCALE
  5
4F
102
{ACAD_REACTORS
330
47
102
}
330
47
100
AcDbScale
 70
     0
300
1:20
140
1.0
141
20.0
290
     0
  0
SCALE
  5
50
102
{ACAD_REACTORS
330
47
102
}
330
47
100
AcDbScale
 70
     0
300
1:30
140
1.0
141
30.0
290
     0
  0
SCALE
  5
51
102
{ACAD_REACTORS
330
47
102
}
330
47
100
AcDbScale
 70
     0
300
1:40
140
1.0
141
40.0
290
     0
  0
SCALE
  5
52
102
{ACAD_REACTORS
330
47
102
}
330
47
100
AcDbScale
 70
     0
300
1:50
140
1.0
141
50.0
290
     0
  0
SCALE
  5
53
102
{ACAD_REACTORS
330
47
102
}
330
47
100
AcDbScale
 70
     0
300
1:100
140
1.0
141
100.0
290
     0
  0
SCALE
  5
54
102
{ACAD_REACTORS
330
47
102
}
330
47
100
AcDbScale
 70
     0
300
2:1
140
2.0
141
1.0
290
     0
  0
SCALE
  5
55
102
{ACAD_REACTORS
330
47
102
}
330
47
100
AcDbScale
 70
     0
300
4:1
140
4.0
141
1.0
290
     0
  0
SCALE
  5
56
102
{ACAD_REACTORS
330
47
102
}
330
47
100
AcDbScale
 70
     0
300
8:1
140
8.0
141
1.0
290
     0
  0
SCALE
  5
57
102
{ACAD_REACTORS
330
47
102
}
330
47
100
AcDbScale
 70
     0
300
10:1
140
10.0
141
1.0
290
     0
  0
SCALE
  5
58
102
{ACAD_REACTORS
330
47
102
}
330
47
100
AcDbScale
 70
     0
300
100:1
140
100.0
141
1.0
290
     0
  0
SCALE
  5
59
102
{ACAD_REACTORS
330
47
102
}
330
47
100
AcDbScale
 70
     0
300
1/128" = 1'-0"
140
0.0078125
141
12.0
290
     0
  0
SCALE
  5
5A
102
{ACAD_REACTORS
330
47
102
}
330
47
100
AcDbScale
 70
     0
300
1/64" = 1'-0"
140
0.015625
141
12.0
290
     0
  0
SCALE
  5
5B
102
{ACAD_REACTORS
330
47
102
}
330
47
100
AcDbScale
 70
     0
300
1/32" = 1'-0"
140
0.03125
141
12.0
290
     0
  0
SCALE
  5
5C
102
{ACAD_REACTORS
330
47
102
}
330
47
100
AcDbScale
 70
     0
300
1/16" = 1'-0"
140
0.0625
141
12.0
290
     0
  0
SCALE
  5
5D
102
{ACAD_REACTORS
330
47
102
}
330
47
100
AcDbScale
 70
     0
300
3/32" = 1'-0"
140
0.09375
141
12.0
290
     0
  0
SCALE
  5
5E
102
{ACAD_REACTORS
330
47
102
}
330
47
100
AcDbScale
 70
     0
300
1/8" = 1'-0"
140
0.125
141
12.0
290
     0
  0
SCALE
  5
5F
102
{ACAD_REACTORS
330
47
102
}
330
47
100
AcDbScale
 70
     0
300
3/16" = 1'-0"
140
0.1875
141
12.0
290
     0
  0
SCALE
  5
60
102
{ACAD_REACTORS
330
47
102
}
330
47
100
AcDbScale
 70
     0
300
1/4" = 1'-0"
140
0.25
141
12.0
290
     0
  0
SCALE
  5
61
102
{ACAD_REACTORS
330
47
102
}
330
47
100
AcDbScale
 70
     0
300
3/8" = 1'-0"
140
0.375
141
12.0
290
     0
  0
SCALE
  5
62
102
{ACAD_REACTORS
330
47
102
}
330
47
100
AcDbScale
 70
     0
300
1/2" = 1'-0"
140
0.5
141
12.0
290
     0
  0
SCALE
  5
63
102
{ACAD_REACTORS
330
47
102
}
330
47
100
AcDbScale
 70
     0
300
3/4" = 1'-0"
140
0.75
141
12.0
290
     0
  0
SCALE
  5
64
102
{ACAD_REACTORS
330
47
102
}
330
47
100
AcDbScale
 70
     0
300
1" = 1'-0"
140
1.0
141
12.0
290
     0
  0
SCALE
  5
65
102
{ACAD_REACTORS
330
47
102
}
330
47
100
AcDbScale
 70
     0
300
1-1/2" = 1'-0"
140
1.5
141
12.0
290
     0
  0
SCALE
  5
66
102
{ACAD_REACTORS
330
47
102
}
330
47
100
AcDbScale
 70
     0
300
3" = 1'-0"
140
3.0
141
12.0
290
     0
  0
SCALE
  5
67
102
{ACAD_REACTORS
330
47
102
}
330
47
100
AcDbScale
 70
     0
300
6" = 1'-0"
140
6.0
141
12.0
290
     0
  0
SCALE
  5
68
102
{ACAD_REACTORS
330
47
102
}
330
47
100
AcDbScale
 70
     0
300
1'-0" = 1'-0"
140
12.0
141
12.0
290
     0
  0
ENDSEC
  0
EOF
