  0
SECTION
  2
HEADER
  9
$ACADVER
  1
AC1015
  9
$ACADMAINTVER
 70
     6
  9
$DWGCODEPAGE
  3
DOS932
  9
$INSBASE
 10
0.0
 20
0.0
 30
0.0
  9
$EXTMIN
 10
0.0
 20
0.0
 30
0.0
  9
$EXTMAX
 10
210.0
 20
297.0
 30
0.0
  9
$LIMMIN
 10
0.0
 20
0.0
  9
$LIMMAX
 10
210.0
 20
297.0
  9
$ORTHOMODE
 70
     0
  9
$REGENMODE
 70
     1
  9
$FILLMODE
 70
     1
  9
$QTEXTMODE
 70
     0
  9
$MIRRTEXT
 70
     1
  9
$LTSCALE
 40
1.0
  9
$ATTMODE
 70
     1
  9
$TEXTSIZE
 40
3.5
  9
$TRACEWID
 40
1.0
  9
$TEXTSTYLE
  7
Standard
  9
$CLAYER
  8
0
  9
$CELTYPE
  6
ByLayer
  9
$CECOLOR
 62
   256
  9
$CELTSCALE
 40
1.0
  9
$DISPSILH
 70
     0
  9
$DIMSCALE
 40
1.0
  9
$DIMASZ
 40
1.5
  9
$DIMEXO
 40
1.0
  9
$DIMDLI
 40
3.75
  9
$DIMRND
 40
0.0
  9
$DIMDLE
 40
0.0
  9
$DIMEXE
 40
1.0
  9
$DIMTP
 40
0.0
  9
$DIMTM
 40
0.0
  9
$DIMTXT
 40
3.5
  9
$DIMCEN
 40
2.5
  9
$DIMTSZ
 40
0.0
  9
$DIMTOL
 70
     0
  9
$DIMLIM
 70
     0
  9
$DIMTIH
 70
     1
  9
$DIMTOH
 70
     1
  9
$DIMSE1
 70
     0
  9
$DIMSE2
 70
     0
  9
$DIMTAD
 70
     1
  9
$DIMZIN
 70
     0
  9
$DIMBLK
  1

  9
$DIMASO
 70
     1
  9
$DIMSHO
 70
     1
  9
$DIMPOST
  1

  9
$DIMAPOST
  1

  9
$DIMALT
 70
     0
  9
$DIMALTD
 70
     3
  9
$DIMALTF
 40
0.0393700787
  9
$DIMLFAC
 40
1.0
  9
$DIMTOFL
 70
     1
  9
$DIMTVP
 40
0.0
  9
$DIMTIX
 70
     0
  9
$DIMSOXD
 70
     0
  9
$DIMSAH
 70
     0
  9
$DIMBLK1
  1

  9
$DIMBLK2
  1

  9
$DIMSTYLE
  2
ISO-25
  9
$DIMCLRD
 70
     0
  9
$DIMCLRE
 70
     0
  9
$DIMCLRT
 70
     0
  9
$DIMTFAC
 40
1.0
  9
$DIMGAP
 40
1.5
  9
$DIMJUST
 70
     0
  9
$DIMSD1
 70
     0
  9
$DIMSD2
 70
     0
  9
$DIMTOLJ
 70
     0
  9
$DIMTZIN
 70
     0
  9
$DIMALTZ
 70
     0
  9
$DIMALTTZ
 70
     0
  9
$DIMUPT
 70
     0
  9
$DIMDEC
 70
     1
  9
$DIMTDEC
 70
     1
  9
$DIMALTU
 70
     2
  9
$DIMALTTD
 70
     3
  9
$DIMTXSTY
  7
Standard
  9
$DIMAUNIT
 70
     0
  9
$DIMADEC
 70
     2
  9
$DIMALTRND
 40
0.0
  9
$DIMAZIN
 70
     0
  9
$DIMDSEP
 70
    44
  9
$DIMATFIT
 70
     3
  9
$DIMFRAC
 70
     0
  9
$DIMLDRBLK
  1

  9
$DIMLUNIT
 70
     2
  9
$DIMLWD
 70
    -2
  9
$DIMLWE
 70
    -2
  9
$DIMTMOVE
 70
     0
  9
$LUNITS
 70
     2
  9
$LUPREC
 70
     2
  9
$SKETCHINC
 40
1.0
  9
$FILLETRAD
 40
0.0
  9
$AUNITS
 70
     0
  9
$AUPREC
 70
     2
  9
$MENU
  1
.
  9
$ELEVATION
 40
0.0
  9
$PELEVATION
 40
0.0
  9
$THICKNESS
 40
0.0
  9
$LIMCHECK
 70
     0
  9
$CHAMFERA
 40
0.0
  9
$CHAMFERB
 40
0.0
  9
$CHAMFERC
 40
0.0
  9
$CHAMFERD
 40
0.0
  9
$SKPOLY
 70
     0
  9
$TDCREATE
 40
2460112.634010313
  9
$TDUCREATE
 40
2460112.259010313
  9
$TDUPDATE
 40
2460112.634010706
  9
$TDUUPDATE
 40
2460112.259010706
  9
$TDINDWG
 40
0.0000000116
  9
$TDUSRTIMER
 40
0.0000000116
  9
$USRTIMER
 70
     1
  9
$ANGBASE
 50
0.0
  9
$ANGDIR
 70
     0
  9
$PDMODE
 70
     0
  9
$PDSIZE
 40
-1.0
  9
$PLINEWID
 40
0.0
  9
$SPLFRAME
 70
     0
  9
$SPLINETYPE
 70
     6
  9
$SPLINESEGS
 70
     8
  9
$HANDSEED
  5
C8
  9
$SURFTAB1
 70
     6
  9
$SURFTAB2
 70
     6
  9
$SURFTYPE
 70
     6
  9
$SURFU
 70
     6
  9
$SURFV
 70
     6
  9
$UCSBASE
  2

  9
$UCSNAME
  2

  9
$UCSORG
 10
0.0
 20
0.0
 30
0.0
  9
$UCSXDIR
 10
1.0
 20
0.0
 30
0.0
  9
$UCSYDIR
 10
0.0
 20
1.0
 30
0.0
  9
$UCSORTHOREF
  2

  9
$UCSORTHOVIEW
 70
     0
  9
$UCSORGTOP
 10
0.0
 20
0.0
 30
0.0
  9
$UCSORGBOTTOM
 10
0.0
 20
0.0
 30
0.0
  9
$UCSORGLEFT
 10
0.0
 20
0.0
 30
0.0
  9
$UCSORGRIGHT
 10
0.0
 20
0.0
 30
0.0
  9
$UCSORGFRONT
 10
0.0
 20
0.0
 30
0.0
  9
$UCSORGBACK
 10
0.0
 20
0.0
 30
0.0
  9
$PUCSBASE
  2

  9
$PUCSNAME
  2

  9
$PUCSORG
 10
0.0
 20
0.0
 30
0.0
  9
$PUCSXDIR
 10
1.0
 20
0.0
 30
0.0
  9
$PUCSYDIR
 10
0.0
 20
1.0
 30
0.0
  9
$PUCSORTHOREF
  2

  9
$PUCSORTHOVIEW
 70
     0
  9
$PUCSORGTOP
 10
0.0
 20
0.0
 30
0.0
  9
$PUCSORGBOTTOM
 10
0.0
 20
0.0
 30
0.0
  9
$PUCSORGLEFT
 10
0.0
 20
0.0
 30
0.0
  9
$PUCSORGRIGHT
 10
0.0
 20
0.0
 30
0.0
  9
$PUCSORGFRONT
 10
0.0
 20
0.0
 30
0.0
  9
$PUCSORGBACK
 10
0.0
 20
0.0
 30
0.0
  9
$USERI1
 70
     0
  9
$USERI2
 70
     0
  9
$USERI3
 70
     0
  9
$USERI4
 70
     0
  9
$USERI5
 70
     0
  9
$USERR1
 40
0.0
  9
$USERR2
 40
0.0
  9
$USERR3
 40
0.0
  9
$USERR4
 40
0.0
  9
$USERR5
 40
0.0
  9
$WORLDVIEW
 70
     1
  9
$SHADEDGE
 70
     3
  9
$SHADEDIF
 70
    70
  9
$TILEMODE
 70
     1
  9
$MAXACTVP
 70
    64
  9
$PINSBASE
 10
0.0
 20
0.0
 30
0.0
  9
$PLIMCHECK
 70
     0
  9
$PEXTMIN
 10
1.0000000000E+20
 20
1.0000000000E+20
 30
1.0000000000E+20
  9
$PEXTMAX
 10
-1.0000000000E+20
 20
-1.0000000000E+20
 30
-1.0000000000E+20
  9
$PLIMMIN
 10
0.0
 20
0.0
  9
$PLIMMAX
 10
420.0
 20
297.0
  9
$UNITMODE
 70
     0
  9
$VISRETAIN
 70
     1
  9
$PLINEGEN
 70
     0
  9
$PSLTSCALE
 70
     1
  9
$TREEDEPTH
 70
  3020
  9
$CMLSTYLE
  2
Standard
  9
$CMLJUST
 70
     0
  9
$CMLSCALE
 40
20.0
  9
$PROXYGRAPHICS
 70
     1
  9
$MEASUREMENT
 70
     1
  9
$CELWEIGHT
370
    -1
  9
$ENDCAPS
280
     0
  9
$JOINSTYLE
280
     0
  9
$LWDISPLAY
290
     1
  9
$INSUNITS
 70
     4
  9
$HYPERLINKBASE
  1

  9
$STYLESHEET
  1

  9
$XEDIT
290
     1
  9
$CEPSNTYPE
380
     0
  9
$PSTYLEMODE
290
     1
  9
$FINGERPRINTGUID
  2
{a2f0c43a-4998-4146-8cfd-bee609c47f5e}
  9
$VERSIONGUID
  2
{FAEB1C32-E019-11D5-929B-00C0DF256EC4}
  9
$EXTNAMES
290
     1
  9
$PSVPSCALE
 40
0.0
  9
$OLESTARTUP
290
     0
  0
ENDSEC
  0
SECTION
  2
CLASSES
  0
CLASS
  1
ACDBDICTIONARYWDFLT
  2
AcDbDictionaryWithDefault
  3
ObjectDBX Classes
 90
        0
280
     0
281
     0
  0
CLASS
  1
VISUALSTYLE
  2
AcDbVisualStyle
  3
ObjectDBX Classes
 90
     4095
280
     0
281
     0
  0
CLASS
  1
MATERIAL
  2
AcDbMaterial
  3
ObjectDBX Classes
 90
     1153
280
     0
281
     0
  0
CLASS
  1
SCALE
  2
AcDbScale
  3
ObjectDBX Classes
 90
     1153
280
     0
281
     0
  0
CLASS
  1
TABLESTYLE
  2
AcDbTableStyle
  3
ObjectDBX Classes
 90
     4095
280
     0
281
     0
  0
CLASS
  1
MLEADERSTYLE
  2
AcDbMLeaderStyle
  3
ACDB_MLEADERSTYLE_CLASS
 90
     4095
280
     0
281
     0
  0
CLASS
  1
SUN
  2
AcDbSun
  3
SCENEOE
 90
     1153
280
     0
281
     0
  0
CLASS
  1
ACDBPLACEHOLDER
  2
AcDbPlaceHolder
  3
ObjectDBX Classes
 90
        0
280
     0
281
     0
  0
CLASS
  1
LAYOUT
  2
AcDbLayout
  3
ObjectDBX Classes
 90
        0
280
     0
281
     0
  0
ENDSEC
  0
SECTION
  2
TABLES
  0
TABLE
  2
VPORT
  5
8
330
0
100
AcDbSymbolTable
 70
     1
  0
VPORT
  5
29
330
8
100
AcDbSymbolTableRecord
100
AcDbViewportTableRecord
  2
*Active
 70
     0
 10
0.0
 20
0.0
 11
1.0
 21
1.0
 12
105.0
 22
148.5
 13
0.0
 23
0.0
 14
10.0
 24
10.0
 15
10.0
 25
10.0
 16
0.0
 26
0.0
 36
1.0
 17
0.0
 27
0.0
 37
0.0
 40
297.0
 41
0.7070707071
 42
50.0
 43
0.0
 44
0.0
 50
0.0
 51
0.0
 71
     0
 72
  2000
 73
     1
 74
     3
 75
     0
 76
     0
 77
     0
 78
     0
281
     0
 65
     1
110
0.0
120
0.0
130
0.0
111
1.0
121
0.0
131
0.0
112
0.0
122
1.0
132
0.0
 79
     0
146
0.0
  0
ENDTAB
  0
TABLE
  2
LTYPE
  5
5
330
0
100
AcDbSymbolTable
 70
     6
  0
LTYPE
  5
14
330
5
100
AcDbSymbolTableRecord
100
AcDbLinetypeTableRecord
  2
ByBlock
 70
     0
  3

 72
    65
 73
     0
 40
0.0
  0
LTYPE
  5
15
330
5
100
AcDbSymbolTableRecord
100
AcDbLinetypeTableRecord
  2
ByLayer
 70
     0
  3

 72
    65
 73
     0
 40
0.0
  0
LTYPE
  5
16
330
5
100
AcDbSymbolTableRecord
100
AcDbLinetypeTableRecord
  2
Continuous
 70
     0
  3
Solid line
 72
    65
 73
     0
 40
0.0
  0
LTYPE
  5
5E
330
5
100
AcDbSymbolTableRecord
100
AcDbLinetypeTableRecord
  2
HIDDEN
 70
     0
  3
Hidden __ __ __ __ __ __ __ __ __ __ __ __ __ __
 72
    65
 73
     2
 40
1.905
 49
1.27
 74
     0
 49
-0.635
 74
     0
  0
LTYPE
  5
5F
330
5
100
AcDbSymbolTableRecord
100
AcDbLinetypeTableRecord
  2
PHANTOM
 70
     0
  3
Phantom ______  __  __  ______  __  __  ______
 72
    65
 73
     6
 40
12.7
 49
6.35
 74
     0
 49
-1.27
 74
     0
 49
1.27
 74
     0
 49
-1.27
 74
     0
 49
1.27
 74
     0
 49
-1.27
 74
     0
  0
LTYPE
  5
60
330
5
100
AcDbSymbolTableRecord
100
AcDbLinetypeTableRecord
  2
CENTER
 70
     0
  3
Center ____ _ ____ _ ____ _ ____ _ ____ _ ____
 72
    65
 73
     4
 40
10.16
 49
6.35
 74
     0
 49
-1.27
 74
     0
 49
1.27
 74
     0
 49
-1.27
 74
     0
  0
LTYPE
  5
61
330
5
100
AcDbSymbolTableRecord
100
AcDbLinetypeTableRecord
  2
CENTERX2
 70
     0
  3
Center (2x) ________  __  ________  __  _____
 72
    65
 73
     4
 40
20.32
 49
12.7
 74
     0
 49
-2.54
 74
     0
 49
2.54
 74
     0
 49
-2.54
 74
     0
  0
LTYPE
  5
62
330
5
100
AcDbSymbolTableRecord
100
AcDbLinetypeTableRecord
  2
DOT2
 70
     0
  3
Dot (.5x) ........................................
 72
    65
 73
     2
 40
0.635
 49
0.0
 74
     0
 49
-0.635
 74
     0
  0
ENDTAB
  0
TABLE
  2
LAYER
  5
2
330
0
100
AcDbSymbolTable
 70
     2
  0
LAYER
  5
10
330
2
100
AcDbSymbolTableRecord
100
AcDbLayerTableRecord
  2
0
 70
     0
 62
     7
  6
Continuous
370
    -3
390
F
  0
LAYER
  5
63
330
2
100
AcDbSymbolTableRecord
100
AcDbLayerTableRecord
  2
FORMAT
 70
     0
 62
     7
  6
Continuous
370
    -3
390
F
  0
ENDTAB
  0
TABLE
  2
STYLE
  5
3
330
0
100
AcDbSymbolTable
 70
     2
  0
STYLE
  5
11
330
3
100
AcDbSymbolTableRecord
100
AcDbTextStyleTableRecord
  2
Standard
 70
     0
 40
0.0
 41
1.0
 50
0.0
 71
     0
 42
3.5
  3
txt
  4
bigfont
  0
STYLE
  5
64
330
3
100
AcDbSymbolTableRecord
100
AcDbTextStyleTableRecord
  2
SLDTEXTSTYLE0
 70
     0
 40
0.0
 41
0.7
 50
0.0
 71
     0
 42
3.5
  3
TXT
  4
bigfont
  0
ENDTAB
  0
TABLE
  2
VIEW
  5
6
330
0
100
AcDbSymbolTable
 70
     0
  0
ENDTAB
  0
TABLE
  2
UCS
  5
7
330
0
100
AcDbSymbolTable
 70
     0
  0
ENDTAB
  0
TABLE
  2
APPID
  5
9
330
0
100
AcDbSymbolTable
 70
     1
  0
APPID
  5
12
330
9
100
AcDbSymbolTableRecord
100
AcDbRegAppTableRecord
  2
ACAD
 70
     0
  0
ENDTAB
  0
TABLE
  2
DIMSTYLE
  5
A
330
0
100
AcDbSymbolTable
 70
     1
100
AcDbDimStyleTable
  0
DIMSTYLE
105
27
330
A
100
AcDbSymbolTableRecord
100
AcDbDimStyleTableRecord
  2
ISO-25
 70
     0
 41
2.5
 42
0.625
 43
3.75
 44
1.25
 73
     0
 74
     0
 77
     1
 78
     8
140
2.5
141
2.5
143
0.0393700787
147
0.625
171
     3
172
     1
178
     0
271
     2
272
     2
274
     3
278
    44
283
     0
284
     8
340
11
  0
ENDTAB
  0
TABLE
  2
BLOCK_RECORD
  5
1
330
0
100
AcDbSymbolTable
 70
     1
  0
BLOCK_RECORD
  5
1F
330
1
100
AcDbSymbolTableRecord
100
AcDbBlockTableRecord
  2
*Model_Space
340
22
  0
BLOCK_RECORD
  5
1B
330
1
100
AcDbSymbolTableRecord
100
AcDbBlockTableRecord
  2
*Paper_Space
340
1E
  0
BLOCK_RECORD
  5
23
330
1
100
AcDbSymbolTableRecord
100
AcDbBlockTableRecord
  2
*Paper_Space0
340
26
  0
ENDTAB
  0
ENDSEC
  0
SECTION
  2
BLOCKS
  0
BLOCK
  5
20
330
1F
100
AcDbEntity
  8
0
100
AcDbBlockBegin
  2
*Model_Space
 70
     0
 10
0.0
 20
0.0
 30
0.0
  3
*Model_Space
  1

  0
ENDBLK
  5
21
330
1F
100
AcDbEntity
  8
0
100
AcDbBlockEnd
  0
BLOCK
  5
1C
330
1B
100
AcDbEntity
 67
     1
  8
0
100
AcDbBlockBegin
  2
*Paper_Space
 70
     0
 10
0.0
 20
0.0
 30
0.0
  3
*Paper_Space
  1

  0
ENDBLK
  5
1D
330
1B
100
AcDbEntity
 67
     1
  8
0
100
AcDbBlockEnd
  0
BLOCK
  5
24
330
23
100
AcDbEntity
  8
0
100
AcDbBlockBegin
  2
*Paper_Space0
 70
     0
 10
0.0
 20
0.0
 30
0.0
  3
*Paper_Space0
  1

  0
ENDBLK
  5
25
330
23
100
AcDbEntity
  8
0
100
AcDbBlockEnd
  0
ENDSEC
  0
SECTION
  2
ENTITIES
  0
MTEXT
  5
65
330
1F
100
AcDbEntity
  8
0
  6
Continuous
 62
     7
370
     0
100
AcDbMText
 10
140.2029266557
 20
111.3975256386
 30
0.0
 40
3.5
 41
0.0
 71
     1
 72
     1
  1
HEA-024S/K
  7
SLDTEXTSTYLE0
 73
     1
 44
1.0
  0
MTEXT
  5
66
330
1F
100
AcDbEntity
  8
0
  6
Continuous
 62
     7
370
     0
100
AcDbMText
 10
140.2029266557
 20
106.8975258324
 30
0.0
 40
3.5
 41
0.0
 71
     1
 72
     1
  1
HEA-025S/K
  7
SLDTEXTSTYLE0
 73
     1
 44
1.0
  0
MTEXT
  5
67
330
1F
100
AcDbEntity
  8
0
  6
Continuous
 62
     7
370
     0
100
AcDbMText
 10
140.2029266557
 20
102.3975260261
 30
0.0
 40
3.5
 41
0.0
 71
     1
 72
     1
  1
HEA-028S/K
  7
SLDTEXTSTYLE0
 73
     1
 44
1.0
  0
SPLINE
  5
68
330
1F
100
AcDbEntity
  8
0
  6
Continuous
 62
     7
370
    25
100
AcDbSpline
210
0.0
220
0.0
230
1.0
 70
     8
 71
     3
 72
    12
 73
     8
 74
     0
 42
0.00000001
 43
0.00000001
 40
0.0
 40
0.0
 40
0.0
 40
0.0
 40
0.1774388580891861
 40
0.4054136461231154
 40
0.6334808964597726
 40
0.8618974273396518
 40
1.0
 40
1.0
 40
1.0
 40
1.0
 10
115.1738445921024
 20
187.2396135921679
 30
0.0
 10
115.0374692955547
 20
187.296752804511
 30
0.0
 10
114.7258779856809
 20
187.4273049094
 30
0.0
 10
114.2083433399877
 20
187.5486546977625
 30
0.0
 10
113.6356766922613
 20
187.6146417331164
 30
0.0
 10
113.1289070980295
 20
187.6102560721398
 30
0.0
 10
112.8161026553143
 20
187.5704960561576
 30
0.0
 10
112.6982394993115
 20
187.5555146801717
 30
0.0
  0
LINE
  5
69
330
1F
100
AcDbEntity
  8
0
  6
Continuous
 62
     7
370
    25
100
AcDbLine
 10
129.3515232384
 20
180.8913805396
 30
0.0
 11
115.2265232384
 21
187.2234448118
 31
0.0
  0
LINE
  5
6A
330
1F
100
AcDbEntity
  8
0
  6
Continuous
 62
     7
370
    25
100
AcDbLine
 10
112.6982394993
 20
187.5555146802
 30
0.0
 11
75.4591471366
 21
181.9909052105
 31
0.0
  0
SPLINE
  5
6B
330
1F
100
AcDbEntity
  8
0
  6
Continuous
 62
     7
370
    25
100
AcDbSpline
210
0.0
220
0.0
230
1.0
 70
     8
 71
     3
 72
    18
 73
    14
 74
     0
 42
0.00000001
 43
0.00000001
 40
0.0
 40
0.0
 40
0.0
 40
0.0
 40
0.0557956089414841
 40
0.1589127767074376
 40
0.2620340073243074
 40
0.3650293381819866
 40
0.4678366506782632
 40
0.5703928597905308
 40
0.6726460433309674
 40
0.7745700653811176
 40
0.8761772818023608
 40
0.9775242468199538
 40
1.0
 40
1.0
 40
1.0
 40
1.0
 10
70.2699015978202
 20
126.692797059932
 30
0.0
 10
70.27184373641163
 20
126.5755249141479
 30
0.0
 10
70.27737518668467
 20
126.2415193773228
 30
0.0
 10
70.33799675766971
 20
125.6997693926573
 30
0.0
 10
70.47176388402737
 20
125.0807293205652
 30
0.0
 10
70.67051439516786
 20
124.4906457474888
 30
0.0
 10
70.93059145116015
 20
123.9372659141114
 30
0.0
 10
71.24885072240875
 20
123.4276698256947
 30
0.0
 10
71.62117624762274
 20
122.968970156295
 30
0.0
 10
72.04173346794934
 20
122.5649879403086
 30
0.0
 10
72.50796040485422
 20
122.2280892528688
 30
0.0
 10
72.87434889674007
 20
122.0106272895821
 30
0.0
 10
73.09185048058042
 20
121.9282937869845
 30
0.0
 10
73.13133040789765
 20
121.9133489730621
 30
0.0
  0
LINE
  5
6C
330
1F
100
AcDbEntity
  8
0
  6
Continuous
 62
     7
370
    25
100
AcDbLine
 10
73.0786517616
 20
121.9295177535
 30
0.0
 11
73.4536517616
 21
121.7614098524
 31
0.0
  0
LINE
  5
6D
330
1F
100
AcDbEntity
  8
0
  6
Continuous
 62
     7
370
    25
100
AcDbLine
 10
70.2699015978
 20
175.4720512875
 30
0.0
 11
70.2699015978
 21
126.6927970599
 31
0.0
  0
SPLINE
  5
6E
330
1F
100
AcDbEntity
  8
0
  6
Continuous
 62
     7
370
    25
100
AcDbSpline
210
0.0
220
0.0
230
1.0
 70
     8
 71
     3
 72
    22
 73
    18
 74
     0
 42
0.00000001
 43
0.00000001
 40
0.0
 40
0.0
 40
0.0
 40
0.0
 40
0.0392541416105406
 40
0.1104626060612716
 40
0.181808311994976
 40
0.2533339484493273
 40
0.3250088349205826
 40
0.396799611751121
 40
0.4686759342782234
 40
0.5406135561358061
 40
0.6125951292729072
 40
0.6846094513318192
 40
0.7566498228551927
 40
0.8287114048369085
 40
0.9007890227747244
 40
0.9728751330200934
 40
1.0
 40
1.0
 40
1.0
 40
1.0
 10
75.45914713658068
 20
181.9909052104674
 30
0.0
 10
75.35113244133902
 20
181.9725468855841
 30
0.0
 10
75.04717509468024
 20
181.9208858804945
 30
0.0
 10
74.55107310353662
 20
181.7792686042757
 30
0.0
 10
73.98038324548838
 20
181.54696504794
 30
0.0
 10
73.42883695843808
 20
181.2467217937347
 30
0.0
 10
72.90320453158631
 20
180.883413495715
 30
0.0
 10
72.4101230856161
 20
180.4611928781794
 30
0.0
 10
71.9558155887192
 20
179.9854280079831
 30
0.0
 10
71.54599643944232
 20
179.4620477702404
 30
0.0
 10
71.18581095536183
 20
178.897595087087
 30
0.0
 10
70.8797573721864
 20
178.2990855100798
 30
0.0
 10
70.63175489488383
 20
177.6739505537523
 30
0.0
 10
70.44471974654434
 20
177.0298753785443
 30
0.0
 10
70.32200211882659
 20
176.3750081145004
 30
0.0
 10
70.27438287507663
 20
175.8536473066909
 30
0.0
 10
70.27086374795458
 20
175.5539816480299
 30
0.0
 10
70.26990159782018
 20
175.4720512875299
 30
0.0
  0
LINE
  5
6F
330
1F
100
AcDbEntity
  8
0
  6
Continuous
 62
     7
370
    25
100
AcDbLine
 10
103.8550887858
 20
117.1516518823
 30
0.0
 11
109.0930958879
 21
117.9343633308
 31
0.0
  0
LINE
  5
70
330
1F
100
AcDbEntity
  8
0
  6
Continuous
 62
     7
370
    25
100
AcDbLine
 10
108.9109177492
 20
121.7028175774
 30
0.0
 11
108.9109177492
 21
118.3220771854
 31
0.0
  0
LINE
  5
71
330
1F
100
AcDbEntity
  8
0
  6
Continuous
 62
     7
370
    25
100
AcDbLine
 10
121.4109177492
 20
118.3220771854
 30
0.0
 11
121.4109177492
 21
121.7028175774
 31
0.0
  0
SPLINE
  5
72
330
1F
100
AcDbEntity
  8
0
  6
Continuous
 62
     7
370
    25
100
AcDbSpline
210
0.0
220
0.0
230
1.0
 70
     8
 71
     3
 72
    22
 73
    18
 74
     0
 42
0.00000001
 43
0.00000001
 40
0.0
 40
0.0
 40
0.0
 40
0.0
 40
0.0392541416105395
 40
0.1104626060612701
 40
0.1818083119949706
 40
0.2533339484493261
 40
0.3250088349205789
 40
0.3967996117511181
 40
0.4686759342782189
 40
0.5406135561357982
 40
0.6125951292728964
 40
0.6846094513318103
 40
0.7566498228551753
 40
0.8287114048368897
 40
0.9007890227747049
 40
0.9728751330200787
 40
1.0
 40
1.0
 40
1.0
 40
1.0
 10
127.3460278634194
 20
120.6618851815441
 30
0.0
 10
127.454042558661
 20
120.6802435064275
 30
0.0
 10
127.7579999053198
 20
120.7319045115171
 30
0.0
 10
128.2541018964634
 20
120.8735217877359
 30
0.0
 10
128.8247917545116
 20
121.1058253440716
 30
0.0
 10
129.376338041562
 20
121.4060685982769
 30
0.0
 10
129.9019704684137
 20
121.7693768962966
 30
0.0
 10
130.3950519143839
 20
122.1915975138322
 30
0.0
 10
130.8493594112808
 20
122.6673623840284
 30
0.0
 10
131.2591785605577
 20
123.1907426217711
 30
0.0
 10
131.6193640446382
 20
123.7551953049246
 30
0.0
 10
131.9254176278136
 20
124.3537048819317
 30
0.0
 10
132.1734201051162
 20
124.9788398382591
 30
0.0
 10
132.3604552534557
 20
125.6229150134672
 30
0.0
 10
132.4831728811735
 20
126.277782277511
 30
0.0
 10
132.5307921249234
 20
126.7991430853206
 30
0.0
 10
132.5343112520455
 20
127.0988087439817
 30
0.0
 10
132.5352734021799
 20
127.1807391044817
 30
0.0
  0
LINE
  5
73
330
1F
100
AcDbEntity
  8
0
  6
Continuous
 62
     7
370
    25
100
AcDbLine
 10
73.5786517616
 20
121.7053738854
 30
0.0
 11
86.3942572508
 21
115.9602951141
 31
0.0
  0
LINE
  5
74
330
1F
100
AcDbEntity
  8
0
  6
Continuous
 62
     7
370
    25
100
AcDbLine
 10
132.5352734022
 20
127.1807391045
 30
0.0
 11
132.5352734022
 21
175.9599933321
 31
0.0
  0
LINE
  5
75
330
1F
100
AcDbEntity
  8
0
  6
Continuous
 62
     7
370
    25
100
AcDbLine
 10
86.3942572508
 20
118.3381699911
 30
0.0
 11
86.3942572508
 21
114.9574295991
 31
0.0
  0
LINE
  5
76
330
1F
100
AcDbEntity
  8
0
  6
Continuous
 62
     7
370
    25
100
AcDbLine
 10
98.8942572508
 20
114.9574295991
 30
0.0
 11
98.8942572508
 21
118.3381699911
 31
0.0
  0
LINE
  5
77
330
1F
100
AcDbEntity
  8
0
  6
Continuous
 62
     7
370
    25
100
AcDbLine
 10
121.4109177492
 20
119.775006156
 30
0.0
 11
127.3460278634
 21
120.6618851815
 31
0.0
  0
LINE
  5
78
330
1F
100
AcDbEntity
  8
0
  6
Continuous
 62
     7
370
    25
100
AcDbLine
 10
129.7265232384
 20
180.7232726385
 30
0.0
 11
129.3515232384
 21
180.8913805396
 31
0.0
  0
SPLINE
  5
79
330
1F
100
AcDbEntity
  8
0
  6
Continuous
 62
     7
370
    25
100
AcDbSpline
210
0.0
220
0.0
230
1.0
 70
     8
 71
     3
 72
    18
 73
    14
 74
     0
 42
0.00000001
 43
0.00000001
 40
0.0
 40
0.0
 40
0.0
 40
0.0
 40
0.0536413919850401
 40
0.1527773010907505
 40
0.2519171161844442
 40
0.3509358923924339
 40
0.4497739094544033
 40
0.5483705180022266
 40
0.6466758005158234
 40
0.7446646301604333
 40
0.8423488857490127
 40
0.9397829380004119
 40
1.0
 40
1.0
 40
1.0
 40
1.0
 10
132.5352734021799
 20
175.9599933320796
 30
0.0
 10
132.5333312661406
 20
176.0772654836909
 30
0.0
 10
132.5277998231363
 20
176.4112710371126
 30
0.0
 10
132.4671781617275
 20
176.9530208153151
 30
0.0
 10
132.3334114120921
 20
177.5720617475714
 30
0.0
 10
132.1346595032703
 20
178.1621421293431
 30
0.0
 10
131.8745876471783
 20
178.7155338355736
 30
0.0
 10
131.5563090421277
 20
179.2250857794145
 30
0.0
 10
131.18405535266
 20
179.6839494702805
 30
0.0
 10
130.763231308209
 20
180.0873224508042
 30
0.0
 10
130.2979956903776
 20
180.4264846019985
 30
0.0
 10
129.863117289415
 20
180.6753367983407
 30
0.0
 10
129.5737149648236
 20
180.7812726339392
 30
0.0
 10
129.4631736736597
 20
180.8217363173741
 30
0.0
  0
LINE
  5
7A
330
1F
100
AcDbEntity
  8
0
  6
Continuous
 62
     7
370
    25
100
AcDbLine
 10
98.8942572508
 20
116.4103585697
 30
0.0
 11
103.7468356103
 21
117.135475692
 31
0.0
  0
LWPOLYLINE
  5
7B
330
1F
100
AcDbEntity
  8
0
  6
Continuous
 62
     7
370
    25
100
AcDbPolyline
 90
       19
 70
   128
 43
0.0
 10
93.9025875
 20
164.2270707512
 10
93.6804389005
 20
164.237564595
 10
93.4850847006
 20
164.3341714089
 10
93.3400875
 20
164.5052389856
 10
93.262936101
 20
164.7301340505
 10
93.262936101
 20
164.9817309397
 10
93.3400875
 20
165.2296833553
 10
93.4850847006
 20
165.4440845765
 10
93.6804389005
 20
165.5990746518
 10
93.9025875
 20
165.6759594907
 10
94.1247360995
 20
165.6654656469
 10
94.3200902994
 20
165.568858833
 10
94.4650875
 20
165.3977912563
 10
94.542238899
 20
165.1728961914
 10
94.542238899
 20
164.9212993022
 10
94.4650875
 20
164.6733468866
 10
94.3200902994
 20
164.4589456654
 10
94.1247360995
 20
164.3039555902
 10
93.9025875
 20
164.2270707512
  0
LWPOLYLINE
  5
7C
330
1F
100
AcDbEntity
  8
0
  6
Continuous
 62
     7
370
    25
100
AcDbPolyline
 90
       25
 70
   128
 43
0.0
 10
93.9025875
 20
170.022625709
 10
93.6224076649
 20
169.9396172422
 10
93.3613216226
 20
169.7799828542
 10
93.1371219554
 20
169.5546013648
 10
92.9650875
 20
169.27883215
 10
92.8569421203
 20
168.9714684261
 10
92.8200557453
 20
168.6534565229
 10
92.8569421203
 20
168.3464684261
 10
92.9650875
 20
168.0714248672
 10
93.1371219554
 20
167.8470696101
 10
93.3613216226
 20
167.6886920948
 10
93.6224076649
 20
167.6070854874
 10
93.9025875
 20
167.6078111433
 10
94.1827673351
 20
167.6908196101
 10
94.4438533774
 20
167.850453998
 10
94.6680530446
 20
168.0758354874
 10
94.8400875
 20
168.3516047022
 10
94.9482328797
 20
168.6589684261
 10
94.9851192547
 20
168.9769803293
 10
94.9482328797
 20
169.2839684261
 10
94.8400875
 20
169.5590119851
 10
94.6680530446
 20
169.7833672422
 10
94.4438533774
 20
169.9417447574
 10
94.1827673351
 20
170.0233513648
 10
93.9025875
 20
170.022625709
  0
ARC
  5
7D
330
1F
100
AcDbEntity
  8
0
  6
Continuous
 62
     7
370
    25
100
AcDbCircle
 10
111.3877972156
 20
133.6082991591
 30
0.0
 40
6.58192144717373
100
AcDbArc
 50
282.1413438758
 51
1.1954333681
  0
LWPOLYLINE
  5
7E
330
1F
100
AcDbEntity
  8
0
  6
Continuous
 62
     7
370
    25
100
AcDbPolyline
 90
       19
 70
   128
 43
0.0
 10
94.5521065528
 20
165.0485722629
 10
94.512935761
 20
165.2904935682
 10
94.4001479611
 20
165.4915290699
 10
94.2273470264
 20
165.6274309197
 10
94.0153752999
 20
165.6818073487
 10
93.7897997001
 20
165.6480997571
 10
93.5778279736
 20
165.5303737778
 10
93.4050270389
 20
165.3428289015
 10
93.292239239
 20
165.1080858081
 10
93.2530684472
 20
164.854457979
 10
93.292239239
 20
164.6125366737
 10
93.4050270389
 20
164.411501172
 10
93.5778279736
 20
164.2755993222
 10
93.7897997001
 20
164.2212228932
 10
94.0153752999
 20
164.2549304849
 10
94.2273470264
 20
164.3726564641
 10
94.4001479611
 20
164.5602013404
 10
94.512935761
 20
164.7949444338
 10
94.5521065528
 20
165.0485722629
  0
LWPOLYLINE
  5
7F
330
1F
100
AcDbEntity
  8
0
  6
Continuous
 62
     7
370
    25
100
AcDbPolyline
 90
       25
 70
   128
 43
0.0
 10
94.9851192547
 20
168.9769803293
 10
94.9482328797
 20
169.2839684261
 10
94.8400875
 20
169.5590119851
 10
94.6680530446
 20
169.7833672422
 10
94.4438533774
 20
169.9417447574
 10
94.1827673351
 20
170.0233513648
 10
93.9025875
 20
170.022625709
 10
93.6224076649
 20
169.9396172422
 10
93.3613216226
 20
169.7799828542
 10
93.1371219554
 20
169.5546013648
 10
92.9650875
 20
169.27883215
 10
92.8569421203
 20
168.9714684261
 10
92.8200557453
 20
168.6534565229
 10
92.8569421203
 20
168.3464684261
 10
92.9650875
 20
168.0714248672
 10
93.1371219554
 20
167.8470696101
 10
93.3613216226
 20
167.6886920948
 10
93.6224076649
 20
167.6070854874
 10
93.9025875
 20
167.6078111433
 10
94.1827673351
 20
167.6908196101
 10
94.4438533774
 20
167.850453998
 10
94.6680530446
 20
168.0758354874
 10
94.8400875
 20
168.3516047022
 10
94.9482328797
 20
168.6589684261
 10
94.9851192547
 20
168.9769803293
  0
ARC
  5
80
330
1F
100
AcDbEntity
  8
0
  6
Continuous
 62
     7
370
    25
100
AcDbCircle
 10
125.220289857
 20
127.4350051421
 30
0.0
 40
6.873029729230862
100
AcDbArc
 50
340.8782061283
 51
359.8211574946
  0
LINE
  5
81
330
1F
100
AcDbEntity
  8
0
  6
Continuous
 62
     7
370
    25
100
AcDbLine
 10
131.7140958984
 20
125.1835565514
 30
0.0
 11
117.9640958984
 21
131.3475129225
 31
0.0
  0
ARC
  5
82
330
1F
100
AcDbEntity
  8
0
  6
Continuous
 62
     7
370
    25
100
AcDbCircle
 10
111.9072335899
 20
133.2239586712
 30
0.0
 40
6.340869788281098
100
AcDbArc
 50
281.2763296979
 51
342.7867616215
  0
LINE
  5
83
330
1F
100
AcDbEntity
  8
0
  6
Continuous
 62
     7
370
    25
100
AcDbLine
 10
113.1471336814
 20
127.0054960449
 30
0.0
 11
112.7721336814
 21
127.1736039459
 31
0.0
  0
LINE
  5
84
330
1F
100
AcDbEntity
  8
0
  6
Continuous
 62
     7
370
    25
100
AcDbLine
 10
117.9682861041
 20
182.5248702666
 30
0.0
 11
117.9682861041
 21
133.745616039
 31
0.0
  0
LINE
  5
85
330
1F
100
AcDbEntity
  8
0
  6
Continuous
 62
     7
370
    25
100
AcDbLine
 10
132.0932861041
 20
176.1928059944
 30
0.0
 11
132.0932861041
 21
127.4135517668
 31
0.0
  0
LINE
  5
86
330
1F
100
AcDbEntity
  8
0
  6
Continuous
 62
     7
370
    25
100
AcDbLine
 10
112.7721336814
 20
127.1736039459
 30
0.0
 11
75.5330413186
 21
121.6089944762
 31
0.0
  0
LINE
  5
87
330
1F
100
AcDbEntity
  8
0
  6
Continuous
 62
     7
370
    25
100
AcDbLine
 10
75.5330413186
 20
121.6089944762
 30
0.0
 11
75.9080413186
 21
121.4408865752
 31
0.0
  0
LINE
  5
88
330
1F
100
AcDbEntity
  8
0
  6
Continuous
 62
     7
370
    25
100
AcDbLine
 10
75.9080413186
 20
121.4408865752
 30
0.0
 11
113.1471336814
 21
127.0054960449
 31
0.0
  0
LINE
  5
89
330
1F
100
AcDbEntity
  8
0
  6
Continuous
 62
     7
370
    25
100
AcDbLine
 10
98.9506637114
 20
124.5697518947
 30
0.0
 11
98.8666891151
 21
124.4451702138
 31
0.0
  0
LINE
  5
8A
330
1F
100
AcDbEntity
  8
0
  6
Continuous
 62
     7
370
    25
100
AcDbLine
 10
98.8666891151
 20
124.4451702138
 30
0.0
 11
98.4916891151
 21
124.6132781148
 31
0.0
  0
LINE
  5
8B
330
1F
100
AcDbEntity
  8
0
  6
Continuous
 62
     7
370
    25
100
AcDbLine
 10
98.4916891151
 20
124.6132781148
 30
0.0
 11
98.4916891151
 21
124.8155440229
 31
0.0
  0
LINE
  5
8C
330
1F
100
AcDbEntity
  8
0
  6
Continuous
 62
     7
370
    25
100
AcDbLine
 10
91.5634858849
 20
123.5780019344
 30
0.0
 11
98.4916891151
 21
124.6132781148
 31
0.0
  0
LINE
  5
8D
330
1F
100
AcDbEntity
  8
0
  6
Continuous
 62
     7
370
    25
100
AcDbLine
 10
91.5634858849
 20
123.5780019344
 30
0.0
 11
91.5634858849
 21
123.7802678425
 31
0.0
  0
LINE
  5
8E
330
1F
100
AcDbEntity
  8
0
  6
Continuous
 62
     7
370
    25
100
AcDbLine
 10
95.4025875
 20
123.9275321236
 30
0.0
 11
98.8666891151
 21
124.4451702138
 31
0.0
  0
LINE
  5
8F
330
1F
100
AcDbEntity
  8
0
  6
Continuous
 62
     7
370
    25
100
AcDbLine
 10
91.9384858849
 20
123.4098940334
 30
0.0
 11
95.4025875
 21
123.9275321236
 31
0.0
  0
LINE
  5
90
330
1F
100
AcDbEntity
  8
0
  6
Continuous
 62
     7
370
    25
100
AcDbLine
 10
91.9384858849
 20
123.4098940334
 30
0.0
 11
91.5634858849
 21
123.5780019344
 31
0.0
  0
LWPOLYLINE
  5
91
330
1F
100
AcDbEntity
  8
0
  6
Continuous
 62
     7
370
    25
100
AcDbPolyline
 90
        3
 70
   128
 43
0.0
 10
115.1784661925
 20
187.244628233
 10
115.1869061177
 20
187.2409598135
 10
115.2265232384
 20
187.2234448118
  0
ARC
  5
92
330
1F
100
AcDbEntity
  8
0
  6
Continuous
 62
     7
370
    25
100
AcDbCircle
 10
127.0996299323
 20
176.4280927006
 30
0.0
 40
4.999196114962328
100
AcDbArc
 50
357.3023828541
 51
63.2273713247
  0
LWPOLYLINE
  5
93
330
1F
100
AcDbEntity
  8
0
  6
Continuous
 62
     7
370
    25
100
AcDbPolyline
 90
        3
 70
   128
 43
0.0
 10
73.1267088075
 20
121.9083343322
 10
73.1182688823
 20
121.9120027518
 10
73.0786517616
 20
121.9295177535
  0
ARC
  5
94
330
1F
100
AcDbEntity
  8
0
  6
Continuous
 62
     7
370
    25
100
AcDbCircle
 10
75.2227799559
 20
125.7509738605
 30
0.0
 40
4.364222215044014
100
AcDbArc
 50
246.0856353486
 51
279.0338513594
  0
LINE
  5
95
330
1F
100
AcDbEntity
  8
0
  6
Continuous
 62
     7
370
    25
100
AcDbLine
 10
104.0892073056
 20
117.2839392018
 30
0.0
 11
101.4642073056
 21
118.460694509
 31
0.0
  0
LINE
  5
96
330
1F
100
AcDbEntity
  8
0
  6
Continuous
 62
     7
370
    25
100
AcDbLine
 10
103.9540303415
 20
118.8327468864
 30
0.0
 11
101.4642073056
 21
118.460694509
 31
0.0
  0
LWPOLYLINE
  5
97
330
1F
100
AcDbEntity
  8
0
  6
Continuous
 62
     7
370
    25
100
AcDbPolyline
 90
       17
 70
   128
 43
0.0
 10
107.8511446585
 20
119.4150897378
 10
108.0331802914
 20
119.3111062869
 10
108.1333384381
 20
119.1999293071
 10
108.1477700773
 20
119.0858312673
 10
108.0759206092
 20
118.9731968914
 10
107.9205511684
 20
118.8663546551
 10
107.6876325157
 20
118.7694104457
 10
107.386115584
 20
118.6860897748
 10
107.0275875
 20
118.619594609
 10
106.6258262969
 20
118.5724803203
 10
106.1962714325
 20
118.5465574844
 10
105.7554304592
 20
118.5428223014
 10
105.3202446485
 20
118.5614183121
 10
104.907437947
 20
118.6016308824
 10
104.5328742847
 20
118.6619146657
 10
104.2109479332
 20
118.73995299
 10
103.9540303415
 20
118.8327468864
  0
LINE
  5
98
330
1F
100
AcDbEntity
  8
0
  6
Continuous
 62
     7
370
    25
100
AcDbLine
 10
108.9109177492
 20
119.573450831
 30
0.0
 11
107.8511446585
 21
119.4150897378
 31
0.0
  0
LINE
  5
99
330
1F
100
AcDbEntity
  8
0
  6
Continuous
 62
     7
370
    25
100
AcDbLine
 10
103.6561946037
 20
117.2192344405
 30
0.0
 11
103.7811946037
 21
117.1631984735
 31
0.0
  0
LINE
  5
9A
330
1F
100
AcDbEntity
  8
0
  6
Continuous
 62
     7
370
    25
100
AcDbLine
 10
103.6561946037
 20
117.2192344405
 30
0.0
 11
104.0892073056
 21
117.2839392018
 31
0.0
  0
LINE
  5
9B
330
1F
100
AcDbEntity
  8
0
  6
Continuous
 62
     7
370
    25
100
AcDbLine
 10
103.9540303415
 20
118.8327468864
 30
0.0
 11
103.9540303415
 21
119.4150897378
 31
0.0
  0
LINE
  5
9C
330
1F
100
AcDbEntity
  8
0
  6
Continuous
 62
     7
370
    25
100
AcDbLine
 10
103.6561946037
 20
117.2491202896
 30
0.0
 11
103.6561946037
 21
117.2192344405
 31
0.0
  0
LWPOLYLINE
  5
9D
330
1F
100
AcDbEntity
  8
0
  6
Continuous
 62
     7
370
    25
100
AcDbPolyline
 90
        3
 70
   128
 43
0.0
 10
103.8550887858
 20
117.1516518823
 10
103.8299671842
 20
117.1506143208
 10
103.7811946037
 20
117.1631984735
  0
ARC
  5
9E
330
1F
100
AcDbEntity
  8
0
  6
Continuous
 62
     7
370
    25
100
AcDbCircle
 10
112.0322335899
 20
133.1679227042
 30
0.0
 40
6.340869788281168
100
AcDbArc
 50
281.2763296979
 51
342.7867616215
  0
LINE
  5
9F
330
1F
100
AcDbEntity
  8
0
  6
Continuous
 62
     7
370
    25
100
AcDbLine
 10
131.7140958984
 20
125.1835565514
 30
0.0
 11
118.0890958984
 21
131.2914769555
 31
0.0
  0
LINE
  5
A0
330
1F
100
AcDbEntity
  8
0
  6
Continuous
 62
     7
370
    25
100
AcDbLine
 10
132.0932861041
 20
127.4135517668
 30
0.0
 11
132.4682861041
 21
127.2454438658
 31
0.0
  0
ARC
  5
A1
330
1F
100
AcDbEntity
  8
0
  6
Continuous
 62
     7
370
    25
100
AcDbCircle
 10
125.8692074839
 20
127.1228249319
 30
0.0
 40
6.60021772653194
100
AcDbArc
 50
282.2722742402
 51
1.0645030037
  0
LINE
  5
A2
330
1F
100
AcDbEntity
  8
0
  6
Continuous
 62
     7
370
    25
100
AcDbLine
 10
118.0890958984
 20
131.2914769555
 30
0.0
 11
117.9364531052
 21
131.2686676581
 31
0.0
  0
LINE
  5
A3
330
1F
100
AcDbEntity
  8
0
  6
Continuous
 62
     7
370
    25
100
AcDbLine
 10
98.549701817
 20
124.7494981945
 30
0.0
 11
113.2721336814
 21
126.9494600779
 31
0.0
  0
LINE
  5
A4
330
1F
100
AcDbEntity
  8
0
  6
Continuous
 62
     7
370
    25
100
AcDbLine
 10
98.549701817
 20
124.8242128172
 30
0.0
 11
98.549701817
 21
124.7494981945
 31
0.0
  0
LINE
  5
A5
330
1F
100
AcDbEntity
  8
0
  6
Continuous
 62
     7
370
    25
100
AcDbLine
 10
76.0330413186
 20
121.3848506082
 30
0.0
 11
90.755473183
 21
123.5848124916
 31
0.0
  0
LINE
  5
A6
330
1F
100
AcDbEntity
  8
0
  6
Continuous
 62
     7
370
    25
100
AcDbLine
 10
90.755473183
 20
123.5848124916
 30
0.0
 11
92.005473183
 21
123.0244528215
 31
0.0
  0
LINE
  5
A7
330
1F
100
AcDbEntity
  8
0
  6
Continuous
 62
     7
370
    25
100
AcDbLine
 10
92.005473183
 20
123.0244528215
 30
0.0
 11
99.799701817
 21
124.1891385244
 31
0.0
  0
LINE
  5
A8
330
1F
100
AcDbEntity
  8
0
  6
Continuous
 62
     7
370
    25
100
AcDbLine
 10
98.549701817
 20
124.7494981945
 30
0.0
 11
99.799701817
 21
124.1891385244
 31
0.0
  0
LWPOLYLINE
  5
A9
330
1F
100
AcDbEntity
  8
0
  6
Continuous
 62
     7
370
    25
100
AcDbPolyline
 90
       17
 70
   128
 43
0.0
 10
107.8511446585
 20
119.4150897378
 10
107.5942270668
 20
119.5078836342
 10
107.2723007153
 20
119.5859219585
 10
106.897737053
 20
119.6462057418
 10
106.4849303515
 20
119.6864183121
 10
106.0497445408
 20
119.7050143228
 10
105.6089035675
 20
119.7012791398
 10
105.1793487031
 20
119.6753563039
 10
104.7775875
 20
119.6282420152
 10
104.419059416
 20
119.5617468494
 10
104.1175424843
 20
119.4784261785
 10
103.8846238316
 20
119.3814819691
 10
103.7292543908
 20
119.2746397328
 10
103.6574049227
 20
119.1620053569
 10
103.6718365619
 20
119.0479073171
 10
103.7719947086
 20
118.9367303373
 10
103.9540303415
 20
118.8327468864
  0
LINE
  5
AA
330
1F
100
AcDbEntity
  8
0
  6
Continuous
 62
     7
370
    25
100
AcDbLine
 10
103.9540303415
 20
118.8327468864
 30
0.0
 11
101.3559541301
 21
118.4445183187
 31
0.0
  0
LINE
  5
AB
330
1F
100
AcDbEntity
  8
0
  6
Continuous
 62
     7
370
    25
100
AcDbLine
 10
101.3559541301
 20
118.4445183187
 30
0.0
 11
103.9309541301
 21
117.2901773983
 31
0.0
  0
LINE
  5
AC
330
1F
100
AcDbEntity
  8
0
  6
Continuous
 62
     7
370
    25
100
AcDbLine
 10
103.9309541301
 20
117.2901773983
 30
0.0
 11
103.4979414282
 21
117.225472637
 31
0.0
  0
LINE
  5
AD
330
1F
100
AcDbEntity
  8
0
  6
Continuous
 62
     7
370
    25
100
AcDbLine
 10
103.4979414282
 20
117.225472637
 30
0.0
 11
103.6729414282
 21
117.1470222832
 31
0.0
  0
LWPOLYLINE
  5
AE
330
1F
100
AcDbEntity
  8
0
  6
Continuous
 62
     7
370
    25
100
AcDbPolyline
 90
       10
 70
   128
 43
0.0
 10
112.0359177492
 20
123.1037167527
 10
111.4286765511
 20
123.00034732
 10
110.8719075125
 20
122.8794310233
 10
110.3731399797
 20
122.7426030483
 10
109.9391189279
 20
122.5917137586
 10
109.5757137472
 20
122.4288036728
 10
109.2878388693
 20
122.2560758706
 10
109.0793873081
 20
122.075866199
 10
108.9531780133
 20
121.8906116848
 10
108.9109177492
 20
121.7028175774
  0
LWPOLYLINE
  5
AF
330
1F
100
AcDbEntity
  8
0
  6
Continuous
 62
     7
370
    25
100
AcDbPolyline
 90
       19
 70
   128
 43
0.0
 10
121.4109177492
 20
121.7028175774
 10
121.3686574851
 20
121.8906116848
 10
121.2424481903
 20
122.075866199
 10
121.0339966291
 20
122.2560758706
 10
120.7461217512
 20
122.4288036728
 10
120.3827165705
 20
122.5917137586
 10
119.9486955187
 20
122.7426030483
 10
119.4499279859
 20
122.8794310233
 10
118.8931589473
 20
123.00034732
 10
118.2859177492
 20
123.1037167527
 10
117.6364162869
 20
123.1881414273
 10
116.9534379536
 20
123.2524796449
 10
116.2462188596
 20
123.2958613415
 10
115.5243229299
 20
123.3176998539
 10
114.7975125685
 20
123.3176998539
 10
114.0756166388
 20
123.2958613415
 10
113.3683975448
 20
123.2524796449
 10
112.6854192115
 20
123.1881414273
 10
112.0359177492
 20
123.1037167527
  0
LWPOLYLINE
  5
B0
330
1F
100
AcDbEntity
  8
0
  6
Continuous
 62
     7
370
    25
100
AcDbPolyline
 90
       10
 70
   128
 43
0.0
 10
89.5192572508
 20
119.7390691664
 10
88.9120160527
 20
119.6356997336
 10
88.3552470141
 20
119.514783437
 10
87.8564794813
 20
119.377955462
 10
87.4224584295
 20
119.2270661722
 10
87.0590532488
 20
119.0641560865
 10
86.7711783709
 20
118.8914282842
 10
86.5627268097
 20
118.7112186127
 10
86.4365175149
 20
118.5259640985
 10
86.3942572508
 20
118.3381699911
  0
LWPOLYLINE
  5
B1
330
1F
100
AcDbEntity
  8
0
  6
Continuous
 62
     7
370
    25
100
AcDbPolyline
 90
       19
 70
   128
 43
0.0
 10
98.8942572508
 20
118.3381699911
 10
98.8519969867
 20
118.5259640985
 10
98.7257876919
 20
118.7112186127
 10
98.5173361307
 20
118.8914282842
 10
98.2294612528
 20
119.0641560865
 10
97.8660560721
 20
119.2270661722
 10
97.4320350203
 20
119.377955462
 10
96.9332674875
 20
119.514783437
 10
96.3764984489
 20
119.6356997336
 10
95.7692572508
 20
119.7390691664
 10
95.1197557885
 20
119.823493841
 10
94.4367774552
 20
119.8878320586
 10
93.7295583612
 20
119.9312137551
 10
93.0076624315
 20
119.9530522676
 10
92.2808520701
 20
119.9530522676
 10
91.5589561404
 20
119.9312137551
 10
90.8517370464
 20
119.8878320586
 10
90.1687587131
 20
119.823493841
 10
89.5192572508
 20
119.7390691664
  0
LINE
  5
B2
330
1F
100
AcDbEntity
  8
0
  6
Continuous
 62
     7
370
    25
100
AcDbLine
 10
92.005473183
 20
123.0244528215
 30
0.0
 11
92.005473183
 21
123.4199038948
 31
0.0
  0
LWPOLYLINE
  5
B3
330
1F
100
AcDbEntity
  8
0
  6
Continuous
 62
     7
370
    25
100
AcDbPolyline
 90
       53
 70
   128
 43
0.0
 10
118.0359177492
 20
117.0332499442
 10
118.6151857686
 20
117.1323388627
 10
119.1440827819
 20
117.2487768451
 10
119.6148962797
 20
117.3808659633
 10
120.0207607411
 20
117.5266800606
 10
120.3557577482
 20
117.684092839
 10
120.6150022904
 20
117.8508088657
 10
120.7947139984
 20
118.0243970458
 10
120.892272271
 20
118.2023260727
 10
120.9062544887
 20
118.3820013404
 10
120.8364567594
 20
118.560802779
 10
120.6838968911
 20
118.7361230609
 10
120.4507995502
 20
118.9054056216
 10
120.140563821
 20
119.0661819401
 10
119.7577136388
 20
119.2161075357
 10
119.3078318214
 20
119.3529961557
 10
118.7974786589
 20
119.4748516556
 10
118.2340962494
 20
119.5798971079
 10
117.6258999773
 20
119.6666007134
 10
116.9817587136
 20
119.7336981383
 10
116.3110654884
 20
119.7802109509
 10
115.6236005193
 20
119.8054608899
 10
114.9293885936
 20
119.8090797541
 10
114.2385528843
 20
119.7910147725
 10
113.5611673317
 20
119.751529373
 10
112.9071097425
 20
119.6911993419
 10
112.2859177492
 20
119.6109044267
 10
111.7066497298
 20
119.5118155081
 10
111.1777527165
 20
119.3953775257
 10
110.7069392187
 20
119.2632884075
 10
110.3010747573
 20
119.1174743103
 10
109.9660777502
 20
118.9600615319
 10
109.706833208
 20
118.7933455051
 10
109.5271215
 20
118.619757325
 10
109.4295632274
 20
118.4418282982
 10
109.4155810097
 20
118.2621530304
 10
109.485378739
 20
118.0833515918
 10
109.6379386073
 20
117.90803131
 10
109.8710359482
 20
117.7387487493
 10
110.1812716774
 20
117.5779724307
 10
110.5641218596
 20
117.4280468351
 10
111.014003677
 20
117.2911582152
 10
111.5243568395
 20
117.1693027152
 10
112.087739249
 20
117.0642572629
 10
112.6959355211
 20
116.9775536574
 10
113.3400767848
 20
116.9104562326
 10
114.01077001
 20
116.8639434199
 10
114.6982349791
 20
116.8386934809
 10
115.3924469048
 20
116.8350746167
 10
116.0832826141
 20
116.8531395984
 10
116.7606681667
 20
116.8926249978
 10
117.4147257559
 20
116.952955029
 10
118.0359177492
 20
117.0332499442
  0
LWPOLYLINE
  5
B4
330
1F
100
AcDbEntity
  8
0
  6
Continuous
 62
     7
370
    25
100
AcDbPolyline
 90
       55
 70
   128
 43
0.0
 10
118.2859177492
 20
116.9211780102
 10
118.8931589473
 20
117.0245474429
 10
119.4499279859
 20
117.1454637395
 10
119.9486955187
 20
117.2822917145
 10
120.3827165705
 20
117.4331810043
 10
120.7461217512
 20
117.59609109
 10
121.0339966291
 20
117.7688188923
 10
121.2424481903
 20
117.9490285638
 10
121.3686574851
 20
118.1342830781
 10
121.4109177492
 20
118.3220771854
 10
121.3686574851
 20
118.5098712928
 10
121.2424481903
 20
118.695125807
 10
121.0339966291
 20
118.8753354786
 10
120.7461217512
 20
119.0480632808
 10
120.3827165705
 20
119.2109733665
 10
119.9486955187
 20
119.3618626563
 10
119.4499279859
 20
119.4986906313
 10
118.8931589473
 20
119.6196069279
 10
118.2859177492
 20
119.7229763607
 10
117.6364162869
 20
119.8074010353
 10
116.9534379536
 20
119.8717392529
 10
116.2462188596
 20
119.9151209494
 10
115.5243229299
 20
119.9369594619
 10
114.7975125685
 20
119.9369594619
 10
114.0756166388
 20
119.9151209494
 10
113.3683975448
 20
119.8717392529
 10
112.6854192115
 20
119.8074010353
 10
112.0359177492
 20
119.7229763607
 10
111.4286765511
 20
119.6196069279
 10
110.8719075125
 20
119.4986906313
 10
110.3731399797
 20
119.3618626563
 10
109.9391189279
 20
119.2109733665
 10
109.5757137472
 20
119.0480632808
 10
109.2878388693
 20
118.8753354786
 10
109.0793873081
 20
118.695125807
 10
108.9531780133
 20
118.5098712928
 10
108.9109177492
 20
118.3220771854
 10
108.9531780133
 20
118.1342830781
 10
109.0793873081
 20
117.9490285638
 10
109.2878388693
 20
117.7688188923
 10
109.5757137472
 20
117.59609109
 10
109.9391189279
 20
117.4331810043
 10
110.3731399797
 20
117.2822917145
 10
110.8719075125
 20
117.1454637395
 10
111.4286765511
 20
117.0245474429
 10
112.0359177492
 20
116.9211780102
 10
112.6854192115
 20
116.8367533355
 10
113.3683975448
 20
116.7724151179
 10
114.0756166388
 20
116.7290334214
 10
114.7975125685
 20
116.7071949089
 10
115.5243229299
 20
116.7071949089
 10
116.2462188596
 20
116.7290334214
 10
116.9534379536
 20
116.7724151179
 10
117.6364162869
 20
116.8367533355
 10
118.2859177492
 20
116.9211780102
  0
LINE
  5
B5
330
1F
100
AcDbEntity
  8
0
  6
Continuous
 62
     7
370
    25
100
AcDbLine
 10
90.755473183
 20
123.6595271142
 30
0.0
 11
90.755473183
 21
123.5848124916
 31
0.0
  0
ARC
  5
B6
330
1F
100
AcDbEntity
  8
0
  6
Continuous
 62
     7
370
    25
100
AcDbCircle
 10
75.3498226066
 20
125.7059366925
 30
0.0
 40
4.374765451549315
100
AcDbArc
 50
245.2225361524
 51
278.9848124113
  0
ARC
  5
B7
330
1F
100
AcDbEntity
  8
0
  6
Continuous
 62
     7
370
    25
100
AcDbCircle
 10
127.1286837128
 20
176.4450464757
 30
0.0
 40
4.971006152111569
100
AcDbArc
 50
357.0914290408
 51
63.438325138
  0
LINE
  5
B8
330
1F
100
AcDbEntity
  8
0
  6
Continuous
 62
     7
370
    25
100
AcDbLine
 10
132.0932861041
 20
176.1928059944
 30
0.0
 11
132.4682861041
 21
176.0246980934
 31
0.0
  0
LINE
  5
B9
330
1F
100
AcDbEntity
  8
0
  6
Continuous
 62
     7
370
    25
100
AcDbLine
 10
132.4682861041
 20
127.2454438658
 30
0.0
 11
132.4682861041
 21
176.0246980934
 31
0.0
  0
LWPOLYLINE
  5
BA
330
1F
100
AcDbEntity
  8
0
  6
Continuous
 62
     7
370
    25
100
AcDbPolyline
 90
       53
 70
   128
 43
0.0
 10
95.5192572508
 20
113.6686023578
 10
96.0985252702
 20
113.7676912764
 10
96.6274222835
 20
113.8841292588
 10
97.0982357813
 20
114.016218377
 10
97.5041002427
 20
114.1620324742
 10
97.8390972498
 20
114.3194452526
 10
98.098341792
 20
114.4861612794
 10
98.2780535
 20
114.6597494595
 10
98.3756117726
 20
114.8376784863
 10
98.3895939903
 20
115.0173537541
 10
98.319796261
 20
115.1961551927
 10
98.1672363927
 20
115.3714754745
 10
97.9341390518
 20
115.5407580352
 10
97.6239033226
 20
115.7015343538
 10
97.2410531404
 20
115.8514599494
 10
96.791171323
 20
115.9883485693
 10
96.2808181605
 20
116.1102040693
 10
95.717435751
 20
116.2152495216
 10
95.1092394789
 20
116.3019531271
 10
94.4650982152
 20
116.3690505519
 10
93.79440499
 20
116.4155633646
 10
93.1069400209
 20
116.4408133036
 10
92.4127280952
 20
116.4444321678
 10
91.7218923859
 20
116.4263671861
 10
91.0445068333
 20
116.3868817867
 10
90.3904492441
 20
116.3265517555
 10
89.7692572508
 20
116.2462568403
 10
89.1899892314
 20
116.1471679218
 10
88.6610922181
 20
116.0307299394
 10
88.1902787203
 20
115.8986408212
 10
87.7844142589
 20
115.7528267239
 10
87.4494172518
 20
115.5954139455
 10
87.1901727096
 20
115.4286979188
 10
87.0104610016
 20
115.2551097387
 10
86.912902729
 20
115.0771807118
 10
86.8989205113
 20
114.8975054441
 10
86.9687182406
 20
114.7187040055
 10
87.1212781089
 20
114.5433837236
 10
87.3543754498
 20
114.3741011629
 10
87.664611179
 20
114.2133248444
 10
88.0474613612
 20
114.0633992488
 10
88.4973431786
 20
113.9265106288
 10
89.0076963411
 20
113.8046551289
 10
89.5710787506
 20
113.6996096766
 10
90.1792750227
 20
113.6129060711
 10
90.8234162864
 20
113.5458086462
 10
91.4941095116
 20
113.4992958336
 10
92.1815744807
 20
113.4740458946
 10
92.8757864064
 20
113.4704270304
 10
93.5666221157
 20
113.488492012
 10
94.2440076683
 20
113.5279774115
 10
94.8980652575
 20
113.5883074426
 10
95.5192572508
 20
113.6686023578
  0
LWPOLYLINE
  5
BB
330
1F
100
AcDbEntity
  8
0
  6
Continuous
 62
     7
370
    25
100
AcDbPolyline
 90
       55
 70
   128
 43
0.0
 10
95.7692572508
 20
113.5565304238
 10
96.3764984489
 20
113.6598998566
 10
96.9332674875
 20
113.7808161532
 10
97.4320350203
 20
113.9176441282
 10
97.8660560721
 20
114.068533418
 10
98.2294612528
 20
114.2314435037
 10
98.5173361307
 20
114.404171306
 10
98.7257876919
 20
114.5843809775
 10
98.8519969867
 20
114.7696354917
 10
98.8942572508
 20
114.9574295991
 10
98.8519969867
 20
115.1452237064
 10
98.7257876919
 20
115.3304782207
 10
98.5173361307
 20
115.5106878922
 10
98.2294612528
 20
115.6834156945
 10
97.8660560721
 20
115.8463257802
 10
97.4320350203
 20
115.99721507
 10
96.9332674875
 20
116.134043045
 10
96.3764984489
 20
116.2549593416
 10
95.7692572508
 20
116.3583287743
 10
95.1197557885
 20
116.442753449
 10
94.4367774552
 20
116.5070916666
 10
93.7295583612
 20
116.5504733631
 10
93.0076624315
 20
116.5723118756
 10
92.2808520701
 20
116.5723118756
 10
91.5589561404
 20
116.5504733631
 10
90.8517370464
 20
116.5070916666
 10
90.1687587131
 20
116.442753449
 10
89.5192572508
 20
116.3583287743
 10
88.9120160527
 20
116.2549593416
 10
88.3552470141
 20
116.134043045
 10
87.8564794813
 20
115.99721507
 10
87.4224584295
 20
115.8463257802
 10
87.0590532488
 20
115.6834156945
 10
86.7711783709
 20
115.5106878922
 10
86.5627268097
 20
115.3304782207
 10
86.4365175149
 20
115.1452237064
 10
86.3942572508
 20
114.9574295991
 10
86.4365175149
 20
114.7696354917
 10
86.5627268097
 20
114.5843809775
 10
86.7711783709
 20
114.404171306
 10
87.0590532488
 20
114.2314435037
 10
87.4224584295
 20
114.068533418
 10
87.8564794813
 20
113.9176441282
 10
88.3552470141
 20
113.7808161532
 10
88.9120160527
 20
113.6598998566
 10
89.5192572508
 20
113.5565304238
 10
90.1687587131
 20
113.4721057492
 10
90.8517370464
 20
113.4077675316
 10
91.5589561404
 20
113.3643858351
 10
92.2808520701
 20
113.3425473226
 10
93.0076624315
 20
113.3425473226
 10
93.7295583612
 20
113.3643858351
 10
94.4367774552
 20
113.4077675316
 10
95.1197557885
 20
113.4721057492
 10
95.7692572508
 20
113.5565304238
  0
LINE
  5
BC
330
1F
100
AcDbEntity
  8
0
  6
Continuous
 62
     7
370
    25
100
AcDbLine
 10
103.9309541301
 20
117.3548821596
 30
0.0
 11
103.9309541301
 21
117.2901773983
 31
0.0
  0
ARC
  5
BD
330
1F
100
AcDbEntity
  8
0
  6
Continuous
 62
     7
370
    25
100
AcDbCircle
 10
103.7280121911
 20
117.2586561516
 30
0.0
 40
0.1244785503788707
100
AcDbArc
 50
243.7421435375
 51
304.7919890283
  0
ARC
  5
BE
330
1F
100
AcDbEntity
  8
0
  6
Continuous
 62
     7
370
    25
100
AcDbCircle
 10
112.9746299323
 20
182.7601569727
 30
0.0
 40
4.999196114962564
100
AcDbArc
 50
357.3023828541
 51
63.2273713247
  0
ARC
  5
BF
330
1F
100
AcDbEntity
  8
0
  6
Continuous
 62
     7
370
    25
100
AcDbCircle
 10
74.8509516267
 20
125.9474934258
 30
0.0
 40
4.391790008989577
100
AcDbArc
 50
246.8832542793
 51
278.934786048
  0
LINE
  5
C0
330
1F
100
AcDbEntity
  8
0
  6
Continuous
 62
     7
370
    25
100
AcDbLine
 10
103.7811946037
 20
117.1631984735
 30
0.0
 11
109.0746856291
 21
117.9542008428
 31
0.0
  0
LINE
  5
C1
330
1F
100
AcDbEntity
  8
0
  6
Continuous
 62
     7
370
    25
100
AcDbLine
 10
121.4109177492
 20
119.7975946991
 30
0.0
 11
127.2721336814
 21
120.6734317727
 31
0.0
  0
LINE
  5
C2
330
1F
100
AcDbEntity
  8
0
  6
Continuous
 62
     7
370
    25
100
AcDbLine
 10
98.8942572508
 20
116.4329471127
 30
0.0
 11
103.6729414282
 21
117.1470222832
 31
0.0
  0
ARC
  5
C3
330
1F
100
AcDbEntity
  8
0
  6
Continuous
 62
     7
370
    25
100
AcDbCircle
 10
132.4506118366
 20
127.1601006875
 30
0.0
 40
0.0871541037665337
100
AcDbArc
 50
13.7359672823
 51
78.2996492069
  0
LWPOLYLINE
  5
C4
330
1F
100
AcDbEntity
  8
0
  6
Continuous
 62
     7
370
    25
100
AcDbPolyline
 90
        3
 70
   128
 43
0.0
 10
127.2721336814
 20
120.6734317727
 10
127.3209062619
 20
120.66084762
 10
127.3461543408
 20
120.6619041519
  0
ARC
  5
C5
330
1F
100
AcDbEntity
  8
0
  6
Continuous
 62
     7
370
    25
100
AcDbCircle
 10
132.4506462809
 20
175.9394084469
 30
0.0
 40
0.0870947022483301
100
AcDbArc
 50
13.6712494457
 51
78.3146961631
  0
ARC
  5
C6
330
1F
100
AcDbEntity
  8
0
  6
Continuous
 62
     7
370
    25
100
AcDbCircle
 10
127.5036837127
 20
176.2769385747
 30
0.0
 40
4.971006152111659
100
AcDbArc
 50
357.0914290408
 51
63.438325138
  0
ENDSEC
  0
SECTION
  2
OBJECTS
  0
DICTIONARY
  5
C
330
0
100
AcDbDictionary
281
     1
  3
ACAD_GROUP
350
D
  3
ACAD_LAYOUT
350
1A
  3
ACAD_MLINESTYLE
350
17
  3
ACAD_PLOTSETTINGS
350
19
  3
ACAD_PLOTSTYLENAME
350
E
  3
ACAD_SCALELIST
350
47
  3
DWGPROPS
350
C7
  0
DICTIONARY
  5
D
102
{ACAD_REACTORS
330
C
102
}
330
C
100
AcDbDictionary
281
     1
  0
DICTIONARY
  5
1A
102
{ACAD_REACTORS
330
C
102
}
330
C
100
AcDbDictionary
281
     1
  3
Layout1
350
1E
  3
Layout2
350
26
  3
Model
350
22
  0
DICTIONARY
  5
17
102
{ACAD_REACTORS
330
C
102
}
330
C
100
AcDbDictionary
281
     1
  3
Standard
350
18
  0
DICTIONARY
  5
19
102
{ACAD_REACTORS
330
C
102
}
330
C
100
AcDbDictionary
281
     1
  0
ACDBDICTIONARYWDFLT
  5
E
102
{ACAD_REACTORS
330
C
102
}
330
C
100
AcDbDictionary
281
     1
  3
Normal
350
F
100
AcDbDictionaryWithDefault
340
F
  0
DICTIONARY
  5
47
102
{ACAD_REACTORS
330
C
102
}
330
C
100
AcDbDictionary
281
     1
  3
A0
350
48
  3
A1
350
49
  3
A2
350
4A
  3
A3
350
4B
  3
A4
350
4C
  3
A5
350
4D
  3
A6
350
4E
  3
A7
350
4F
  3
A8
350
50
  3
A9
350
51
  3
B0
350
52
  3
B1
350
53
  3
B2
350
54
  3
B3
350
55
  3
B4
350
56
  3
B5
350
57
  3
B6
350
58
  0
XRECORD
  5
C7
102
{ACAD_REACTORS
330
C
102
}
330
C
100
AcDbXrecord
280
     1
  1
DWGPROPS COOKIE
  2

  3

  4

  6

  7

  8
9148
  9

300
=
301
=
302
=
303
=
304
=
305
=
306
=
307
=
308
=
309
=
 40
0.0
 41
2460112.259010313
 42
2460112.259010706
  1

 90
        0
  0
LAYOUT
  5
1E
102
{ACAD_REACTORS
330
1A
102
}
330
1A
100
AcDbPlotSettings
  1

  2
none_device
  4

  6

 40
0.0
 41
0.0
 42
0.0
 43
0.0
 44
0.0
 45
0.0
 46
0.0
 47
0.0
 48
0.0
 49
0.0
140
0.0
141
0.0
142
1.0
143
1.0
 70
   688
 72
     1
 73
     0
 74
     5
  7

 75
    16
147
1.0
148
0.0
149
0.0
100
AcDbLayout
  1
Layout1
 70
     1
 71
     1
 10
0.0
 20
0.0
 11
420.0
 21
297.0
 12
0.0
 22
0.0
 32
0.0
 14
1.0000000000E+20
 24
1.0000000000E+20
 34
1.0000000000E+20
 15
-1.0000000000E+20
 25
-1.0000000000E+20
 35
-1.0000000000E+20
146
0.0
 13
0.0
 23
0.0
 33
0.0
 16
1.0
 26
0.0
 36
0.0
 17
0.0
 27
1.0
 37
0.0
 76
     0
330
1B
  0
LAYOUT
  5
26
102
{ACAD_REACTORS
330
1A
102
}
330
1A
100
AcDbPlotSettings
  1

  2
none_device
  4

  6

 40
0.0
 41
0.0
 42
0.0
 43
0.0
 44
0.0
 45
0.0
 46
0.0
 47
0.0
 48
0.0
 49
0.0
140
0.0
141
0.0
142
1.0
143
1.0
 70
   688
 72
     1
 73
     0
 74
     5
  7

 75
    16
147
1.0
148
0.0
149
0.0
100
AcDbLayout
  1
Layout2
 70
     1
 71
     2
 10
0.0
 20
0.0
 11
0.0
 21
0.0
 12
0.0
 22
0.0
 32
0.0
 14
0.0
 24
0.0
 34
0.0
 15
0.0
 25
0.0
 35
0.0
146
0.0
 13
0.0
 23
0.0
 33
0.0
 16
1.0
 26
0.0
 36
0.0
 17
0.0
 27
1.0
 37
0.0
 76
     0
330
23
  0
LAYOUT
  5
22
102
{ACAD_REACTORS
330
1A
102
}
330
1A
100
AcDbPlotSettings
  1

  2
none_device
  4
Letter_(8.50_x_11.00_Inches)
  6

 40
6.35
 41
6.35
 42
6.35000508
 43
6.35000508
 44
215.9
 45
279.4
 46
0.0
 47
0.0
 48
0.0
 49
0.0
140
0.0
141
0.0
142
1.0
143
1.0
 70
  1712
 72
     1
 73
     0
 74
     0
  7

 75
     0
147
1.0
148
0.0
149
0.0
100
AcDbLayout
  1
Model
 70
     1
 71
     0
 10
0.0
 20
0.0
 11
210.0
 21
297.0
 12
0.0
 22
0.0
 32
0.0
 14
0.0
 24
0.0
 34
0.0
 15
210.0
 25
297.0
 35
0.0
146
0.0
 13
0.0
 23
0.0
 33
0.0
 16
1.0
 26
0.0
 36
0.0
 17
0.0
 27
1.0
 37
0.0
 76
     0
330
1F
331
29
  0
MLINESTYLE
  5
18
102
{ACAD_REACTORS
330
17
102
}
330
17
100
AcDbMlineStyle
  2
Standard
 70
     0
  3

 62
   256
 51
90.0
 52
90.0
 71
     2
 49
0.5
 62
   256
  6
BYLAYER
 49
-0.5
 62
   256
  6
BYLAYER
  0
ACDBPLACEHOLDER
  5
F
102
{ACAD_REACTORS
330
E
102
}
330
E
  0
SCALE
  5
48
102
{ACAD_REACTORS
330
47
102
}
330
47
100
AcDbScale
 70
     0
300
1:1
140
1.0
141
1.0
290
     1
  0
SCALE
  5
49
102
{ACAD_REACTORS
330
47
102
}
330
47
100
AcDbScale
 70
     0
300
1:2
140
1.0
141
2.0
290
     0
  0
SCALE
  5
4A
102
{ACAD_REACTORS
330
47
102
}
330
47
100
AcDbScale
 70
     0
300
1:4
140
1.0
141
4.0
290
     0
  0
SCALE
  5
4B
102
{ACAD_REACTORS
330
47
102
}
330
47
100
AcDbScale
 70
     0
300
1:5
140
1.0
141
5.0
290
     0
  0
SCALE
  5
4C
102
{ACAD_REACTORS
330
47
102
}
330
47
100
AcDbScale
 70
     0
300
1:8
140
1.0
141
8.0
290
     0
  0
SCALE
  5
4D
102
{ACAD_REACTORS
330
47
102
}
330
47
100
AcDbScale
 70
     0
300
1:10
140
1.0
141
10.0
290
     0
  0
SCALE
  5
4E
102
{ACAD_REACTORS
330
47
102
}
330
47
100
AcDbScale
 70
     0
300
1:16
140
1.0
141
16.0
290
     0
  0
SCALE
  5
4F
102
{ACAD_REACTORS
330
47
102
}
330
47
100
AcDbScale
 70
     0
300
1:20
140
1.0
141
20.0
290
     0
  0
SCALE
  5
50
102
{ACAD_REACTORS
330
47
102
}
330
47
100
AcDbScale
 70
     0
300
1:30
140
1.0
141
30.0
290
     0
  0
SCALE
  5
51
102
{ACAD_REACTORS
330
47
102
}
330
47
100
AcDbScale
 70
     0
300
1:40
140
1.0
141
40.0
290
     0
  0
SCALE
  5
52
102
{ACAD_REACTORS
330
47
102
}
330
47
100
AcDbScale
 70
     0
300
1:50
140
1.0
141
50.0
290
     0
  0
SCALE
  5
53
102
{ACAD_REACTORS
330
47
102
}
330
47
100
AcDbScale
 70
     0
300
1:100
140
1.0
141
100.0
290
     0
  0
SCALE
  5
54
102
{ACAD_REACTORS
330
47
102
}
330
47
100
AcDbScale
 70
     0
300
2:1
140
2.0
141
1.0
290
     0
  0
SCALE
  5
55
102
{ACAD_REACTORS
330
47
102
}
330
47
100
AcDbScale
 70
     0
300
4:1
140
4.0
141
1.0
290
     0
  0
SCALE
  5
56
102
{ACAD_REACTORS
330
47
102
}
330
47
100
AcDbScale
 70
     0
300
8:1
140
8.0
141
1.0
290
     0
  0
SCALE
  5
57
102
{ACAD_REACTORS
330
47
102
}
330
47
100
AcDbScale
 70
     0
300
10:1
140
10.0
141
1.0
290
     0
  0
SCALE
  5
58
102
{ACAD_REACTORS
330
47
102
}
330
47
100
AcDbScale
 70
     0
300
100:1
140
100.0
141
1.0
290
     0
  0
ENDSEC
  0
EOF
