  0
SECTION
  2
HEADER
  9
$ACADVER
  1
AC1015
  9
$ACADMAINTVER
 70
     6
  9
$DWGCODEPAGE
  3
DOS932
  9
$INSBASE
 10
0.0
 20
0.0
 30
0.0
  9
$EXTMIN
 10
0.0
 20
0.0
 30
0.0
  9
$EXTMAX
 10
210.0
 20
297.0
 30
0.0
  9
$LIMMIN
 10
0.0
 20
0.0
  9
$LIMMAX
 10
210.0
 20
297.0
  9
$ORTHOMODE
 70
     0
  9
$REGENMODE
 70
     1
  9
$FILLMODE
 70
     1
  9
$QTEXTMODE
 70
     0
  9
$MIRRTEXT
 70
     1
  9
$LTSCALE
 40
1.0
  9
$ATTMODE
 70
     1
  9
$TEXTSIZE
 40
3.5
  9
$TRACEWID
 40
1.0
  9
$TEXTSTYLE
  7
Standard
  9
$CLAYER
  8
0
  9
$CELTYPE
  6
ByLayer
  9
$CECOLOR
 62
   256
  9
$CELTSCALE
 40
1.0
  9
$DISPSILH
 70
     0
  9
$DIMSCALE
 40
1.0
  9
$DIMASZ
 40
1.5
  9
$DIMEXO
 40
1.0
  9
$DIMDLI
 40
3.75
  9
$DIMRND
 40
0.0
  9
$DIMDLE
 40
0.0
  9
$DIMEXE
 40
1.0
  9
$DIMTP
 40
0.0
  9
$DIMTM
 40
0.0
  9
$DIMTXT
 40
3.5
  9
$DIMCEN
 40
2.5
  9
$DIMTSZ
 40
0.0
  9
$DIMTOL
 70
     0
  9
$DIMLIM
 70
     0
  9
$DIMTIH
 70
     1
  9
$DIMTOH
 70
     1
  9
$DIMSE1
 70
     0
  9
$DIMSE2
 70
     0
  9
$DIMTAD
 70
     1
  9
$DIMZIN
 70
     0
  9
$DIMBLK
  1

  9
$DIMASO
 70
     1
  9
$DIMSHO
 70
     1
  9
$DIMPOST
  1

  9
$DIMAPOST
  1

  9
$DIMALT
 70
     0
  9
$DIMALTD
 70
     3
  9
$DIMALTF
 40
0.0393700787
  9
$DIMLFAC
 40
1.0
  9
$DIMTOFL
 70
     1
  9
$DIMTVP
 40
0.0
  9
$DIMTIX
 70
     0
  9
$DIMSOXD
 70
     0
  9
$DIMSAH
 70
     0
  9
$DIMBLK1
  1

  9
$DIMBLK2
  1

  9
$DIMSTYLE
  2
ISO-25
  9
$DIMCLRD
 70
     0
  9
$DIMCLRE
 70
     0
  9
$DIMCLRT
 70
     0
  9
$DIMTFAC
 40
1.0
  9
$DIMGAP
 40
1.5
  9
$DIMJUST
 70
     0
  9
$DIMSD1
 70
     0
  9
$DIMSD2
 70
     0
  9
$DIMTOLJ
 70
     0
  9
$DIMTZIN
 70
     0
  9
$DIMALTZ
 70
     0
  9
$DIMALTTZ
 70
     0
  9
$DIMUPT
 70
     0
  9
$DIMDEC
 70
     1
  9
$DIMTDEC
 70
     1
  9
$DIMALTU
 70
     2
  9
$DIMALTTD
 70
     3
  9
$DIMTXSTY
  7
Standard
  9
$DIMAUNIT
 70
     0
  9
$DIMADEC
 70
     2
  9
$DIMALTRND
 40
0.0
  9
$DIMAZIN
 70
     0
  9
$DIMDSEP
 70
    44
  9
$DIMATFIT
 70
     3
  9
$DIMFRAC
 70
     0
  9
$DIMLDRBLK
  1

  9
$DIMLUNIT
 70
     2
  9
$DIMLWD
 70
    -2
  9
$DIMLWE
 70
    -2
  9
$DIMTMOVE
 70
     0
  9
$LUNITS
 70
     2
  9
$LUPREC
 70
     2
  9
$SKETCHINC
 40
1.0
  9
$FILLETRAD
 40
0.0
  9
$AUNITS
 70
     0
  9
$AUPREC
 70
     2
  9
$MENU
  1
.
  9
$ELEVATION
 40
0.0
  9
$PELEVATION
 40
0.0
  9
$THICKNESS
 40
0.0
  9
$LIMCHECK
 70
     0
  9
$CHAMFERA
 40
0.0
  9
$CHAMFERB
 40
0.0
  9
$CHAMFERC
 40
0.0
  9
$CHAMFERD
 40
0.0
  9
$SKPOLY
 70
     0
  9
$TDCREATE
 40
2460112.634954433
  9
$TDUCREATE
 40
2460112.259954433
  9
$TDUPDATE
 40
2460112.634954757
  9
$TDUUPDATE
 40
2460112.259954757
  9
$TDINDWG
 40
0.0000000116
  9
$TDUSRTIMER
 40
0.0000000116
  9
$USRTIMER
 70
     1
  9
$ANGBASE
 50
0.0
  9
$ANGDIR
 70
     0
  9
$PDMODE
 70
     0
  9
$PDSIZE
 40
-1.0
  9
$PLINEWID
 40
0.0
  9
$SPLFRAME
 70
     0
  9
$SPLINETYPE
 70
     6
  9
$SPLINESEGS
 70
     8
  9
$HANDSEED
  5
DC
  9
$SURFTAB1
 70
     6
  9
$SURFTAB2
 70
     6
  9
$SURFTYPE
 70
     6
  9
$SURFU
 70
     6
  9
$SURFV
 70
     6
  9
$UCSBASE
  2

  9
$UCSNAME
  2

  9
$UCSORG
 10
0.0
 20
0.0
 30
0.0
  9
$UCSXDIR
 10
1.0
 20
0.0
 30
0.0
  9
$UCSYDIR
 10
0.0
 20
1.0
 30
0.0
  9
$UCSORTHOREF
  2

  9
$UCSORTHOVIEW
 70
     0
  9
$UCSORGTOP
 10
0.0
 20
0.0
 30
0.0
  9
$UCSORGBOTTOM
 10
0.0
 20
0.0
 30
0.0
  9
$UCSORGLEFT
 10
0.0
 20
0.0
 30
0.0
  9
$UCSORGRIGHT
 10
0.0
 20
0.0
 30
0.0
  9
$UCSORGFRONT
 10
0.0
 20
0.0
 30
0.0
  9
$UCSORGBACK
 10
0.0
 20
0.0
 30
0.0
  9
$PUCSBASE
  2

  9
$PUCSNAME
  2

  9
$PUCSORG
 10
0.0
 20
0.0
 30
0.0
  9
$PUCSXDIR
 10
1.0
 20
0.0
 30
0.0
  9
$PUCSYDIR
 10
0.0
 20
1.0
 30
0.0
  9
$PUCSORTHOREF
  2

  9
$PUCSORTHOVIEW
 70
     0
  9
$PUCSORGTOP
 10
0.0
 20
0.0
 30
0.0
  9
$PUCSORGBOTTOM
 10
0.0
 20
0.0
 30
0.0
  9
$PUCSORGLEFT
 10
0.0
 20
0.0
 30
0.0
  9
$PUCSORGRIGHT
 10
0.0
 20
0.0
 30
0.0
  9
$PUCSORGFRONT
 10
0.0
 20
0.0
 30
0.0
  9
$PUCSORGBACK
 10
0.0
 20
0.0
 30
0.0
  9
$USERI1
 70
     0
  9
$USERI2
 70
     0
  9
$USERI3
 70
     0
  9
$USERI4
 70
     0
  9
$USERI5
 70
     0
  9
$USERR1
 40
0.0
  9
$USERR2
 40
0.0
  9
$USERR3
 40
0.0
  9
$USERR4
 40
0.0
  9
$USERR5
 40
0.0
  9
$WORLDVIEW
 70
     1
  9
$SHADEDGE
 70
     3
  9
$SHADEDIF
 70
    70
  9
$TILEMODE
 70
     1
  9
$MAXACTVP
 70
    64
  9
$PINSBASE
 10
0.0
 20
0.0
 30
0.0
  9
$PLIMCHECK
 70
     0
  9
$PEXTMIN
 10
1.0000000000E+20
 20
1.0000000000E+20
 30
1.0000000000E+20
  9
$PEXTMAX
 10
-1.0000000000E+20
 20
-1.0000000000E+20
 30
-1.0000000000E+20
  9
$PLIMMIN
 10
0.0
 20
0.0
  9
$PLIMMAX
 10
420.0
 20
297.0
  9
$UNITMODE
 70
     0
  9
$VISRETAIN
 70
     1
  9
$PLINEGEN
 70
     0
  9
$PSLTSCALE
 70
     1
  9
$TREEDEPTH
 70
  3020
  9
$CMLSTYLE
  2
Standard
  9
$CMLJUST
 70
     0
  9
$CMLSCALE
 40
20.0
  9
$PROXYGRAPHICS
 70
     1
  9
$MEASUREMENT
 70
     1
  9
$CELWEIGHT
370
    -1
  9
$ENDCAPS
280
     0
  9
$JOINSTYLE
280
     0
  9
$LWDISPLAY
290
     1
  9
$INSUNITS
 70
     4
  9
$HYPERLINKBASE
  1

  9
$STYLESHEET
  1

  9
$XEDIT
290
     1
  9
$CEPSNTYPE
380
     0
  9
$PSTYLEMODE
290
     1
  9
$FINGERPRINTGUID
  2
{268d8c62-1f64-4105-a2e1-736a1fbbe661}
  9
$VERSIONGUID
  2
{FAEB1C32-E019-11D5-929B-00C0DF256EC4}
  9
$EXTNAMES
290
     1
  9
$PSVPSCALE
 40
0.0
  9
$OLESTARTUP
290
     0
  0
ENDSEC
  0
SECTION
  2
CLASSES
  0
CLASS
  1
ACDBDICTIONARYWDFLT
  2
AcDbDictionaryWithDefault
  3
ObjectDBX Classes
 90
        0
280
     0
281
     0
  0
CLASS
  1
VISUALSTYLE
  2
AcDbVisualStyle
  3
ObjectDBX Classes
 90
     4095
280
     0
281
     0
  0
CLASS
  1
MATERIAL
  2
AcDbMaterial
  3
ObjectDBX Classes
 90
     1153
280
     0
281
     0
  0
CLASS
  1
SCALE
  2
AcDbScale
  3
ObjectDBX Classes
 90
     1153
280
     0
281
     0
  0
CLASS
  1
TABLESTYLE
  2
AcDbTableStyle
  3
ObjectDBX Classes
 90
     4095
280
     0
281
     0
  0
CLASS
  1
MLEADERSTYLE
  2
AcDbMLeaderStyle
  3
ACDB_MLEADERSTYLE_CLASS
 90
     4095
280
     0
281
     0
  0
CLASS
  1
SUN
  2
AcDbSun
  3
SCENEOE
 90
     1153
280
     0
281
     0
  0
CLASS
  1
ACDBPLACEHOLDER
  2
AcDbPlaceHolder
  3
ObjectDBX Classes
 90
        0
280
     0
281
     0
  0
CLASS
  1
LAYOUT
  2
AcDbLayout
  3
ObjectDBX Classes
 90
        0
280
     0
281
     0
  0
ENDSEC
  0
SECTION
  2
TABLES
  0
TABLE
  2
VPORT
  5
8
330
0
100
AcDbSymbolTable
 70
     1
  0
VPORT
  5
29
330
8
100
AcDbSymbolTableRecord
100
AcDbViewportTableRecord
  2
*Active
 70
     0
 10
0.0
 20
0.0
 11
1.0
 21
1.0
 12
105.0
 22
148.5
 13
0.0
 23
0.0
 14
10.0
 24
10.0
 15
10.0
 25
10.0
 16
0.0
 26
0.0
 36
1.0
 17
0.0
 27
0.0
 37
0.0
 40
297.0
 41
0.7070707071
 42
50.0
 43
0.0
 44
0.0
 50
0.0
 51
0.0
 71
     0
 72
  2000
 73
     1
 74
     3
 75
     0
 76
     0
 77
     0
 78
     0
281
     0
 65
     1
110
0.0
120
0.0
130
0.0
111
1.0
121
0.0
131
0.0
112
0.0
122
1.0
132
0.0
 79
     0
146
0.0
  0
ENDTAB
  0
TABLE
  2
LTYPE
  5
5
330
0
100
AcDbSymbolTable
 70
     6
  0
LTYPE
  5
14
330
5
100
AcDbSymbolTableRecord
100
AcDbLinetypeTableRecord
  2
ByBlock
 70
     0
  3

 72
    65
 73
     0
 40
0.0
  0
LTYPE
  5
15
330
5
100
AcDbSymbolTableRecord
100
AcDbLinetypeTableRecord
  2
ByLayer
 70
     0
  3

 72
    65
 73
     0
 40
0.0
  0
LTYPE
  5
16
330
5
100
AcDbSymbolTableRecord
100
AcDbLinetypeTableRecord
  2
Continuous
 70
     0
  3
Solid line
 72
    65
 73
     0
 40
0.0
  0
LTYPE
  5
5E
330
5
100
AcDbSymbolTableRecord
100
AcDbLinetypeTableRecord
  2
HIDDEN
 70
     0
  3
Hidden __ __ __ __ __ __ __ __ __ __ __ __ __ __
 72
    65
 73
     2
 40
1.905
 49
1.27
 74
     0
 49
-0.635
 74
     0
  0
LTYPE
  5
5F
330
5
100
AcDbSymbolTableRecord
100
AcDbLinetypeTableRecord
  2
PHANTOM
 70
     0
  3
Phantom ______  __  __  ______  __  __  ______
 72
    65
 73
     6
 40
12.7
 49
6.35
 74
     0
 49
-1.27
 74
     0
 49
1.27
 74
     0
 49
-1.27
 74
     0
 49
1.27
 74
     0
 49
-1.27
 74
     0
  0
LTYPE
  5
60
330
5
100
AcDbSymbolTableRecord
100
AcDbLinetypeTableRecord
  2
CENTER
 70
     0
  3
Center ____ _ ____ _ ____ _ ____ _ ____ _ ____
 72
    65
 73
     4
 40
10.16
 49
6.35
 74
     0
 49
-1.27
 74
     0
 49
1.27
 74
     0
 49
-1.27
 74
     0
  0
LTYPE
  5
61
330
5
100
AcDbSymbolTableRecord
100
AcDbLinetypeTableRecord
  2
CENTERX2
 70
     0
  3
Center (2x) ________  __  ________  __  _____
 72
    65
 73
     4
 40
20.32
 49
12.7
 74
     0
 49
-2.54
 74
     0
 49
2.54
 74
     0
 49
-2.54
 74
     0
  0
LTYPE
  5
62
330
5
100
AcDbSymbolTableRecord
100
AcDbLinetypeTableRecord
  2
DOT2
 70
     0
  3
Dot (.5x) ........................................
 72
    65
 73
     2
 40
0.635
 49
0.0
 74
     0
 49
-0.635
 74
     0
  0
ENDTAB
  0
TABLE
  2
LAYER
  5
2
330
0
100
AcDbSymbolTable
 70
     2
  0
LAYER
  5
10
330
2
100
AcDbSymbolTableRecord
100
AcDbLayerTableRecord
  2
0
 70
     0
 62
     7
  6
Continuous
370
    -3
390
F
  0
LAYER
  5
63
330
2
100
AcDbSymbolTableRecord
100
AcDbLayerTableRecord
  2
FORMAT
 70
     0
 62
     7
  6
Continuous
370
    -3
390
F
  0
ENDTAB
  0
TABLE
  2
STYLE
  5
3
330
0
100
AcDbSymbolTable
 70
     2
  0
STYLE
  5
11
330
3
100
AcDbSymbolTableRecord
100
AcDbTextStyleTableRecord
  2
Standard
 70
     0
 40
0.0
 41
1.0
 50
0.0
 71
     0
 42
3.5
  3
txt
  4
bigfont
  0
STYLE
  5
64
330
3
100
AcDbSymbolTableRecord
100
AcDbTextStyleTableRecord
  2
SLDTEXTSTYLE0
 70
     0
 40
0.0
 41
0.7
 50
0.0
 71
     0
 42
3.5
  3
TXT
  4
bigfont
  0
ENDTAB
  0
TABLE
  2
VIEW
  5
6
330
0
100
AcDbSymbolTable
 70
     0
  0
ENDTAB
  0
TABLE
  2
UCS
  5
7
330
0
100
AcDbSymbolTable
 70
     0
  0
ENDTAB
  0
TABLE
  2
APPID
  5
9
330
0
100
AcDbSymbolTable
 70
     1
  0
APPID
  5
12
330
9
100
AcDbSymbolTableRecord
100
AcDbRegAppTableRecord
  2
ACAD
 70
     0
  0
ENDTAB
  0
TABLE
  2
DIMSTYLE
  5
A
330
0
100
AcDbSymbolTable
 70
     1
100
AcDbDimStyleTable
  0
DIMSTYLE
105
27
330
A
100
AcDbSymbolTableRecord
100
AcDbDimStyleTableRecord
  2
ISO-25
 70
     0
 41
2.5
 42
0.625
 43
3.75
 44
1.25
 73
     0
 74
     0
 77
     1
 78
     8
140
2.5
141
2.5
143
0.0393700787
147
0.625
171
     3
172
     1
178
     0
271
     2
272
     2
274
     3
278
    44
283
     0
284
     8
340
11
  0
ENDTAB
  0
TABLE
  2
BLOCK_RECORD
  5
1
330
0
100
AcDbSymbolTable
 70
     1
  0
BLOCK_RECORD
  5
1F
330
1
100
AcDbSymbolTableRecord
100
AcDbBlockTableRecord
  2
*Model_Space
340
22
  0
BLOCK_RECORD
  5
1B
330
1
100
AcDbSymbolTableRecord
100
AcDbBlockTableRecord
  2
*Paper_Space
340
1E
  0
BLOCK_RECORD
  5
23
330
1
100
AcDbSymbolTableRecord
100
AcDbBlockTableRecord
  2
*Paper_Space0
340
26
  0
ENDTAB
  0
ENDSEC
  0
SECTION
  2
BLOCKS
  0
BLOCK
  5
20
330
1F
100
AcDbEntity
  8
0
100
AcDbBlockBegin
  2
*Model_Space
 70
     0
 10
0.0
 20
0.0
 30
0.0
  3
*Model_Space
  1

  0
ENDBLK
  5
21
330
1F
100
AcDbEntity
  8
0
100
AcDbBlockEnd
  0
BLOCK
  5
1C
330
1B
100
AcDbEntity
 67
     1
  8
0
100
AcDbBlockBegin
  2
*Paper_Space
 70
     0
 10
0.0
 20
0.0
 30
0.0
  3
*Paper_Space
  1

  0
ENDBLK
  5
1D
330
1B
100
AcDbEntity
 67
     1
  8
0
100
AcDbBlockEnd
  0
BLOCK
  5
24
330
23
100
AcDbEntity
  8
0
100
AcDbBlockBegin
  2
*Paper_Space0
 70
     0
 10
0.0
 20
0.0
 30
0.0
  3
*Paper_Space0
  1

  0
ENDBLK
  5
25
330
23
100
AcDbEntity
  8
0
100
AcDbBlockEnd
  0
ENDSEC
  0
SECTION
  2
ENTITIES
  0
MTEXT
  5
65
330
1F
100
AcDbEntity
  8
0
  6
Continuous
 62
     7
370
     0
100
AcDbMText
 10
146.0357735976
 20
113.7089511937
 30
0.0
 40
3.5
 41
0.0
 71
     1
 72
     1
  1
HEA-026S/K
  7
SLDTEXTSTYLE0
 73
     1
 44
1.0
  0
SPLINE
  5
66
330
1F
100
AcDbEntity
  8
0
  6
Continuous
 62
     7
370
    25
100
AcDbSpline
210
0.0
220
0.0
230
1.0
 70
     8
 71
     3
 72
    12
 73
     8
 74
     0
 42
0.00000001
 43
0.00000001
 40
0.0
 40
0.0
 40
0.0
 40
0.0
 40
0.1781195235698927
 40
0.4181519830255622
 40
0.6582345505967796
 40
0.8986962989852713
 40
1.0
 40
1.0
 40
1.0
 40
1.0
 10
128.6784404369554
 20
193.5242509845513
 30
0.0
 10
128.5380563908152
 20
193.5871297259405
 30
0.0
 10
128.2084919157807
 20
193.7347433612965
 30
0.0
 10
127.6521432450479
 20
193.8702595684272
 30
0.0
 10
127.0272061725616
 20
193.9420229391831
 30
0.0
 10
126.5125369144906
 20
193.9307287848561
 30
0.0
 10
126.2103584174887
 20
193.8908239304056
 30
0.0
 10
126.1207888013475
 20
193.8789956152515
 30
0.0
  0
LINE
  5
67
330
1F
100
AcDbEntity
  8
0
  6
Continuous
 62
     7
370
    25
100
AcDbLine
 10
142.7740725404
 20
187.2148614746
 30
0.0
 11
128.6490725404
 21
193.5469257468
 31
0.0
  0
LINE
  5
68
330
1F
100
AcDbEntity
  8
0
  6
Continuous
 62
     7
370
    25
100
AcDbLine
 10
126.1207888013
 20
193.8789956153
 30
0.0
 11
65.0659978345
 21
184.7556242754
 31
0.0
  0
SPLINE
  5
69
330
1F
100
AcDbEntity
  8
0
  6
Continuous
 62
     7
370
    25
100
AcDbSpline
210
0.0
220
0.0
230
1.0
 70
     8
 71
     3
 72
    17
 73
    13
 74
     0
 42
0.00000001
 43
0.00000001
 40
0.0
 40
0.0
 40
0.0
 40
0.0
 40
0.0618577396527165
 40
0.1762203292793582
 40
0.2905902212273024
 40
0.4047976685176629
 40
0.5187584249240378
 40
0.6323906529343153
 40
0.7456355762728561
 40
0.858480182779895
 40
0.9709728581703388
 40
1.0
 40
1.0
 40
1.0
 40
1.0
 10
59.87675229578414
 20
129.4575161248522
 30
0.0
 10
59.87906254432227
 20
129.3296334477278
 30
0.0
 10
59.88564398037848
 20
128.965321275985
 30
0.0
 10
59.9578033677505
 20
128.375546195937
 30
0.0
 10
60.11689588611347
 20
127.7049962392661
 30
0.0
 10
60.35285398979805
 20
127.0710923639823
 30
0.0
 10
60.66063987082977
 20
126.4835631602846
 30
0.0
 10
61.03605505021789
 20
125.9521393883726
 30
0.0
 10
61.47201313219657
 20
125.4827287442846
 30
0.0
 10
61.96513003908119
 20
125.0905700887299
 30
0.0
 10
62.3637785414103
 20
124.8344346474567
 30
0.0
 10
62.60637548348063
 20
124.7369140406852
 30
0.0
 10
62.65613456304447
 20
124.7169115806787
 30
0.0
  0
LINE
  5
6A
330
1F
100
AcDbEntity
  8
0
  6
Continuous
 62
     7
370
    25
100
AcDbLine
 10
62.6855024596
 20
124.6942368184
 30
0.0
 11
63.0605024596
 21
124.5261289174
 31
0.0
  0
LINE
  5
6B
330
1F
100
AcDbEntity
  8
0
  6
Continuous
 62
     7
370
    25
100
AcDbLine
 10
59.8767522958
 20
178.2367703525
 30
0.0
 11
59.8767522958
 21
129.4575161249
 31
0.0
  0
SPLINE
  5
6C
330
1F
100
AcDbEntity
  8
0
  6
Continuous
 62
     7
370
    25
100
AcDbSpline
210
0.0
220
0.0
230
1.0
 70
     8
 71
     3
 72
    21
 73
    17
 74
     0
 42
0.00000001
 43
0.00000001
 40
0.0
 40
0.0
 40
0.0
 40
0.0
 40
0.0428138221389144
 40
0.1205021185389659
 40
0.1983560004074563
 40
0.2764206568317905
 40
0.3546557107832385
 40
0.4330188141458074
 40
0.5114733901017068
 40
0.5899921008334691
 40
0.6685569478936979
 40
0.7471573173306539
 40
0.8257865770325306
 40
0.9044378760113088
 40
0.9788734735932586
 40
0.9999999999999999
 40
0.9999999999999999
 40
0.9999999999999999
 40
0.9999999999999999
 10
65.06599783454465
 20
184.7556242753876
 30
0.0
 10
64.9482034316292
 20
184.7353845587221
 30
0.0
 10
64.61666388682312
 20
184.6784186394235
 30
0.0
 10
64.07614757150577
 20
184.5173654937643
 30
0.0
 10
63.45679900280422
 20
184.2501171911755
 30
0.0
 10
62.86212687554789
 20
183.9029312306437
 30
0.0
 10
62.30084655278018
 20
183.4822936227766
 30
0.0
 10
61.78139305106124
 20
182.9939953817401
 30
0.0
 10
61.3115669698019
 20
182.4454030522189
 30
0.0
 10
60.89840875535482
 20
181.844643416725
 30
0.0
 10
60.54807985501015
 20
181.2006252590276
 30
0.0
 10
60.26589542802532
 20
180.5228673470446
 30
0.0
 10
60.05590439170228
 20
179.8213085158289
 30
0.0
 10
59.92461947423438
 20
179.1192588947538
 30
0.0
 10
59.88002443494832
 20
178.5890785140373
 30
0.0
 10
59.87734471787681
 20
178.3005558847522
 30
0.0
 10
59.87675229578414
 20
178.2367703524501
 30
0.0
  0
LINE
  5
6D
330
1F
100
AcDbEntity
  8
0
  6
Continuous
 62
     7
370
    25
100
AcDbLine
 10
116.1951063331
 20
123.3133709142
 30
0.0
 11
121.0001007333
 21
124.0313776014
 31
0.0
  0
LINE
  5
6E
330
1F
100
AcDbEntity
  8
0
  6
Continuous
 62
     7
370
    25
100
AcDbLine
 10
120.8179225946
 20
127.799831848
 30
0.0
 11
120.8179225946
 21
124.419091456
 31
0.0
  0
LINE
  5
6F
330
1F
100
AcDbEntity
  8
0
  6
Continuous
 62
     7
370
    25
100
AcDbLine
 10
133.3179225946
 20
124.419091456
 30
0.0
 11
133.3179225946
 21
127.799831848
 31
0.0
  0
SPLINE
  5
70
330
1F
100
AcDbEntity
  8
0
  6
Continuous
 62
     7
370
    25
100
AcDbSpline
210
0.0
220
0.0
230
1.0
 70
     8
 71
     3
 72
    21
 73
    17
 74
     0
 42
0.00000001
 43
0.00000001
 40
0.0
 40
0.0
 40
0.0
 40
0.0
 40
0.0428138221389144
 40
0.120502118538949
 40
0.1983560004074406
 40
0.2764206568317757
 40
0.3546557107832197
 40
0.433018814145784
 40
0.5114733901016894
 40
0.5899921008334458
 40
0.6685569478936687
 40
0.7471573173306367
 40
0.8257865770325232
 40
0.9044378760112994
 40
0.9788734735932577
 40
1.0
 40
1.0
 40
1.0
 40
1.0
 10
140.7685771654554
 20
126.985366116624
 30
0.0
 10
140.8863715683708
 20
127.0056058332896
 30
0.0
 10
141.2179111131768
 20
127.0625717525881
 30
0.0
 10
141.7584274284942
 20
127.2236248982472
 30
0.0
 10
142.3777759971956
 20
127.4908732008361
 30
0.0
 10
142.972448124452
 20
127.8380591613679
 30
0.0
 10
143.5337284472197
 20
128.258696769235
 30
0.0
 10
144.0531819489387
 20
128.7469950102713
 30
0.0
 10
144.523008030198
 20
129.2955873397925
 30
0.0
 10
144.9361662446451
 20
129.8963469752865
 30
0.0
 10
145.2864951449898
 20
130.5403651329839
 30
0.0
 10
145.5686795719746
 20
131.2181230449669
 30
0.0
 10
145.7786706082977
 20
131.9196818761826
 30
0.0
 10
145.9099555257656
 20
132.6217314972578
 30
0.0
 10
145.9545505650517
 20
133.1519118779743
 30
0.0
 10
145.9572302821232
 20
133.4404345072595
 30
0.0
 10
145.9578227042159
 20
133.5042200395615
 30
0.0
  0
LINE
  5
71
330
1F
100
AcDbEntity
  8
0
  6
Continuous
 62
     7
370
    25
100
AcDbLine
 10
145.9578227042
 20
133.5042200396
 30
0.0
 11
145.9578227042
 21
182.2834742672
 31
0.0
  0
LINE
  5
72
330
1F
100
AcDbEntity
  8
0
  6
Continuous
 62
     7
370
    25
100
AcDbLine
 10
99.1672875
 20
124.5645937843
 30
0.0
 11
99.1672875
 21
121.1838533923
 31
0.0
  0
LINE
  5
73
330
1F
100
AcDbEntity
  8
0
  6
Continuous
 62
     7
370
    25
100
AcDbLine
 10
111.6672875
 20
121.1838533923
 30
0.0
 11
111.6672875
 21
124.5645937843
 31
0.0
  0
LINE
  5
74
330
1F
100
AcDbEntity
  8
0
  6
Continuous
 62
     7
370
    25
100
AcDbLine
 10
133.3179225946
 20
125.8720204267
 30
0.0
 11
140.7685771655
 21
126.9853661166
 31
0.0
  0
LINE
  5
75
330
1F
100
AcDbEntity
  8
0
  6
Continuous
 62
     7
370
    25
100
AcDbLine
 10
63.1855024596
 20
124.4700929504
 30
0.0
 11
77.1855024596
 21
118.1940646452
 31
0.0
  0
LINE
  5
76
330
1F
100
AcDbEntity
  8
0
  6
Continuous
 62
     7
370
    25
100
AcDbLine
 10
143.1490725404
 20
187.0467535736
 30
0.0
 11
142.7740725404
 21
187.2148614746
 31
0.0
  0
SPLINE
  5
77
330
1F
100
AcDbEntity
  8
0
  6
Continuous
 62
     7
370
    25
100
AcDbSpline
210
0.0
220
0.0
230
1.0
 70
     8
 71
     3
 72
    17
 73
    13
 74
     0
 42
0.00000001
 43
0.00000001
 40
0.0
 40
0.0
 40
0.0
 40
0.0
 40
0.0635325549293698
 40
0.1809915430545603
 40
0.2984580312133902
 40
0.4157576764809707
 40
0.5328039516412028
 40
0.6495128034088162
 40
0.7658238641244223
 40
0.8817237693204604
 40
0.9972622147683472
 40
1.0
 40
1.0
 40
1.0
 40
1.0
 10
145.9578227042159
 20
182.2834742671594
 30
0.0
 10
145.9555124669969
 20
182.4113569687613
 30
0.0
 10
145.9489310631868
 20
182.7756692102356
 30
0.0
 10
145.8767712745398
 20
183.3654434225353
 30
0.0
 10
145.7176804279536
 20
184.0359969943868
 30
0.0
 10
145.4817161236687
 20
184.6698874610082
 30
0.0
 10
145.173953299367
 20
185.2574665243799
 30
0.0
 10
144.7984524479236
 20
185.7887050323473
 30
0.0
 10
144.3628124829549
 20
186.258803597507
 30
0.0
 10
143.8685144475973
 20
186.6484080885884
 30
0.0
 10
143.5141445447755
 20
186.884407876185
 30
0.0
 10
143.3177602792669
 20
186.9659752285802
 30
0.0
 10
143.3132144974243
 20
186.9678632993404
 30
0.0
  0
LINE
  5
78
330
1F
100
AcDbEntity
  8
0
  6
Continuous
 62
     7
370
    25
100
AcDbLine
 10
77.5166524054
 20
121.3293557205
 30
0.0
 11
77.5166524054
 21
117.9486153285
 31
0.0
  0
LINE
  5
79
330
1F
100
AcDbEntity
  8
0
  6
Continuous
 62
     7
370
    25
100
AcDbLine
 10
90.0166524054
 20
117.9486153285
 30
0.0
 11
90.0166524054
 21
121.3293557205
 31
0.0
  0
LINE
  5
7A
330
1F
100
AcDbEntity
  8
0
  6
Continuous
 62
     7
370
    25
100
AcDbLine
 10
90.0166524054
 20
119.4015442991
 30
0.0
 11
99.3494656387
 21
120.7961395376
 31
0.0
  0
LINE
  5
7B
330
1F
100
AcDbEntity
  8
0
  6
Continuous
 62
     7
370
    25
100
AcDbLine
 10
111.6672875
 20
122.6367823629
 30
0.0
 11
116.0868531576
 21
123.2971947239
 31
0.0
  0
LINE
  5
7C
330
1F
100
AcDbEntity
  8
0
  6
Continuous
 62
     7
370
    25
100
AcDbLine
 10
77.0213605026
 20
118.2729549195
 30
0.0
 11
77.5166524054
 21
118.066364068
 31
0.0
  0
LWPOLYLINE
  5
7D
330
1F
100
AcDbEntity
  8
0
  6
Continuous
 62
     7
370
    25
100
AcDbPolyline
 90
       18
 70
   128
 43
0.0
 10
95.4172875
 20
168.7711707512
 10
95.1826541551
 20
168.7850297808
 10
94.9797093436
 20
168.894857298
 10
94.8358618869
 20
169.0858204881
 10
94.7705391809
 20
169.3321287142
 10
94.7925634193
 20
169.6005166854
 10
94.8989601064
 20
169.854737119
 10
95.0753597802
 20
170.0604561368
 10
95.2979386872
 20
170.1898902456
 10
95.5366363128
 20
170.2255586516
 10
95.7592152198
 20
170.1626441391
 10
95.9356148936
 20
170.0096436616
 10
96.0420115807
 20
169.7872207813
 10
96.0640358191
 20
169.5254149407
 10
95.9987131131
 20
169.2595844694
 10
95.8548656564
 20
169.0256312454
 10
95.6519208449
 20
168.8551519481
 10
95.4172875
 20
168.7711707512
  0
LWPOLYLINE
  5
7E
330
1F
100
AcDbEntity
  8
0
  6
Continuous
 62
     7
370
    25
100
AcDbPolyline
 90
       23
 70
   128
 43
0.0
 10
95.8319502148
 20
174.536597103
 10
96.0968761338
 20
174.4007064247
 10
96.3067458233
 20
174.1804486841
 10
96.4445568893
 20
173.8936678534
 10
96.4991446988
 20
173.5635972101
 10
96.466086872
 20
173.2169771145
 10
96.3480615576
 20
172.8818886655
 10
96.1546304646
 20
172.5854787363
 10
95.9014642297
 20
172.3517606966
 10
95.6090728757
 20
172.1996689919
 10
95.3011442112
 20
172.1415251877
 10
95.0026247852
 20
172.1820397492
 10
94.7376988662
 20
172.3179304275
 10
94.5278291767
 20
172.5381881681
 10
94.3900181107
 20
172.8249689988
 10
94.3354303012
 20
173.1550396422
 10
94.368488128
 20
173.5016597377
 10
94.4865134424
 20
173.8367481867
 10
94.6799445354
 20
174.1331581159
 10
94.9331107703
 20
174.3668761556
 10
95.2255021243
 20
174.5189678603
 10
95.5334307888
 20
174.5771116645
 10
95.8319502148
 20
174.536597103
  0
ARC
  5
7F
330
1F
100
AcDbEntity
  8
0
  6
Continuous
 62
     7
370
    25
100
AcDbCircle
 10
124.7950834301
 20
139.9438478336
 30
0.0
 40
6.596941069596736
100
AcDbArc
 50
282.2488975334
 51
1.0878797104
  0
LWPOLYLINE
  5
80
330
1F
100
AcDbEntity
  8
0
  6
Continuous
 62
     7
370
    25
100
AcDbPolyline
 90
       18
 70
   128
 43
0.0
 10
96.0668065528
 20
169.5926722629
 10
96.0229459792
 20
169.8478177016
 10
95.897287872
 20
170.0553962303
 10
95.7068030547
 20
170.1873732182
 10
95.4772175574
 20
170.225924442
 10
95.2395381739
 20
170.1658433451
 10
95.0258648218
 20
170.0152442128
 10
94.8650552713
 20
169.7944662922
 10
94.7788277433
 20
169.5333268649
 10
94.7788277433
 20
169.2670942577
 10
94.8650552713
 20
169.0317246593
 10
95.0258648218
 20
168.8590060383
 10
95.2395381739
 20
168.7722650014
 10
95.4772175574
 20
168.7832164065
 10
95.7068030547
 20
168.8903812054
 10
95.897287872
 20
169.0792861984
 10
96.0229459792
 20
169.3244187193
 10
96.0668065528
 20
169.5926722629
  0
LWPOLYLINE
  5
81
330
1F
100
AcDbEntity
  8
0
  6
Continuous
 62
     7
370
    25
100
AcDbPolyline
 90
       23
 70
   128
 43
0.0
 10
96.4998192547
 20
173.5210803293
 10
96.4559691124
 20
173.8546937766
 10
96.3279711631
 20
174.1481748591
 10
96.1261950394
 20
174.3777474849
 10
95.866987443
 20
174.5248130451
 10
95.5713478316
 20
174.5774571629
 10
95.2632271684
 20
174.5314149247
 10
94.967587557
 20
174.3904163989
 10
94.7083799606
 20
174.1658844476
 10
94.5066038369
 20
173.876009314
 10
94.3786058876
 20
173.5442749576
 10
94.3347557453
 20
173.1975565229
 10
94.3786058876
 20
172.8639430757
 10
94.5066038369
 20
172.5704619932
 10
94.7083799606
 20
172.3408893674
 10
94.967587557
 20
172.1938238071
 10
95.2632271684
 20
172.1411796894
 10
95.5713478316
 20
172.1872219275
 10
95.866987443
 20
172.3282204533
 10
96.1261950394
 20
172.5527524047
 10
96.3279711631
 20
172.8426275382
 10
96.4559691124
 20
173.1743618947
 10
96.4998192547
 20
173.5210803293
  0
ARC
  5
82
330
1F
100
AcDbEntity
  8
0
  6
Continuous
 62
     7
370
    25
100
AcDbCircle
 10
138.6428391591
 20
133.7584860772
 30
0.0
 40
6.873029729230408
100
AcDbArc
 50
340.8782061283
 51
359.8211574946
  0
LINE
  5
83
330
1F
100
AcDbEntity
  8
0
  6
Continuous
 62
     7
370
    25
100
AcDbLine
 10
145.1366452004
 20
131.5070374864
 30
0.0
 11
131.3866452004
 21
137.6709938576
 31
0.0
  0
ARC
  5
84
330
1F
100
AcDbEntity
  8
0
  6
Continuous
 62
     7
370
    25
100
AcDbCircle
 10
125.3403776016
 20
139.5356860094
 30
0.0
 40
6.32727656243526
100
AcDbArc
 50
281.2030548287
 51
342.8600364908
  0
LINE
  5
85
330
1F
100
AcDbEntity
  8
0
  6
Continuous
 62
     7
370
    25
100
AcDbLine
 10
126.5696829834
 20
133.32897698
 30
0.0
 11
126.1946829834
 21
133.497084881
 31
0.0
  0
LINE
  5
86
330
1F
100
AcDbEntity
  8
0
  6
Continuous
 62
     7
370
    25
100
AcDbLine
 10
131.3908354061
 20
188.8483512017
 30
0.0
 11
131.3908354061
 21
140.0690969741
 31
0.0
  0
LINE
  5
87
330
1F
100
AcDbEntity
  8
0
  6
Continuous
 62
     7
370
    25
100
AcDbLine
 10
145.5158354061
 20
182.5162869295
 30
0.0
 11
145.5158354061
 21
133.7370327019
 31
0.0
  0
LINE
  5
88
330
1F
100
AcDbEntity
  8
0
  6
Continuous
 62
     7
370
    25
100
AcDbLine
 10
126.1946829834
 20
133.497084881
 30
0.0
 11
65.1398920166
 21
124.3737135411
 31
0.0
  0
LINE
  5
89
330
1F
100
AcDbEntity
  8
0
  6
Continuous
 62
     7
370
    25
100
AcDbLine
 10
65.5148920166
 20
124.2056056401
 30
0.0
 11
126.5696829834
 21
133.32897698
 31
0.0
  0
LINE
  5
8A
330
1F
100
AcDbEntity
  8
0
  6
Continuous
 62
     7
370
    25
100
AcDbLine
 10
111.2906812587
 20
130.7314709265
 30
0.0
 11
111.2067066624
 21
130.6068892457
 31
0.0
  0
LINE
  5
8B
330
1F
100
AcDbEntity
  8
0
  6
Continuous
 62
     7
370
    25
100
AcDbLine
 10
111.2067066624
 20
130.6068892457
 30
0.0
 11
110.8317066624
 21
130.7749971467
 31
0.0
  0
LINE
  5
8C
330
1F
100
AcDbEntity
  8
0
  6
Continuous
 62
     7
370
    25
100
AcDbLine
 10
110.8317066624
 20
130.7749971467
 30
0.0
 11
110.8317066624
 21
130.9772630548
 31
0.0
  0
LINE
  5
8D
330
1F
100
AcDbEntity
  8
0
  6
Continuous
 62
     7
370
    25
100
AcDbLine
 10
107.7426050473
 20
130.0892511555
 30
0.0
 11
111.2067066624
 21
130.6068892457
 31
0.0
  0
LINE
  5
8E
330
1F
100
AcDbEntity
  8
0
  6
Continuous
 62
     7
370
    25
100
AcDbLine
 10
104.2785034322
 20
129.5716130653
 30
0.0
 11
107.7426050473
 21
130.0892511555
 31
0.0
  0
LINE
  5
8F
330
1F
100
AcDbEntity
  8
0
  6
Continuous
 62
     7
370
    25
100
AcDbLine
 10
104.2785034322
 20
129.5716130653
 30
0.0
 11
103.9035034322
 21
129.7397209663
 31
0.0
  0
LINE
  5
90
330
1F
100
AcDbEntity
  8
0
  6
Continuous
 62
     7
370
    25
100
AcDbLine
 10
103.9035034322
 20
129.7397209663
 30
0.0
 11
110.8317066624
 21
130.7749971467
 31
0.0
  0
LINE
  5
91
330
1F
100
AcDbEntity
  8
0
  6
Continuous
 62
     7
370
    25
100
AcDbLine
 10
103.9035034322
 20
129.7397209663
 30
0.0
 11
103.9035034322
 21
129.9419868744
 31
0.0
  0
ARC
  5
92
330
1F
100
AcDbEntity
  8
0
  6
Continuous
 62
     7
370
    25
100
AcDbCircle
 10
140.55042878
 20
182.768058115
 30
0.0
 40
4.971785563821104
100
AcDbArc
 50
357.0973006129
 51
63.4324535659
  0
LINE
  5
93
330
1F
100
AcDbEntity
  8
0
  6
Continuous
 62
     7
370
    25
100
AcDbLine
 10
89.640046164
 20
127.4962328628
 30
0.0
 11
89.5560715678
 21
127.3716511819
 31
0.0
  0
LINE
  5
94
330
1F
100
AcDbEntity
  8
0
  6
Continuous
 62
     7
370
    25
100
AcDbLine
 10
89.5560715678
 20
127.3716511819
 30
0.0
 11
89.1810715678
 21
127.539759083
 31
0.0
  0
LINE
  5
95
330
1F
100
AcDbEntity
  8
0
  6
Continuous
 62
     7
370
    25
100
AcDbLine
 10
89.1810715678
 20
127.539759083
 30
0.0
 11
89.1810715678
 21
127.742024991
 31
0.0
  0
LINE
  5
96
330
1F
100
AcDbEntity
  8
0
  6
Continuous
 62
     7
370
    25
100
AcDbLine
 10
82.2528683376
 20
126.5044829025
 30
0.0
 11
89.1810715678
 21
127.539759083
 31
0.0
  0
LINE
  5
97
330
1F
100
AcDbEntity
  8
0
  6
Continuous
 62
     7
370
    25
100
AcDbLine
 10
82.2528683376
 20
126.5044829025
 30
0.0
 11
82.2528683376
 21
126.7067488106
 31
0.0
  0
LINE
  5
98
330
1F
100
AcDbEntity
  8
0
  6
Continuous
 62
     7
370
    25
100
AcDbLine
 10
86.0919699527
 20
126.8540130917
 30
0.0
 11
89.5560715678
 21
127.3716511819
 31
0.0
  0
LINE
  5
99
330
1F
100
AcDbEntity
  8
0
  6
Continuous
 62
     7
370
    25
100
AcDbLine
 10
82.6278683376
 20
126.3363750015
 30
0.0
 11
86.0919699527
 21
126.8540130917
 31
0.0
  0
LINE
  5
9A
330
1F
100
AcDbEntity
  8
0
  6
Continuous
 62
     7
370
    25
100
AcDbLine
 10
82.6278683376
 20
126.3363750015
 30
0.0
 11
82.2528683376
 21
126.5044829025
 31
0.0
  0
ARC
  5
9B
330
1F
100
AcDbEntity
  8
0
  6
Continuous
 62
     7
370
    25
100
AcDbCircle
 10
64.831768649
 20
128.5320645068
 30
0.0
 40
4.380057517897525
100
AcDbArc
 50
246.1468822731
 51
278.9726044349
  0
LINE
  5
9C
330
1F
100
AcDbEntity
  8
0
  6
Continuous
 62
     7
370
    25
100
AcDbLine
 10
116.4292248529
 20
123.4456582337
 30
0.0
 11
113.8042248529
 21
124.6224135409
 31
0.0
  0
LINE
  5
9D
330
1F
100
AcDbEntity
  8
0
  6
Continuous
 62
     7
370
    25
100
AcDbLine
 10
116.2940478888
 20
124.9944659182
 30
0.0
 11
113.8042248529
 21
124.6224135409
 31
0.0
  0
LWPOLYLINE
  5
9E
330
1F
100
AcDbEntity
  8
0
  6
Continuous
 62
     7
370
    25
100
AcDbPolyline
 90
       15
 70
   128
 43
0.0
 10
120.1911622058
 20
125.5768087697
 10
120.3926438603
 20
125.4572859127
 10
120.486313591
 20
125.3291558798
 10
120.4674744063
 20
125.1988436457
 10
120.3370709818
 20
125.0728836101
 10
120.1016422895
 20
124.9575919351
 10
119.7729937073
 20
124.8587498267
 10
119.3676050473
 20
124.7813136409
 10
118.9058041897
 20
124.7291663515
 10
118.4107477579
 20
124.7049228412
 10
117.9072599484
 20
124.709798781
 10
117.4205877425
 20
124.7435496708
 10
116.9751349167
 20
124.8044831001
 10
116.5932383357
 20
124.8895436124
 10
116.2940478888
 20
124.9944659182
  0
LINE
  5
9F
330
1F
100
AcDbEntity
  8
0
  6
Continuous
 62
     7
370
    25
100
AcDbLine
 10
120.8179225946
 20
125.6704651016
 30
0.0
 11
120.1911622058
 21
125.5768087697
 31
0.0
  0
LINE
  5
A0
330
1F
100
AcDbEntity
  8
0
  6
Continuous
 62
     7
370
    25
100
AcDbLine
 10
115.996212151
 20
123.3809534724
 30
0.0
 11
116.121212151
 21
123.3249175054
 31
0.0
  0
LINE
  5
A1
330
1F
100
AcDbEntity
  8
0
  6
Continuous
 62
     7
370
    25
100
AcDbLine
 10
115.996212151
 20
123.3809534724
 30
0.0
 11
116.4292248529
 21
123.4456582337
 31
0.0
  0
LINE
  5
A2
330
1F
100
AcDbEntity
  8
0
  6
Continuous
 62
     7
370
    25
100
AcDbLine
 10
116.2940478888
 20
124.9944659182
 30
0.0
 11
116.2940478888
 21
125.5768087697
 31
0.0
  0
LINE
  5
A3
330
1F
100
AcDbEntity
  8
0
  6
Continuous
 62
     7
370
    25
100
AcDbLine
 10
115.996212151
 20
123.4108393215
 30
0.0
 11
115.996212151
 21
123.3809534724
 31
0.0
  0
LWPOLYLINE
  5
A4
330
1F
100
AcDbEntity
  8
0
  6
Continuous
 62
     7
370
    25
100
AcDbPolyline
 90
        3
 70
   128
 43
0.0
 10
116.1951063331
 20
123.3133709142
 10
116.1699847315
 20
123.3123333527
 10
116.121212151
 20
123.3249175054
  0
ARC
  5
A5
330
1F
100
AcDbEntity
  8
0
  6
Continuous
 62
     7
370
    25
100
AcDbCircle
 10
125.4401119303
 20
139.5076793632
 30
0.0
 40
6.359709963790739
100
AcDbArc
 50
281.3772792016
 51
342.6858121179
  0
LINE
  5
A6
330
1F
100
AcDbEntity
  8
0
  6
Continuous
 62
     7
370
    25
100
AcDbLine
 10
145.1366452004
 20
131.5070374864
 30
0.0
 11
131.5116452004
 21
137.6149578906
 31
0.0
  0
LINE
  5
A7
330
1F
100
AcDbEntity
  8
0
  6
Continuous
 62
     7
370
    25
100
AcDbLine
 10
145.5158354061
 20
133.7370327019
 30
0.0
 11
145.8908354061
 21
133.5689248008
 31
0.0
  0
ARC
  5
A8
330
1F
100
AcDbEntity
  8
0
  6
Continuous
 62
     7
370
    25
100
AcDbCircle
 10
139.2950834301
 20
133.4436756603
 30
0.0
 40
6.59694106959675
100
AcDbArc
 50
282.2488975334
 51
1.0878797104
  0
LINE
  5
A9
330
1F
100
AcDbEntity
  8
0
  6
Continuous
 62
     7
370
    25
100
AcDbLine
 10
131.5116452004
 20
137.6149578906
 30
0.0
 11
131.3590024072
 21
137.5921485932
 31
0.0
  0
LINE
  5
AA
330
1F
100
AcDbEntity
  8
0
  6
Continuous
 62
     7
370
    25
100
AcDbLine
 10
110.8897193643
 20
130.9112172264
 30
0.0
 11
126.6946829834
 21
133.272941013
 31
0.0
  0
LINE
  5
AB
330
1F
100
AcDbEntity
  8
0
  6
Continuous
 62
     7
370
    25
100
AcDbLine
 10
110.8897193643
 20
130.9112172264
 30
0.0
 11
110.8897193643
 21
130.9859318491
 31
0.0
  0
LWPOLYLINE
  5
AC
330
1F
100
AcDbEntity
  8
0
  6
Continuous
 62
     7
370
    25
100
AcDbPolyline
 90
       15
 70
   128
 43
0.0
 10
120.1911622058
 20
125.5768087697
 10
119.8919717589
 20
125.6817310756
 10
119.5100751779
 20
125.7667915878
 10
119.0646223521
 20
125.8277250171
 10
118.5779501462
 20
125.861475907
 10
118.0744623367
 20
125.8663518467
 10
117.5794059049
 20
125.8421083365
 10
117.1176050473
 20
125.7899610471
 10
116.7122163873
 20
125.7125248613
 10
116.3835678051
 20
125.6136827529
 10
116.1481391129
 20
125.4983910779
 10
116.0177356883
 20
125.3724310423
 10
115.9988965036
 20
125.2421188082
 10
116.0925662343
 20
125.1139887752
 10
116.2940478888
 20
124.9944659182
  0
LINE
  5
AD
330
1F
100
AcDbEntity
  8
0
  6
Continuous
 62
     7
370
    25
100
AcDbLine
 10
116.2940478888
 20
124.9944659182
 30
0.0
 11
113.6959716774
 21
124.6062373506
 31
0.0
  0
LINE
  5
AE
330
1F
100
AcDbEntity
  8
0
  6
Continuous
 62
     7
370
    25
100
AcDbLine
 10
113.6959716774
 20
124.6062373506
 30
0.0
 11
116.2709716774
 21
123.4518964302
 31
0.0
  0
LINE
  5
AF
330
1F
100
AcDbEntity
  8
0
  6
Continuous
 62
     7
370
    25
100
AcDbLine
 10
116.2709716774
 20
123.4518964302
 30
0.0
 11
115.8379589755
 21
123.3871916689
 31
0.0
  0
LINE
  5
B0
330
1F
100
AcDbEntity
  8
0
  6
Continuous
 62
     7
370
    25
100
AcDbLine
 10
115.8379589755
 20
123.3871916689
 30
0.0
 11
116.0129589755
 21
123.3087413151
 31
0.0
  0
LINE
  5
B1
330
1F
100
AcDbEntity
  8
0
  6
Continuous
 62
     7
370
    25
100
AcDbLine
 10
65.6398920166
 20
124.1495696731
 30
0.0
 11
81.4448556357
 21
126.5112934597
 31
0.0
  0
LINE
  5
B2
330
1F
100
AcDbEntity
  8
0
  6
Continuous
 62
     7
370
    25
100
AcDbLine
 10
82.6948556357
 20
125.9509337896
 30
0.0
 11
81.4448556357
 21
126.5112934597
 31
0.0
  0
LINE
  5
B3
330
1F
100
AcDbEntity
  8
0
  6
Continuous
 62
     7
370
    25
100
AcDbLine
 10
90.4890842697
 20
127.1156194925
 30
0.0
 11
82.6948556357
 21
125.9509337896
 31
0.0
  0
LINE
  5
B4
330
1F
100
AcDbEntity
  8
0
  6
Continuous
 62
     7
370
    25
100
AcDbLine
 10
90.4890842697
 20
127.1156194925
 30
0.0
 11
89.2390842697
 21
127.6759791626
 31
0.0
  0
LINE
  5
B5
330
1F
100
AcDbEntity
  8
0
  6
Continuous
 62
     7
370
    25
100
AcDbLine
 10
89.2390842697
 20
127.6759791626
 30
0.0
 11
103.0954907303
 21
129.7465315234
 31
0.0
  0
LINE
  5
B6
330
1F
100
AcDbEntity
  8
0
  6
Continuous
 62
     7
370
    25
100
AcDbLine
 10
104.3454907303
 20
129.1861718533
 30
0.0
 11
103.0954907303
 21
129.7465315234
 31
0.0
  0
LINE
  5
B7
330
1F
100
AcDbEntity
  8
0
  6
Continuous
 62
     7
370
    25
100
AcDbLine
 10
112.1397193643
 20
130.3508575563
 30
0.0
 11
104.3454907303
 21
129.1861718533
 31
0.0
  0
LINE
  5
B8
330
1F
100
AcDbEntity
  8
0
  6
Continuous
 62
     7
370
    25
100
AcDbLine
 10
112.1397193643
 20
130.3508575563
 30
0.0
 11
110.8897193643
 21
130.9112172264
 31
0.0
  0
LWPOLYLINE
  5
B9
330
1F
100
AcDbEntity
  8
0
  6
Continuous
 62
     7
370
    25
100
AcDbPolyline
 90
       10
 70
   128
 43
0.0
 10
102.2922875
 20
125.9654929595
 10
101.6385430321
 20
125.8530757391
 10
101.0443916218
 20
125.7203383886
 10
100.5192033917
 20
125.5693742553
 10
100.071260874
 20
125.4025641337
 10
99.7076283897
 20
125.2225387191
 10
99.4340406404
 20
125.0321371198
 10
99.2548122683
 20
124.8343620829
 10
99.1727698119
 20
124.6323326387
 10
99.1672875
 20
124.5645937843
  0
LWPOLYLINE
  5
BA
330
1F
100
AcDbEntity
  8
0
  6
Continuous
 62
     7
370
    25
100
AcDbPolyline
 90
       18
 70
   128
 43
0.0
 10
111.6672875
 20
124.5645937843
 10
111.6453678703
 20
124.6999526562
 10
111.5307100046
 20
124.9009156923
 10
111.319639814
 20
125.096574731
 10
111.0154860015
 20
125.2838441124
 10
110.6230452544
 20
125.4597704864
 10
110.1485065978
 20
125.6215793891
 10
109.5993537897
 20
125.7667189974
 10
108.984247298
 20
125.892900373
 10
108.3128877195
 20
125.9981335602
 10
107.5958627958
 20
126.0807589687
 10
106.8444804382
 20
126.1394735466
 10
106.0705903954
 20
126.1733513298
 10
105.2863973757
 20
126.1818580456
 10
104.5042685715
 20
126.1648595378
 10
103.7365386212
 20
126.1226238831
 10
102.9953150847
 20
126.0558171631
 10
102.2922875
 20
125.9654929595
  0
LWPOLYLINE
  5
BB
330
1F
100
AcDbEntity
  8
0
  6
Continuous
 62
     7
370
    25
100
AcDbPolyline
 90
       10
 70
   128
 43
0.0
 10
123.9429225946
 20
129.2007310233
 10
123.2891781267
 20
129.0883138029
 10
122.6950267164
 20
128.9555764524
 10
122.1698384863
 20
128.804612319
 10
121.7218959686
 20
128.6378021974
 10
121.3582634843
 20
128.4577767829
 10
121.084675735
 20
128.2673751836
 10
120.9054473629
 20
128.0696001467
 10
120.8234049065
 20
127.8675707025
 10
120.8179225946
 20
127.799831848
  0
LWPOLYLINE
  5
BC
330
1F
100
AcDbEntity
  8
0
  6
Continuous
 62
     7
370
    25
100
AcDbPolyline
 90
       18
 70
   128
 43
0.0
 10
133.3179225946
 20
127.799831848
 10
133.2960029649
 20
127.93519072
 10
133.1813450992
 20
128.1361537561
 10
132.9702749086
 20
128.3318127948
 10
132.6661210961
 20
128.5190821761
 10
132.273680349
 20
128.6950085502
 10
131.7991416924
 20
128.8568174529
 10
131.2499888844
 20
129.0019570612
 10
130.6348823926
 20
129.1281384368
 10
129.9635228141
 20
129.2333716239
 10
129.2464978904
 20
129.3159970325
 10
128.4951155328
 20
129.3747116104
 10
127.72122549
 20
129.4085893936
 10
126.9370324703
 20
129.4170961093
 10
126.1549036661
 20
129.4000976016
 10
125.3871737158
 20
129.3578619469
 10
124.6459501793
 20
129.2910552269
 10
123.9429225946
 20
129.2007310233
  0
LWPOLYLINE
  5
BD
330
1F
100
AcDbEntity
  8
0
  6
Continuous
 62
     7
370
    25
100
AcDbPolyline
 90
       10
 70
   128
 43
0.0
 10
80.6416524054
 20
122.7302548957
 10
79.9879079375
 20
122.6178376753
 10
79.3937565272
 20
122.4851003248
 10
78.8685682971
 20
122.3341361915
 10
78.4206257794
 20
122.1673260699
 10
78.0569932951
 20
121.9873006553
 10
77.7834055458
 20
121.796899056
 10
77.6041771737
 20
121.5991240191
 10
77.5221347173
 20
121.3970945749
 10
77.5166524054
 20
121.3293557205
  0
LWPOLYLINE
  5
BE
330
1F
100
AcDbEntity
  8
0
  6
Continuous
 62
     7
370
    25
100
AcDbPolyline
 90
       18
 70
   128
 43
0.0
 10
90.0166524054
 20
121.3293557205
 10
89.9947327757
 20
121.4647145924
 10
89.88007491
 20
121.6656776285
 10
89.6690047194
 20
121.8613366672
 10
89.3648509069
 20
122.0486060486
 10
88.9724101598
 20
122.2245324226
 10
88.4978715032
 20
122.3863413253
 10
87.9487186951
 20
122.5314809336
 10
87.3336122034
 20
122.6576623092
 10
86.6622526249
 20
122.7628954964
 10
85.9452277012
 20
122.8455209049
 10
85.1938453436
 20
122.9042354828
 10
84.4199553008
 20
122.9381132661
 10
83.6357622811
 20
122.9466199818
 10
82.8536334769
 20
122.929621474
 10
82.0859035265
 20
122.8873858193
 10
81.3446799901
 20
122.8205790993
 10
80.6416524054
 20
122.7302548957
  0
LINE
  5
BF
330
1F
100
AcDbEntity
  8
0
  6
Continuous
 62
     7
370
    25
100
AcDbLine
 10
104.3454907303
 20
129.5816229267
 30
0.0
 11
104.3454907303
 21
129.1861718533
 31
0.0
  0
LWPOLYLINE
  5
C0
330
1F
100
AcDbEntity
  8
0
  6
Continuous
 62
     7
370
    25
100
AcDbPolyline
 90
       48
 70
   128
 43
0.0
 10
129.9429225946
 20
123.1302642148
 10
130.5809922368
 20
123.2409432483
 10
131.156371068
 20
123.3726463646
 10
131.6587914393
 20
123.5230233183
 10
132.0792876474
 20
123.6893906291
 10
132.4103559273
 20
123.8687794685
 10
132.6460883579
 20
124.0579886383
 10
132.7822782883
 20
124.2536416964
 10
132.8164954059
 20
124.4522472095
 10
132.7481291055
 20
124.6502610573
 10
132.5783993854
 20
124.8441496782
 10
132.3103350764
 20
125.0304531249
 10
131.9487197925
 20
125.2058468083
 10
131.5000065669
 20
125.3672008237
 10
130.9722026979
 20
125.511635805
 10
130.3747268579
 20
125.6365743065
 10
129.7182410175
 20
125.7397867977
 10
129.0144601821
 20
125.8194314492
 10
128.2759433373
 20
125.8740870004
 10
127.5158693337
 20
125.9027781216
 10
126.74780171
 20
125.9049928191
 10
125.985446651
 20
125.8806915716
 10
125.2424084009
 20
125.8303080354
 10
124.5319464948
 20
125.754741306
 10
123.8667391423
 20
125.6553398733
 10
123.2586569844
 20
125.5338775583
 10
122.7185512615
 20
125.3925218589
 10
122.256060173
 20
125.2337952709
 10
121.8794368835
 20
125.060530274
 10
121.5954022444
 20
124.8758187863
 10
121.4090248607
 20
124.6829569885
 10
121.323630641
 20
124.485386504
 10
121.3407434473
 20
124.2866329828
 10
121.4600579012
 20
124.0902431862
 10
121.6794448334
 20
123.8997216948
 10
121.9949892789
 20
123.7184683691
 10
122.4010603396
 20
123.5497176789
 10
122.8904116678
 20
123.3964809844
 10
123.4543107775
 20
123.261492798
 10
124.0826948756
 20
123.1471619871
 10
124.7643504332
 20
123.0555287877
 10
125.4871132905
 20
122.9882283964
 10
126.2380857273
 20
122.9464617903
 10
127.0038666226
 20
122.9309742955
 10
127.7707905983
 20
122.9420422866
 10
128.5251718778
 20
122.9794682552
 10
129.2535485093
 20
123.0425843339
 10
129.9429225946
 20
123.1302642148
  0
LWPOLYLINE
  5
C1
330
1F
100
AcDbEntity
  8
0
  6
Continuous
 62
     7
370
    25
100
AcDbPolyline
 90
       51
 70
   128
 43
0.0
 10
130.1929225946
 20
123.0181922808
 10
130.8466670625
 20
123.1306095012
 10
131.4408184728
 20
123.2633468517
 10
131.9660067029
 20
123.414310985
 10
132.4139492206
 20
123.5811211066
 10
132.7775817049
 20
123.7611465212
 10
133.0511694542
 20
123.9515481205
 10
133.2303978263
 20
124.1493231574
 10
133.3124402827
 20
124.3513526016
 10
133.2960029649
 20
124.554450328
 10
133.1813450992
 20
124.7554133641
 10
132.9702749086
 20
124.9510724028
 10
132.6661210961
 20
125.1383417841
 10
132.273680349
 20
125.3142681582
 10
131.7991416924
 20
125.4760770609
 10
131.2499888844
 20
125.6212166692
 10
130.6348823926
 20
125.7473980447
 10
129.9635228141
 20
125.8526312319
 10
129.2464978904
 20
125.9352566405
 10
128.4951155328
 20
125.9939712184
 10
127.72122549
 20
126.0278490016
 10
126.9370324703
 20
126.0363557173
 10
126.1549036661
 20
126.0193572096
 10
125.3871737158
 20
125.9771215549
 10
124.6459501793
 20
125.9103148348
 10
123.9429225946
 20
125.8199906313
 10
123.2891781267
 20
125.7075734109
 10
122.6950267164
 20
125.5748360604
 10
122.1698384863
 20
125.423871927
 10
121.7218959686
 20
125.2570618054
 10
121.3582634843
 20
125.0770363908
 10
121.084675735
 20
124.8866347916
 10
120.9054473629
 20
124.6888597546
 10
120.8234049065
 20
124.4868303105
 10
120.8398422243
 20
124.2837325841
 10
120.95450009
 20
124.082769548
 10
121.1655702806
 20
123.8871105093
 10
121.4697240931
 20
123.6998411279
 10
121.8621648402
 20
123.5239147539
 10
122.3367034968
 20
123.3621058512
 10
122.8858563049
 20
123.2169662429
 10
123.5009627966
 20
123.0907848673
 10
124.1723223751
 20
122.9855516801
 10
124.8893472988
 20
122.9029262716
 10
125.6407296564
 20
122.8442116937
 10
126.4146196992
 20
122.8103339105
 10
127.1988127189
 20
122.8018271947
 10
127.9809415231
 20
122.8188257025
 10
128.7486714735
 20
122.8610613572
 10
129.4898950099
 20
122.9278680772
 10
130.1929225946
 20
123.0181922808
  0
LINE
  5
C2
330
1F
100
AcDbEntity
  8
0
  6
Continuous
 62
     7
370
    25
100
AcDbLine
 10
103.0954907303
 20
129.7465315234
 30
0.0
 11
103.0954907303
 21
129.8212461461
 31
0.0
  0
LINE
  5
C3
330
1F
100
AcDbEntity
  8
0
  6
Continuous
 62
     7
370
    25
100
AcDbLine
 10
89.2390842697
 20
127.6759791626
 30
0.0
 11
89.2390842697
 21
127.7506937853
 31
0.0
  0
ARC
  5
C4
330
1F
100
AcDbEntity
  8
0
  6
Continuous
 62
     7
370
    25
100
AcDbCircle
 10
140.5810962033
 20
182.7859535004
 30
0.0
 40
4.942101886779827
100
AcDbArc
 50
356.8720932702
 51
63.6576609086
  0
LINE
  5
C5
330
1F
100
AcDbEntity
  8
0
  6
Continuous
 62
     7
370
    25
100
AcDbLine
 10
145.8908354061
 20
133.5689248008
 30
0.0
 11
145.8908354061
 21
182.3481790284
 31
0.0
  0
LINE
  5
C6
330
1F
100
AcDbEntity
  8
0
  6
Continuous
 62
     7
370
    25
100
AcDbLine
 10
82.6948556357
 20
126.3463848629
 30
0.0
 11
82.6948556357
 21
125.9509337896
 31
0.0
  0
LWPOLYLINE
  5
C7
330
1F
100
AcDbEntity
  8
0
  6
Continuous
 62
     7
370
    25
100
AcDbPolyline
 90
       51
 70
   128
 43
0.0
 10
108.5422875
 20
119.782954217
 10
109.1960319679
 20
119.8953714374
 10
109.7901833782
 20
120.0281087879
 10
110.3153716083
 20
120.1790729213
 10
110.763314126
 20
120.3458830429
 10
111.1269466103
 20
120.5259084574
 10
111.4005343596
 20
120.7163100567
 10
111.5797627317
 20
120.9140850936
 10
111.6618051881
 20
121.1161145378
 10
111.6453678703
 20
121.3192122642
 10
111.5307100046
 20
121.5201753003
 10
111.319639814
 20
121.715834339
 10
111.0154860015
 20
121.9031037203
 10
110.6230452544
 20
122.0790300944
 10
110.1485065978
 20
122.2408389971
 10
109.5993537897
 20
122.3859786054
 10
108.984247298
 20
122.512159981
 10
108.3128877195
 20
122.6173931681
 10
107.5958627958
 20
122.7000185767
 10
106.8444804382
 20
122.7587331546
 10
106.0705903954
 20
122.7926109378
 10
105.2863973757
 20
122.8011176536
 10
104.5042685715
 20
122.7841191458
 10
103.7365386212
 20
122.7418834911
 10
102.9953150847
 20
122.6750767711
 10
102.2922875
 20
122.5847525675
 10
101.6385430321
 20
122.4723353471
 10
101.0443916218
 20
122.3395979966
 10
100.5192033917
 20
122.1886338632
 10
100.071260874
 20
122.0218237416
 10
99.7076283897
 20
121.8417983271
 10
99.4340406404
 20
121.6513967278
 10
99.2548122683
 20
121.4536216909
 10
99.1727698119
 20
121.2515922467
 10
99.1892071297
 20
121.0484945203
 10
99.3038649954
 20
120.8475314842
 10
99.514935186
 20
120.6518724455
 10
99.8190889985
 20
120.4646030642
 10
100.2115297456
 20
120.2886766901
 10
100.6860684022
 20
120.1268677874
 10
101.2352212103
 20
119.9817281791
 10
101.850327702
 20
119.8555468035
 10
102.5216872805
 20
119.7503136164
 10
103.2387122042
 20
119.6676882078
 10
103.9900945618
 20
119.6089736299
 10
104.7639846046
 20
119.5750958467
 10
105.5481776243
 20
119.5665891309
 10
106.3303064285
 20
119.5835876387
 10
107.0980363788
 20
119.6258232934
 10
107.8392599153
 20
119.6926300134
 10
108.5422875
 20
119.782954217
  0
LWPOLYLINE
  5
C8
330
1F
100
AcDbEntity
  8
0
  6
Continuous
 62
     7
370
    25
100
AcDbPolyline
 90
       48
 70
   128
 43
0.0
 10
108.2922875
 20
119.895026151
 10
108.9303571422
 20
120.0057051846
 10
109.5057359734
 20
120.1374083008
 10
110.0081563447
 20
120.2877852545
 10
110.4286525528
 20
120.4541525653
 10
110.7597208327
 20
120.6335414047
 10
110.9954532633
 20
120.8227505745
 10
111.1316431936
 20
121.0184036327
 10
111.1658603113
 20
121.2170091457
 10
111.0974940109
 20
121.4150229935
 10
110.9277642908
 20
121.6089116144
 10
110.6596999818
 20
121.7952150612
 10
110.2980846979
 20
121.9706087445
 10
109.8493714723
 20
122.1319627599
 10
109.3215676033
 20
122.2763977412
 10
108.7240917633
 20
122.4013362427
 10
108.0676059229
 20
122.5045487339
 10
107.3638250875
 20
122.5841933854
 10
106.6253082427
 20
122.6388489366
 10
105.8652342391
 20
122.6675400578
 10
105.0971666154
 20
122.6697547553
 10
104.3348115564
 20
122.6454535078
 10
103.5917733063
 20
122.5950699717
 10
102.8813114002
 20
122.5195032422
 10
102.2161040477
 20
122.4201018095
 10
101.6080218897
 20
122.2986394945
 10
101.0679161668
 20
122.1572837951
 10
100.6054250784
 20
121.9985572071
 10
100.2288017889
 20
121.8252922102
 10
99.9447671498
 20
121.6405807225
 10
99.758389766
 20
121.4477189247
 10
99.6729955464
 20
121.2501484402
 10
99.6901083527
 20
121.051394919
 10
99.8094228066
 20
120.8550051224
 10
100.0288097388
 20
120.664483631
 10
100.3443541843
 20
120.4832303053
 10
100.750425245
 20
120.3144796152
 10
101.2397765732
 20
120.1612429207
 10
101.8036756829
 20
120.0262547343
 10
102.432059781
 20
119.9119239233
 10
103.1137153385
 20
119.8202907239
 10
103.8364781959
 20
119.7529903326
 10
104.5874506326
 20
119.7112237265
 10
105.353231528
 20
119.6957362317
 10
106.1201555037
 20
119.7068042228
 10
106.8745367832
 20
119.7442301914
 10
107.6029134147
 20
119.8073462701
 10
108.2922875
 20
119.895026151
  0
ARC
  5
C9
330
1F
100
AcDbEntity
  8
0
  6
Continuous
 62
     7
370
    25
100
AcDbCircle
 10
64.9568142211
 20
128.4716717663
 30
0.0
 40
4.375746996651135
100
AcDbArc
 50
245.2264363158
 51
278.9809122468
  0
LINE
  5
CA
330
1F
100
AcDbEntity
  8
0
  6
Continuous
 62
     7
370
    25
100
AcDbLine
 10
81.4448556357
 20
126.5112934597
 30
0.0
 11
81.4448556357
 21
126.5860080823
 31
0.0
  0
LINE
  5
CB
330
1F
100
AcDbEntity
  8
0
  6
Continuous
 62
     7
370
    25
100
AcDbLine
 10
116.2709716774
 20
123.5166011915
 30
0.0
 11
116.2709716774
 21
123.4518964302
 31
0.0
  0
LWPOLYLINE
  5
CC
330
1F
100
AcDbEntity
  8
0
  6
Continuous
 62
     7
370
    25
100
AcDbPolyline
 90
        3
 70
   128
 43
0.0
 10
143.308255021
 20
186.9713455108
 10
143.2927591948
 20
186.9790482832
 10
143.1490725404
 20
187.0467535736
  0
LWPOLYLINE
  5
CD
330
1F
100
AcDbEntity
  8
0
  6
Continuous
 62
     7
370
    25
100
AcDbPolyline
 90
       51
 70
   128
 43
0.0
 10
86.8916524054
 20
116.5477161532
 10
87.5453968733
 20
116.6601333736
 10
88.1395482836
 20
116.7928707241
 10
88.6647365137
 20
116.9438348575
 10
89.1126790314
 20
117.1106449791
 10
89.4763115157
 20
117.2906703937
 10
89.749899265
 20
117.4810719929
 10
89.9291276371
 20
117.6788470299
 10
90.0111700935
 20
117.880876474
 10
89.9947327757
 20
118.0839742004
 10
89.88007491
 20
118.2849372365
 10
89.6690047194
 20
118.4805962752
 10
89.3648509069
 20
118.6678656566
 10
88.9724101598
 20
118.8437920306
 10
88.4978715032
 20
119.0056009333
 10
87.9487186951
 20
119.1507405416
 10
87.3336122034
 20
119.2769219172
 10
86.6622526249
 20
119.3821551044
 10
85.9452277012
 20
119.4647805129
 10
85.1938453436
 20
119.5234950908
 10
84.4199553008
 20
119.557372874
 10
83.6357622811
 20
119.5658795898
 10
82.8536334769
 20
119.548881082
 10
82.0859035265
 20
119.5066454273
 10
81.3446799901
 20
119.4398387073
 10
80.6416524054
 20
119.3495145037
 10
79.9879079375
 20
119.2370972833
 10
79.3937565272
 20
119.1043599328
 10
78.8685682971
 20
118.9533957995
 10
78.4206257794
 20
118.7865856779
 10
78.0569932951
 20
118.6065602633
 10
77.7834055458
 20
118.416158664
 10
77.6041771737
 20
118.2183836271
 10
77.5221347173
 20
118.0163541829
 10
77.5385720351
 20
117.8132564565
 10
77.6532299008
 20
117.6122934204
 10
77.8643000914
 20
117.4166343818
 10
78.1684539039
 20
117.2293650004
 10
78.560894651
 20
117.0534386263
 10
79.0354333076
 20
116.8916297236
 10
79.5845861156
 20
116.7464901153
 10
80.1996926074
 20
116.6203087398
 10
80.8710521859
 20
116.5150755526
 10
81.5880771096
 20
116.432450144
 10
82.3394594672
 20
116.3737355661
 10
83.11334951
 20
116.3398577829
 10
83.8975425297
 20
116.3313510672
 10
84.6796713339
 20
116.3483495749
 10
85.4474012842
 20
116.3905852296
 10
86.1886248207
 20
116.4573919497
 10
86.8916524054
 20
116.5477161532
  0
LWPOLYLINE
  5
CE
330
1F
100
AcDbEntity
  8
0
  6
Continuous
 62
     7
370
    25
100
AcDbPolyline
 90
       48
 70
   128
 43
0.0
 10
86.6416524054
 20
116.6597880872
 10
87.2797220476
 20
116.7704671208
 10
87.8551008788
 20
116.902170237
 10
88.3575212501
 20
117.0525471907
 10
88.7780174581
 20
117.2189145015
 10
89.1090857381
 20
117.3983033409
 10
89.3448181687
 20
117.5875125107
 10
89.481008099
 20
117.7831655689
 10
89.5152252167
 20
117.9817710819
 10
89.4468589163
 20
118.1797849298
 10
89.2771291962
 20
118.3736735506
 10
89.0090648872
 20
118.5599769974
 10
88.6474496033
 20
118.7353706807
 10
88.1987363777
 20
118.8967246961
 10
87.6709325087
 20
119.0411596774
 10
87.0734566687
 20
119.1660981789
 10
86.4169708283
 20
119.2693106701
 10
85.7131899929
 20
119.3489553216
 10
84.9746731481
 20
119.4036108728
 10
84.2145991445
 20
119.432301994
 10
83.4465315208
 20
119.4345166916
 10
82.6841764618
 20
119.4102154441
 10
81.9411382117
 20
119.3598319079
 10
81.2306763056
 20
119.2842651784
 10
80.5654689531
 20
119.1848637457
 10
79.9573867951
 20
119.0634014307
 10
79.4172810722
 20
118.9220457313
 10
78.9547899838
 20
118.7633191433
 10
78.5781666943
 20
118.5900541465
 10
78.2941320552
 20
118.4053426587
 10
78.1077546714
 20
118.2124808609
 10
78.0223604518
 20
118.0149103764
 10
78.0394732581
 20
117.8161568552
 10
78.158787712
 20
117.6197670587
 10
78.3781746442
 20
117.4292455672
 10
78.6937190897
 20
117.2479922415
 10
79.0997901504
 20
117.0792415514
 10
79.5891414786
 20
116.9260048569
 10
80.1530405883
 20
116.7910166705
 10
80.7814246864
 20
116.6766858596
 10
81.4630802439
 20
116.5850526601
 10
82.1858431012
 20
116.5177522688
 10
82.936815538
 20
116.4759856627
 10
83.7025964334
 20
116.4604981679
 10
84.4695204091
 20
116.4715661591
 10
85.2239016886
 20
116.5089921276
 10
85.9522783201
 20
116.5721082063
 10
86.6416524054
 20
116.6597880872
  0
ARC
  5
CF
330
1F
100
AcDbEntity
  8
0
  6
Continuous
 62
     7
370
    25
100
AcDbCircle
 10
116.0680297384
 20
123.4203751835
 30
0.0
 40
0.1244785503806655
100
AcDbArc
 50
243.7421435378
 51
304.7919890432
  0
ARC
  5
D0
330
1F
100
AcDbEntity
  8
0
  6
Continuous
 62
     7
370
    25
100
AcDbCircle
 10
126.4207660688
 20
189.0989428489
 30
0.0
 40
4.976382761729791
100
AcDbArc
 50
357.1135824224
 51
62.9950048329
  0
ARC
  5
D1
330
1F
100
AcDbEntity
  8
0
  6
Continuous
 62
     7
370
    25
100
AcDbCircle
 10
64.4568842379
 20
128.6986542082
 30
0.0
 40
4.378539870709797
100
AcDbArc
 50
245.6876470555
 51
278.9742088236
  0
LINE
  5
D2
330
1F
100
AcDbEntity
  8
0
  6
Continuous
 62
     7
370
    25
100
AcDbLine
 10
116.121212151
 20
123.3249175054
 30
0.0
 11
120.9816904745
 21
124.0512151134
 31
0.0
  0
LINE
  5
D3
330
1F
100
AcDbEntity
  8
0
  6
Continuous
 62
     7
370
    25
100
AcDbLine
 10
90.0166524054
 20
119.4241328421
 30
0.0
 11
99.3310553799
 21
120.8159770496
 31
0.0
  0
LINE
  5
D4
330
1F
100
AcDbEntity
  8
0
  6
Continuous
 62
     7
370
    25
100
AcDbLine
 10
111.6672875
 20
122.6593709059
 30
0.0
 11
116.0129589755
 21
123.3087413151
 31
0.0
  0
LINE
  5
D5
330
1F
100
AcDbEntity
  8
0
  6
Continuous
 62
     7
370
    25
100
AcDbLine
 10
133.3179225946
 20
125.8946089697
 30
0.0
 11
140.6946829834
 21
126.9969127078
 31
0.0
  0
LWPOLYLINE
  5
D6
330
1F
100
AcDbEntity
  8
0
  6
Continuous
 62
     7
370
    25
100
AcDbPolyline
 90
        3
 70
   128
 43
0.0
 10
140.7686770262
 20
126.9853810829
 10
140.7434555639
 20
126.984328555
 10
140.6946829834
 20
126.9969127078
  0
ARC
  5
D7
330
1F
100
AcDbEntity
  8
0
  6
Continuous
 62
     7
370
    25
100
AcDbCircle
 10
145.8731731125
 20
133.4836002317
 30
0.0
 40
0.0871334534595939
100
AcDbArc
 50
13.713482317
 51
78.3048776742
  0
ARC
  5
D8
330
1F
100
AcDbEntity
  8
0
  6
Continuous
 62
     7
370
    25
100
AcDbCircle
 10
145.8731955829
 20
182.262889382
 30
0.0
 40
0.0870947022482584
100
AcDbArc
 50
13.6712494456
 51
78.3146961631
  0
LINE
  5
D9
330
1F
100
AcDbEntity
  8
0
  6
Continuous
 62
     7
370
    25
100
AcDbLine
 10
77.1855024596
 20
118.1940646452
 30
0.0
 11
77.5166524054
 21
118.0621864477
 31
0.0
  0
ARC
  5
DA
330
1F
100
AcDbEntity
  8
0
  6
Continuous
 62
     7
370
    25
100
AcDbCircle
 10
140.8755730533
 20
182.5794873125
 30
0.0
 40
5.020593589412765
100
AcDbArc
 50
357.359339847
 51
61.0176148306
  0
ENDSEC
  0
SECTION
  2
OBJECTS
  0
DICTIONARY
  5
C
330
0
100
AcDbDictionary
281
     1
  3
ACAD_GROUP
350
D
  3
ACAD_LAYOUT
350
1A
  3
ACAD_MLINESTYLE
350
17
  3
ACAD_PLOTSETTINGS
350
19
  3
ACAD_PLOTSTYLENAME
350
E
  3
ACAD_SCALELIST
350
47
  3
DWGPROPS
350
DB
  0
DICTIONARY
  5
D
102
{ACAD_REACTORS
330
C
102
}
330
C
100
AcDbDictionary
281
     1
  0
DICTIONARY
  5
1A
102
{ACAD_REACTORS
330
C
102
}
330
C
100
AcDbDictionary
281
     1
  3
Layout1
350
1E
  3
Layout2
350
26
  3
Model
350
22
  0
DICTIONARY
  5
17
102
{ACAD_REACTORS
330
C
102
}
330
C
100
AcDbDictionary
281
     1
  3
Standard
350
18
  0
DICTIONARY
  5
19
102
{ACAD_REACTORS
330
C
102
}
330
C
100
AcDbDictionary
281
     1
  0
ACDBDICTIONARYWDFLT
  5
E
102
{ACAD_REACTORS
330
C
102
}
330
C
100
AcDbDictionary
281
     1
  3
Normal
350
F
100
AcDbDictionaryWithDefault
340
F
  0
DICTIONARY
  5
47
102
{ACAD_REACTORS
330
C
102
}
330
C
100
AcDbDictionary
281
     1
  3
A0
350
48
  3
A1
350
49
  3
A2
350
4A
  3
A3
350
4B
  3
A4
350
4C
  3
A5
350
4D
  3
A6
350
4E
  3
A7
350
4F
  3
A8
350
50
  3
A9
350
51
  3
B0
350
52
  3
B1
350
53
  3
B2
350
54
  3
B3
350
55
  3
B4
350
56
  3
B5
350
57
  3
B6
350
58
  0
XRECORD
  5
DB
102
{ACAD_REACTORS
330
C
102
}
330
C
100
AcDbXrecord
280
     1
  1
DWGPROPS COOKIE
  2

  3

  4

  6

  7

  8
9148
  9

300
=
301
=
302
=
303
=
304
=
305
=
306
=
307
=
308
=
309
=
 40
0.0
 41
2460112.259954433
 42
2460112.259954757
  1

 90
        0
  0
LAYOUT
  5
1E
102
{ACAD_REACTORS
330
1A
102
}
330
1A
100
AcDbPlotSettings
  1

  2
none_device
  4

  6

 40
0.0
 41
0.0
 42
0.0
 43
0.0
 44
0.0
 45
0.0
 46
0.0
 47
0.0
 48
0.0
 49
0.0
140
0.0
141
0.0
142
1.0
143
1.0
 70
   688
 72
     1
 73
     0
 74
     5
  7

 75
    16
147
1.0
148
0.0
149
0.0
100
AcDbLayout
  1
Layout1
 70
     1
 71
     1
 10
0.0
 20
0.0
 11
420.0
 21
297.0
 12
0.0
 22
0.0
 32
0.0
 14
1.0000000000E+20
 24
1.0000000000E+20
 34
1.0000000000E+20
 15
-1.0000000000E+20
 25
-1.0000000000E+20
 35
-1.0000000000E+20
146
0.0
 13
0.0
 23
0.0
 33
0.0
 16
1.0
 26
0.0
 36
0.0
 17
0.0
 27
1.0
 37
0.0
 76
     0
330
1B
  0
LAYOUT
  5
26
102
{ACAD_REACTORS
330
1A
102
}
330
1A
100
AcDbPlotSettings
  1

  2
none_device
  4

  6

 40
0.0
 41
0.0
 42
0.0
 43
0.0
 44
0.0
 45
0.0
 46
0.0
 47
0.0
 48
0.0
 49
0.0
140
0.0
141
0.0
142
1.0
143
1.0
 70
   688
 72
     1
 73
     0
 74
     5
  7

 75
    16
147
1.0
148
0.0
149
0.0
100
AcDbLayout
  1
Layout2
 70
     1
 71
     2
 10
0.0
 20
0.0
 11
0.0
 21
0.0
 12
0.0
 22
0.0
 32
0.0
 14
0.0
 24
0.0
 34
0.0
 15
0.0
 25
0.0
 35
0.0
146
0.0
 13
0.0
 23
0.0
 33
0.0
 16
1.0
 26
0.0
 36
0.0
 17
0.0
 27
1.0
 37
0.0
 76
     0
330
23
  0
LAYOUT
  5
22
102
{ACAD_REACTORS
330
1A
102
}
330
1A
100
AcDbPlotSettings
  1

  2
none_device
  4
Letter_(8.50_x_11.00_Inches)
  6

 40
6.35
 41
6.35
 42
6.35000508
 43
6.35000508
 44
215.9
 45
279.4
 46
0.0
 47
0.0
 48
0.0
 49
0.0
140
0.0
141
0.0
142
1.0
143
1.0
 70
  1712
 72
     1
 73
     0
 74
     0
  7

 75
     0
147
1.0
148
0.0
149
0.0
100
AcDbLayout
  1
Model
 70
     1
 71
     0
 10
0.0
 20
0.0
 11
210.0
 21
297.0
 12
0.0
 22
0.0
 32
0.0
 14
0.0
 24
0.0
 34
0.0
 15
210.0
 25
297.0
 35
0.0
146
0.0
 13
0.0
 23
0.0
 33
0.0
 16
1.0
 26
0.0
 36
0.0
 17
0.0
 27
1.0
 37
0.0
 76
     0
330
1F
331
29
  0
MLINESTYLE
  5
18
102
{ACAD_REACTORS
330
17
102
}
330
17
100
AcDbMlineStyle
  2
Standard
 70
     0
  3

 62
   256
 51
90.0
 52
90.0
 71
     2
 49
0.5
 62
   256
  6
BYLAYER
 49
-0.5
 62
   256
  6
BYLAYER
  0
ACDBPLACEHOLDER
  5
F
102
{ACAD_REACTORS
330
E
102
}
330
E
  0
SCALE
  5
48
102
{ACAD_REACTORS
330
47
102
}
330
47
100
AcDbScale
 70
     0
300
1:1
140
1.0
141
1.0
290
     1
  0
SCALE
  5
49
102
{ACAD_REACTORS
330
47
102
}
330
47
100
AcDbScale
 70
     0
300
1:2
140
1.0
141
2.0
290
     0
  0
SCALE
  5
4A
102
{ACAD_REACTORS
330
47
102
}
330
47
100
AcDbScale
 70
     0
300
1:4
140
1.0
141
4.0
290
     0
  0
SCALE
  5
4B
102
{ACAD_REACTORS
330
47
102
}
330
47
100
AcDbScale
 70
     0
300
1:5
140
1.0
141
5.0
290
     0
  0
SCALE
  5
4C
102
{ACAD_REACTORS
330
47
102
}
330
47
100
AcDbScale
 70
     0
300
1:8
140
1.0
141
8.0
290
     0
  0
SCALE
  5
4D
102
{ACAD_REACTORS
330
47
102
}
330
47
100
AcDbScale
 70
     0
300
1:10
140
1.0
141
10.0
290
     0
  0
SCALE
  5
4E
102
{ACAD_REACTORS
330
47
102
}
330
47
100
AcDbScale
 70
     0
300
1:16
140
1.0
141
16.0
290
     0
  0
SCALE
  5
4F
102
{ACAD_REACTORS
330
47
102
}
330
47
100
AcDbScale
 70
     0
300
1:20
140
1.0
141
20.0
290
     0
  0
SCALE
  5
50
102
{ACAD_REACTORS
330
47
102
}
330
47
100
AcDbScale
 70
     0
300
1:30
140
1.0
141
30.0
290
     0
  0
SCALE
  5
51
102
{ACAD_REACTORS
330
47
102
}
330
47
100
AcDbScale
 70
     0
300
1:40
140
1.0
141
40.0
290
     0
  0
SCALE
  5
52
102
{ACAD_REACTORS
330
47
102
}
330
47
100
AcDbScale
 70
     0
300
1:50
140
1.0
141
50.0
290
     0
  0
SCALE
  5
53
102
{ACAD_REACTORS
330
47
102
}
330
47
100
AcDbScale
 70
     0
300
1:100
140
1.0
141
100.0
290
     0
  0
SCALE
  5
54
102
{ACAD_REACTORS
330
47
102
}
330
47
100
AcDbScale
 70
     0
300
2:1
140
2.0
141
1.0
290
     0
  0
SCALE
  5
55
102
{ACAD_REACTORS
330
47
102
}
330
47
100
AcDbScale
 70
     0
300
4:1
140
4.0
141
1.0
290
     0
  0
SCALE
  5
56
102
{ACAD_REACTORS
330
47
102
}
330
47
100
AcDbScale
 70
     0
300
8:1
140
8.0
141
1.0
290
     0
  0
SCALE
  5
57
102
{ACAD_REACTORS
330
47
102
}
330
47
100
AcDbScale
 70
     0
300
10:1
140
10.0
141
1.0
290
     0
  0
SCALE
  5
58
102
{ACAD_REACTORS
330
47
102
}
330
47
100
AcDbScale
 70
     0
300
100:1
140
100.0
141
1.0
290
     0
  0
ENDSEC
  0
EOF
