  0
SECTION
  2
HEADER
  9
$ACADVER
  1
AC1015
  9
$ACADMAINTVER
 70
     6
  9
$DWGCODEPAGE
  3
DOS932
  9
$INSBASE
 10
0.0
 20
0.0
 30
0.0
  9
$EXTMIN
 10
0.0
 20
0.0
 30
0.0
  9
$EXTMAX
 10
210.0
 20
297.0
 30
0.0
  9
$LIMMIN
 10
0.0
 20
0.0
  9
$LIMMAX
 10
210.0
 20
297.0
  9
$ORTHOMODE
 70
     0
  9
$REGENMODE
 70
     1
  9
$FILLMODE
 70
     1
  9
$QTEXTMODE
 70
     0
  9
$MIRRTEXT
 70
     1
  9
$LTSCALE
 40
1.0
  9
$ATTMODE
 70
     1
  9
$TEXTSIZE
 40
3.5
  9
$TRACEWID
 40
1.0
  9
$TEXTSTYLE
  7
Standard
  9
$CLAYER
  8
0
  9
$CELTYPE
  6
ByLayer
  9
$CECOLOR
 62
   256
  9
$CELTSCALE
 40
1.0
  9
$DISPSILH
 70
     0
  9
$DIMSCALE
 40
1.0
  9
$DIMASZ
 40
1.5
  9
$DIMEXO
 40
1.0
  9
$DIMDLI
 40
3.75
  9
$DIMRND
 40
0.0
  9
$DIMDLE
 40
0.0
  9
$DIMEXE
 40
1.0
  9
$DIMTP
 40
0.0
  9
$DIMTM
 40
0.0
  9
$DIMTXT
 40
3.5
  9
$DIMCEN
 40
2.5
  9
$DIMTSZ
 40
0.0
  9
$DIMTOL
 70
     0
  9
$DIMLIM
 70
     0
  9
$DIMTIH
 70
     1
  9
$DIMTOH
 70
     1
  9
$DIMSE1
 70
     0
  9
$DIMSE2
 70
     0
  9
$DIMTAD
 70
     1
  9
$DIMZIN
 70
     0
  9
$DIMBLK
  1

  9
$DIMASO
 70
     1
  9
$DIMSHO
 70
     1
  9
$DIMPOST
  1

  9
$DIMAPOST
  1

  9
$DIMALT
 70
     0
  9
$DIMALTD
 70
     3
  9
$DIMALTF
 40
0.0393700787
  9
$DIMLFAC
 40
1.0
  9
$DIMTOFL
 70
     1
  9
$DIMTVP
 40
0.0
  9
$DIMTIX
 70
     0
  9
$DIMSOXD
 70
     0
  9
$DIMSAH
 70
     0
  9
$DIMBLK1
  1

  9
$DIMBLK2
  1

  9
$DIMSTYLE
  2
ISO-25
  9
$DIMCLRD
 70
     0
  9
$DIMCLRE
 70
     0
  9
$DIMCLRT
 70
     0
  9
$DIMTFAC
 40
1.0
  9
$DIMGAP
 40
1.5
  9
$DIMJUST
 70
     0
  9
$DIMSD1
 70
     0
  9
$DIMSD2
 70
     0
  9
$DIMTOLJ
 70
     0
  9
$DIMTZIN
 70
     0
  9
$DIMALTZ
 70
     0
  9
$DIMALTTZ
 70
     0
  9
$DIMUPT
 70
     0
  9
$DIMDEC
 70
     1
  9
$DIMTDEC
 70
     1
  9
$DIMALTU
 70
     2
  9
$DIMALTTD
 70
     3
  9
$DIMTXSTY
  7
Standard
  9
$DIMAUNIT
 70
     0
  9
$DIMADEC
 70
     2
  9
$DIMALTRND
 40
0.0
  9
$DIMAZIN
 70
     0
  9
$DIMDSEP
 70
    44
  9
$DIMATFIT
 70
     3
  9
$DIMFRAC
 70
     0
  9
$DIMLDRBLK
  1

  9
$DIMLUNIT
 70
     2
  9
$DIMLWD
 70
    -2
  9
$DIMLWE
 70
    -2
  9
$DIMTMOVE
 70
     0
  9
$LUNITS
 70
     2
  9
$LUPREC
 70
     2
  9
$SKETCHINC
 40
1.0
  9
$FILLETRAD
 40
0.0
  9
$AUNITS
 70
     0
  9
$AUPREC
 70
     2
  9
$MENU
  1
.
  9
$ELEVATION
 40
0.0
  9
$PELEVATION
 40
0.0
  9
$THICKNESS
 40
0.0
  9
$LIMCHECK
 70
     0
  9
$CHAMFERA
 40
0.0
  9
$CHAMFERB
 40
0.0
  9
$CHAMFERC
 40
0.0
  9
$CHAMFERD
 40
0.0
  9
$SKPOLY
 70
     0
  9
$TDCREATE
 40
2460112.637959028
  9
$TDUCREATE
 40
2460112.262959028
  9
$TDUPDATE
 40
2460112.63795934
  9
$TDUUPDATE
 40
2460112.26295934
  9
$TDINDWG
 40
0.0000000116
  9
$TDUSRTIMER
 40
0.0000000116
  9
$USRTIMER
 70
     1
  9
$ANGBASE
 50
0.0
  9
$ANGDIR
 70
     0
  9
$PDMODE
 70
     0
  9
$PDSIZE
 40
-1.0
  9
$PLINEWID
 40
0.0
  9
$SPLFRAME
 70
     0
  9
$SPLINETYPE
 70
     6
  9
$SPLINESEGS
 70
     8
  9
$HANDSEED
  5
E5
  9
$SURFTAB1
 70
     6
  9
$SURFTAB2
 70
     6
  9
$SURFTYPE
 70
     6
  9
$SURFU
 70
     6
  9
$SURFV
 70
     6
  9
$UCSBASE
  2

  9
$UCSNAME
  2

  9
$UCSORG
 10
0.0
 20
0.0
 30
0.0
  9
$UCSXDIR
 10
1.0
 20
0.0
 30
0.0
  9
$UCSYDIR
 10
0.0
 20
1.0
 30
0.0
  9
$UCSORTHOREF
  2

  9
$UCSORTHOVIEW
 70
     0
  9
$UCSORGTOP
 10
0.0
 20
0.0
 30
0.0
  9
$UCSORGBOTTOM
 10
0.0
 20
0.0
 30
0.0
  9
$UCSORGLEFT
 10
0.0
 20
0.0
 30
0.0
  9
$UCSORGRIGHT
 10
0.0
 20
0.0
 30
0.0
  9
$UCSORGFRONT
 10
0.0
 20
0.0
 30
0.0
  9
$UCSORGBACK
 10
0.0
 20
0.0
 30
0.0
  9
$PUCSBASE
  2

  9
$PUCSNAME
  2

  9
$PUCSORG
 10
0.0
 20
0.0
 30
0.0
  9
$PUCSXDIR
 10
1.0
 20
0.0
 30
0.0
  9
$PUCSYDIR
 10
0.0
 20
1.0
 30
0.0
  9
$PUCSORTHOREF
  2

  9
$PUCSORTHOVIEW
 70
     0
  9
$PUCSORGTOP
 10
0.0
 20
0.0
 30
0.0
  9
$PUCSORGBOTTOM
 10
0.0
 20
0.0
 30
0.0
  9
$PUCSORGLEFT
 10
0.0
 20
0.0
 30
0.0
  9
$PUCSORGRIGHT
 10
0.0
 20
0.0
 30
0.0
  9
$PUCSORGFRONT
 10
0.0
 20
0.0
 30
0.0
  9
$PUCSORGBACK
 10
0.0
 20
0.0
 30
0.0
  9
$USERI1
 70
     0
  9
$USERI2
 70
     0
  9
$USERI3
 70
     0
  9
$USERI4
 70
     0
  9
$USERI5
 70
     0
  9
$USERR1
 40
0.0
  9
$USERR2
 40
0.0
  9
$USERR3
 40
0.0
  9
$USERR4
 40
0.0
  9
$USERR5
 40
0.0
  9
$WORLDVIEW
 70
     1
  9
$SHADEDGE
 70
     3
  9
$SHADEDIF
 70
    70
  9
$TILEMODE
 70
     1
  9
$MAXACTVP
 70
    64
  9
$PINSBASE
 10
0.0
 20
0.0
 30
0.0
  9
$PLIMCHECK
 70
     0
  9
$PEXTMIN
 10
1.0000000000E+20
 20
1.0000000000E+20
 30
1.0000000000E+20
  9
$PEXTMAX
 10
-1.0000000000E+20
 20
-1.0000000000E+20
 30
-1.0000000000E+20
  9
$PLIMMIN
 10
0.0
 20
0.0
  9
$PLIMMAX
 10
420.0
 20
297.0
  9
$UNITMODE
 70
     0
  9
$VISRETAIN
 70
     1
  9
$PLINEGEN
 70
     0
  9
$PSLTSCALE
 70
     1
  9
$TREEDEPTH
 70
  3020
  9
$CMLSTYLE
  2
Standard
  9
$CMLJUST
 70
     0
  9
$CMLSCALE
 40
20.0
  9
$PROXYGRAPHICS
 70
     1
  9
$MEASUREMENT
 70
     1
  9
$CELWEIGHT
370
    -1
  9
$ENDCAPS
280
     0
  9
$JOINSTYLE
280
     0
  9
$LWDISPLAY
290
     1
  9
$INSUNITS
 70
     4
  9
$HYPERLINKBASE
  1

  9
$STYLESHEET
  1

  9
$XEDIT
290
     1
  9
$CEPSNTYPE
380
     0
  9
$PSTYLEMODE
290
     1
  9
$FINGERPRINTGUID
  2
{6a8e784c-8299-41a5-b357-0f47508053ef}
  9
$VERSIONGUID
  2
{FAEB1C32-E019-11D5-929B-00C0DF256EC4}
  9
$EXTNAMES
290
     1
  9
$PSVPSCALE
 40
0.0
  9
$OLESTARTUP
290
     0
  0
ENDSEC
  0
SECTION
  2
CLASSES
  0
CLASS
  1
ACDBDICTIONARYWDFLT
  2
AcDbDictionaryWithDefault
  3
ObjectDBX Classes
 90
        0
280
     0
281
     0
  0
CLASS
  1
VISUALSTYLE
  2
AcDbVisualStyle
  3
ObjectDBX Classes
 90
     4095
280
     0
281
     0
  0
CLASS
  1
MATERIAL
  2
AcDbMaterial
  3
ObjectDBX Classes
 90
     1153
280
     0
281
     0
  0
CLASS
  1
SCALE
  2
AcDbScale
  3
ObjectDBX Classes
 90
     1153
280
     0
281
     0
  0
CLASS
  1
TABLESTYLE
  2
AcDbTableStyle
  3
ObjectDBX Classes
 90
     4095
280
     0
281
     0
  0
CLASS
  1
MLEADERSTYLE
  2
AcDbMLeaderStyle
  3
ACDB_MLEADERSTYLE_CLASS
 90
     4095
280
     0
281
     0
  0
CLASS
  1
SUN
  2
AcDbSun
  3
SCENEOE
 90
     1153
280
     0
281
     0
  0
CLASS
  1
ACDBPLACEHOLDER
  2
AcDbPlaceHolder
  3
ObjectDBX Classes
 90
        0
280
     0
281
     0
  0
CLASS
  1
LAYOUT
  2
AcDbLayout
  3
ObjectDBX Classes
 90
        0
280
     0
281
     0
  0
ENDSEC
  0
SECTION
  2
TABLES
  0
TABLE
  2
VPORT
  5
8
330
0
100
AcDbSymbolTable
 70
     1
  0
VPORT
  5
29
330
8
100
AcDbSymbolTableRecord
100
AcDbViewportTableRecord
  2
*Active
 70
     0
 10
0.0
 20
0.0
 11
1.0
 21
1.0
 12
105.0
 22
148.5
 13
0.0
 23
0.0
 14
10.0
 24
10.0
 15
10.0
 25
10.0
 16
0.0
 26
0.0
 36
1.0
 17
0.0
 27
0.0
 37
0.0
 40
297.0
 41
0.7070707071
 42
50.0
 43
0.0
 44
0.0
 50
0.0
 51
0.0
 71
     0
 72
  2000
 73
     1
 74
     3
 75
     0
 76
     0
 77
     0
 78
     0
281
     0
 65
     1
110
0.0
120
0.0
130
0.0
111
1.0
121
0.0
131
0.0
112
0.0
122
1.0
132
0.0
 79
     0
146
0.0
  0
ENDTAB
  0
TABLE
  2
LTYPE
  5
5
330
0
100
AcDbSymbolTable
 70
     6
  0
LTYPE
  5
14
330
5
100
AcDbSymbolTableRecord
100
AcDbLinetypeTableRecord
  2
ByBlock
 70
     0
  3

 72
    65
 73
     0
 40
0.0
  0
LTYPE
  5
15
330
5
100
AcDbSymbolTableRecord
100
AcDbLinetypeTableRecord
  2
ByLayer
 70
     0
  3

 72
    65
 73
     0
 40
0.0
  0
LTYPE
  5
16
330
5
100
AcDbSymbolTableRecord
100
AcDbLinetypeTableRecord
  2
Continuous
 70
     0
  3
Solid line
 72
    65
 73
     0
 40
0.0
  0
LTYPE
  5
5E
330
5
100
AcDbSymbolTableRecord
100
AcDbLinetypeTableRecord
  2
HIDDEN
 70
     0
  3
Hidden __ __ __ __ __ __ __ __ __ __ __ __ __ __
 72
    65
 73
     2
 40
1.905
 49
1.27
 74
     0
 49
-0.635
 74
     0
  0
LTYPE
  5
5F
330
5
100
AcDbSymbolTableRecord
100
AcDbLinetypeTableRecord
  2
PHANTOM
 70
     0
  3
Phantom ______  __  __  ______  __  __  ______
 72
    65
 73
     6
 40
12.7
 49
6.35
 74
     0
 49
-1.27
 74
     0
 49
1.27
 74
     0
 49
-1.27
 74
     0
 49
1.27
 74
     0
 49
-1.27
 74
     0
  0
LTYPE
  5
60
330
5
100
AcDbSymbolTableRecord
100
AcDbLinetypeTableRecord
  2
CENTER
 70
     0
  3
Center ____ _ ____ _ ____ _ ____ _ ____ _ ____
 72
    65
 73
     4
 40
10.16
 49
6.35
 74
     0
 49
-1.27
 74
     0
 49
1.27
 74
     0
 49
-1.27
 74
     0
  0
LTYPE
  5
61
330
5
100
AcDbSymbolTableRecord
100
AcDbLinetypeTableRecord
  2
CENTERX2
 70
     0
  3
Center (2x) ________  __  ________  __  _____
 72
    65
 73
     4
 40
20.32
 49
12.7
 74
     0
 49
-2.54
 74
     0
 49
2.54
 74
     0
 49
-2.54
 74
     0
  0
LTYPE
  5
62
330
5
100
AcDbSymbolTableRecord
100
AcDbLinetypeTableRecord
  2
DOT2
 70
     0
  3
Dot (.5x) ........................................
 72
    65
 73
     2
 40
0.635
 49
0.0
 74
     0
 49
-0.635
 74
     0
  0
ENDTAB
  0
TABLE
  2
LAYER
  5
2
330
0
100
AcDbSymbolTable
 70
     2
  0
LAYER
  5
10
330
2
100
AcDbSymbolTableRecord
100
AcDbLayerTableRecord
  2
0
 70
     0
 62
     7
  6
Continuous
370
    -3
390
F
  0
LAYER
  5
63
330
2
100
AcDbSymbolTableRecord
100
AcDbLayerTableRecord
  2
FORMAT
 70
     0
 62
     7
  6
Continuous
370
    -3
390
F
  0
ENDTAB
  0
TABLE
  2
STYLE
  5
3
330
0
100
AcDbSymbolTable
 70
     2
  0
STYLE
  5
11
330
3
100
AcDbSymbolTableRecord
100
AcDbTextStyleTableRecord
  2
Standard
 70
     0
 40
0.0
 41
1.0
 50
0.0
 71
     0
 42
3.5
  3
txt
  4
bigfont
  0
STYLE
  5
64
330
3
100
AcDbSymbolTableRecord
100
AcDbTextStyleTableRecord
  2
SLDTEXTSTYLE0
 70
     0
 40
0.0
 41
0.7
 50
0.0
 71
     0
 42
3.5
  3
TXT
  4
bigfont
  0
ENDTAB
  0
TABLE
  2
VIEW
  5
6
330
0
100
AcDbSymbolTable
 70
     0
  0
ENDTAB
  0
TABLE
  2
UCS
  5
7
330
0
100
AcDbSymbolTable
 70
     0
  0
ENDTAB
  0
TABLE
  2
APPID
  5
9
330
0
100
AcDbSymbolTable
 70
     1
  0
APPID
  5
12
330
9
100
AcDbSymbolTableRecord
100
AcDbRegAppTableRecord
  2
ACAD
 70
     0
  0
ENDTAB
  0
TABLE
  2
DIMSTYLE
  5
A
330
0
100
AcDbSymbolTable
 70
     1
100
AcDbDimStyleTable
  0
DIMSTYLE
105
27
330
A
100
AcDbSymbolTableRecord
100
AcDbDimStyleTableRecord
  2
ISO-25
 70
     0
 41
2.5
 42
0.625
 43
3.75
 44
1.25
 73
     0
 74
     0
 77
     1
 78
     8
140
2.5
141
2.5
143
0.0393700787
147
0.625
171
     3
172
     1
178
     0
271
     2
272
     2
274
     3
278
    44
283
     0
284
     8
340
11
  0
ENDTAB
  0
TABLE
  2
BLOCK_RECORD
  5
1
330
0
100
AcDbSymbolTable
 70
     1
  0
BLOCK_RECORD
  5
1F
330
1
100
AcDbSymbolTableRecord
100
AcDbBlockTableRecord
  2
*Model_Space
340
22
  0
BLOCK_RECORD
  5
1B
330
1
100
AcDbSymbolTableRecord
100
AcDbBlockTableRecord
  2
*Paper_Space
340
1E
  0
BLOCK_RECORD
  5
23
330
1
100
AcDbSymbolTableRecord
100
AcDbBlockTableRecord
  2
*Paper_Space0
340
26
  0
ENDTAB
  0
ENDSEC
  0
SECTION
  2
BLOCKS
  0
BLOCK
  5
20
330
1F
100
AcDbEntity
  8
0
100
AcDbBlockBegin
  2
*Model_Space
 70
     0
 10
0.0
 20
0.0
 30
0.0
  3
*Model_Space
  1

  0
ENDBLK
  5
21
330
1F
100
AcDbEntity
  8
0
100
AcDbBlockEnd
  0
BLOCK
  5
1C
330
1B
100
AcDbEntity
 67
     1
  8
0
100
AcDbBlockBegin
  2
*Paper_Space
 70
     0
 10
0.0
 20
0.0
 30
0.0
  3
*Paper_Space
  1

  0
ENDBLK
  5
1D
330
1B
100
AcDbEntity
 67
     1
  8
0
100
AcDbBlockEnd
  0
BLOCK
  5
24
330
23
100
AcDbEntity
  8
0
100
AcDbBlockBegin
  2
*Paper_Space0
 70
     0
 10
0.0
 20
0.0
 30
0.0
  3
*Paper_Space0
  1

  0
ENDBLK
  5
25
330
23
100
AcDbEntity
  8
0
100
AcDbBlockEnd
  0
ENDSEC
  0
SECTION
  2
ENTITIES
  0
MTEXT
  5
65
330
1F
100
AcDbEntity
  8
0
  6
Continuous
 62
     7
370
     0
100
AcDbMText
 10
146.0357735976
 20
113.7089511937
 30
0.0
 40
3.5
 41
0.0
 71
     1
 72
     1
  1
HEA-027S/K
  7
SLDTEXTSTYLE0
 73
     1
 44
1.0
  0
SPLINE
  5
66
330
1F
100
AcDbEntity
  8
0
  6
Continuous
 62
     7
370
    25
100
AcDbSpline
210
0.0
220
0.0
230
1.0
 70
     8
 71
     3
 72
    12
 73
     8
 74
     0
 42
0.00000001
 43
0.00000001
 40
0.0
 40
0.0
 40
0.0
 40
0.0
 40
0.0659253629126636
 40
0.3050015060477278
 40
0.5440302964576432
 40
0.783300969219471
 40
1.0
 40
1.0
 40
1.0
 40
1.0
 10
130.5005802570159
 20
205.9434505490899
 30
0.0
 10
130.448212349484
 20
205.974041448263
 30
0.0
 10
130.2059339613169
 20
206.1155692291794
 30
0.0
 10
129.7293341798633
 20
206.2824323824731
 30
0.0
 10
129.0824385164549
 20
206.4343642954028
 30
0.0
 10
128.4320384628952
 20
206.4914595791347
 30
0.0
 10
128.0000454279202
 20
206.4591788378687
 30
0.0
 10
127.7947412788599
 20
206.4438374559943
 30
0.0
  0
LINE
  5
67
330
1F
100
AcDbEntity
  8
0
  6
Continuous
 62
     7
370
    25
100
AcDbLine
 10
143.4648830434
 20
198.9325933893
 30
0.0
 11
130.5628542055
 21
205.9212166662
 31
0.0
  0
LINE
  5
68
330
1F
100
AcDbEntity
  8
0
  6
Continuous
 62
     7
370
    25
100
AcDbLine
 10
127.7947412789
 20
206.443837456
 30
0.0
 11
51.7658140632
 21
198.0181835101
 31
0.0
  0
SPLINE
  5
69
330
1F
100
AcDbEntity
  8
0
  6
Continuous
 62
     7
370
    25
100
AcDbSpline
210
0.0
220
0.0
230
1.0
 70
     8
 71
     3
 72
    16
 73
    12
 74
     0
 42
0.00000001
 43
0.00000001
 40
0.0
 40
0.0
 40
0.0
 40
0.0
 40
0.0659538709059388
 40
0.1876166572978985
 40
0.3092629960579776
 40
0.4307045192696836
 40
0.5518621228134691
 40
0.6726715936098917
 40
0.793104629438084
 40
0.9131866279161986
 40
1.0
 40
1.0
 40
1.0
 40
1.0
 10
44.95734757684358
 20
143.0148631242064
 30
0.0
 10
44.95628095850468
 20
142.8816383042953
 30
0.0
 10
44.95324678682368
 20
142.5026583439455
 30
0.0
 10
45.01648032464449
 20
141.8876861683048
 30
0.0
 10
45.17346894468566
 20
141.1879346991832
 30
0.0
 10
45.4160654886489
 20
140.5261542103066
 30
0.0
 10
45.7388001200267
 20
139.9138107724787
 30
0.0
 10
46.1359895930228
 20
139.3600742967275
 30
0.0
 10
46.60269077424056
 20
138.877788224081
 30
0.0
 10
47.07562761208972
 20
138.4987219699645
 30
0.0
 10
47.41153269379051
 20
138.320165813298
 30
0.0
 10
47.55247858718256
 20
138.2452435855824
 30
0.0
  0
LINE
  5
6A
330
1F
100
AcDbEntity
  8
0
  6
Continuous
 62
     7
370
    25
100
AcDbLine
 10
47.4902046387
 20
138.2674774685
 30
0.0
 11
47.8327363778
 21
138.0819387974
 31
0.0
  0
LINE
  5
6B
330
1F
100
AcDbEntity
  8
0
  6
Continuous
 62
     7
370
    25
100
AcDbLine
 10
46.2856567661
 20
191.6914531081
 30
0.0
 11
44.9573475768
 21
143.0148631242
 31
0.0
  0
SPLINE
  5
6C
330
1F
100
AcDbEntity
  8
0
  6
Continuous
 62
     7
370
    25
100
AcDbSpline
210
0.0
220
0.0
230
1.0
 70
     8
 71
     3
 72
    20
 73
    16
 74
     0
 42
0.00000001
 43
0.00000001
 40
0.0
 40
0.0
 40
0.0
 40
0.0
 40
0.0445264476970657
 40
0.125474931890484
 40
0.2065784559117728
 40
0.2878706907742163
 40
0.369315168001264
 40
0.4508749574612463
 40
0.5325188213088847
 40
0.6142235358357805
 40
0.6959733173690902
 40
0.7777574866818424
 40
0.8595644804511389
 40
0.9413823547251705
 40
1.0
 40
1.0
 40
1.0
 40
1.0
 10
51.76581406323378
 20
198.0181835101257
 30
0.0
 10
51.64033066635341
 20
198.001444015199
 30
0.0
 10
51.28672013842466
 20
197.9542723432051
 30
0.0
 10
50.70812972760319
 20
197.8037030520818
 30
0.0
 10
50.0435990223413
 20
197.5418469815702
 30
0.0
 10
49.40495008630331
 20
197.1930130864226
 30
0.0
 10
48.80242626931231
 20
196.7642842550803
 30
0.0
 10
48.24580325046502
 20
196.2620543815859
 30
0.0
 10
47.74414477970917
 20
195.6945029266847
 30
0.0
 10
47.30556574097632
 20
195.0707043626664
 30
0.0
 10
46.93732990160024
 20
194.4006754854437
 30
0.0
 10
46.64498285147729
 20
193.6950797638146
 30
0.0
 10
46.43517522689645
 20
192.9654068711827
 30
0.0
 10
46.317079057625
 20
192.2927967708475
 30
0.0
 10
46.29491007658062
 20
191.8685382076844
 30
0.0
 10
46.28565676608525
 20
191.6914531081299
 30
0.0
  0
LINE
  5
6D
330
1F
100
AcDbEntity
  8
0
  6
Continuous
 62
     7
370
    25
100
AcDbLine
 10
96.5154386438
 20
134.2292023651
 30
0.0
 11
102.0068796041
 21
134.8377731143
 31
0.0
  0
LINE
  5
6E
330
1F
100
AcDbEntity
  8
0
  6
Continuous
 62
     7
370
    25
100
AcDbLine
 10
122.8748867735
 20
140.8668225783
 30
0.0
 11
122.7828257406
 21
137.4931975299
 31
0.0
  0
LINE
  5
6F
330
1F
100
AcDbEntity
  8
0
  6
Continuous
 62
     7
370
    25
100
AcDbLine
 10
135.2781742129
 20
137.1522187102
 30
0.0
 11
135.3702352458
 21
140.5258437586
 31
0.0
  0
LINE
  5
70
330
1F
100
AcDbEntity
  8
0
  6
Continuous
 62
     7
370
    25
100
AcDbLine
 10
101.9780471295
 20
138.5509995639
 30
0.0
 11
101.8859860965
 21
135.1773745156
 31
0.0
  0
LINE
  5
71
330
1F
100
AcDbEntity
  8
0
  6
Continuous
 62
     7
370
    25
100
AcDbLine
 10
114.3813345689
 20
134.8363956959
 30
0.0
 11
114.4733956018
 21
138.2100207443
 31
0.0
  0
SPLINE
  5
72
330
1F
100
AcDbEntity
  8
0
  6
Continuous
 62
     7
370
    25
100
AcDbSpline
210
0.0
220
0.0
230
1.0
 70
     8
 71
     3
 72
    20
 73
    16
 74
     0
 42
0.00000001
 43
0.00000001
 40
0.0
 40
0.0
 40
0.0
 40
0.0
 40
0.0445264476970656
 40
0.1254749318904835
 40
0.2065784559117751
 40
0.287870690774217
 40
0.3693151680012665
 40
0.4508749574612416
 40
0.5325188213088775
 40
0.6142235358357878
 40
0.6959733173690934
 40
0.7777574866818446
 40
0.8595644804511517
 40
0.9413823547251814
 40
1.0
 40
1.0
 40
1.0
 40
1.0
 10
139.5318053578847
 20
138.9963486765812
 30
0.0
 10
139.657288754765
 20
139.0130881715079
 30
0.0
 10
140.0108992826938
 20
139.0602598435018
 30
0.0
 10
140.5894896935152
 20
139.2108291346251
 30
0.0
 10
141.2540203987771
 20
139.4726852051367
 30
0.0
 10
141.8926693348151
 20
139.8215191002843
 30
0.0
 10
142.4951931518061
 20
140.2502479316266
 30
0.0
 10
143.0518161706534
 20
140.752477805121
 30
0.0
 10
143.5534746414093
 20
141.3200292600222
 30
0.0
 10
143.9920536801421
 20
141.9438278240406
 30
0.0
 10
144.3602895195182
 20
142.6138567012633
 30
0.0
 10
144.6526365696412
 20
143.3194524228924
 30
0.0
 10
144.8624441942221
 20
144.0491253155243
 30
0.0
 10
144.9805403634934
 20
144.7217354158595
 30
0.0
 10
145.0027093445378
 20
145.1459939790225
 30
0.0
 10
145.0119626550332
 20
145.323079078577
 30
0.0
  0
LINE
  5
73
330
1F
100
AcDbEntity
  8
0
  6
Continuous
 62
     7
370
    25
100
AcDbLine
 10
145.011962655
 20
145.3230790786
 30
0.0
 11
146.3402718443
 21
193.9996690625
 31
0.0
  0
LINE
  5
74
330
1F
100
AcDbEntity
  8
0
  6
Continuous
 62
     7
370
    25
100
AcDbLine
 10
114.4189080318
 20
136.213295039
 30
0.0
 11
122.9037192481
 21
137.1535961287
 31
0.0
  0
LINE
  5
75
330
1F
100
AcDbEntity
  8
0
  6
Continuous
 62
     7
370
    25
100
AcDbLine
 10
135.3157476759
 20
138.5291180534
 30
0.0
 11
139.5318053579
 21
138.9963486766
 31
0.0
  0
LINE
  5
76
330
1F
100
AcDbEntity
  8
0
  6
Continuous
 62
     7
370
    25
100
AcDbLine
 10
79.7473666571
 20
136.0873580593
 30
0.0
 11
79.6553056241
 21
132.7137330109
 31
0.0
  0
LINE
  5
77
330
1F
100
AcDbEntity
  8
0
  6
Continuous
 62
     7
370
    25
100
AcDbLine
 10
92.1506540965
 20
132.3727541912
 30
0.0
 11
92.2427151294
 21
135.7463792396
 31
0.0
  0
LINE
  5
78
330
1F
100
AcDbEntity
  8
0
  6
Continuous
 62
     7
370
    25
100
AcDbLine
 10
143.8074147824
 20
198.7470547182
 30
0.0
 11
143.4648830434
 21
198.9325933893
 31
0.0
  0
SPLINE
  5
79
330
1F
100
AcDbEntity
  8
0
  6
Continuous
 62
     7
370
    25
100
AcDbSpline
210
0.0
220
0.0
230
1.0
 70
     8
 71
     3
 72
    16
 73
    12
 74
     0
 42
0.00000001
 43
0.00000001
 40
0.0
 40
0.0
 40
0.0
 40
0.0
 40
0.0656896847690589
 40
0.186865136284424
 40
0.3080242060508684
 40
0.4289792806821747
 40
0.5496515729198288
 40
0.6699771268975613
 40
0.7899277537624857
 40
0.9095287493995011
 40
1.0
 40
1.0
 40
1.0
 40
1.0
 10
146.3402718442748
 20
193.9996690625005
 30
0.0
 10
146.3413384657468
 20
194.1328938875839
 30
0.0
 10
146.3443726463401
 20
194.5118738626471
 30
0.0
 10
146.2811389978381
 20
195.1268458555644
 30
0.0
 10
146.1241508386824
 20
195.8265980855611
 30
0.0
 10
145.8815525858771
 20
196.4883757533127
 30
0.0
 10
145.5588243073663
 20
197.1007296790804
 30
0.0
 10
145.1616112272814
 20
197.6544271819193
 30
0.0
 10
144.6949977470969
 20
198.1368580400878
 30
0.0
 10
144.2159504354925
 20
198.5200868908022
 30
0.0
 10
143.8733854946108
 20
198.7018986643812
 30
0.0
 10
143.7258539707254
 20
198.7801990530531
 30
0.0
  0
LINE
  5
7A
330
1F
100
AcDbEntity
  8
0
  6
Continuous
 62
     7
370
    25
100
AcDbLine
 10
47.9469136241
 20
138.0200925737
 30
0.0
 11
58.8059528812
 21
132.1380925045
 31
0.0
  0
LINE
  5
7B
330
1F
100
AcDbEntity
  8
0
  6
Continuous
 62
     7
370
    25
100
AcDbLine
 10
58.850527013
 20
133.7715350449
 30
0.0
 11
58.7584659801
 21
130.3979099966
 31
0.0
  0
LINE
  5
7C
330
1F
100
AcDbEntity
  8
0
  6
Continuous
 62
     7
370
    25
100
AcDbLine
 10
71.2538144524
 20
130.0569311769
 30
0.0
 11
71.3458754853
 21
133.4305562253
 31
0.0
  0
LINE
  5
7D
330
1F
100
AcDbEntity
  8
0
  6
Continuous
 62
     7
370
    25
100
AcDbLine
 10
71.2913879153
 20
131.43383052
 30
0.0
 11
79.7761991317
 21
132.3741316097
 31
0.0
  0
LINE
  5
7E
330
1F
100
AcDbEntity
  8
0
  6
Continuous
 62
     7
370
    25
100
AcDbLine
 10
92.1882275594
 20
133.7496535344
 30
0.0
 11
96.4042852414
 21
134.2168841576
 31
0.0
  0
ARC
  5
7F
330
1F
100
AcDbEntity
  8
0
  6
Continuous
 62
     7
370
    25
100
AcDbCircle
 10
125.1763868214
 20
152.6381081896
 30
0.0
 40
6.536279811423579
100
AcDbArc
 50
279.1787286908
 51
359.3166435891
  0
LWPOLYLINE
  5
80
330
1F
100
AcDbEntity
  8
0
  6
Continuous
 62
     7
370
    25
100
AcDbPolyline
 90
       17
 70
   128
 43
0.0
 10
89.7445663364
 20
182.5333105139
 10
89.7013493781
 20
182.8043338818
 10
89.5631792226
 20
183.0228443862
 10
89.3510910234
 20
183.1555757836
 10
89.0973732864
 20
183.182320922
 10
88.840652237
 20
183.0990080964
 10
88.6200113278
 20
182.9183209294
 10
88.4690411372
 20
182.6677674041
 10
88.410725508
 20
182.3854920236
 10
88.4539424663
 20
182.1144686557
 10
88.5921126218
 20
181.8959581513
 10
88.804200821
 20
181.7632267539
 10
89.057918558
 20
181.7364816155
 10
89.3146396074
 20
181.8197944411
 10
89.5352805166
 20
182.0004816081
 10
89.6862507072
 20
182.2510351334
 10
89.7445663364
 20
182.5333105139
  0
LWPOLYLINE
  5
81
330
1F
100
AcDbEntity
  8
0
  6
Continuous
 62
     7
370
    25
100
AcDbPolyline
 90
       22
 70
   128
 43
0.0
 10
90.2943925548
 20
186.4381548279
 10
90.2547014547
 20
186.787822708
 10
90.1197724071
 20
187.0954757945
 10
89.90159445
 20
187.3337777606
 10
89.6195536525
 20
187.4815544308
 10
89.298710577
 20
187.5256751994
 10
88.9675735388
 20
187.4622197425
 10
88.655565517
 20
187.296826356
 10
88.3904097935
 20
187.044190968
 10
88.1956666179
 20
186.7267613415
 10
88.0886397761
 20
186.3727424917
 10
88.0788390725
 20
186.0135905471
 10
88.1671353428
 20
185.6812177341
 10
88.3456830758
 20
185.4051568356
 10
88.5986175218
 20
185.209937074
 10
88.9034643455
 20
185.1129045819
 10
89.2331365687
 20
185.1226811219
 10
89.5583413676
 20
185.2383980056
 10
89.8501828687
 20
185.44977328
 10
90.0827296739
 20
185.7380253244
 10
90.2353189791
 20
186.0775416798
 10
90.2943925548
 20
186.4381548279
  0
ARC
  5
82
330
1F
100
AcDbEntity
  8
0
  6
Continuous
 62
     7
370
    25
100
AcDbCircle
 10
137.9315876153
 20
145.775207831
 30
0.0
 40
6.685746169948155
100
AcDbArc
 50
338.8197125571
 51
358.2542410382
  0
LINE
  5
83
330
1F
100
AcDbEntity
  8
0
  6
Continuous
 62
     7
370
    25
100
AcDbLine
 10
144.1656993472
 20
143.3596224437
 30
0.0
 11
131.6062022484
 21
150.1627070495
 31
0.0
  0
ARC
  5
84
330
1F
100
AcDbEntity
  8
0
  6
Continuous
 62
     7
370
    25
100
AcDbCircle
 10
125.5968632833
 20
152.3071276367
 30
0.0
 40
6.380493276521688
100
AcDbArc
 50
278.6960876669
 51
340.3611603498
  0
LINE
  5
85
330
1F
100
AcDbEntity
  8
0
  6
Continuous
 62
     7
370
    25
100
AcDbLine
 10
126.5615512608
 20
145.9999831514
 30
0.0
 11
126.2190195217
 21
146.1855218225
 31
0.0
  0
LINE
  5
86
330
1F
100
AcDbEntity
  8
0
  6
Continuous
 62
     7
370
    25
100
AcDbLine
 10
133.0405109379
 20
201.2367429933
 30
0.0
 11
131.7122017487
 21
152.5601530094
 31
0.0
  0
LINE
  5
87
330
1F
100
AcDbEntity
  8
0
  6
Continuous
 62
     7
370
    25
100
AcDbLine
 10
145.9425397758
 20
194.2481197164
 30
0.0
 11
144.6142305865
 21
145.5715297325
 31
0.0
  0
LINE
  5
88
330
1F
100
AcDbEntity
  8
0
  6
Continuous
 62
     7
370
    25
100
AcDbLine
 10
126.2190195217
 20
146.1855218225
 30
0.0
 11
50.1900923061
 21
137.7598678766
 31
0.0
  0
LINE
  5
89
330
1F
100
AcDbEntity
  8
0
  6
Continuous
 62
     7
370
    25
100
AcDbLine
 10
50.1900923061
 20
137.7598678766
 30
0.0
 11
50.5326240452
 21
137.5743292056
 31
0.0
  0
LINE
  5
8A
330
1F
100
AcDbEntity
  8
0
  6
Continuous
 62
     7
370
    25
100
AcDbLine
 10
50.5326240452
 20
137.5743292056
 30
0.0
 11
126.5615512608
 21
145.9999831514
 31
0.0
  0
LINE
  5
8B
330
1F
100
AcDbEntity
  8
0
  6
Continuous
 62
     7
370
    25
100
AcDbLine
 10
114.5645826669
 20
144.3753946347
 30
0.0
 11
114.4696276265
 21
144.2345368
 31
0.0
  0
LINE
  5
8C
330
1F
100
AcDbEntity
  8
0
  6
Continuous
 62
     7
370
    25
100
AcDbLine
 10
114.4696276265
 20
144.2345368
 30
0.0
 11
114.1270958874
 21
144.4200754711
 31
0.0
  0
LINE
  5
8D
330
1F
100
AcDbEntity
  8
0
  6
Continuous
 62
     7
370
    25
100
AcDbLine
 10
114.1270958874
 20
144.4200754711
 30
0.0
 11
114.1326221497
 21
144.6225882645
 31
0.0
  0
LINE
  5
8E
330
1F
100
AcDbEntity
  8
0
  6
Continuous
 62
     7
370
    25
100
AcDbLine
 10
107.0132781362
 20
143.6317101896
 30
0.0
 11
114.1270958874
 21
144.4200754711
 31
0.0
  0
LINE
  5
8F
330
1F
100
AcDbEntity
  8
0
  6
Continuous
 62
     7
370
    25
100
AcDbLine
 10
107.0132781362
 20
143.6317101896
 30
0.0
 11
107.0188043986
 21
143.834222983
 31
0.0
  0
LINE
  5
90
330
1F
100
AcDbEntity
  8
0
  6
Continuous
 62
     7
370
    25
100
AcDbLine
 10
110.9127187509
 20
143.8403541593
 30
0.0
 11
114.4696276265
 21
144.2345368
 31
0.0
  0
LINE
  5
91
330
1F
100
AcDbEntity
  8
0
  6
Continuous
 62
     7
370
    25
100
AcDbLine
 10
107.3558098753
 20
143.4461715185
 30
0.0
 11
110.9127187509
 21
143.8403541593
 31
0.0
  0
LINE
  5
92
330
1F
100
AcDbEntity
  8
0
  6
Continuous
 62
     7
370
    25
100
AcDbLine
 10
107.3558098753
 20
143.4461715185
 30
0.0
 11
107.0132781362
 21
143.6317101896
 31
0.0
  0
LINE
  5
93
330
1F
100
AcDbEntity
  8
0
  6
Continuous
 62
     7
370
    25
100
AcDbLine
 10
130.5061659896
 20
205.9513876734
 30
0.0
 11
130.5628542055
 21
205.9212166662
 31
0.0
  0
ARC
  5
94
330
1F
100
AcDbEntity
  8
0
  6
Continuous
 62
     7
370
    25
100
AcDbCircle
 10
140.9438753039
 20
194.6017482501
 30
0.0
 40
5.011157515190126
100
AcDbArc
 50
355.9533746866
 51
59.7960899924
  0
LINE
  5
95
330
1F
100
AcDbEntity
  8
0
  6
Continuous
 62
     7
370
    25
100
AcDbLine
 10
71.4370625504
 20
139.5959301157
 30
0.0
 11
71.34210751
 21
139.455072281
 31
0.0
  0
LINE
  5
96
330
1F
100
AcDbEntity
  8
0
  6
Continuous
 62
     7
370
    25
100
AcDbLine
 10
71.34210751
 20
139.455072281
 30
0.0
 11
70.999575771
 21
139.6406109521
 31
0.0
  0
LINE
  5
97
330
1F
100
AcDbEntity
  8
0
  6
Continuous
 62
     7
370
    25
100
AcDbLine
 10
70.999575771
 20
139.6406109521
 30
0.0
 11
71.0051020333
 21
139.8431237455
 31
0.0
  0
LINE
  5
98
330
1F
100
AcDbEntity
  8
0
  6
Continuous
 62
     7
370
    25
100
AcDbLine
 10
67.7851986344
 20
139.0608896403
 30
0.0
 11
71.34210751
 21
139.455072281
 31
0.0
  0
LINE
  5
99
330
1F
100
AcDbEntity
  8
0
  6
Continuous
 62
     7
370
    25
100
AcDbLine
 10
64.2282897588
 20
138.6667069995
 30
0.0
 11
67.7851986344
 21
139.0608896403
 31
0.0
  0
LINE
  5
9A
330
1F
100
AcDbEntity
  8
0
  6
Continuous
 62
     7
370
    25
100
AcDbLine
 10
64.2282897588
 20
138.6667069995
 30
0.0
 11
63.8857580198
 21
138.8522456706
 31
0.0
  0
LINE
  5
9B
330
1F
100
AcDbEntity
  8
0
  6
Continuous
 62
     7
370
    25
100
AcDbLine
 10
63.8857580198
 20
138.8522456706
 30
0.0
 11
70.999575771
 21
139.6406109521
 31
0.0
  0
LINE
  5
9C
330
1F
100
AcDbEntity
  8
0
  6
Continuous
 62
     7
370
    25
100
AcDbLine
 10
63.8857580198
 20
138.8522456706
 30
0.0
 11
63.8912842821
 21
139.054758464
 31
0.0
  0
LINE
  5
9D
330
1F
100
AcDbEntity
  8
0
  6
Continuous
 62
     7
370
    25
100
AcDbLine
 10
47.5468928546
 20
138.2373064613
 30
0.0
 11
47.4902046387
 21
138.2674774685
 31
0.0
  0
ARC
  5
9E
330
1F
100
AcDbEntity
  8
0
  6
Continuous
 62
     7
370
    25
100
AcDbCircle
 10
49.9880142907
 20
142.1115667491
 30
0.0
 40
4.569805719175708
100
AcDbArc
 50
241.859553868
 51
276.8445317663
  0
LINE
  5
9F
330
1F
100
AcDbEntity
  8
0
  6
Continuous
 62
     7
370
    25
100
AcDbLine
 10
96.7776497476
 20
134.3553326168
 30
0.0
 11
94.3799275742
 21
135.6541033143
 31
0.0
  0
LINE
  5
A0
330
1F
100
AcDbEntity
  8
0
  6
Continuous
 62
     7
370
    25
100
AcDbLine
 10
96.9364558285
 20
135.9374220873
 30
0.0
 11
94.3799275742
 21
135.6541033143
 31
0.0
  0
LWPOLYLINE
  5
A1
330
1F
100
AcDbEntity
  8
0
  6
Continuous
 62
     7
370
    25
100
AcDbPolyline
 90
       15
 70
   128
 43
0.0
 10
100.9379783136
 20
136.3808775582
 10
101.1164764995
 20
136.2514596658
 10
101.1856975178
 20
136.1174129725
 10
101.1421703377
 20
135.9854591391
 10
100.9880775937
 20
135.8622148818
 10
100.7311461395
 20
135.7538601824
 10
100.384259591
 20
135.6658283979
 10
99.9648122882
 20
135.6025338096
 10
99.4938370704
 20
135.5671502724
 10
98.9949506016
 20
135.5614520646
 10
98.4931691324
 20
135.5857249182
 10
98.0136540811
 20
135.6387516909
 10
97.5804503346
 20
135.7178733989
 10
97.2152805376
 20
135.8191225495
 10
96.9364558285
 20
135.9374220873
  0
LINE
  5
A2
330
1F
100
AcDbEntity
  8
0
  6
Continuous
 62
     7
370
    25
100
AcDbLine
 10
101.9218030782
 20
136.4899066779
 30
0.0
 11
100.9379783136
 21
136.3808775582
 31
0.0
  0
LINE
  5
A3
330
1F
100
AcDbEntity
  8
0
  6
Continuous
 62
     7
370
    25
100
AcDbLine
 10
96.3330361382
 20
134.3060597867
 30
0.0
 11
96.4472133845
 21
134.2442135631
 31
0.0
  0
LINE
  5
A4
330
1F
100
AcDbEntity
  8
0
  6
Continuous
 62
     7
370
    25
100
AcDbLine
 10
96.3330361382
 20
134.3060597867
 30
0.0
 11
96.7776497476
 21
134.3553326168
 31
0.0
  0
LINE
  5
A5
330
1F
100
AcDbEntity
  8
0
  6
Continuous
 62
     7
370
    25
100
AcDbLine
 10
96.9364558285
 20
135.9374220873
 30
0.0
 11
96.9515255976
 21
136.4896617145
 31
0.0
  0
LINE
  5
A6
330
1F
100
AcDbEntity
  8
0
  6
Continuous
 62
     7
370
    25
100
AcDbLine
 10
96.3338517959
 20
134.3359499948
 30
0.0
 11
96.3330361382
 21
134.3060597867
 31
0.0
  0
LWPOLYLINE
  5
A7
330
1F
100
AcDbEntity
  8
0
  6
Continuous
 62
     7
370
    25
100
AcDbPolyline
 90
        3
 70
   128
 43
0.0
 10
96.5154386438
 20
134.2292023651
 10
96.4920158399
 20
134.2293428293
 10
96.4472133845
 20
134.2442135631
  0
ARC
  5
A8
330
1F
100
AcDbEntity
  8
0
  6
Continuous
 62
     7
370
    25
100
AcDbCircle
 10
125.7110405296
 20
152.245281413
 30
0.0
 40
6.38049327652161
100
AcDbArc
 50
278.6960876669
 51
340.3611603498
  0
LINE
  5
A9
330
1F
100
AcDbEntity
  8
0
  6
Continuous
 62
     7
370
    25
100
AcDbLine
 10
144.1656993472
 20
143.3596224437
 30
0.0
 11
131.7203794947
 21
150.1008608259
 31
0.0
  0
LINE
  5
AA
330
1F
100
AcDbEntity
  8
0
  6
Continuous
 62
     7
370
    25
100
AcDbLine
 10
144.6142305865
 20
145.5715297325
 30
0.0
 11
144.9567623256
 21
145.3859910615
 31
0.0
  0
ARC
  5
AB
330
1F
100
AcDbEntity
  8
0
  6
Continuous
 62
     7
370
    25
100
AcDbCircle
 10
138.375206333
 20
145.5033624839
 30
0.0
 40
6.582602474273426
100
AcDbArc
 50
279.517041682
 51
358.978330598
  0
LINE
  5
AC
330
1F
100
AcDbEntity
  8
0
  6
Continuous
 62
     7
370
    25
100
AcDbLine
 10
126.6757285071
 20
145.9381369277
 30
0.0
 11
139.4635800986
 21
139.0113598745
 31
0.0
  0
LINE
  5
AD
330
1F
100
AcDbEntity
  8
0
  6
Continuous
 62
     7
370
    25
100
AcDbLine
 10
131.7203794947
 20
150.1008608259
 30
0.0
 11
131.575714444
 21
150.0848288009
 31
0.0
  0
LINE
  5
AE
330
1F
100
AcDbEntity
  8
0
  6
Continuous
 62
     7
370
    25
100
AcDbLine
 10
114.2265474426
 20
144.5584976851
 30
0.0
 11
126.6757285071
 21
145.9381369277
 31
0.0
  0
LINE
  5
AF
330
1F
100
AcDbEntity
  8
0
  6
Continuous
 62
     7
370
    25
100
AcDbLine
 10
114.2265474426
 20
144.5584976851
 30
0.0
 11
114.228586587
 21
144.6332232053
 31
0.0
  0
LINE
  5
B0
330
1F
100
AcDbEntity
  8
0
  6
Continuous
 62
     7
370
    25
100
AcDbLine
 10
50.6468012915
 20
137.5124829819
 30
0.0
 11
63.0959823561
 21
138.8921222245
 31
0.0
  0
LINE
  5
B1
330
1F
100
AcDbEntity
  8
0
  6
Continuous
 62
     7
370
    25
100
AcDbLine
 10
64.2377548196
 20
138.2736599876
 30
0.0
 11
63.0959823561
 21
138.8921222245
 31
0.0
  0
LINE
  5
B2
330
1F
100
AcDbEntity
  8
0
  6
Continuous
 62
     7
370
    25
100
AcDbLine
 10
72.2407997896
 20
139.1605709292
 30
0.0
 11
64.2377548196
 21
138.2736599876
 31
0.0
  0
LINE
  5
B3
330
1F
100
AcDbEntity
  8
0
  6
Continuous
 62
     7
370
    25
100
AcDbLine
 10
72.2407997896
 20
139.1605709292
 30
0.0
 11
71.0990273261
 21
139.7790331661
 31
0.0
  0
LINE
  5
B4
330
1F
100
AcDbEntity
  8
0
  6
Continuous
 62
     7
370
    25
100
AcDbLine
 10
71.0990273261
 20
139.7790331661
 30
0.0
 11
106.2235024725
 21
143.6715867435
 31
0.0
  0
LINE
  5
B5
330
1F
100
AcDbEntity
  8
0
  6
Continuous
 62
     7
370
    25
100
AcDbLine
 10
107.365274936
 20
143.0531245066
 30
0.0
 11
106.2235024725
 21
143.6715867435
 31
0.0
  0
LINE
  5
B6
330
1F
100
AcDbEntity
  8
0
  6
Continuous
 62
     7
370
    25
100
AcDbLine
 10
115.3683199061
 20
143.9400354482
 30
0.0
 11
107.365274936
 21
143.0531245066
 31
0.0
  0
LINE
  5
B7
330
1F
100
AcDbEntity
  8
0
  6
Continuous
 62
     7
370
    25
100
AcDbLine
 10
115.3683199061
 20
143.9400354482
 30
0.0
 11
114.2265474426
 21
144.5584976851
 31
0.0
  0
LWPOLYLINE
  5
B8
330
1F
100
AcDbEntity
  8
0
  6
Continuous
 62
     7
370
    25
100
AcDbPolyline
 90
       15
 70
   128
 43
0.0
 10
100.9379783136
 20
136.3808775582
 10
100.6591536046
 20
136.499177096
 10
100.2939838076
 20
136.6004262466
 10
99.860780061
 20
136.6795479546
 10
99.3812650097
 20
136.7325747274
 10
98.8794835406
 20
136.7568475809
 10
98.3805970717
 20
136.7511493732
 10
97.9096218539
 20
136.715765836
 10
97.4901745511
 20
136.6524712476
 10
97.1432880026
 20
136.5644394631
 10
96.8863565484
 20
136.4560847637
 10
96.7322638044
 20
136.3328405065
 10
96.6887366243
 20
136.2008866731
 10
96.7579576427
 20
136.0668399797
 10
96.9364558285
 20
135.9374220873
  0
LINE
  5
B9
330
1F
100
AcDbEntity
  8
0
  6
Continuous
 62
     7
370
    25
100
AcDbLine
 10
96.9364558285
 20
135.9374220873
 30
0.0
 11
94.2687741719
 21
135.6417851068
 31
0.0
  0
LINE
  5
BA
330
1F
100
AcDbEntity
  8
0
  6
Continuous
 62
     7
370
    25
100
AcDbLine
 10
94.2687741719
 20
135.6417851068
 30
0.0
 11
96.6208254467
 21
134.3677528988
 31
0.0
  0
LINE
  5
BB
330
1F
100
AcDbEntity
  8
0
  6
Continuous
 62
     7
370
    25
100
AcDbLine
 10
96.6208254467
 20
134.3677528988
 30
0.0
 11
96.1762118373
 21
134.3184800687
 31
0.0
  0
LINE
  5
BC
330
1F
100
AcDbEntity
  8
0
  6
Continuous
 62
     7
370
    25
100
AcDbLine
 10
96.1762118373
 20
134.3184800687
 30
0.0
 11
96.3360599822
 21
134.2318953555
 31
0.0
  0
LWPOLYLINE
  5
BD
330
1F
100
AcDbEntity
  8
0
  6
Continuous
 62
     7
370
    25
100
AcDbPolyline
 90
       10
 70
   128
 43
0.0
 10
83.1406097344
 20
137.4630242417
 10
82.4396082705
 20
137.3694042301
 10
81.7994412446
 20
137.250930932
 10
81.2310620919
 20
137.1096314584
 10
80.7441959373
 20
136.9479234825
 10
80.3471731957
 20
136.7685738724
 10
80.0467870363
 20
136.5746513499
 10
79.8481771495
 20
136.369473983
 10
79.7547418057
 20
136.1565524134
 10
79.7473666571
 20
136.0873580593
  0
LWPOLYLINE
  5
BE
330
1F
100
AcDbEntity
  8
0
  6
Continuous
 62
     7
370
    25
100
AcDbPolyline
 90
       17
 70
   128
 43
0.0
 10
92.2427151294
 20
135.7463792396
 10
92.2220020771
 20
135.8942075109
 10
92.1021191411
 20
136.1116178745
 10
91.8777424031
 20
136.3256960249
 10
91.5527110113
 20
136.5327790256
 10
91.1325863429
 20
136.729323629
 10
90.6245568475
 20
136.9119669024
 10
90.0373150505
 20
137.0775837689
 10
89.3809088219
 20
137.2233404778
 10
88.6665694544
 20
137.3467430915
 10
87.9065194925
 20
137.4456801571
 10
87.1137636018
 20
137.5184588339
 10
86.3018660554
 20
137.5638338586
 10
85.4847186454
 20
137.581028852
 10
84.6763029905
 20
137.5697496029
 10
83.8904513068
 20
137.5301891024
 10
83.1406097344
 20
137.4630242417
  0
LWPOLYLINE
  5
BF
330
1F
100
AcDbEntity
  8
0
  6
Continuous
 62
     7
370
    25
100
AcDbPolyline
 90
       10
 70
   128
 43
0.0
 10
105.3712902068
 20
139.9266657463
 10
104.6702887429
 20
139.8330457348
 10
104.030121717
 20
139.7145724367
 10
103.4617425643
 20
139.5732729631
 10
102.9748764097
 20
139.4115649871
 10
102.5778536681
 20
139.2322153771
 10
102.2774675087
 20
139.0382928546
 10
102.0788576219
 20
138.8331154877
 10
101.9854222781
 20
138.620193918
 10
101.9780471295
 20
138.5509995639
  0
LWPOLYLINE
  5
C0
330
1F
100
AcDbEntity
  8
0
  6
Continuous
 62
     7
370
    25
100
AcDbPolyline
 90
       17
 70
   128
 43
0.0
 10
114.4733956018
 20
138.2100207443
 10
114.4526825495
 20
138.3578490155
 10
114.3327996135
 20
138.5752593792
 10
114.1084228755
 20
138.7893375296
 10
113.7833914837
 20
138.9964205303
 10
113.3632668153
 20
139.1929651337
 10
112.8552373199
 20
139.3756084071
 10
112.2679955229
 20
139.5412252735
 10
111.6115892943
 20
139.6869819824
 10
110.8972499268
 20
139.8103845962
 10
110.1371999649
 20
139.9093216617
 10
109.3444440742
 20
139.9821003386
 10
108.5325465278
 20
140.0274753633
 10
107.7153991178
 20
140.0446703566
 10
106.9069834629
 20
140.0333911075
 10
106.1211317792
 20
139.9938306071
 10
105.3712902068
 20
139.9266657463
  0
LWPOLYLINE
  5
C1
330
1F
100
AcDbEntity
  8
0
  6
Continuous
 62
     7
370
    25
100
AcDbPolyline
 90
       10
 70
   128
 43
0.0
 10
62.2437700903
 20
135.1472012273
 10
61.5427686265
 20
135.0535812158
 10
60.9026016005
 20
134.9351079177
 10
60.3342224478
 20
134.7938084441
 10
59.8473562932
 20
134.6321004681
 10
59.4503335516
 20
134.4527508581
 10
59.1499473922
 20
134.2588283356
 10
58.9513375055
 20
134.0536509687
 10
58.8579021616
 20
133.840729399
 10
58.850527013
 20
133.7715350449
  0
LWPOLYLINE
  5
C2
330
1F
100
AcDbEntity
  8
0
  6
Continuous
 62
     7
370
    25
100
AcDbPolyline
 90
       17
 70
   128
 43
0.0
 10
71.3458754853
 20
133.4305562253
 10
71.325162433
 20
133.5783844965
 10
71.2052794971
 20
133.7957948602
 10
70.9809027591
 20
134.0098730106
 10
70.6558713673
 20
134.2169560113
 10
70.2357466988
 20
134.4135006147
 10
69.7277172034
 20
134.5961438881
 10
69.1404754064
 20
134.7617607545
 10
68.4840691779
 20
134.9075174634
 10
67.7697298103
 20
135.0309200772
 10
67.0096798484
 20
135.1298571427
 10
66.2169239577
 20
135.2026358196
 10
65.4050264113
 20
135.2480108443
 10
64.5878790013
 20
135.2652058376
 10
63.7794633465
 20
135.2539265885
 10
62.9936116627
 20
135.2143660881
 10
62.2437700903
 20
135.1472012273
  0
LWPOLYLINE
  5
C3
330
1F
100
AcDbEntity
  8
0
  6
Continuous
 62
     7
370
    25
100
AcDbPolyline
 90
       10
 70
   128
 43
0.0
 10
126.2681298509
 20
142.2424887607
 10
125.567128387
 20
142.1488687491
 10
124.9269613611
 20
142.030395451
 10
124.3585822083
 20
141.8890959774
 10
123.8717160537
 20
141.7273880015
 10
123.4746933121
 20
141.5480383914
 10
123.1743071527
 20
141.3541158689
 10
122.975697266
 20
141.148938502
 10
122.8822619221
 20
140.9360169324
 10
122.8748867735
 20
140.8668225783
  0
LWPOLYLINE
  5
C4
330
1F
100
AcDbEntity
  8
0
  6
Continuous
 62
     7
370
    25
100
AcDbPolyline
 90
       17
 70
   128
 43
0.0
 10
135.3702352458
 20
140.5258437586
 10
135.3495221936
 20
140.6736720299
 10
135.2296392576
 20
140.8910823935
 10
135.0052625196
 20
141.1051605439
 10
134.6802311278
 20
141.3122435446
 10
134.2601064594
 20
141.508788148
 10
133.7520769639
 20
141.6914314214
 10
133.1648351669
 20
141.8570482879
 10
132.5084289384
 20
142.0028049968
 10
131.7940895709
 20
142.1262076105
 10
131.034039609
 20
142.2251446761
 10
130.2412837183
 20
142.2979233529
 10
129.4293861718
 20
142.3432983776
 10
128.6122387618
 20
142.360493371
 10
127.803823107
 20
142.3492141219
 10
127.0179714233
 20
142.3096536214
 10
126.2681298509
 20
142.2424887607
  0
LINE
  5
C5
330
1F
100
AcDbEntity
  8
0
  6
Continuous
 62
     7
370
    25
100
AcDbLine
 10
107.3760618288
 20
143.4484158742
 30
0.0
 11
107.365274936
 21
143.0531245066
 31
0.0
  0
LWPOLYLINE
  5
C6
330
1F
100
AcDbEntity
  8
0
  6
Continuous
 62
     7
370
    25
100
AcDbPolyline
 90
       49
 70
   128
 43
0.0
 10
131.8849311356
 20
135.7765525278
 10
132.5859325995
 20
135.8701725394
 10
133.2260996254
 20
135.9886458375
 10
133.7944787781
 20
136.1299453111
 10
134.2813449327
 20
136.2916532871
 10
134.6783676743
 20
136.4710028971
 10
134.9787538337
 20
136.6649254196
 10
135.1773637204
 20
136.8701027865
 10
135.2707990643
 20
137.0830243562
 10
135.2574611606
 20
137.3000469815
 10
135.1375782247
 20
137.5174573451
 10
134.9132014867
 20
137.7315354956
 10
134.5881700949
 20
137.9386184962
 10
134.1680454265
 20
138.1351630996
 10
133.660015931
 20
138.3178063731
 10
133.072774134
 20
138.4834232395
 10
132.4163679055
 20
138.6291799484
 10
131.7020285379
 20
138.7525825621
 10
130.941978576
 20
138.8515196277
 10
130.1492226853
 20
138.9242983045
 10
129.3373251389
 20
138.9696733292
 10
128.5201777289
 20
138.9868683226
 10
127.7117620741
 20
138.9755890735
 10
126.9259103903
 20
138.936028573
 10
126.1760688179
 20
138.8688637123
 10
125.4750673541
 20
138.7752437007
 10
124.8349003281
 20
138.6567704027
 10
124.2665211754
 20
138.515470929
 10
123.7796550208
 20
138.3537629531
 10
123.3826322792
 20
138.1744133431
 10
123.0822461198
 20
137.9804908205
 10
122.8836362331
 20
137.7753134536
 10
122.7902008892
 20
137.562391884
 10
122.8035387929
 20
137.3453692587
 10
122.9234217289
 20
137.127958895
 10
123.1477984668
 20
136.9138807446
 10
123.4728298587
 20
136.7067977439
 10
123.8929545271
 20
136.5102531405
 10
124.4009840225
 20
136.3276098671
 10
124.9882258195
 20
136.1619930007
 10
125.644632048
 20
136.0162362918
 10
126.3589714156
 20
135.892833678
 10
127.1190213775
 20
135.7938966125
 10
127.9117772682
 20
135.7211179356
 10
128.7236748146
 20
135.6757429109
 10
129.5408222246
 20
135.6585479176
 10
130.3492378795
 20
135.6698271667
 10
131.1350895632
 20
135.7093876671
 10
131.8849311356
 20
135.7765525278
  0
LWPOLYLINE
  5
C7
330
1F
100
AcDbEntity
  8
0
  6
Continuous
 62
     7
370
    25
100
AcDbPolyline
 90
       47
 70
   128
 43
0.0
 10
131.6565766429
 20
135.9002449752
 10
132.3283449945
 20
135.9906510096
 10
132.9386807332
 20
136.1058707476
 10
133.476214459
 20
136.2437578635
 10
133.9309329356
 20
136.4017437813
 10
134.2943656182
 20
136.5768855221
 10
134.5597424435
 20
136.7659205268
 10
134.7221199433
 20
136.9653274309
 10
134.7784733321
 20
137.171391661
 10
134.7277528529
 20
137.3802746305
 10
134.5709033323
 20
137.5880852448
 10
134.3108465799
 20
137.7909523853
 10
133.9524269612
 20
137.9850970212
 10
133.5023211554
 20
138.1669026051
 10
132.968913782
 20
138.332982443
 10
132.3621412112
 20
138.4802427818
 10
131.6933064679
 20
138.60594044
 10
130.9748686779
 20
138.7077339081
 10
130.2202109779
 20
138.7837269663
 10
129.4433912129
 20
138.8325040077
 10
128.6588800655
 20
138.8531564084
 10
127.8812914938
 20
138.8452994532
 10
127.1251105019
 20
138.8090795023
 10
126.4044233107
 20
138.7451712649
 10
125.732654959
 20
138.6547652305
 10
125.1223192203
 20
138.5395454925
 10
124.5847854945
 20
138.4016583766
 10
124.1300670179
 20
138.2436724589
 10
123.7666343353
 20
138.068530718
 10
123.5012575101
 20
137.8794957133
 10
123.3388800102
 20
137.6800888093
 10
123.2825266214
 20
137.4740245791
 10
123.3332471006
 20
137.2651416097
 10
123.4900966213
 20
137.0573309954
 10
123.7501533736
 20
136.8544638548
 10
124.1085729924
 20
136.660319219
 10
124.5586787982
 20
136.4785136351
 10
125.0920861716
 20
136.3124337971
 10
125.6988587424
 20
136.1651734583
 10
126.3676934856
 20
136.0394758001
 10
127.0861312756
 20
135.9376823321
 10
127.8407889757
 20
135.8616892739
 10
128.6176087406
 20
135.8129122324
 10
129.4021198881
 20
135.7922598317
 10
130.1797084597
 20
135.8001167869
 10
130.9358894517
 20
135.8363367378
 10
131.6565766429
 20
135.9002449752
  0
LINE
  5
C8
330
1F
100
AcDbEntity
  8
0
  6
Continuous
 62
     7
370
    25
100
AcDbLine
 10
106.2235024725
 20
143.6715867435
 30
0.0
 11
106.2255416169
 21
143.7463122636
 31
0.0
  0
LINE
  5
C9
330
1F
100
AcDbEntity
  8
0
  6
Continuous
 62
     7
370
    25
100
AcDbLine
 10
71.0990273261
 20
139.7790331661
 30
0.0
 11
71.1010664705
 21
139.8537586863
 31
0.0
  0
LWPOLYLINE
  5
CA
330
1F
100
AcDbEntity
  8
0
  6
Continuous
 62
     7
370
    25
100
AcDbPolyline
 90
       47
 70
   128
 43
0.0
 10
110.7597369988
 20
133.5844219609
 10
111.4315053505
 20
133.6748279953
 10
112.0418410892
 20
133.7900477333
 10
112.579374815
 20
133.9279348492
 10
113.0340932916
 20
134.0859207669
 10
113.3975259741
 20
134.2610625078
 10
113.6629027994
 20
134.4500975125
 10
113.8252802992
 20
134.6495044165
 10
113.8816336881
 20
134.8555686467
 10
113.8309132089
 20
135.0644516161
 10
113.6740636882
 20
135.2722622304
 10
113.4140069359
 20
135.475129371
 10
113.0555873171
 20
135.6692740068
 10
112.6054815113
 20
135.8510795907
 10
112.0720741379
 20
136.0171594287
 10
111.4653015671
 20
136.1644197675
 10
110.7964668238
 20
136.2901174257
 10
110.0780290338
 20
136.3919108937
 10
109.3233713338
 20
136.4679039519
 10
108.5465515689
 20
136.5166809934
 10
107.7620404214
 20
136.5373333941
 10
106.9844518498
 20
136.5294764389
 10
106.2282708578
 20
136.493256488
 10
105.5075836666
 20
136.4293482506
 10
104.8358153149
 20
136.3389422162
 10
104.2254795762
 20
136.2237224782
 10
103.6879458504
 20
136.0858353623
 10
103.2332273738
 20
135.9278494445
 10
102.8697946913
 20
135.7527077037
 10
102.604417866
 20
135.563672699
 10
102.4420403662
 20
135.3642657949
 10
102.3856869773
 20
135.1582015648
 10
102.4364074565
 20
134.9493185953
 10
102.5932569772
 20
134.741507981
 10
102.8533137295
 20
134.5386408405
 10
103.2117333483
 20
134.3444962046
 10
103.6618391541
 20
134.1626906207
 10
104.1952465275
 20
133.9966107828
 10
104.8020190983
 20
133.849350444
 10
105.4708538416
 20
133.7236527858
 10
106.1892916316
 20
133.6218593177
 10
106.9439493316
 20
133.5458662595
 10
107.7207690965
 20
133.4970892181
 10
108.505280244
 20
133.4764368174
 10
109.2828688156
 20
133.4842937726
 10
110.0390498076
 20
133.5205137235
 10
110.7597369988
 20
133.5844219609
  0
LWPOLYLINE
  5
CB
330
1F
100
AcDbEntity
  8
0
  6
Continuous
 62
     7
370
    25
100
AcDbPolyline
 90
       49
 70
   128
 43
0.0
 10
110.9880914915
 20
133.4607295135
 10
111.6890929554
 20
133.5543495251
 10
112.3292599813
 20
133.6728228231
 10
112.897639134
 20
133.8141222968
 10
113.3845052886
 20
133.9758302727
 10
113.7815280302
 20
134.1551798827
 10
114.0819141896
 20
134.3491024053
 10
114.2805240764
 20
134.5542797722
 10
114.3739594202
 20
134.7672013418
 10
114.3606215166
 20
134.9842239671
 10
114.2407385806
 20
135.2016343308
 10
114.0163618426
 20
135.4157124812
 10
113.6913304508
 20
135.6227954819
 10
113.2712057824
 20
135.8193400853
 10
112.7631762869
 20
136.0019833587
 10
112.17593449
 20
136.1676002251
 10
111.5195282614
 20
136.313356934
 10
110.8051888939
 20
136.4367595478
 10
110.045138932
 20
136.5356966133
 10
109.2523830413
 20
136.6084752902
 10
108.4404854949
 20
136.6538503149
 10
107.6233380849
 20
136.6710453082
 10
106.81492243
 20
136.6597660591
 10
106.0290707463
 20
136.6202055587
 10
105.2792291739
 20
136.553040698
 10
104.57822771
 20
136.4594206864
 10
103.9380606841
 20
136.3409473883
 10
103.3696815314
 20
136.1996479147
 10
102.8828153768
 20
136.0379399387
 10
102.4857926352
 20
135.8585903287
 10
102.1854064758
 20
135.6646678062
 10
101.986796589
 20
135.4594904393
 10
101.8933612452
 20
135.2465688696
 10
101.9066991488
 20
135.0295462443
 10
102.0265820848
 20
134.8121358807
 10
102.2509588228
 20
134.5980577302
 10
102.5759902146
 20
134.3909747296
 10
102.996114883
 20
134.1944301262
 10
103.5041443785
 20
134.0117868527
 10
104.0913861754
 20
133.8461699863
 10
104.747792404
 20
133.7004132774
 10
105.4621317715
 20
133.5770106637
 10
106.2221817334
 20
133.4780735981
 10
107.0149376241
 20
133.4052949213
 10
107.8268351705
 20
133.3599198966
 10
108.6439825806
 20
133.3427249032
 10
109.4523982354
 20
133.3540041523
 10
110.2382499191
 20
133.3935646528
 10
110.9880914915
 20
133.4607295135
  0
LINE
  5
CC
330
1F
100
AcDbEntity
  8
0
  6
Continuous
 62
     7
370
    25
100
AcDbLine
 10
145.9425397758
 20
194.2481197164
 30
0.0
 11
146.2850715148
 21
194.0625810454
 31
0.0
  0
LINE
  5
CD
330
1F
100
AcDbEntity
  8
0
  6
Continuous
 62
     7
370
    25
100
AcDbLine
 10
144.9567623256
 20
145.3859910615
 30
0.0
 11
146.2850715148
 21
194.0625810454
 31
0.0
  0
LINE
  5
CE
330
1F
100
AcDbEntity
  8
0
  6
Continuous
 62
     7
370
    25
100
AcDbLine
 10
64.2485417123
 20
138.6689513552
 30
0.0
 11
64.2377548196
 21
138.2736599876
 31
0.0
  0
LWPOLYLINE
  5
CF
330
1F
100
AcDbEntity
  8
0
  6
Continuous
 62
     7
370
    25
100
AcDbPolyline
 90
       49
 70
   128
 43
0.0
 10
88.7574110191
 20
130.9970880088
 10
89.458412483
 20
131.0907080204
 10
90.0985795089
 20
131.2091813185
 10
90.6669586616
 20
131.3504807921
 10
91.1538248162
 20
131.5121887681
 10
91.5508475578
 20
131.6915383781
 10
91.8512337172
 20
131.8854609006
 10
92.049843604
 20
132.0906382675
 10
92.1432789478
 20
132.3035598372
 10
92.1299410442
 20
132.5205824625
 10
92.0100581082
 20
132.7379928261
 10
91.7856813702
 20
132.9520709766
 10
91.4606499784
 20
133.1591539772
 10
91.04052531
 20
133.3556985806
 10
90.5324958145
 20
133.5383418541
 10
89.9452540176
 20
133.7039587205
 10
89.288847789
 20
133.8497154294
 10
88.5745084215
 20
133.9731180431
 10
87.8144584596
 20
134.0720551087
 10
87.0217025689
 20
134.1448337855
 10
86.2098050225
 20
134.1902088102
 10
85.3926576125
 20
134.2074038036
 10
84.5842419576
 20
134.1961245545
 10
83.7983902739
 20
134.156564054
 10
83.0485487015
 20
134.0893991933
 10
82.3475472376
 20
133.9957791817
 10
81.7073802117
 20
133.8773058837
 10
81.139001059
 20
133.73600641
 10
80.6521349044
 20
133.5742984341
 10
80.2551121628
 20
133.3949488241
 10
79.9547260034
 20
133.2010263015
 10
79.7561161166
 20
132.9958489346
 10
79.6626807728
 20
132.782927365
 10
79.6760186764
 20
132.5659047397
 10
79.7959016124
 20
132.348494376
 10
80.0202783504
 20
132.1344162256
 10
80.3453097422
 20
131.9273332249
 10
80.7654344106
 20
131.7307886215
 10
81.2734639061
 20
131.5481453481
 10
81.860705703
 20
131.3825284817
 10
82.5171119316
 20
131.2367717728
 10
83.2314512991
 20
131.113369159
 10
83.991501261
 20
131.0144320935
 10
84.7842571517
 20
130.9416534166
 10
85.5961546981
 20
130.8962783919
 10
86.4133021081
 20
130.8790833986
 10
87.221717763
 20
130.8903626477
 10
88.0075694467
 20
130.9299231481
 10
88.7574110191
 20
130.9970880088
  0
LWPOLYLINE
  5
D0
330
1F
100
AcDbEntity
  8
0
  6
Continuous
 62
     7
370
    25
100
AcDbPolyline
 90
       47
 70
   128
 43
0.0
 10
88.5290565264
 20
131.1207804562
 10
89.2008248781
 20
131.2111864906
 10
89.8111606168
 20
131.3264062286
 10
90.3486943426
 20
131.4642933445
 10
90.8034128192
 20
131.6222792623
 10
91.1668455017
 20
131.7974210031
 10
91.432222327
 20
131.9864560078
 10
91.5945998268
 20
132.1858629119
 10
91.6509532157
 20
132.391927142
 10
91.6002327365
 20
132.6008101115
 10
91.4433832158
 20
132.8086207258
 10
91.1833264635
 20
133.0114878663
 10
90.8249068447
 20
133.2056325022
 10
90.3748010389
 20
133.3874380861
 10
89.8413936655
 20
133.553517924
 10
89.2346210947
 20
133.7007782628
 10
88.5657863514
 20
133.826475921
 10
87.8473485614
 20
133.9282693891
 10
87.0926908614
 20
134.0042624473
 10
86.3158710965
 20
134.0530394887
 10
85.531359949
 20
134.0736918894
 10
84.7537713774
 20
134.0658349342
 10
83.9975903854
 20
134.0296149833
 10
83.2769031942
 20
133.9657067459
 10
82.6051348425
 20
133.8753007115
 10
81.9947991038
 20
133.7600809735
 10
81.457265378
 20
133.6221938576
 10
81.0025469014
 20
133.4642079399
 10
80.6391142189
 20
133.289066199
 10
80.3737373936
 20
133.1000311943
 10
80.2113598938
 20
132.9006242903
 10
80.1550065049
 20
132.6945600601
 10
80.2057269841
 20
132.4856770907
 10
80.3625765048
 20
132.2778664764
 10
80.6226332571
 20
132.0749993358
 10
80.9810528759
 20
131.8808547
 10
81.4311586817
 20
131.6990491161
 10
81.9645660551
 20
131.5329692781
 10
82.5713386259
 20
131.3857089393
 10
83.2401733692
 20
131.2600112811
 10
83.9586111592
 20
131.1582178131
 10
84.7132688592
 20
131.0822247549
 10
85.4900886241
 20
131.0334477134
 10
86.2745997716
 20
131.0127953127
 10
87.0521883432
 20
131.0206522679
 10
87.8083693352
 20
131.0568722188
 10
88.5290565264
 20
131.1207804562
  0
LINE
  5
D1
330
1F
100
AcDbEntity
  8
0
  6
Continuous
 62
     7
370
    25
100
AcDbLine
 10
63.0959823561
 20
138.8921222245
 30
0.0
 11
63.0980215004
 21
138.9668477446
 31
0.0
  0
ARC
  5
D2
330
1F
100
AcDbEntity
  8
0
  6
Continuous
 62
     7
370
    25
100
AcDbCircle
 10
50.102031316
 20
142.045825775
 30
0.0
 40
4.565957862905734
100
AcDbArc
 50
241.0235716263
 51
276.8523524589
  0
LINE
  5
D3
330
1F
100
AcDbEntity
  8
0
  6
Continuous
 62
     7
370
    25
100
AcDbLine
 10
96.6227757554
 20
134.4392229879
 30
0.0
 11
96.6208254467
 21
134.3677528988
 31
0.0
  0
LWPOLYLINE
  5
D4
330
1F
100
AcDbEntity
  8
0
  6
Continuous
 62
     7
370
    25
100
AcDbPolyline
 90
       47
 70
   128
 43
0.0
 10
67.6322168824
 20
128.8049574419
 10
68.303985234
 20
128.8953634763
 10
68.9143209727
 20
129.0105832143
 10
69.4518546985
 20
129.1484703302
 10
69.9065731751
 20
129.3064562479
 10
70.2700058577
 20
129.4815979888
 10
70.5353826829
 20
129.6706329935
 10
70.6977601828
 20
129.8700398975
 10
70.7541135716
 20
130.0761041277
 10
70.7033930924
 20
130.2849870971
 10
70.5465435717
 20
130.4927977114
 10
70.2864868194
 20
130.695664852
 10
69.9280672007
 20
130.8898094878
 10
69.4779613948
 20
131.0716150717
 10
68.9445540214
 20
131.2376949097
 10
68.3377814506
 20
131.3849552485
 10
67.6689467074
 20
131.5106529067
 10
66.9505089174
 20
131.6124463747
 10
66.1958512173
 20
131.6884394329
 10
65.4190314524
 20
131.7372164744
 10
64.634520305
 20
131.7578688751
 10
63.8569317333
 20
131.7500119199
 10
63.1007507413
 20
131.713791969
 10
62.3800635501
 20
131.6498837316
 10
61.7082951985
 20
131.5594776972
 10
61.0979594598
 20
131.4442579592
 10
60.560425734
 20
131.3063708433
 10
60.1057072574
 20
131.1483849255
 10
59.7422745748
 20
130.9732431847
 10
59.4768977495
 20
130.78420818
 10
59.3145202497
 20
130.5848012759
 10
59.2581668609
 20
130.3787370458
 10
59.3088873401
 20
130.1698540763
 10
59.4657368607
 20
129.962043462
 10
59.7257936131
 20
129.7591763215
 10
60.0842132318
 20
129.5650316856
 10
60.5343190377
 20
129.3832261017
 10
61.067726411
 20
129.2171462638
 10
61.6744989818
 20
129.069885925
 10
62.3433337251
 20
128.9441882668
 10
63.0617715151
 20
128.8423947987
 10
63.8164292151
 20
128.7664017405
 10
64.5932489801
 20
128.7176246991
 10
65.3777601275
 20
128.6969722984
 10
66.1553486992
 20
128.7048292536
 10
66.9115296911
 20
128.7410492045
 10
67.6322168824
 20
128.8049574419
  0
LWPOLYLINE
  5
D5
330
1F
100
AcDbEntity
  8
0
  6
Continuous
 62
     7
370
    25
100
AcDbPolyline
 90
       49
 70
   128
 43
0.0
 10
67.8605713751
 20
128.6812649945
 10
68.5615728389
 20
128.7748850061
 10
69.2017398649
 20
128.8933583041
 10
69.7701190176
 20
129.0346577778
 10
70.2569851722
 20
129.1963657537
 10
70.6540079138
 20
129.3757153637
 10
70.9543940732
 20
129.5696378863
 10
71.1530039599
 20
129.7748152532
 10
71.2464393038
 20
129.9877368228
 10
71.2331014001
 20
130.2047594481
 10
71.1132184641
 20
130.4221698118
 10
70.8888417262
 20
130.6362479622
 10
70.5638103343
 20
130.8433309629
 10
70.1436856659
 20
131.0398755663
 10
69.6356561705
 20
131.2225188397
 10
69.0484143735
 20
131.3881357061
 10
68.392008145
 20
131.533892415
 10
67.6776687774
 20
131.6572950288
 10
66.9176188155
 20
131.7562320943
 10
66.1248629248
 20
131.8290107712
 10
65.3129653784
 20
131.8743857959
 10
64.4958179684
 20
131.8915807892
 10
63.6874023135
 20
131.8803015401
 10
62.9015506298
 20
131.8407410397
 10
62.1517090574
 20
131.773576179
 10
61.4507075936
 20
131.6799561674
 10
60.8105405676
 20
131.5614828693
 10
60.2421614149
 20
131.4201833957
 10
59.7552952603
 20
131.2584754197
 10
59.3582725187
 20
131.0791258097
 10
59.0578863593
 20
130.8852032872
 10
58.8592764726
 20
130.6800259203
 10
58.7658411287
 20
130.4671043506
 10
58.7791790324
 20
130.2500817253
 10
58.8990619683
 20
130.0326713617
 10
59.1234387063
 20
129.8185932112
 10
59.4484700981
 20
129.6115102106
 10
59.8685947666
 20
129.4149656072
 10
60.376624262
 20
129.2323223337
 10
60.963866059
 20
129.0667054673
 10
61.6202722875
 20
128.9209487584
 10
62.3346116551
 20
128.7975461447
 10
63.094661617
 20
128.6986090791
 10
63.8874175077
 20
128.6258304023
 10
64.6993150541
 20
128.5804553776
 10
65.5164624641
 20
128.5632603842
 10
66.3248781189
 20
128.5745396333
 10
67.1107298027
 20
128.6141001338
 10
67.8605713751
 20
128.6812649945
  0
ARC
  5
D6
330
1F
100
AcDbEntity
  8
0
  6
Continuous
 62
     7
370
    25
100
AcDbCircle
 10
96.3919786867
 20
134.3247519115
 30
0.0
 40
0.1083939181962136
100
AcDbArc
 50
238.9434287355
 51
307.5956998265
  0
LWPOLYLINE
  5
D7
330
1F
100
AcDbEntity
  8
0
  6
Continuous
 62
     7
370
    25
100
AcDbPolyline
 90
       17
 70
   128
 43
0.0
 10
89.057918558
 20
181.7364816155
 10
88.804200821
 20
181.7632267539
 10
88.5921126218
 20
181.8959581513
 10
88.4539424663
 20
182.1144686557
 10
88.410725508
 20
182.3854920236
 10
88.4690411372
 20
182.6677674041
 10
88.6200113278
 20
182.9183209294
 10
88.840652237
 20
183.0990080964
 10
89.0973732864
 20
183.182320922
 10
89.3510910234
 20
183.1555757836
 10
89.5631792226
 20
183.0228443862
 10
89.7013493781
 20
182.8043338818
 10
89.7445663364
 20
182.5333105139
 10
89.6862507072
 20
182.2510351334
 10
89.5352805166
 20
182.0004816081
 10
89.3146396074
 20
181.8197944411
 10
89.057918558
 20
181.7364816155
  0
LWPOLYLINE
  5
D8
330
1F
100
AcDbEntity
  8
0
  6
Continuous
 62
     7
370
    25
100
AcDbPolyline
 90
       22
 70
   128
 43
0.0
 10
89.6390017349
 20
187.4751260925
 10
89.9176657389
 20
187.3210867419
 10
90.1310388979
 20
187.0776497481
 10
90.2601620703
 20
186.7664455563
 10
90.2935620955
 20
186.4151260246
 10
90.2282712348
 20
186.0549074352
 10
90.0700908677
 20
185.7177967906
 10
89.833076014
 20
185.4337478508
 10
89.5382864834
 20
185.2279996108
 10
89.2119156196
 20
185.1188337045
 10
88.8829629059
 20
185.1159500018
 10
88.5806572346
 20
185.2196047323
 10
88.3318597912
 20
185.4205877184
 10
88.1586773205
 20
185.7010407397
 10
88.0764978448
 20
186.0360443146
 10
88.0926233713
 20
186.3958319053
 10
88.2056210762
 20
186.7484348053
 10
88.4054506175
 20
187.0625226998
 10
88.6743562636
 20
187.3101875009
 10
88.9884445676
 20
187.4694231042
 10
89.3198074055
 20
187.5260807276
 10
89.6390017349
 20
187.4751260925
  0
ARC
  5
D9
330
1F
100
AcDbEntity
  8
0
  6
Continuous
 62
     7
370
    25
100
AcDbCircle
 10
128.041846466
 20
201.590371527
 30
0.0
 40
5.011157515190126
100
AcDbArc
 50
355.9533746866
 51
59.7960899924
  0
ARC
  5
DA
330
1F
100
AcDbEntity
  8
0
  6
Continuous
 62
     7
370
    25
100
AcDbCircle
 10
49.6463689254
 20
142.3050726412
 30
0.0
 40
4.577610890708884
100
AcDbArc
 50
242.7006074283
 51
276.8216320854
  0
LINE
  5
DB
330
1F
100
AcDbEntity
  8
0
  6
Continuous
 62
     7
370
    25
100
AcDbLine
 10
96.4472133845
 20
134.2442135631
 30
0.0
 11
101.9919175618
 21
134.8586870318
 31
0.0
  0
LINE
  5
DC
330
1F
100
AcDbEntity
  8
0
  6
Continuous
 62
     7
370
    25
100
AcDbLine
 10
114.4195258563
 20
136.2359355436
 30
0.0
 11
122.8887572059
 21
137.1745100461
 31
0.0
  0
LINE
  5
DD
330
1F
100
AcDbEntity
  8
0
  6
Continuous
 62
     7
370
    25
100
AcDbLine
 10
135.3163655004
 20
138.551758558
 30
0.0
 11
139.4635800986
 21
139.0113598745
 31
0.0
  0
LINE
  5
DE
330
1F
100
AcDbEntity
  8
0
  6
Continuous
 62
     7
370
    25
100
AcDbLine
 10
71.2920057399
 20
131.4564710246
 30
0.0
 11
79.7612370894
 21
132.3950455271
 31
0.0
  0
LINE
  5
DF
330
1F
100
AcDbEntity
  8
0
  6
Continuous
 62
     7
370
    25
100
AcDbLine
 10
92.1888453839
 20
133.772294039
 30
0.0
 11
96.3360599822
 21
134.2318953555
 31
0.0
  0
ARC
  5
E0
330
1F
100
AcDbEntity
  8
0
  6
Continuous
 62
     7
370
    25
100
AcDbCircle
 10
144.9351816901
 20
145.3113683931
 30
0.0
 40
0.0776805410713802
100
AcDbArc
 50
8.7196927299
 51
73.8703010579
  0
LWPOLYLINE
  5
E1
330
1F
100
AcDbEntity
  8
0
  6
Continuous
 62
     7
370
    25
100
AcDbPolyline
 90
        3
 70
   128
 43
0.0
 10
139.4635800986
 20
139.0113598745
 10
139.508382554
 20
138.9964891408
 10
139.5319232906
 20
138.9963618171
  0
ARC
  5
E2
330
1F
100
AcDbEntity
  8
0
  6
Continuous
 62
     7
370
    25
100
AcDbCircle
 10
146.2635277874
 20
193.9880051439
 30
0.0
 40
0.0776253648477554
100
AcDbArc
 50
8.6419428922
 51
73.8868808921
  0
ARC
  5
E3
330
1F
100
AcDbEntity
  8
0
  6
Continuous
 62
     7
370
    25
100
AcDbCircle
 10
141.286407043
 20
194.416209579
 30
0.0
 40
5.01115751518986
100
AcDbArc
 50
355.9533746866
 51
59.7960899924
  0
ENDSEC
  0
SECTION
  2
OBJECTS
  0
DICTIONARY
  5
C
330
0
100
AcDbDictionary
281
     1
  3
ACAD_GROUP
350
D
  3
ACAD_LAYOUT
350
1A
  3
ACAD_MLINESTYLE
350
17
  3
ACAD_PLOTSETTINGS
350
19
  3
ACAD_PLOTSTYLENAME
350
E
  3
ACAD_SCALELIST
350
47
  3
DWGPROPS
350
E4
  0
DICTIONARY
  5
D
102
{ACAD_REACTORS
330
C
102
}
330
C
100
AcDbDictionary
281
     1
  0
DICTIONARY
  5
1A
102
{ACAD_REACTORS
330
C
102
}
330
C
100
AcDbDictionary
281
     1
  3
Layout1
350
1E
  3
Layout2
350
26
  3
Model
350
22
  0
DICTIONARY
  5
17
102
{ACAD_REACTORS
330
C
102
}
330
C
100
AcDbDictionary
281
     1
  3
Standard
350
18
  0
DICTIONARY
  5
19
102
{ACAD_REACTORS
330
C
102
}
330
C
100
AcDbDictionary
281
     1
  0
ACDBDICTIONARYWDFLT
  5
E
102
{ACAD_REACTORS
330
C
102
}
330
C
100
AcDbDictionary
281
     1
  3
Normal
350
F
100
AcDbDictionaryWithDefault
340
F
  0
DICTIONARY
  5
47
102
{ACAD_REACTORS
330
C
102
}
330
C
100
AcDbDictionary
281
     1
  3
A0
350
48
  3
A1
350
49
  3
A2
350
4A
  3
A3
350
4B
  3
A4
350
4C
  3
A5
350
4D
  3
A6
350
4E
  3
A7
350
4F
  3
A8
350
50
  3
A9
350
51
  3
B0
350
52
  3
B1
350
53
  3
B2
350
54
  3
B3
350
55
  3
B4
350
56
  3
B5
350
57
  3
B6
350
58
  0
XRECORD
  5
E4
102
{ACAD_REACTORS
330
C
102
}
330
C
100
AcDbXrecord
280
     1
  1
DWGPROPS COOKIE
  2

  3

  4

  6

  7

  8
9148
  9

300
=
301
=
302
=
303
=
304
=
305
=
306
=
307
=
308
=
309
=
 40
0.0
 41
2460112.262959028
 42
2460112.26295934
  1

 90
        0
  0
LAYOUT
  5
1E
102
{ACAD_REACTORS
330
1A
102
}
330
1A
100
AcDbPlotSettings
  1

  2
none_device
  4

  6

 40
0.0
 41
0.0
 42
0.0
 43
0.0
 44
0.0
 45
0.0
 46
0.0
 47
0.0
 48
0.0
 49
0.0
140
0.0
141
0.0
142
1.0
143
1.0
 70
   688
 72
     1
 73
     0
 74
     5
  7

 75
    16
147
1.0
148
0.0
149
0.0
100
AcDbLayout
  1
Layout1
 70
     1
 71
     1
 10
0.0
 20
0.0
 11
420.0
 21
297.0
 12
0.0
 22
0.0
 32
0.0
 14
1.0000000000E+20
 24
1.0000000000E+20
 34
1.0000000000E+20
 15
-1.0000000000E+20
 25
-1.0000000000E+20
 35
-1.0000000000E+20
146
0.0
 13
0.0
 23
0.0
 33
0.0
 16
1.0
 26
0.0
 36
0.0
 17
0.0
 27
1.0
 37
0.0
 76
     0
330
1B
  0
LAYOUT
  5
26
102
{ACAD_REACTORS
330
1A
102
}
330
1A
100
AcDbPlotSettings
  1

  2
none_device
  4

  6

 40
0.0
 41
0.0
 42
0.0
 43
0.0
 44
0.0
 45
0.0
 46
0.0
 47
0.0
 48
0.0
 49
0.0
140
0.0
141
0.0
142
1.0
143
1.0
 70
   688
 72
     1
 73
     0
 74
     5
  7

 75
    16
147
1.0
148
0.0
149
0.0
100
AcDbLayout
  1
Layout2
 70
     1
 71
     2
 10
0.0
 20
0.0
 11
0.0
 21
0.0
 12
0.0
 22
0.0
 32
0.0
 14
0.0
 24
0.0
 34
0.0
 15
0.0
 25
0.0
 35
0.0
146
0.0
 13
0.0
 23
0.0
 33
0.0
 16
1.0
 26
0.0
 36
0.0
 17
0.0
 27
1.0
 37
0.0
 76
     0
330
23
  0
LAYOUT
  5
22
102
{ACAD_REACTORS
330
1A
102
}
330
1A
100
AcDbPlotSettings
  1

  2
none_device
  4
Letter_(8.50_x_11.00_Inches)
  6

 40
6.35
 41
6.35
 42
6.35000508
 43
6.35000508
 44
215.9
 45
279.4
 46
0.0
 47
0.0
 48
0.0
 49
0.0
140
0.0
141
0.0
142
1.0
143
1.0
 70
  1712
 72
     1
 73
     0
 74
     0
  7

 75
     0
147
1.0
148
0.0
149
0.0
100
AcDbLayout
  1
Model
 70
     1
 71
     0
 10
0.0
 20
0.0
 11
210.0
 21
297.0
 12
0.0
 22
0.0
 32
0.0
 14
0.0
 24
0.0
 34
0.0
 15
210.0
 25
297.0
 35
0.0
146
0.0
 13
0.0
 23
0.0
 33
0.0
 16
1.0
 26
0.0
 36
0.0
 17
0.0
 27
1.0
 37
0.0
 76
     0
330
1F
331
29
  0
MLINESTYLE
  5
18
102
{ACAD_REACTORS
330
17
102
}
330
17
100
AcDbMlineStyle
  2
Standard
 70
     0
  3

 62
   256
 51
90.0
 52
90.0
 71
     2
 49
0.5
 62
   256
  6
BYLAYER
 49
-0.5
 62
   256
  6
BYLAYER
  0
ACDBPLACEHOLDER
  5
F
102
{ACAD_REACTORS
330
E
102
}
330
E
  0
SCALE
  5
48
102
{ACAD_REACTORS
330
47
102
}
330
47
100
AcDbScale
 70
     0
300
1:1
140
1.0
141
1.0
290
     1
  0
SCALE
  5
49
102
{ACAD_REACTORS
330
47
102
}
330
47
100
AcDbScale
 70
     0
300
1:2
140
1.0
141
2.0
290
     0
  0
SCALE
  5
4A
102
{ACAD_REACTORS
330
47
102
}
330
47
100
AcDbScale
 70
     0
300
1:4
140
1.0
141
4.0
290
     0
  0
SCALE
  5
4B
102
{ACAD_REACTORS
330
47
102
}
330
47
100
AcDbScale
 70
     0
300
1:5
140
1.0
141
5.0
290
     0
  0
SCALE
  5
4C
102
{ACAD_REACTORS
330
47
102
}
330
47
100
AcDbScale
 70
     0
300
1:8
140
1.0
141
8.0
290
     0
  0
SCALE
  5
4D
102
{ACAD_REACTORS
330
47
102
}
330
47
100
AcDbScale
 70
     0
300
1:10
140
1.0
141
10.0
290
     0
  0
SCALE
  5
4E
102
{ACAD_REACTORS
330
47
102
}
330
47
100
AcDbScale
 70
     0
300
1:16
140
1.0
141
16.0
290
     0
  0
SCALE
  5
4F
102
{ACAD_REACTORS
330
47
102
}
330
47
100
AcDbScale
 70
     0
300
1:20
140
1.0
141
20.0
290
     0
  0
SCALE
  5
50
102
{ACAD_REACTORS
330
47
102
}
330
47
100
AcDbScale
 70
     0
300
1:30
140
1.0
141
30.0
290
     0
  0
SCALE
  5
51
102
{ACAD_REACTORS
330
47
102
}
330
47
100
AcDbScale
 70
     0
300
1:40
140
1.0
141
40.0
290
     0
  0
SCALE
  5
52
102
{ACAD_REACTORS
330
47
102
}
330
47
100
AcDbScale
 70
     0
300
1:50
140
1.0
141
50.0
290
     0
  0
SCALE
  5
53
102
{ACAD_REACTORS
330
47
102
}
330
47
100
AcDbScale
 70
     0
300
1:100
140
1.0
141
100.0
290
     0
  0
SCALE
  5
54
102
{ACAD_REACTORS
330
47
102
}
330
47
100
AcDbScale
 70
     0
300
2:1
140
2.0
141
1.0
290
     0
  0
SCALE
  5
55
102
{ACAD_REACTORS
330
47
102
}
330
47
100
AcDbScale
 70
     0
300
4:1
140
4.0
141
1.0
290
     0
  0
SCALE
  5
56
102
{ACAD_REACTORS
330
47
102
}
330
47
100
AcDbScale
 70
     0
300
8:1
140
8.0
141
1.0
290
     0
  0
SCALE
  5
57
102
{ACAD_REACTORS
330
47
102
}
330
47
100
AcDbScale
 70
     0
300
10:1
140
10.0
141
1.0
290
     0
  0
SCALE
  5
58
102
{ACAD_REACTORS
330
47
102
}
330
47
100
AcDbScale
 70
     0
300
100:1
140
100.0
141
1.0
290
     0
  0
ENDSEC
  0
EOF
