  0
SECTION
  2
HEADER
  9
$ACADVER
  1
AC1009
  9
$DWGCODEPAGE
  3
dos932
  9
$INSBASE
 10
0.0
 20
0.0
 30
0.0
  9
$EXTMIN
 10
0.0
 20
0.0
 30
0.0
  9
$EXTMAX
 10
558.8
 20
431.8
 30
0.0
  9
$LIMMIN
 10
0.0
 20
0.0
  9
$LIMMAX
 10
558.8
 20
431.8
  9
$ORTHOMODE
 70
     0
  9
$REGENMODE
 70
     1
  9
$FILLMODE
 70
     1
  9
$QTEXTMODE
 70
     0
  9
$MIRRTEXT
 70
     1
  9
$DRAGMODE
 70
     2
  9
$LTSCALE
 40
2.0
  9
$OSMODE
 70
    37
  9
$ATTMODE
 70
     1
  9
$TEXTSIZE
 40
7.0555555556
  9
$TRACEWID
 40
1.0
  9
$TEXTSTYLE
  7
STANDARD
  9
$CLAYER
  8
0
  9
$CELTYPE
  6
BYLAYER
  9
$CECOLOR
 62
   256
  9
$DIMSCALE
 40
1.0
  9
$DIMASZ
 40
6.0
  9
$DIMEXO
 40
2.0
  9
$DIMDLI
 40
3.75
  9
$DIMRND
 40
0.0
  9
$DIMDLE
 40
0.0
  9
$DIMEXE
 40
2.0
  9
$DIMTP
 40
0.0
  9
$DIMTM
 40
0.0
  9
$DIMTXT
 40
7.0555555556
  9
$DIMCEN
 40
2.5
  9
$DIMTSZ
 40
0.0
  9
$DIMTOL
 70
     0
  9
$DIMLIM
 70
     0
  9
$DIMTIH
 70
     1
  9
$DIMTOH
 70
     1
  9
$DIMSE1
 70
     0
  9
$DIMSE2
 70
     0
  9
$DIMTAD
 70
     1
  9
$DIMZIN
 70
     1
  9
$DIMBLK
  1

  9
$DIMASO
 70
     1
  9
$DIMSHO
 70
     1
  9
$DIMPOST
  1

  9
$DIMAPOST
  1

  9
$DIMALT
 70
     0
  9
$DIMALTD
 70
     3
  9
$DIMALTF
 40
0.0393700787
  9
$DIMLFAC
 40
1.0
  9
$DIMTOFL
 70
     1
  9
$DIMTVP
 40
0.0
  9
$DIMTIX
 70
     0
  9
$DIMSOXD
 70
     0
  9
$DIMSAH
 70
     0
  9
$DIMBLK1
  1

  9
$DIMBLK2
  1

  9
$DIMSTYLE
  2
ISO-25
  9
$DIMCLRD
 70
     0
  9
$DIMCLRE
 70
     0
  9
$DIMCLRT
 70
     0
  9
$DIMTFAC
 40
1.0
  9
$DIMGAP
 40
3.048
  9
$LUNITS
 70
     2
  9
$LUPREC
 70
     2
  9
$SKETCHINC
 40
1.0
  9
$FILLETRAD
 40
0.0
  9
$AUNITS
 70
     0
  9
$AUPREC
 70
     2
  9
$MENU
  1
.
  9
$ELEVATION
 40
0.0
  9
$PELEVATION
 40
0.0
  9
$THICKNESS
 40
0.0
  9
$LIMCHECK
 70
     0
  9
$CHAMFERA
 40
0.0
  9
$CHAMFERB
 40
0.0
  9
$SKPOLY
 70
     0
  9
$TDCREATE
 40
2460325.667482859
  9
$TDUPDATE
 40
2460325.667483148
  9
$TDINDWG
 40
0.0000000116
  9
$TDUSRTIMER
 40
0.0000000116
  9
$USRTIMER
 70
     1
  9
$ANGBASE
 50
0.0
  9
$ANGDIR
 70
     0
  9
$PDMODE
 70
     0
  9
$PDSIZE
 40
-1.0
  9
$PLINEWID
 40
0.0
  9
$COORDS
 70
     1
  9
$SPLFRAME
 70
     0
  9
$SPLINETYPE
 70
     6
  9
$SPLINESEGS
 70
     8
  9
$ATTDIA
 70
     0
  9
$ATTREQ
 70
     1
  9
$HANDLING
 70
     1
  9
$HANDSEED
  5
3A9
  9
$SURFTAB1
 70
     6
  9
$SURFTAB2
 70
     6
  9
$SURFTYPE
 70
     6
  9
$SURFU
 70
     6
  9
$SURFV
 70
     6
  9
$UCSNAME
  2

  9
$UCSORG
 10
0.0
 20
0.0
 30
0.0
  9
$UCSXDIR
 10
1.0
 20
0.0
 30
0.0
  9
$UCSYDIR
 10
0.0
 20
1.0
 30
0.0
  9
$PUCSNAME
  2

  9
$PUCSORG
 10
0.0
 20
0.0
 30
0.0
  9
$PUCSXDIR
 10
1.0
 20
0.0
 30
0.0
  9
$PUCSYDIR
 10
0.0
 20
1.0
 30
0.0
  9
$USERI1
 70
     0
  9
$USERI2
 70
     0
  9
$USERI3
 70
     0
  9
$USERI4
 70
     0
  9
$USERI5
 70
     0
  9
$USERR1
 40
0.0
  9
$USERR2
 40
0.0
  9
$USERR3
 40
0.0
  9
$USERR4
 40
0.0
  9
$USERR5
 40
0.0
  9
$WORLDVIEW
 70
     1
  9
$SHADEDGE
 70
     3
  9
$SHADEDIF
 70
    70
  9
$TILEMODE
 70
     1
  9
$MAXACTVP
 70
    64
  9
$PLIMCHECK
 70
     0
  9
$PEXTMIN
 10
1.0000000000E+20
 20
1.0000000000E+20
 30
1.0000000000E+20
  9
$PEXTMAX
 10
-1.0000000000E+20
 20
-1.0000000000E+20
 30
-1.0000000000E+20
  9
$PLIMMIN
 10
0.0
 20
0.0
  9
$PLIMMAX
 10
420.0
 20
297.0
  9
$UNITMODE
 70
     0
  9
$VISRETAIN
 70
     1
  9
$PLINEGEN
 70
     0
  9
$PSLTSCALE
 70
     1
  0
ENDSEC
  0
SECTION
  2
TABLES
  0
TABLE
  2
VPORT
 70
     1
  0
VPORT
  2
*ACTIVE
 70
     0
 10
0.0
 20
0.0
 11
1.0
 21
1.0
 12
279.4
 22
215.9
 13
0.0
 23
0.0
 14
10.0
 24
10.0
 15
10.0
 25
10.0
 16
0.0
 26
0.0
 36
1.0
 17
0.0
 27
0.0
 37
0.0
 40
431.8
 41
1.2941176471
 42
50.0
 43
0.0
 44
0.0
 50
0.0
 51
0.0
 71
     0
 72
  2000
 73
     1
 74
     3
 75
     0
 76
     0
 77
     0
 78
     0
  0
ENDTAB
  0
TABLE
  2
LTYPE
 70
     6
  0
LTYPE
  2
CONTINUOUS
 70
     0
  3
Solid line
 72
    65
 73
     0
 40
0.0
  0
LTYPE
  2
HIDDEN
 70
     0
  3
Hidden __ __ __ __ __ __ __ __ __ __ __ __ __ __
 72
    65
 73
     2
 40
1.905
 49
1.27
 49
-0.635
  0
LTYPE
  2
PHANTOM
 70
     0
  3
Phantom ______  __  __  ______  __  __  ______
 72
    65
 73
     6
 40
12.7
 49
6.35
 49
-1.27
 49
1.27
 49
-1.27
 49
1.27
 49
-1.27
  0
LTYPE
  2
CENTER
 70
     0
  3
Center ____ _ ____ _ ____ _ ____ _ ____ _ ____
 72
    65
 73
     4
 40
10.16
 49
6.35
 49
-1.27
 49
1.27
 49
-1.27
  0
LTYPE
  2
CENTERX2
 70
     0
  3
Center (2x) ________  __  ________  __  _____
 72
    65
 73
     4
 40
20.32
 49
12.7
 49
-2.54
 49
2.54
 49
-2.54
  0
LTYPE
  2
DOT2
 70
     0
  3
Dot (.5x) ........................................
 72
    65
 73
     2
 40
0.635
 49
0.0
 49
-0.635
  0
ENDTAB
  0
TABLE
  2
LAYER
 70
     3
  0
LAYER
  2
0
 70
     0
 62
     7
  6
CONTINUOUS
  0
LAYER
  2
レイヤー_1
 70
     0
 62
   179
  6
CONTINUOUS
  0
LAYER
  2
FORMAT
 70
     0
 62
     7
  6
CONTINUOUS
  0
ENDTAB
  0
TABLE
  2
STYLE
 70
     1
  0
STYLE
  2
STANDARD
 70
     0
 40
0.0
 41
1.0
 50
0.0
 71
     0
 42
7.0555555556
  3
txt
  4
bigfont
  0
ENDTAB
  0
TABLE
  2
VIEW
 70
     0
  0
ENDTAB
  0
TABLE
  2
UCS
 70
     0
  0
ENDTAB
  0
TABLE
  2
APPID
 70
     1
  0
APPID
  2
ACAD
 70
     0
  0
ENDTAB
  0
TABLE
  2
DIMSTYLE
 70
     1
  0
DIMSTYLE
  2
ISO-25
 70
     0
  3

  4

  5

  6

  7

 40
1.0
 41
2.5
 42
0.625
 43
3.75
 44
1.25
 45
0.0
 46
0.0
 47
0.0
 48
0.0
140
2.5
141
2.5
142
0.0
143
0.0393700787
144
1.0
145
0.0
146
1.0
147
0.625
 71
     0
 72
     0
 73
     0
 74
     0
 75
     0
 76
     0
 77
     1
 78
     8
170
     0
171
     3
172
     1
173
     0
174
     0
175
     0
176
     0
177
     0
178
     0
  0
ENDTAB
  0
ENDSEC
  0
SECTION
  2
BLOCKS
  0
BLOCK
  8
0
  2
$MODEL_SPACE
 70
     0
 10
0.0
 20
0.0
 30
0.0
  3
$MODEL_SPACE
  1

  0
ENDBLK
  5
21
  8
0
  0
BLOCK
 67
     1
  8
0
  2
$PAPER_SPACE
 70
     0
 10
0.0
 20
0.0
 30
0.0
  3
$PAPER_SPACE
  1

  0
ENDBLK
  5
1D
 67
     1
  8
0
  0
BLOCK
  8
0
  2
SW_BROKEN_VIEW_0
 70
     0
 10
0.0
 20
0.0
 30
0.0
  3
SW_BROKEN_VIEW_0
  1

  0
ENDBLK
  5
67
  8
0
  0
ENDSEC
  0
SECTION
  2
ENTITIES
  0
INSERT
  5
68
  8
0
  6
CONTINUOUS
 62
     7
  2
SW_BROKEN_VIEW_0
 10
0.0
 20
0.0
 30
0.0
  0
LINE
  5
69
  8
0
  6
CONTINUOUS
 62
     7
 10
281.4899086099
 20
191.7683845659
 30
0.0
 11
280.5026880544
 21
217.2479871934
 31
0.0
  0
LINE
  5
6A
  8
0
  6
CONTINUOUS
 62
     7
 10
271.9835512418
 20
217.5772991305
 30
0.0
 11
272.9042292651
 21
193.8151000341
 31
0.0
  0
ARC
  5
6B
  8
0
  6
CONTINUOUS
 62
     7
 10
327.5397152097
 20
224.1778514897
 30
0.0
 40
8.741769222168479
 50
267.4074178084
 51
290.9049918101
  0
LINE
  5
6C
  8
0
  6
CONTINUOUS
 62
     7
 10
329.9751001489
 20
215.7731810858
 30
0.0
 11
330.7127411556
 21
215.9782462095
 31
0.0
  0
LINE
  5
6D
  8
0
  6
CONTINUOUS
 62
     7
 10
178.3937419843
 20
221.1950645124
 30
0.0
 11
327.1442930292
 21
215.4450300423
 31
0.0
  0
ARC
  5
6E
  8
0
  6
CONTINUOUS
 62
     7
 10
174.3664010928
 20
334.3772494851
 30
0.0
 40
10.84154261063208
 50
112.3822663683
 51
185.1185734526
  0
LINE
  5
6F
  8
0
  6
CONTINUOUS
 62
     7
 10
198.7063045692
 20
352.3644833168
 30
0.0
 11
170.921957035
 21
344.640377005
 31
0.0
  0
LINE
  5
70
  8
0
  6
CONTINUOUS
 62
     7
 10
163.5680924248
 20
333.4099976619
 30
0.0
 11
167.4424092364
 21
233.4159305593
 31
0.0
  0
POLYLINE
  5
71
  8
0
  6
CONTINUOUS
 62
     7
 66
     1
 10
0.0
 20
0.0
 30
0.0
 70
   128
  0
VERTEX
  5
140
  8
0
  6
CONTINUOUS
 62
     7
 10
167.4424092364
 20
233.4159305593
 30
0.0
  0
VERTEX
  5
141
  8
0
  6
CONTINUOUS
 62
     7
 10
167.5099562001
 20
232.4925093254
 30
0.0
  0
VERTEX
  5
142
  8
0
  6
CONTINUOUS
 62
     7
 10
167.8010429334
 20
230.7971930405
 30
0.0
  0
VERTEX
  5
143
  8
0
  6
CONTINUOUS
 62
     7
 10
168.3027873825
 20
229.1474780341
 30
0.0
  0
VERTEX
  5
144
  8
0
  6
CONTINUOUS
 62
     7
 10
169.0052132201
 20
227.5779405882
 30
0.0
  0
VERTEX
  5
145
  8
0
  6
CONTINUOUS
 62
     7
 10
169.8943506073
 20
226.1211173882
 30
0.0
  0
VERTEX
  5
146
  8
0
  6
CONTINUOUS
 62
     7
 10
170.9524224591
 20
224.807401215
 30
0.0
  0
VERTEX
  5
147
  8
0
  6
CONTINUOUS
 62
     7
 10
172.1580232572
 20
223.6645128851
 30
0.0
  0
VERTEX
  5
148
  8
0
  6
CONTINUOUS
 62
     7
 10
173.4863574695
 20
222.7168819209
 30
0.0
  0
VERTEX
  5
149
  8
0
  6
CONTINUOUS
 62
     7
 10
174.909552474
 20
221.9849415397
 30
0.0
  0
VERTEX
  5
14A
  8
0
  6
CONTINUOUS
 62
     7
 10
176.3972322535
 20
221.4843873208
 30
0.0
  0
VERTEX
  5
14B
  8
0
  6
CONTINUOUS
 62
     7
 10
177.9173071575
 20
221.2255196919
 30
0.0
  0
VERTEX
  5
14C
  8
0
  6
CONTINUOUS
 62
     7
 10
178.3937419843
 20
221.1950645124
 30
0.0
  0
SEQEND
  5
372
  8
0
  6
CONTINUOUS
 62
     7
  0
LINE
  5
72
  8
0
  6
CONTINUOUS
 62
     7
 10
330.9586177658
 20
216.0466010956
 30
0.0
 11
358.4970961403
 21
223.7023599719
 31
0.0
  0
LINE
  5
73
  8
0
  6
CONTINUOUS
 62
     7
 10
322.3643842232
 20
215.6298002501
 30
0.0
 11
322.4342855703
 21
213.8256458839
 31
0.0
  0
LINE
  5
74
  8
0
  6
CONTINUOUS
 62
     7
 10
347.4155421447
 20
214.7935568628
 30
0.0
 11
347.1921364855
 21
220.5595560645
 31
0.0
  0
POLYLINE
  5
75
  8
0
  6
CONTINUOUS
 62
     7
 66
     1
 10
0.0
 20
0.0
 30
0.0
 70
   128
  0
VERTEX
  5
14D
  8
0
  6
CONTINUOUS
 62
     7
 10
361.9766364884
 20
334.926801761
 30
0.0
  0
VERTEX
  5
14E
  8
0
  6
CONTINUOUS
 62
     7
 10
361.9090895247
 20
335.8502267202
 30
0.0
  0
VERTEX
  5
14F
  8
0
  6
CONTINUOUS
 62
     7
 10
361.6180027913
 20
337.5455318292
 30
0.0
  0
VERTEX
  5
150
  8
0
  6
CONTINUOUS
 62
     7
 10
361.1162583422
 20
339.1952542861
 30
0.0
  0
VERTEX
  5
151
  8
0
  6
CONTINUOUS
 62
     7
 10
360.4138325047
 20
340.7647935947
 30
0.0
  0
VERTEX
  5
152
  8
0
  6
CONTINUOUS
 62
     7
 10
359.5246951174
 20
342.2216056188
 30
0.0
  0
VERTEX
  5
153
  8
0
  6
CONTINUOUS
 62
     7
 10
358.4666232657
 20
343.5353366931
 30
0.0
  0
VERTEX
  5
154
  8
0
  6
CONTINUOUS
 62
     7
 10
357.2610224676
 20
344.6782110532
 30
0.0
  0
VERTEX
  5
155
  8
0
  6
CONTINUOUS
 62
     7
 10
355.9326882552
 20
345.6258503993
 30
0.0
  0
VERTEX
  5
156
  8
0
  6
CONTINUOUS
 62
     7
 10
354.5094932508
 20
346.3577954372
 30
0.0
  0
VERTEX
  5
157
  8
0
  6
CONTINUOUS
 62
     7
 10
353.0218134713
 20
346.8583403429
 30
0.0
  0
VERTEX
  5
158
  8
0
  6
CONTINUOUS
 62
     7
 10
351.5017385673
 20
347.1172182163
 30
0.0
  0
VERTEX
  5
159
  8
0
  6
CONTINUOUS
 62
     7
 10
351.0253037404
 20
347.1476612886
 30
0.0
  0
SEQEND
  5
373
  8
0
  6
CONTINUOUS
 62
     7
  0
LINE
  5
76
  8
0
  6
CONTINUOUS
 62
     7
 10
365.8509532999
 20
234.932736521
 30
0.0
 11
361.9766364884
 21
334.926801761
 31
0.0
  0
LINE
  5
77
  8
0
  6
CONTINUOUS
 62
     7
 10
351.0253037404
 20
347.1476612886
 30
0.0
 11
202.2747526955
 21
352.8977064689
 31
0.0
  0
ARC
  5
78
  8
0
  6
CONTINUOUS
 62
     7
 10
355.1136940638
 20
233.9474715724
 30
0.0
 40
10.78236907751878
 50
290.7947502867
 51
5.2428533675
  0
LINE
  5
79
  8
0
  6
CONTINUOUS
 62
     7
 10
281.4797264602
 20
217.210219269
 30
0.0
 11
281.54962967
 21
215.4060644371
 31
0.0
  0
LINE
  5
7A
  8
0
  6
CONTINUOUS
 62
     7
 10
237.9854115736
 20
218.8915163552
 30
0.0
 11
238.0553147834
 21
217.0873610576
 31
0.0
  0
LINE
  5
7B
  8
0
  6
CONTINUOUS
 62
     7
 10
197.1007566046
 20
220.4719344427
 30
0.0
 11
197.1706579518
 21
218.6677800765
 31
0.0
  0
LINE
  5
7C
  8
0
  6
CONTINUOUS
 62
     7
 10
199.4439418506
 20
352.5695530971
 30
0.0
 11
198.7063045692
 21
352.3644833168
 31
0.0
  0
ARC
  5
7D
  8
0
  6
CONTINUOUS
 62
     7
 10
201.8524477125
 20
344.5810381705
 30
0.0
 40
8.327383327593807
 50
87.093123307
 51
110.0361872863
  0
POLYLINE
  5
7E
  8
0
  6
CONTINUOUS
 62
     7
 66
     1
 10
0.0
 20
0.0
 30
0.0
 70
   128
  0
VERTEX
  5
15A
  8
0
  6
CONTINUOUS
 62
     7
 10
249.6941237789
 20
299.7171012958
 30
0.0
  0
VERTEX
  5
15B
  8
0
  6
CONTINUOUS
 62
     7
 10
249.1991668087
 20
299.6233580907
 30
0.0
  0
VERTEX
  5
15C
  8
0
  6
CONTINUOUS
 62
     7
 10
248.6954498183
 20
299.7557027539
 30
0.0
  0
VERTEX
  5
15D
  8
0
  6
CONTINUOUS
 62
     7
 10
248.2596597713
 20
300.0939889153
 30
0.0
  0
VERTEX
  5
15E
  8
0
  6
CONTINUOUS
 62
     7
 10
247.9581422251
 20
300.5867107113
 30
0.0
  0
VERTEX
  5
15F
  8
0
  6
CONTINUOUS
 62
     7
 10
247.8367983442
 20
301.1588631471
 30
0.0
  0
VERTEX
  5
160
  8
0
  6
CONTINUOUS
 62
     7
 10
247.9141037058
 20
301.7233265837
 30
0.0
  0
VERTEX
  5
161
  8
0
  6
CONTINUOUS
 62
     7
 10
248.1782882553
 20
302.1941809257
 30
0.0
  0
VERTEX
  5
162
  8
0
  6
CONTINUOUS
 62
     7
 10
248.5891318958
 20
302.4997366866
 30
0.0
  0
VERTEX
  5
163
  8
0
  6
CONTINUOUS
 62
     7
 10
249.0840888661
 20
302.5934798916
 30
0.0
  0
VERTEX
  5
164
  8
0
  6
CONTINUOUS
 62
     7
 10
249.5878058564
 20
302.4611352285
 30
0.0
  0
VERTEX
  5
165
  8
0
  6
CONTINUOUS
 62
     7
 10
250.0235959035
 20
302.1228490671
 30
0.0
  0
VERTEX
  5
166
  8
0
  6
CONTINUOUS
 62
     7
 10
250.3251134496
 20
301.630127271
 30
0.0
  0
VERTEX
  5
167
  8
0
  6
CONTINUOUS
 62
     7
 10
250.4464573305
 20
301.0579822858
 30
0.0
  0
VERTEX
  5
168
  8
0
  6
CONTINUOUS
 62
     7
 10
250.3691519689
 20
300.4935113986
 30
0.0
  0
VERTEX
  5
169
  8
0
  6
CONTINUOUS
 62
     7
 10
250.1049674194
 20
300.0226570567
 30
0.0
  0
VERTEX
  5
16A
  8
0
  6
CONTINUOUS
 62
     7
 10
249.6941237789
 20
299.7171012958
 30
0.0
  0
SEQEND
  5
374
  8
0
  6
CONTINUOUS
 62
     7
  0
POLYLINE
  5
7F
  8
0
  6
CONTINUOUS
 62
     7
 66
     1
 10
0.0
 20
0.0
 30
0.0
 70
   128
  0
VERTEX
  5
16B
  8
0
  6
CONTINUOUS
 62
     7
 10
248.8346639168
 20
311.4977432688
 30
0.0
  0
VERTEX
  5
16C
  8
0
  6
CONTINUOUS
 62
     7
 10
249.5791892599
 20
311.2828610738
 30
0.0
  0
VERTEX
  5
16D
  8
0
  6
CONTINUOUS
 62
     7
 10
250.2339239311
 20
310.7960997423
 30
0.0
  0
VERTEX
  5
16E
  8
0
  6
CONTINUOUS
 62
     7
 10
250.7198973637
 20
310.0961698492
 30
0.0
  0
VERTEX
  5
16F
  8
0
  6
CONTINUOUS
 62
     7
 10
250.9784939777
 20
309.2674864729
 30
0.0
  0
VERTEX
  5
170
  8
0
  6
CONTINUOUS
 62
     7
 10
250.97852378
 20
308.4100140532
 30
0.0
  0
VERTEX
  5
171
  8
0
  6
CONTINUOUS
 62
     7
 10
250.7199830454
 20
307.6271666487
 30
0.0
  0
VERTEX
  5
172
  8
0
  6
CONTINUOUS
 62
     7
 10
250.2340561789
 20
307.0133654674
 30
0.0
  0
VERTEX
  5
173
  8
0
  6
CONTINUOUS
 62
     7
 10
249.5793513101
 20
306.6426543792
 30
0.0
  0
VERTEX
  5
174
  8
0
  6
CONTINUOUS
 62
     7
 10
248.8348371428
 20
306.5597443183
 30
0.0
  0
VERTEX
  5
175
  8
0
  6
CONTINUOUS
 62
     7
 10
248.0903136622
 20
306.7746265133
 30
0.0
  0
VERTEX
  5
176
  8
0
  6
CONTINUOUS
 62
     7
 10
247.4355789911
 20
307.2613878449
 30
0.0
  0
VERTEX
  5
177
  8
0
  6
CONTINUOUS
 62
     7
 10
246.9496055585
 20
307.9613177379
 30
0.0
  0
VERTEX
  5
178
  8
0
  6
CONTINUOUS
 62
     7
 10
246.6910070818
 20
308.7900011142
 30
0.0
  0
VERTEX
  5
179
  8
0
  6
CONTINUOUS
 62
     7
 10
246.6909772795
 20
309.647473534
 30
0.0
  0
VERTEX
  5
17A
  8
0
  6
CONTINUOUS
 62
     7
 10
246.9495180141
 20
310.4303209384
 30
0.0
  0
VERTEX
  5
17B
  8
0
  6
CONTINUOUS
 62
     7
 10
247.4354467433
 20
311.0441146692
 30
0.0
  0
VERTEX
  5
17C
  8
0
  6
CONTINUOUS
 62
     7
 10
248.0901497495
 20
311.4148332079
 30
0.0
  0
VERTEX
  5
17D
  8
0
  6
CONTINUOUS
 62
     7
 10
248.8346639168
 20
311.4977432688
 30
0.0
  0
SEQEND
  5
375
  8
0
  6
CONTINUOUS
 62
     7
  0
POLYLINE
  5
80
  8
0
  6
CONTINUOUS
 62
     7
 66
     1
 10
0.0
 20
0.0
 30
0.0
 70
   128
  0
VERTEX
  5
17E
  8
0
  6
CONTINUOUS
 62
     7
 10
331.9636340331
 20
326.8221942981
 30
0.0
  0
VERTEX
  5
17F
  8
0
  6
CONTINUOUS
 62
     7
 10
331.7449967455
 20
328.718918403
 30
0.0
  0
VERTEX
  5
180
  8
0
  6
CONTINUOUS
 62
     7
 10
331.2422539186
 20
330.5692551931
 30
0.0
  0
VERTEX
  5
181
  8
0
  6
CONTINUOUS
 62
     7
 10
330.4706866931
 20
332.3169751366
 30
0.0
  0
VERTEX
  5
182
  8
0
  6
CONTINUOUS
 62
     7
 10
329.4537457716
 20
333.9089779457
 30
0.0
  0
VERTEX
  5
183
  8
0
  6
CONTINUOUS
 62
     7
 10
328.2223249864
 20
335.2968870004
 30
0.0
  0
VERTEX
  5
184
  8
0
  6
CONTINUOUS
 62
     7
 10
326.813837428
 20
336.4385394653
 30
0.0
  0
VERTEX
  5
185
  8
0
  6
CONTINUOUS
 62
     7
 10
325.2710829567
 20
337.299245437
 30
0.0
  0
VERTEX
  5
186
  8
0
  6
CONTINUOUS
 62
     7
 10
323.6409369003
 20
337.8528384765
 30
0.0
  0
VERTEX
  5
187
  8
0
  6
CONTINUOUS
 62
     7
 10
321.9729307186
 20
338.0825249752
 30
0.0
  0
SEQEND
  5
376
  8
0
  6
CONTINUOUS
 62
     7
  0
ARC
  5
81
  8
0
  6
CONTINUOUS
 62
     7
 10
323.0897001719
 20
338.2877396123
 30
0.0
 40
1.135467771012191
 50
125.7482237114
 51
190.4123624805
  0
POLYLINE
  5
82
  8
0
  6
CONTINUOUS
 62
     7
 66
     1
 10
0.0
 20
0.0
 30
0.0
 70
   128
  0
VERTEX
  5
188
  8
0
  6
CONTINUOUS
 62
     7
 10
322.4263320755
 20
339.2092762788
 30
0.0
  0
VERTEX
  5
189
  8
0
  6
CONTINUOUS
 62
     7
 10
324.064960618
 20
338.9998851617
 30
0.0
  0
VERTEX
  5
18A
  8
0
  6
CONTINUOUS
 62
     7
 10
325.6745765995
 20
338.5031102499
 30
0.0
  0
VERTEX
  5
18B
  8
0
  6
CONTINUOUS
 62
     7
 10
327.2155429315
 20
337.7311853965
 30
0.0
  0
VERTEX
  5
18C
  8
0
  6
CONTINUOUS
 62
     7
 10
328.6499175321
 20
336.7031244834
 30
0.0
  0
VERTEX
  5
18D
  8
0
  6
CONTINUOUS
 62
     7
 10
329.9423846495
 20
335.4442296823
 30
0.0
  0
VERTEX
  5
18E
  8
0
  6
CONTINUOUS
 62
     7
 10
331.0611154031
 20
333.9855103096
 30
0.0
  0
VERTEX
  5
18F
  8
0
  6
CONTINUOUS
 62
     7
 10
331.9785575461
 20
332.3628856142
 30
0.0
  0
VERTEX
  5
190
  8
0
  6
CONTINUOUS
 62
     7
 10
332.6721320938
 20
330.616298159
 30
0.0
  0
VERTEX
  5
191
  8
0
  6
CONTINUOUS
 62
     7
 10
333.1247548651
 20
328.7887675961
 30
0.0
  0
VERTEX
  5
192
  8
0
  6
CONTINUOUS
 62
     7
 10
333.3252797913
 20
326.9252805313
 30
0.0
  0
SEQEND
  5
377
  8
0
  6
CONTINUOUS
 62
     7
  0
ARC
  5
83
  8
0
  6
CONTINUOUS
 62
     7
 10
332.2345311418
 20
332.2883662103
 30
0.0
 40
5.472880468031813
 50
267.1628092182
 51
281.4960660944
  0
POLYLINE
  5
84
  8
0
  6
CONTINUOUS
 62
     7
 66
     1
 10
0.0
 20
0.0
 30
0.0
 70
   128
  0
VERTEX
  5
193
  8
0
  6
CONTINUOUS
 62
     7
 10
250.3691519689
 20
300.4935113986
 30
0.0
  0
VERTEX
  5
194
  8
0
  6
CONTINUOUS
 62
     7
 10
250.4464573305
 20
301.0579822858
 30
0.0
  0
VERTEX
  5
195
  8
0
  6
CONTINUOUS
 62
     7
 10
250.3251134496
 20
301.630127271
 30
0.0
  0
VERTEX
  5
196
  8
0
  6
CONTINUOUS
 62
     7
 10
250.0235959035
 20
302.1228490671
 30
0.0
  0
VERTEX
  5
197
  8
0
  6
CONTINUOUS
 62
     7
 10
249.5878058564
 20
302.4611352285
 30
0.0
  0
VERTEX
  5
198
  8
0
  6
CONTINUOUS
 62
     7
 10
249.0840888661
 20
302.5934798916
 30
0.0
  0
VERTEX
  5
199
  8
0
  6
CONTINUOUS
 62
     7
 10
248.5891318958
 20
302.4997366866
 30
0.0
  0
VERTEX
  5
19A
  8
0
  6
CONTINUOUS
 62
     7
 10
248.1782882553
 20
302.1941809257
 30
0.0
  0
VERTEX
  5
19B
  8
0
  6
CONTINUOUS
 62
     7
 10
247.9141037058
 20
301.7233265837
 30
0.0
  0
VERTEX
  5
19C
  8
0
  6
CONTINUOUS
 62
     7
 10
247.8367983442
 20
301.1588631471
 30
0.0
  0
VERTEX
  5
19D
  8
0
  6
CONTINUOUS
 62
     7
 10
247.9581422251
 20
300.5867107113
 30
0.0
  0
VERTEX
  5
19E
  8
0
  6
CONTINUOUS
 62
     7
 10
248.2596597713
 20
300.0939889153
 30
0.0
  0
VERTEX
  5
19F
  8
0
  6
CONTINUOUS
 62
     7
 10
248.6954498183
 20
299.7557027539
 30
0.0
  0
VERTEX
  5
1A0
  8
0
  6
CONTINUOUS
 62
     7
 10
249.1991668087
 20
299.6233580907
 30
0.0
  0
VERTEX
  5
1A1
  8
0
  6
CONTINUOUS
 62
     7
 10
249.6941237789
 20
299.7171012958
 30
0.0
  0
VERTEX
  5
1A2
  8
0
  6
CONTINUOUS
 62
     7
 10
250.1049674194
 20
300.0226570567
 30
0.0
  0
VERTEX
  5
1A3
  8
0
  6
CONTINUOUS
 62
     7
 10
250.3691519689
 20
300.4935113986
 30
0.0
  0
SEQEND
  5
378
  8
0
  6
CONTINUOUS
 62
     7
  0
POLYLINE
  5
85
  8
0
  6
CONTINUOUS
 62
     7
 66
     1
 10
0.0
 20
0.0
 30
0.0
 70
   128
  0
VERTEX
  5
1A4
  8
0
  6
CONTINUOUS
 62
     7
 10
250.9111146521
 20
308.1032140454
 30
0.0
  0
VERTEX
  5
1A5
  8
0
  6
CONTINUOUS
 62
     7
 10
251.0094660413
 20
308.9446751674
 30
0.0
  0
VERTEX
  5
1A6
  8
0
  6
CONTINUOUS
 62
     7
 10
250.8455160152
 20
309.7962839802
 30
0.0
  0
VERTEX
  5
1A7
  8
0
  6
CONTINUOUS
 62
     7
 10
250.4390365522
 20
310.5553118785
 30
0.0
  0
VERTEX
  5
1A8
  8
0
  6
CONTINUOUS
 62
     7
 10
249.8390580606
 20
311.1302135786
 30
0.0
  0
VERTEX
  5
1A9
  8
0
  6
CONTINUOUS
 62
     7
 10
249.1179443043
 20
311.4516465267
 30
0.0
  0
VERTEX
  5
1AA
  8
0
  6
CONTINUOUS
 62
     7
 10
248.3626733612
 20
311.4808379014
 30
0.0
  0
VERTEX
  5
1AB
  8
0
  6
CONTINUOUS
 62
     7
 10
247.6643416178
 20
311.2142784794
 30
0.0
  0
VERTEX
  5
1AC
  8
0
  6
CONTINUOUS
 62
     7
 10
247.1071797501
 20
310.6841026147
 30
0.0
  0
VERTEX
  5
1AD
  8
0
  6
CONTINUOUS
 62
     7
 10
246.7583864074
 20
309.9542735418
 30
0.0
  0
VERTEX
  5
1AE
  8
0
  6
CONTINUOUS
 62
     7
 10
246.6600350183
 20
309.1128049692
 30
0.0
  0
VERTEX
  5
1AF
  8
0
  6
CONTINUOUS
 62
     7
 10
246.8239869069
 20
308.2612036069
 30
0.0
  0
VERTEX
  5
1B0
  8
0
  6
CONTINUOUS
 62
     7
 10
247.2304645073
 20
307.5021757086
 30
0.0
  0
VERTEX
  5
1B1
  8
0
  6
CONTINUOUS
 62
     7
 10
247.8304448616
 20
306.9272740086
 30
0.0
  0
VERTEX
  5
1B2
  8
0
  6
CONTINUOUS
 62
     7
 10
248.5515567552
 20
306.6058410605
 30
0.0
  0
VERTEX
  5
1B3
  8
0
  6
CONTINUOUS
 62
     7
 10
249.3068276983
 20
306.5766496857
 30
0.0
  0
VERTEX
  5
1B4
  8
0
  6
CONTINUOUS
 62
     7
 10
250.0051594418
 20
306.8432091077
 30
0.0
  0
VERTEX
  5
1B5
  8
0
  6
CONTINUOUS
 62
     7
 10
250.562323172
 20
307.3733849724
 30
0.0
  0
VERTEX
  5
1B6
  8
0
  6
CONTINUOUS
 62
     7
 10
250.9111146521
 20
308.1032140454
 30
0.0
  0
SEQEND
  5
379
  8
0
  6
CONTINUOUS
 62
     7
  0
POLYLINE
  5
86
  8
0
  6
CONTINUOUS
 62
     7
 66
     1
 10
0.0
 20
0.0
 30
0.0
 70
   128
  0
VERTEX
  5
1B7
  8
0
  6
CONTINUOUS
 62
     7
 10
326.6911636185
 20
216.3075739791
 30
0.0
  0
VERTEX
  5
1B8
  8
0
  6
CONTINUOUS
 62
     7
 10
328.346347351
 20
216.4087947731
 30
0.0
  0
VERTEX
  5
1B9
  8
0
  6
CONTINUOUS
 62
     7
 10
329.9384209406
 20
216.8378401821
 30
0.0
  0
VERTEX
  5
1BA
  8
0
  6
CONTINUOUS
 62
     7
 10
331.4190040421
 20
217.5816735526
 30
0.0
  0
VERTEX
  5
1BB
  8
0
  6
CONTINUOUS
 62
     7
 10
332.7431137752
 20
218.6176954111
 30
0.0
  0
VERTEX
  5
1BC
  8
0
  6
CONTINUOUS
 62
     7
 10
333.87052073
 20
219.9144261231
 30
0.0
  0
VERTEX
  5
1BD
  8
0
  6
CONTINUOUS
 62
     7
 10
334.7669671368
 20
221.4324651559
 30
0.0
  0
VERTEX
  5
1BE
  8
0
  6
CONTINUOUS
 62
     7
 10
335.4052062225
 20
223.1256868964
 30
0.0
  0
VERTEX
  5
1BF
  8
0
  6
CONTINUOUS
 62
     7
 10
335.7658590268
 20
224.9426460167
 30
0.0
  0
VERTEX
  5
1C0
  8
0
  6
CONTINUOUS
 62
     7
 10
335.8379582953
 20
226.8281309207
 30
0.0
  0
SEQEND
  5
37A
  8
0
  6
CONTINUOUS
 62
     7
  0
LINE
  5
87
  8
0
  6
CONTINUOUS
 62
     7
 10
177.940605123
 20
222.0576089149
 30
0.0
 11
326.6911636185
 21
216.3075739791
 31
0.0
  0
POLYLINE
  5
88
  8
0
  6
CONTINUOUS
 62
     7
 66
     1
 10
0.0
 20
0.0
 30
0.0
 70
   128
  0
VERTEX
  5
1C1
  8
0
  6
CONTINUOUS
 62
     7
 10
167.9499055337
 20
233.3179367979
 30
0.0
  0
VERTEX
  5
1C2
  8
0
  6
CONTINUOUS
 62
     7
 10
168.1685428213
 20
231.4212108304
 30
0.0
  0
VERTEX
  5
1C3
  8
0
  6
CONTINUOUS
 62
     7
 10
168.6712856483
 20
229.5708796283
 30
0.0
  0
VERTEX
  5
1C4
  8
0
  6
CONTINUOUS
 62
     7
 10
169.4428528737
 20
227.8231596848
 30
0.0
  0
VERTEX
  5
1C5
  8
0
  6
CONTINUOUS
 62
     7
 10
170.45979007
 20
226.2311587383
 30
0.0
  0
VERTEX
  5
1C6
  8
0
  6
CONTINUOUS
 62
     7
 10
171.6912145805
 20
224.8432459583
 30
0.0
  0
VERTEX
  5
1C7
  8
0
  6
CONTINUOUS
 62
     7
 10
173.0997021388
 20
223.7015934934
 30
0.0
  0
VERTEX
  5
1C8
  8
0
  6
CONTINUOUS
 62
     7
 10
174.6424566101
 20
222.840891247
 30
0.0
  0
VERTEX
  5
1C9
  8
0
  6
CONTINUOUS
 62
     7
 10
176.2725989413
 20
222.2872888943
 30
0.0
  0
VERTEX
  5
1CA
  8
0
  6
CONTINUOUS
 62
     7
 10
177.940605123
 20
222.0576089149
 30
0.0
  0
SEQEND
  5
37B
  8
0
  6
CONTINUOUS
 62
     7
  0
LINE
  5
89
  8
0
  6
CONTINUOUS
 62
     7
 10
164.0755812716
 20
333.3120001753
 30
0.0
 11
167.9499055337
 21
233.3179367979
 31
0.0
  0
POLYLINE
  5
8A
  8
0
  6
CONTINUOUS
 62
     7
 66
     1
 10
0.0
 20
0.0
 30
0.0
 70
   128
  0
VERTEX
  5
1CB
  8
0
  6
CONTINUOUS
 62
     7
 10
173.2223759484
 20
343.8325552543
 30
0.0
  0
VERTEX
  5
1CC
  8
0
  6
CONTINUOUS
 62
     7
 10
171.5671922159
 20
343.7313316663
 30
0.0
  0
VERTEX
  5
1CD
  8
0
  6
CONTINUOUS
 62
     7
 10
169.975114901
 20
343.3022974332
 30
0.0
  0
VERTEX
  5
1CE
  8
0
  6
CONTINUOUS
 62
     7
 10
168.4945355248
 20
342.5584612688
 30
0.0
  0
VERTEX
  5
1CF
  8
0
  6
CONTINUOUS
 62
     7
 10
167.1704183411
 20
341.5224431356
 30
0.0
  0
VERTEX
  5
1D0
  8
0
  6
CONTINUOUS
 62
     7
 10
166.0430188369
 20
340.225699385
 30
0.0
  0
VERTEX
  5
1D1
  8
0
  6
CONTINUOUS
 62
     7
 10
165.1465724301
 20
338.7076733907
 30
0.0
  0
VERTEX
  5
1D2
  8
0
  6
CONTINUOUS
 62
     7
 10
164.5083333444
 20
337.0144395431
 30
0.0
  0
VERTEX
  5
1D3
  8
0
  6
CONTINUOUS
 62
     7
 10
164.14768054
 20
335.1974813541
 30
0.0
  0
VERTEX
  5
1D4
  8
0
  6
CONTINUOUS
 62
     7
 10
164.0755812716
 20
333.3120001753
 30
0.0
  0
SEQEND
  5
37C
  8
0
  6
CONTINUOUS
 62
     7
  0
LINE
  5
8B
  8
0
  6
CONTINUOUS
 62
     7
 10
321.9729307186
 20
338.0825249752
 30
0.0
 11
173.2223759484
 21
343.8325552543
 31
0.0
  0
LINE
  5
8C
  8
0
  6
CONTINUOUS
 62
     7
 10
335.8379582953
 20
226.8281309207
 30
0.0
 11
331.9636340331
 21
326.8221942981
 31
0.0
  0
POLYLINE
  5
8D
  8
0
  6
CONTINUOUS
 62
     7
 66
     1
 10
0.0
 20
0.0
 30
0.0
 70
   128
  0
VERTEX
  5
1D5
  8
0
  6
CONTINUOUS
 62
     7
 10
350.2106870603
 20
346.9333825906
 30
0.0
  0
VERTEX
  5
1D6
  8
0
  6
CONTINUOUS
 62
     7
 10
351.8493156027
 20
346.7239914735
 30
0.0
  0
VERTEX
  5
1D7
  8
0
  6
CONTINUOUS
 62
     7
 10
353.4589315843
 20
346.2272165616
 30
0.0
  0
VERTEX
  5
1D8
  8
0
  6
CONTINUOUS
 62
     7
 10
354.9998979163
 20
345.4553066095
 30
0.0
  0
VERTEX
  5
1D9
  8
0
  6
CONTINUOUS
 62
     7
 10
356.4342687916
 20
344.4272456964
 30
0.0
  0
VERTEX
  5
1DA
  8
0
  6
CONTINUOUS
 62
     7
 10
357.7267359089
 20
343.1683508953
 30
0.0
  0
VERTEX
  5
1DB
  8
0
  6
CONTINUOUS
 62
     7
 10
358.8454629373
 20
341.7096315225
 30
0.0
  0
VERTEX
  5
1DC
  8
0
  6
CONTINUOUS
 62
     7
 10
359.7629125308
 20
340.0869993766
 30
0.0
  0
VERTEX
  5
1DD
  8
0
  6
CONTINUOUS
 62
     7
 10
360.4564870786
 20
338.3404193719
 30
0.0
  0
VERTEX
  5
1DE
  8
0
  6
CONTINUOUS
 62
     7
 10
360.9091098499
 20
336.5128813585
 30
0.0
  0
VERTEX
  5
1DF
  8
0
  6
CONTINUOUS
 62
     7
 10
361.1096347761
 20
334.6493868431
 30
0.0
  0
SEQEND
  5
37D
  8
0
  6
CONTINUOUS
 62
     7
  0
LINE
  5
8E
  8
0
  6
CONTINUOUS
 62
     7
 10
333.3252797913
 20
326.9252805313
 30
0.0
 11
337.1996040534
 21
226.9312152912
 31
0.0
  0
ARC
  5
8F
  8
0
  6
CONTINUOUS
 62
     7
 10
336.108867589
 20
232.2942387863
 30
0.0
 40
5.472817103034918
 50
267.1626486181
 51
281.4960708339
  0
LINE
  5
90
  8
0
  6
CONTINUOUS
 62
     7
 10
361.1096347761
 20
334.6493868431
 30
0.0
 11
364.9839515876
 21
234.6553290536
 31
0.0
  0
LINE
  5
91
  8
0
  6
CONTINUOUS
 62
     7
 10
173.67577358
 20
344.959306558
 30
0.0
 11
322.4263320755
 21
339.2092762788
 31
0.0
  0
ARC
  5
92
  8
0
  6
CONTINUOUS
 62
     7
 10
174.3391218677
 20
344.0377815546
 30
0.0
 40
1.135446732665641
 50
125.7477563106
 51
190.413155949
  0
LINE
  5
93
  8
0
  6
CONTINUOUS
 62
     7
 10
201.4601285648
 20
352.6834277709
 30
0.0
 11
269.7462017261
 21
350.0437913736
 31
0.0
  0
LINE
  5
94
  8
0
  6
CONTINUOUS
 62
     7
 10
269.7462017261
 20
350.0437913736
 30
0.0
 11
265.8121339357
 21
348.9501057466
 31
0.0
  0
LINE
  5
95
  8
0
  6
CONTINUOUS
 62
     7
 10
265.8121339357
 20
348.9501057466
 30
0.0
 11
277.9905422669
 21
348.4793482622
 31
0.0
  0
LINE
  5
96
  8
0
  6
CONTINUOUS
 62
     7
 10
277.9905422669
 20
348.4793482622
 30
0.0
 11
281.9246099409
 21
349.573018988
 31
0.0
  0
LINE
  5
97
  8
0
  6
CONTINUOUS
 62
     7
 10
281.9246099409
 20
349.573018988
 30
0.0
 11
350.2106870603
 21
346.9333825906
 31
0.0
  0
LINE
  5
98
  8
0
  6
CONTINUOUS
 62
     7
 10
201.4601285648
 20
352.6834277709
 30
0.0
 11
173.67577358
 21
344.959306558
 31
0.0
  0
POLYLINE
  5
99
  8
0
  6
CONTINUOUS
 62
     7
 66
     1
 10
0.0
 20
0.0
 30
0.0
 70
   128
  0
VERTEX
  5
1E0
  8
0
  6
CONTINUOUS
 62
     7
 10
330.6447397065
 20
215.9882597899
 30
0.0
  0
VERTEX
  5
1E1
  8
0
  6
CONTINUOUS
 62
     7
 10
330.4244707417
 20
215.9110242774
 30
0.0
  0
VERTEX
  5
1E2
  8
0
  6
CONTINUOUS
 62
     7
 10
329.9751001489
 20
215.7731810858
 30
0.0
  0
SEQEND
  5
37E
  8
0
  6
CONTINUOUS
 62
     7
  0
ARC
  5
9A
  8
0
  6
CONTINUOUS
 62
     7
 10
352.1308396639
 20
234.1142153371
 30
0.0
 40
12.86449727651426
 50
342.4243704891
 51
2.410718509
  0
LINE
  5
9B
  8
0
  6
CONTINUOUS
 62
     7
 10
364.3948118281
 20
230.2295947721
 30
0.0
 11
337.3480941247
 21
222.7105452021
 31
0.0
  0
ARC
  5
9C
  8
0
  6
CONTINUOUS
 62
     7
 10
327.9314088051
 20
225.3555779821
 30
0.0
 40
9.781112452905845
 50
286.5204450685
 51
344.3105910204
  0
POLYLINE
  5
9D
  8
0
  6
CONTINUOUS
 62
     7
 66
     1
 10
0.0
 20
0.0
 30
0.0
 70
   128
  0
VERTEX
  5
1E3
  8
0
  6
CONTINUOUS
 62
     7
 10
170.2523137521
 20
344.4252936443
 30
0.0
  0
VERTEX
  5
1E4
  8
0
  6
CONTINUOUS
 62
     7
 10
170.4725901675
 20
344.5025263627
 30
0.0
  0
VERTEX
  5
1E5
  8
0
  6
CONTINUOUS
 62
     7
 10
170.921957035
 20
344.640377005
 30
0.0
  0
SEQEND
  5
37F
  8
0
  6
CONTINUOUS
 62
     7
  0
POLYLINE
  5
9E
  8
0
  6
CONTINUOUS
 62
     7
 66
     1
 10
0.0
 20
0.0
 30
0.0
 70
   128
  0
VERTEX
  5
1E6
  8
0
  6
CONTINUOUS
 62
     7
 10
198.7063045692
 20
352.3644833168
 30
0.0
  0
VERTEX
  5
1E7
  8
0
  6
CONTINUOUS
 62
     7
 10
199.8328323554
 20
352.6002792915
 30
0.0
  0
VERTEX
  5
1E8
  8
0
  6
CONTINUOUS
 62
     7
 10
201.4601285648
 20
352.6834277709
 30
0.0
  0
SEQEND
  5
380
  8
0
  6
CONTINUOUS
 62
     7
  0
LINE
  5
9F
  8
0
  6
CONTINUOUS
 62
     7
 10
269.7945413258
 20
348.7961618503
 30
0.0
 11
269.7462017261
 21
350.0437913736
 31
0.0
  0
ARC
  5
A0
  8
0
  6
CONTINUOUS
 62
     7
 10
328.0633780337
 20
225.5410251922
 30
0.0
 40
9.922785484651708
 50
286.2221464151
 51
343.837542618
  0
LINE
  5
A1
  8
0
  6
CONTINUOUS
 62
     7
 10
364.3948118281
 20
230.2295947721
 30
0.0
 11
337.5939781856
 21
222.7789005538
 31
0.0
  0
LINE
  5
A2
  8
0
  6
CONTINUOUS
 62
     7
 10
364.9839515876
 20
234.6553290536
 30
0.0
 11
365.721588869
 21
234.8603951087
 31
0.0
  0
POLYLINE
  5
A3
  8
0
  6
CONTINUOUS
 62
     7
 66
     1
 10
0.0
 20
0.0
 30
0.0
 70
   128
  0
VERTEX
  5
1E9
  8
0
  6
CONTINUOUS
 62
     7
 10
347.4155421447
 20
214.7935568628
 30
0.0
  0
VERTEX
  5
1EA
  8
0
  6
CONTINUOUS
 62
     7
 10
347.2925852131
 20
214.5426548359
 30
0.0
  0
VERTEX
  5
1EB
  8
0
  6
CONTINUOUS
 62
     7
 10
346.8937034797
 20
214.2800758866
 30
0.0
  0
VERTEX
  5
1EC
  8
0
  6
CONTINUOUS
 62
     7
 10
346.227450211
 20
214.0181567793
 30
0.0
  0
VERTEX
  5
1ED
  8
0
  6
CONTINUOUS
 62
     7
 10
345.3087191176
 20
213.7627480825
 30
0.0
  0
VERTEX
  5
1EE
  8
0
  6
CONTINUOUS
 62
     7
 10
344.158036549
 20
213.5195550782
 30
0.0
  0
VERTEX
  5
1EF
  8
0
  6
CONTINUOUS
 62
     7
 10
342.8010995578
 20
213.2940106367
 30
0.0
  0
VERTEX
  5
1F0
  8
0
  6
CONTINUOUS
 62
     7
 10
341.2682171058
 20
213.0911527475
 30
0.0
  0
VERTEX
  5
1F1
  8
0
  6
CONTINUOUS
 62
     7
 10
339.593639512
 20
212.9155127605
 30
0.0
  0
VERTEX
  5
1F2
  8
0
  6
CONTINUOUS
 62
     7
 10
337.814768691
 20
212.7710143378
 30
0.0
  0
VERTEX
  5
1F3
  8
0
  6
CONTINUOUS
 62
     7
 10
335.9713460397
 20
212.660885909
 30
0.0
  0
VERTEX
  5
1F4
  8
0
  6
CONTINUOUS
 62
     7
 10
334.1045434665
 20
212.5875866314
 30
0.0
  0
VERTEX
  5
1F5
  8
0
  6
CONTINUOUS
 62
     7
 10
332.2560693216
 20
212.5527542358
 30
0.0
  0
VERTEX
  5
1F6
  8
0
  6
CONTINUOUS
 62
     7
 10
330.4672147226
 20
212.5571673078
 30
0.0
  0
VERTEX
  5
1F7
  8
0
  6
CONTINUOUS
 62
     7
 10
328.777933408
 20
212.6007266616
 30
0.0
  0
VERTEX
  5
1F8
  8
0
  6
CONTINUOUS
 62
     7
 10
327.2259662938
 20
212.6824595307
 30
0.0
  0
VERTEX
  5
1F9
  8
0
  6
CONTINUOUS
 62
     7
 10
325.8459809315
 20
212.8005400573
 30
0.0
  0
VERTEX
  5
1FA
  8
0
  6
CONTINUOUS
 62
     7
 10
324.6688078236
 20
212.9523302702
 30
0.0
  0
VERTEX
  5
1FB
  8
0
  6
CONTINUOUS
 62
     7
 10
323.7207326185
 20
213.1344396894
 30
0.0
  0
VERTEX
  5
1FC
  8
0
  6
CONTINUOUS
 62
     7
 10
323.0229447674
 20
213.3428007638
 30
0.0
  0
VERTEX
  5
1FD
  8
0
  6
CONTINUOUS
 62
     7
 10
322.5910271596
 20
213.5727582773
 30
0.0
  0
VERTEX
  5
1FE
  8
0
  6
CONTINUOUS
 62
     7
 10
322.434628297
 20
213.8191755203
 30
0.0
  0
VERTEX
  5
1FF
  8
0
  6
CONTINUOUS
 62
     7
 10
322.4342855703
 20
213.8256458839
 30
0.0
  0
SEQEND
  5
381
  8
0
  6
CONTINUOUS
 62
     7
  0
POLYLINE
  5
A4
  8
0
  6
CONTINUOUS
 62
     7
 66
     1
 10
0.0
 20
0.0
 30
0.0
 70
   128
  0
VERTEX
  5
200
  8
0
  6
CONTINUOUS
 62
     7
 10
361.1096347761
 20
334.6493868431
 30
0.0
  0
VERTEX
  5
201
  8
0
  6
CONTINUOUS
 62
     7
 10
360.9091098499
 20
336.5128813585
 30
0.0
  0
VERTEX
  5
202
  8
0
  6
CONTINUOUS
 62
     7
 10
360.4564870786
 20
338.3404193719
 30
0.0
  0
VERTEX
  5
203
  8
0
  6
CONTINUOUS
 62
     7
 10
359.7629125308
 20
340.0869993766
 30
0.0
  0
VERTEX
  5
204
  8
0
  6
CONTINUOUS
 62
     7
 10
358.8454629373
 20
341.7096315225
 30
0.0
  0
VERTEX
  5
205
  8
0
  6
CONTINUOUS
 62
     7
 10
357.7267359089
 20
343.1683508953
 30
0.0
  0
VERTEX
  5
206
  8
0
  6
CONTINUOUS
 62
     7
 10
356.4342687916
 20
344.4272456964
 30
0.0
  0
VERTEX
  5
207
  8
0
  6
CONTINUOUS
 62
     7
 10
354.9998979163
 20
345.4553066095
 30
0.0
  0
VERTEX
  5
208
  8
0
  6
CONTINUOUS
 62
     7
 10
353.4589315843
 20
346.2272165616
 30
0.0
  0
VERTEX
  5
209
  8
0
  6
CONTINUOUS
 62
     7
 10
351.8493156027
 20
346.7239914735
 30
0.0
  0
VERTEX
  5
20A
  8
0
  6
CONTINUOUS
 62
     7
 10
350.2106870603
 20
346.9333825906
 30
0.0
  0
SEQEND
  5
382
  8
0
  6
CONTINUOUS
 62
     7
  0
LINE
  5
A5
  8
0
  6
CONTINUOUS
 62
     7
 10
350.2106870603
 20
346.9333825906
 30
0.0
 11
350.9483243417
 21
347.138452371
 31
0.0
  0
POLYLINE
  5
A6
  8
0
  6
CONTINUOUS
 62
     7
 66
     1
 10
0.0
 20
0.0
 30
0.0
 70
   128
  0
VERTEX
  5
20B
  8
0
  6
CONTINUOUS
 62
     7
 10
361.8472720575
 20
334.8544566234
 30
0.0
  0
VERTEX
  5
20C
  8
0
  6
CONTINUOUS
 62
     7
 10
361.6467471313
 20
336.7179362377
 30
0.0
  0
VERTEX
  5
20D
  8
0
  6
CONTINUOUS
 62
     7
 10
361.19412436
 20
338.5454742511
 30
0.0
  0
VERTEX
  5
20E
  8
0
  6
CONTINUOUS
 62
     7
 10
360.5005498123
 20
340.292069157
 30
0.0
  0
VERTEX
  5
20F
  8
0
  6
CONTINUOUS
 62
     7
 10
359.5831002187
 20
341.9147013029
 30
0.0
  0
VERTEX
  5
210
  8
0
  6
CONTINUOUS
 62
     7
 10
358.4643731903
 20
343.3734206756
 30
0.0
  0
VERTEX
  5
211
  8
0
  6
CONTINUOUS
 62
     7
 10
357.171906073
 20
344.6323005756
 30
0.0
  0
VERTEX
  5
212
  8
0
  6
CONTINUOUS
 62
     7
 10
355.7375351977
 20
345.6603614887
 30
0.0
  0
VERTEX
  5
213
  8
0
  6
CONTINUOUS
 62
     7
 10
354.1965688657
 20
346.432286342
 30
0.0
  0
VERTEX
  5
214
  8
0
  6
CONTINUOUS
 62
     7
 10
352.5869528841
 20
346.9290612539
 30
0.0
  0
VERTEX
  5
215
  8
0
  6
CONTINUOUS
 62
     7
 10
350.9483243417
 20
347.138452371
 30
0.0
  0
SEQEND
  5
383
  8
0
  6
CONTINUOUS
 62
     7
  0
LINE
  5
A7
  8
0
  6
CONTINUOUS
 62
     7
 10
361.1096347761
 20
334.6493868431
 30
0.0
 11
361.8472720575
 21
334.8544566234
 31
0.0
  0
POLYLINE
  5
A8
  8
0
  6
CONTINUOUS
 62
     7
 66
     1
 10
0.0
 20
0.0
 30
0.0
 70
   128
  0
VERTEX
  5
216
  8
0
  6
CONTINUOUS
 62
     7
 10
201.4601285648
 20
352.6834277709
 30
0.0
  0
VERTEX
  5
217
  8
0
  6
CONTINUOUS
 62
     7
 10
199.8328323554
 20
352.6002792915
 30
0.0
  0
VERTEX
  5
218
  8
0
  6
CONTINUOUS
 62
     7
 10
198.7063045692
 20
352.3644833168
 30
0.0
  0
SEQEND
  5
384
  8
0
  6
CONTINUOUS
 62
     7
  0
LINE
  5
A9
  8
0
  6
CONTINUOUS
 62
     7
 10
350.2106870603
 20
346.9333825906
 30
0.0
 11
201.4601285648
 21
352.6834277709
 31
0.0
  0
LINE
  5
AA
  8
0
  6
CONTINUOUS
 62
     7
 10
350.9483243417
 20
347.138452371
 30
0.0
 11
351.0253037404
 21
347.1476612886
 31
0.0
  0
LINE
  5
AB
  8
0
  6
CONTINUOUS
 62
     7
 10
365.721588869
 20
234.8603951087
 30
0.0
 11
361.8472720575
 21
334.8544566234
 31
0.0
  0
LINE
  5
AC
  8
0
  6
CONTINUOUS
 62
     7
 10
201.4601285648
 20
352.6834277709
 30
0.0
 11
202.1977658462
 21
352.8884826501
 31
0.0
  0
LINE
  5
AD
  8
0
  6
CONTINUOUS
 62
     7
 10
350.9483243417
 20
347.138452371
 30
0.0
 11
202.1977658462
 21
352.8884826501
 31
0.0
  0
POLYLINE
  5
AE
  8
0
  6
CONTINUOUS
 62
     7
 66
     1
 10
0.0
 20
0.0
 30
0.0
 70
   128
  0
VERTEX
  5
219
  8
0
  6
CONTINUOUS
 62
     7
 10
306.4992743623
 20
216.2430747685
 30
0.0
  0
VERTEX
  5
21A
  8
0
  6
CONTINUOUS
 62
     7
 10
306.4079302441
 20
216.1230733891
 30
0.0
  0
VERTEX
  5
21B
  8
0
  6
CONTINUOUS
 62
     7
 10
306.0090447854
 20
215.8604949055
 30
0.0
  0
VERTEX
  5
21C
  8
0
  6
CONTINUOUS
 62
     7
 10
305.342795242
 20
215.5985757982
 30
0.0
  0
VERTEX
  5
21D
  8
0
  6
CONTINUOUS
 62
     7
 10
304.4240678739
 20
215.3431671014
 30
0.0
  0
VERTEX
  5
21E
  8
0
  6
CONTINUOUS
 62
     7
 10
303.2733815801
 20
215.0999740971
 30
0.0
  0
VERTEX
  5
21F
  8
0
  6
CONTINUOUS
 62
     7
 10
301.9164408635
 20
214.8744296556
 30
0.0
  0
VERTEX
  5
220
  8
0
  6
CONTINUOUS
 62
     7
 10
300.3835621368
 20
214.6715713007
 30
0.0
  0
VERTEX
  5
221
  8
0
  6
CONTINUOUS
 62
     7
 10
298.708984543
 20
214.4959317794
 30
0.0
  0
VERTEX
  5
222
  8
0
  6
CONTINUOUS
 62
     7
 10
296.930113722
 20
214.3514333566
 30
0.0
  0
VERTEX
  5
223
  8
0
  6
CONTINUOUS
 62
     7
 10
295.0866892081
 20
214.2413044622
 30
0.0
  0
VERTEX
  5
224
  8
0
  6
CONTINUOUS
 62
     7
 10
293.2198884975
 20
214.1680056503
 30
0.0
  0
VERTEX
  5
225
  8
0
  6
CONTINUOUS
 62
     7
 10
291.3714143526
 20
214.1331732546
 30
0.0
  0
VERTEX
  5
226
  8
0
  6
CONTINUOUS
 62
     7
 10
289.5825560283
 20
214.1375863267
 30
0.0
  0
VERTEX
  5
227
  8
0
  6
CONTINUOUS
 62
     7
 10
287.8932765763
 20
214.1811456805
 30
0.0
  0
VERTEX
  5
228
  8
0
  6
CONTINUOUS
 62
     7
 10
286.3413113248
 20
214.2628780839
 30
0.0
  0
VERTEX
  5
229
  8
0
  6
CONTINUOUS
 62
     7
 10
284.9613259625
 20
214.3809586105
 30
0.0
  0
VERTEX
  5
22A
  8
0
  6
CONTINUOUS
 62
     7
 10
283.784150992
 20
214.532749289
 30
0.0
  0
VERTEX
  5
22B
  8
0
  6
CONTINUOUS
 62
     7
 10
282.8360785809
 20
214.7148587083
 30
0.0
  0
VERTEX
  5
22C
  8
0
  6
CONTINUOUS
 62
     7
 10
282.1382897984
 20
214.923219317
 30
0.0
  0
VERTEX
  5
22D
  8
0
  6
CONTINUOUS
 62
     7
 10
281.7063712593
 20
215.1531768305
 30
0.0
  0
VERTEX
  5
22E
  8
0
  6
CONTINUOUS
 62
     7
 10
281.5499714654
 20
215.3995940735
 30
0.0
  0
VERTEX
  5
22F
  8
0
  6
CONTINUOUS
 62
     7
 10
281.54962967
 20
215.4060644371
 30
0.0
  0
SEQEND
  5
385
  8
0
  6
CONTINUOUS
 62
     7
  0
POLYLINE
  5
AF
  8
0
  6
CONTINUOUS
 62
     7
 66
     1
 10
0.0
 20
0.0
 30
0.0
 70
   128
  0
VERTEX
  5
230
  8
0
  6
CONTINUOUS
 62
     7
 10
263.0049585443
 20
217.9243713891
 30
0.0
  0
VERTEX
  5
231
  8
0
  6
CONTINUOUS
 62
     7
 10
262.9136162888
 20
217.8043704753
 30
0.0
  0
VERTEX
  5
232
  8
0
  6
CONTINUOUS
 62
     7
 10
262.5147303645
 20
217.541791526
 30
0.0
  0
VERTEX
  5
233
  8
0
  6
CONTINUOUS
 62
     7
 10
261.8484812867
 20
217.2798728844
 30
0.0
  0
VERTEX
  5
234
  8
0
  6
CONTINUOUS
 62
     7
 10
260.9297525216
 20
217.0244641875
 30
0.0
  0
VERTEX
  5
235
  8
0
  6
CONTINUOUS
 62
     7
 10
259.7790666934
 20
216.7812707176
 30
0.0
  0
VERTEX
  5
236
  8
0
  6
CONTINUOUS
 62
     7
 10
258.4221278396
 20
216.5557258104
 30
0.0
  0
VERTEX
  5
237
  8
0
  6
CONTINUOUS
 62
     7
 10
256.8892481815
 20
216.3528683869
 30
0.0
  0
VERTEX
  5
238
  8
0
  6
CONTINUOUS
 62
     7
 10
255.2146696564
 20
216.1772283999
 30
0.0
  0
VERTEX
  5
239
  8
0
  6
CONTINUOUS
 62
     7
 10
253.4357988354
 20
216.0327299771
 30
0.0
  0
VERTEX
  5
23A
  8
0
  6
CONTINUOUS
 62
     7
 10
251.5923733901
 20
215.9226015483
 30
0.0
  0
VERTEX
  5
23B
  8
0
  6
CONTINUOUS
 62
     7
 10
249.7255745422
 20
215.8493022708
 30
0.0
  0
VERTEX
  5
23C
  8
0
  6
CONTINUOUS
 62
     7
 10
247.8770985346
 20
215.8144698752
 30
0.0
  0
VERTEX
  5
23D
  8
0
  6
CONTINUOUS
 62
     7
 10
246.088242073
 20
215.8188829472
 30
0.0
  0
VERTEX
  5
23E
  8
0
  6
CONTINUOUS
 62
     7
 10
244.398962621
 20
215.862442301
 30
0.0
  0
VERTEX
  5
23F
  8
0
  6
CONTINUOUS
 62
     7
 10
242.8469955068
 20
215.9441751701
 30
0.0
  0
VERTEX
  5
240
  8
0
  6
CONTINUOUS
 62
     7
 10
241.4670120072
 20
216.0622552311
 30
0.0
  0
VERTEX
  5
241
  8
0
  6
CONTINUOUS
 62
     7
 10
240.289835174
 20
216.2140459096
 30
0.0
  0
VERTEX
  5
242
  8
0
  6
CONTINUOUS
 62
     7
 10
239.3417636942
 20
216.3961557945
 30
0.0
  0
VERTEX
  5
243
  8
0
  6
CONTINUOUS
 62
     7
 10
238.6439758431
 20
216.6045159375
 30
0.0
  0
VERTEX
  5
244
  8
0
  6
CONTINUOUS
 62
     7
 10
238.2120563727
 20
216.834473451
 30
0.0
  0
VERTEX
  5
245
  8
0
  6
CONTINUOUS
 62
     7
 10
238.0556575101
 20
217.0808911597
 30
0.0
  0
VERTEX
  5
246
  8
0
  6
CONTINUOUS
 62
     7
 10
238.0553147834
 20
217.0873610576
 30
0.0
  0
SEQEND
  5
386
  8
0
  6
CONTINUOUS
 62
     7
  0
POLYLINE
  5
B0
  8
0
  6
CONTINUOUS
 62
     7
 66
     1
 10
0.0
 20
0.0
 30
0.0
 70
   128
  0
VERTEX
  5
247
  8
0
  6
CONTINUOUS
 62
     7
 10
222.1203017127
 20
219.5047904079
 30
0.0
  0
VERTEX
  5
248
  8
0
  6
CONTINUOUS
 62
     7
 10
222.0289613199
 20
219.3847894942
 30
0.0
  0
VERTEX
  5
249
  8
0
  6
CONTINUOUS
 62
     7
 10
221.6300758612
 20
219.1222105449
 30
0.0
  0
VERTEX
  5
24A
  8
0
  6
CONTINUOUS
 62
     7
 10
220.9638263177
 20
218.8602909719
 30
0.0
  0
VERTEX
  5
24B
  8
0
  6
CONTINUOUS
 62
     7
 10
220.0450952243
 20
218.6048822751
 30
0.0
  0
VERTEX
  5
24C
  8
0
  6
CONTINUOUS
 62
     7
 10
218.8944126558
 20
218.3616897365
 30
0.0
  0
VERTEX
  5
24D
  8
0
  6
CONTINUOUS
 62
     7
 10
217.5374719393
 20
218.1361448293
 30
0.0
  0
VERTEX
  5
24E
  8
0
  6
CONTINUOUS
 62
     7
 10
216.0045932125
 20
217.9332869401
 30
0.0
  0
VERTEX
  5
24F
  8
0
  6
CONTINUOUS
 62
     7
 10
214.3300156187
 20
217.7576469531
 30
0.0
  0
VERTEX
  5
250
  8
0
  6
CONTINUOUS
 62
     7
 10
212.5511447977
 20
217.6131485303
 30
0.0
  0
VERTEX
  5
251
  8
0
  6
CONTINUOUS
 62
     7
 10
210.7077184212
 20
217.5030205672
 30
0.0
  0
VERTEX
  5
252
  8
0
  6
CONTINUOUS
 62
     7
 10
208.8409195732
 20
217.429720824
 30
0.0
  0
VERTEX
  5
253
  8
0
  6
CONTINUOUS
 62
     7
 10
206.992441703
 20
217.3948884284
 30
0.0
  0
VERTEX
  5
254
  8
0
  6
CONTINUOUS
 62
     7
 10
205.203587104
 20
217.399301966
 30
0.0
  0
VERTEX
  5
255
  8
0
  6
CONTINUOUS
 62
     7
 10
203.5143057894
 20
217.4428608542
 30
0.0
  0
VERTEX
  5
256
  8
0
  6
CONTINUOUS
 62
     7
 10
201.9623424005
 20
217.5245937233
 30
0.0
  0
VERTEX
  5
257
  8
0
  6
CONTINUOUS
 62
     7
 10
200.5823533129
 20
217.6426742499
 30
0.0
  0
VERTEX
  5
258
  8
0
  6
CONTINUOUS
 62
     7
 10
199.4051839303
 20
217.7944649284
 30
0.0
  0
VERTEX
  5
259
  8
0
  6
CONTINUOUS
 62
     7
 10
198.457105
 20
217.976573882
 30
0.0
  0
VERTEX
  5
25A
  8
0
  6
CONTINUOUS
 62
     7
 10
197.7593208742
 20
218.1849349563
 30
0.0
  0
VERTEX
  5
25B
  8
0
  6
CONTINUOUS
 62
     7
 10
197.3274032664
 20
218.4148924699
 30
0.0
  0
VERTEX
  5
25C
  8
0
  6
CONTINUOUS
 62
     7
 10
197.1710006785
 20
218.6613101786
 30
0.0
  0
VERTEX
  5
25D
  8
0
  6
CONTINUOUS
 62
     7
 10
197.1706579518
 20
218.6677800765
 30
0.0
  0
SEQEND
  5
387
  8
0
  6
CONTINUOUS
 62
     7
  0
ARC
  5
B1
  8
0
  6
CONTINUOUS
 62
     7
 10
326.4127200897
 20
225.9579224961
 30
0.0
 40
10.83070470987045
 50
293.0007249443
 51
5.1557956285
  0
POLYLINE
  5
B2
  8
0
  6
CONTINUOUS
 62
     7
 66
     1
 10
0.0
 20
0.0
 30
0.0
 70
   128
  0
VERTEX
  5
25E
  8
0
  6
CONTINUOUS
 62
     7
 10
326.6911636185
 20
216.3075739791
 30
0.0
  0
VERTEX
  5
25F
  8
0
  6
CONTINUOUS
 62
     7
 10
326.7080950629
 20
216.11705332
 30
0.0
  0
VERTEX
  5
260
  8
0
  6
CONTINUOUS
 62
     7
 10
326.7432767045
 20
215.9391083097
 30
0.0
  0
VERTEX
  5
261
  8
0
  6
CONTINUOUS
 62
     7
 10
326.7953488123
 20
215.7805767184
 30
0.0
  0
VERTEX
  5
262
  8
0
  6
CONTINUOUS
 62
     7
 10
326.862318356
 20
215.6475512584
 30
0.0
  0
VERTEX
  5
263
  8
0
  6
CONTINUOUS
 62
     7
 10
326.94161116
 20
215.5451434938
 30
0.0
  0
VERTEX
  5
264
  8
0
  6
CONTINUOUS
 62
     7
 10
327.0301724862
 20
215.4772891936
 30
0.0
  0
VERTEX
  5
265
  8
0
  6
CONTINUOUS
 62
     7
 10
327.12460487
 20
215.4465960612
 30
0.0
  0
VERTEX
  5
266
  8
0
  6
CONTINUOUS
 62
     7
 10
327.1442930292
 20
215.4450300423
 30
0.0
  0
SEQEND
  5
388
  8
0
  6
CONTINUOUS
 62
     7
  0
POLYLINE
  5
B3
  8
0
  6
CONTINUOUS
 62
     7
 66
     1
 10
0.0
 20
0.0
 30
0.0
 70
   128
  0
VERTEX
  5
267
  8
0
  6
CONTINUOUS
 62
     7
 10
177.940605123
 20
222.0576089149
 30
0.0
  0
VERTEX
  5
268
  8
0
  6
CONTINUOUS
 62
     7
 10
177.9575402927
 20
221.8670882558
 30
0.0
  0
VERTEX
  5
269
  8
0
  6
CONTINUOUS
 62
     7
 10
177.9927219343
 20
221.6891432454
 30
0.0
  0
VERTEX
  5
26A
  8
0
  6
CONTINUOUS
 62
     7
 10
178.044794042
 20
221.5306116541
 30
0.0
  0
VERTEX
  5
26B
  8
0
  6
CONTINUOUS
 62
     7
 10
178.111767311
 20
221.3975861942
 30
0.0
  0
VERTEX
  5
26C
  8
0
  6
CONTINUOUS
 62
     7
 10
178.1910563897
 20
221.2951779639
 30
0.0
  0
VERTEX
  5
26D
  8
0
  6
CONTINUOUS
 62
     7
 10
178.2796139907
 20
221.2273236637
 30
0.0
  0
VERTEX
  5
26E
  8
0
  6
CONTINUOUS
 62
     7
 10
178.3740500998
 20
221.196630997
 30
0.0
  0
VERTEX
  5
26F
  8
0
  6
CONTINUOUS
 62
     7
 10
178.3937419843
 20
221.1950645124
 30
0.0
  0
SEQEND
  5
389
  8
0
  6
CONTINUOUS
 62
     7
  0
POLYLINE
  5
B4
  8
0
  6
CONTINUOUS
 62
     7
 66
     1
 10
0.0
 20
0.0
 30
0.0
 70
   128
  0
VERTEX
  5
270
  8
0
  6
CONTINUOUS
 62
     7
 10
170.921957035
 20
344.640377005
 30
0.0
  0
VERTEX
  5
271
  8
0
  6
CONTINUOUS
 62
     7
 10
172.0484773707
 20
344.8761580785
 30
0.0
  0
VERTEX
  5
272
  8
0
  6
CONTINUOUS
 62
     7
 10
173.67577358
 20
344.959306558
 30
0.0
  0
SEQEND
  5
38A
  8
0
  6
CONTINUOUS
 62
     7
  0
ARC
  5
B5
  8
0
  6
CONTINUOUS
 62
     7
 10
163.9543218604
 20
334.0467266429
 30
0.0
 40
0.7446655806413257
 50
238.7568130195
 51
279.3716279405
  0
ARC
  5
B6
  8
0
  6
CONTINUOUS
 62
     7
 10
167.8287247371
 20
234.0534818775
 30
0.0
 40
0.7454604948957564
 50
238.7868055324
 51
279.3554208701
  0
ARC
  5
B7
  8
0
  6
CONTINUOUS
 62
     7
 10
355.0904476777
 20
233.825901197
 30
0.0
 40
10.68135481496403
 50
288.5984770272
 51
5.5578334029
  0
POLYLINE
  5
B8
  8
0
  6
CONTINUOUS
 62
     7
 66
     1
 10
0.0
 20
0.0
 30
0.0
 70
   128
  0
VERTEX
  5
273
  8
0
  6
CONTINUOUS
 62
     7
 10
361.8472720575
 20
334.8544566234
 30
0.0
  0
VERTEX
  5
274
  8
0
  6
CONTINUOUS
 62
     7
 10
361.926494081
 20
334.8817704519
 30
0.0
  0
VERTEX
  5
275
  8
0
  6
CONTINUOUS
 62
     7
 10
361.9692455124
 20
334.9093376001
 30
0.0
  0
VERTEX
  5
276
  8
0
  6
CONTINUOUS
 62
     7
 10
361.9766364884
 20
334.9267421564
 30
0.0
  0
SEQEND
  5
38B
  8
0
  6
CONTINUOUS
 62
     7
  0
POLYLINE
  5
B9
  8
0
  6
CONTINUOUS
 62
     7
 66
     1
 10
0.0
 20
0.0
 30
0.0
 70
   128
  0
VERTEX
  5
277
  8
0
  6
CONTINUOUS
 62
     7
 10
365.721588869
 20
234.8603951087
 30
0.0
  0
VERTEX
  5
278
  8
0
  6
CONTINUOUS
 62
     7
 10
365.8008108925
 20
234.8877107998
 30
0.0
  0
VERTEX
  5
279
  8
0
  6
CONTINUOUS
 62
     7
 10
365.843562324
 20
234.9152704974
 30
0.0
  0
VERTEX
  5
27A
  8
0
  6
CONTINUOUS
 62
     7
 10
365.8509532999
 20
234.932736521
 30
0.0
  0
SEQEND
  5
38C
  8
0
  6
CONTINUOUS
 62
     7
  0
LINE
  5
BA
  8
0
  6
CONTINUOUS
 62
     7
 10
202.1977658462
 20
352.8884826501
 30
0.0
 11
202.2747526955
 21
352.8977064689
 31
0.0
  0
POLYLINE
  5
BB
  8
0
  6
CONTINUOUS
 62
     7
 66
     1
 10
0.0
 20
0.0
 30
0.0
 70
   128
  0
VERTEX
  5
27B
  8
0
  6
CONTINUOUS
 62
     7
 10
202.1977658462
 20
352.8884826501
 30
0.0
  0
VERTEX
  5
27C
  8
0
  6
CONTINUOUS
 62
     7
 10
200.5704696369
 20
352.8053490718
 30
0.0
  0
VERTEX
  5
27D
  8
0
  6
CONTINUOUS
 62
     7
 10
199.4439418506
 20
352.5695530971
 30
0.0
  0
SEQEND
  5
38D
  8
0
  6
CONTINUOUS
 62
     7
  0
LINE
  5
BC
  8
0
  6
CONTINUOUS
 62
     7
 10
283.0632551652
 20
156.2774320326
 30
0.0
 11
281.9206136357
 21
185.7683834813
 31
0.0
  0
LINE
  5
BD
  8
0
  6
CONTINUOUS
 62
     7
 10
273.3349342909
 20
187.8150989495
 30
0.0
 11
274.5696277436
 21
155.9483398876
 31
0.0
  0
LINE
  5
BE
  8
0
  6
CONTINUOUS
 62
     7
 10
285.2716091167
 20
153.2924835763
 30
0.0
 11
285.0615735244
 21
156.3582633815
 31
0.0
  0
LINE
  5
BF
  8
0
  6
CONTINUOUS
 62
     7
 10
285.7462688428
 20
146.3641551516
 30
0.0
 11
285.3772471737
 21
151.7505598448
 31
0.0
  0
LINE
  5
C0
  8
0
  6
CONTINUOUS
 62
     7
 10
286.2209267061
 20
139.4358304522
 30
0.0
 11
285.8510668468
 21
144.8344764493
 31
0.0
  0
LINE
  5
C1
  8
0
  6
CONTINUOUS
 62
     7
 10
286.7891582739
 20
131.141680219
 30
0.0
 11
286.3248865198
 21
137.9183930538
 31
0.0
  0
LINE
  5
C2
  8
0
  6
CONTINUOUS
 62
     7
 10
272.7382931937
 20
137.3929110549
 30
0.0
 11
272.7997683998
 21
130.5996579311
 31
0.0
  0
LINE
  5
C3
  8
0
  6
CONTINUOUS
 62
     7
 10
272.675562099
 20
144.3248939894
 30
0.0
 11
272.7245464068
 21
138.9119801305
 31
0.0
  0
LINE
  5
C4
  8
0
  6
CONTINUOUS
 62
     7
 10
272.61283147
 20
151.2568731985
 30
0.0
 11
272.6617040191
 21
145.8562863252
 31
0.0
  0
LINE
  5
C5
  8
0
  6
CONTINUOUS
 62
     7
 10
272.5710458201
 20
155.8743109188
 30
0.0
 11
272.5988616314
 21
152.8005999706
 31
0.0
  0
LINE
  5
C6
  8
0
  6
CONTINUOUS
 62
     7
 10
274.7076930557
 20
152.3849544308
 30
0.0
 11
274.7508174818
 21
151.2719345472
 31
0.0
  0
LINE
  5
C7
  8
0
  6
CONTINUOUS
 62
     7
 10
274.9774655406
 20
145.4222751043
 30
0.0
 11
275.0193345439
 21
144.3416503451
 31
0.0
  0
ARC
  5
C8
  8
0
  6
CONTINUOUS
 62
     7
 10
262.7002543618
 20
122.2479079184
 30
0.0
 40
7.866403641917442
 50
344.993025575
 51
39.8940899702
  0
LINE
  5
C9
  8
0
  6
CONTINUOUS
 62
     7
 10
275.2472096201
 20
138.4603333853
 30
0.0
 11
275.2878520716
 21
137.4113735936
 31
0.0
  0
LINE
  5
CA
  8
0
  6
CONTINUOUS
 62
     7
 10
268.6269920398
 20
130.1322085045
 30
0.0
 11
268.7358494461
 21
127.322654166
 31
0.0
  0
LINE
  5
CB
  8
0
  6
CONTINUOUS
 62
     7
 10
270.3063005194
 20
120.193208494
 30
0.0
 11
266.6223751459
 21
97.8613150499
 31
0.0
  0
LINE
  5
CC
  8
0
  6
CONTINUOUS
 62
     7
 10
295.4798898738
 20
99.0601432703
 30
0.0
 11
290.0546974581
 21
121.7321408174
 31
0.0
  0
ARC
  5
CD
  8
0
  6
CONTINUOUS
 62
     7
 10
296.5313622163
 20
124.3325242188
 30
0.0
 40
6.964566959807349
 50
142.1704910289
 51
201.8749237757
  0
LINE
  5
CE
  8
0
  6
CONTINUOUS
 62
     7
 10
291.0710870367
 20
128.7919608138
 30
0.0
 11
290.9622303289
 21
131.6015151522
 31
0.0
  0
LINE
  5
CF
  8
0
  6
CONTINUOUS
 62
     7
 10
266.6210055197
 20
97.8393879912
 30
0.0
 11
266.7343563246
 21
94.9138653658
 31
0.0
  0
LINE
  5
D0
  8
0
  6
CONTINUOUS
 62
     7
 10
295.5937421959
 20
96.1309773109
 30
0.0
 11
295.4803909253
 21
99.0564999364
 31
0.0
  0
POLYLINE
  5
D1
  8
0
  6
CONTINUOUS
 62
     7
 66
     1
 10
0.0
 20
0.0
 30
0.0
 70
   128
  0
VERTEX
  5
27E
  8
0
  6
CONTINUOUS
 62
     7
 10
283.0632551652
 20
156.2774320326
 30
0.0
  0
VERTEX
  5
27F
  8
0
  6
CONTINUOUS
 62
     7
 10
282.9284099009
 20
156.1252241216
 30
0.0
  0
VERTEX
  5
280
  8
0
  6
CONTINUOUS
 62
     7
 10
282.5134581965
 20
155.9699763737
 30
0.0
  0
VERTEX
  5
281
  8
0
  6
CONTINUOUS
 62
     7
 10
281.8465604525
 20
155.8244665346
 30
0.0
  0
VERTEX
  5
282
  8
0
  6
CONTINUOUS
 62
     7
 10
280.9731652107
 20
155.6986150525
 30
0.0
  0
VERTEX
  5
283
  8
0
  6
CONTINUOUS
 62
     7
 10
279.9527923655
 20
155.6009938202
 30
0.0
  0
VERTEX
  5
284
  8
0
  6
CONTINUOUS
 62
     7
 10
278.8549800482
 20
155.5382562063
 30
0.0
  0
VERTEX
  5
285
  8
0
  6
CONTINUOUS
 62
     7
 10
277.7545404699
 20
155.514678844
 30
0.0
  0
VERTEX
  5
286
  8
0
  6
CONTINUOUS
 62
     7
 10
276.7264674496
 20
155.5318673334
 30
0.0
  0
VERTEX
  5
287
  8
0
  6
CONTINUOUS
 62
     7
 10
275.8408234533
 20
155.5886556588
 30
0.0
  0
VERTEX
  5
288
  8
0
  6
CONTINUOUS
 62
     7
 10
275.1579628404
 20
155.6811657927
 30
0.0
  0
VERTEX
  5
289
  8
0
  6
CONTINUOUS
 62
     7
 10
274.7244214717
 20
155.8030982695
 30
0.0
  0
VERTEX
  5
28A
  8
0
  6
CONTINUOUS
 62
     7
 10
274.5697441589
 20
155.9461419664
 30
0.0
  0
VERTEX
  5
28B
  8
0
  6
CONTINUOUS
 62
     7
 10
274.5696277436
 20
155.9483398876
 30
0.0
  0
SEQEND
  5
38E
  8
0
  6
CONTINUOUS
 62
     7
  0
POLYLINE
  5
D2
  8
0
  6
CONTINUOUS
 62
     7
 66
     1
 10
0.0
 20
0.0
 30
0.0
 70
   128
  0
VERTEX
  5
28C
  8
0
  6
CONTINUOUS
 62
     7
 10
283.0392214548
 20
156.8977114938
 30
0.0
  0
VERTEX
  5
28D
  8
0
  6
CONTINUOUS
 62
     7
 10
283.8355562728
 20
156.8079729758
 30
0.0
  0
VERTEX
  5
28E
  8
0
  6
CONTINUOUS
 62
     7
 10
284.4986113798
 20
156.6806090257
 30
0.0
  0
VERTEX
  5
28F
  8
0
  6
CONTINUOUS
 62
     7
 10
284.9133293223
 20
156.5284346423
 30
0.0
  0
VERTEX
  5
290
  8
0
  6
CONTINUOUS
 62
     7
 10
285.0615847003
 20
156.3580994687
 30
0.0
  0
VERTEX
  5
291
  8
0
  6
CONTINUOUS
 62
     7
 10
284.9368955087
 20
156.1770466349
 30
0.0
  0
VERTEX
  5
292
  8
0
  6
CONTINUOUS
 62
     7
 10
284.5447137099
 20
155.9931886576
 30
0.0
  0
VERTEX
  5
293
  8
0
  6
CONTINUOUS
 62
     7
 10
283.9021793645
 20
155.8145609877
 30
0.0
  0
VERTEX
  5
294
  8
0
  6
CONTINUOUS
 62
     7
 10
283.0373746421
 20
155.6489755593
 30
0.0
  0
VERTEX
  5
295
  8
0
  6
CONTINUOUS
 62
     7
 10
281.9880935442
 20
155.5036631606
 30
0.0
  0
VERTEX
  5
296
  8
0
  6
CONTINUOUS
 62
     7
 10
280.8001962569
 20
155.3849754117
 30
0.0
  0
VERTEX
  5
297
  8
0
  6
CONTINUOUS
 62
     7
 10
279.5256002884
 20
155.2981016419
 30
0.0
  0
VERTEX
  5
298
  8
0
  6
CONTINUOUS
 62
     7
 10
278.2200099047
 20
155.2468379221
 30
0.0
  0
VERTEX
  5
299
  8
0
  6
CONTINUOUS
 62
     7
 10
276.9404863086
 20
155.2334268771
 30
0.0
  0
VERTEX
  5
29A
  8
0
  6
CONTINUOUS
 62
     7
 10
275.7429507639
 20
155.258449652
 30
0.0
  0
VERTEX
  5
29B
  8
0
  6
CONTINUOUS
 62
     7
 10
274.6797422025
 20
155.3208147369
 30
0.0
  0
VERTEX
  5
29C
  8
0
  6
CONTINUOUS
 62
     7
 10
273.797326636
 20
155.4177989445
 30
0.0
  0
VERTEX
  5
29D
  8
0
  6
CONTINUOUS
 62
     7
 10
273.1342705976
 20
155.5451628945
 30
0.0
  0
VERTEX
  5
29E
  8
0
  6
CONTINUOUS
 62
     7
 10
272.7195531208
 20
155.6973372779
 30
0.0
  0
VERTEX
  5
29F
  8
0
  6
CONTINUOUS
 62
     7
 10
272.5712986741
 20
155.8676724515
 30
0.0
  0
VERTEX
  5
2A0
  8
0
  6
CONTINUOUS
 62
     7
 10
272.6959864687
 20
156.0487252853
 30
0.0
  0
VERTEX
  5
2A1
  8
0
  6
CONTINUOUS
 62
     7
 10
273.0881682675
 20
156.2325832627
 30
0.0
  0
VERTEX
  5
2A2
  8
0
  6
CONTINUOUS
 62
     7
 10
273.7307026129
 20
156.4112109325
 30
0.0
  0
VERTEX
  5
2A3
  8
0
  6
CONTINUOUS
 62
     7
 10
274.5455944989
 20
156.5686230741
 30
0.0
  0
SEQEND
  5
38F
  8
0
  6
CONTINUOUS
 62
     7
  0
POLYLINE
  5
D3
  8
0
  6
CONTINUOUS
 62
     7
 66
     1
 10
0.0
 20
0.0
 30
0.0
 70
   128
  0
VERTEX
  5
2A4
  8
0
  6
CONTINUOUS
 62
     7
 10
286.7891582739
 20
131.141680219
 30
0.0
  0
VERTEX
  5
2A5
  8
0
  6
CONTINUOUS
 62
     7
 10
286.7003082376
 20
130.9784901521
 30
0.0
  0
VERTEX
  5
2A6
  8
0
  6
CONTINUOUS
 62
     7
 10
286.3348572593
 20
130.7791051648
 30
0.0
  0
VERTEX
  5
2A7
  8
0
  6
CONTINUOUS
 62
     7
 10
285.7016491782
 20
130.5833113573
 30
0.0
  0
VERTEX
  5
2A8
  8
0
  6
CONTINUOUS
 62
     7
 10
284.8266064268
 20
130.3991255544
 30
0.0
  0
VERTEX
  5
2A9
  8
0
  6
CONTINUOUS
 62
     7
 10
283.7455532592
 20
130.2340877435
 30
0.0
  0
VERTEX
  5
2AA
  8
0
  6
CONTINUOUS
 62
     7
 10
282.5027479869
 20
130.0949556015
 30
0.0
  0
VERTEX
  5
2AB
  8
0
  6
CONTINUOUS
 62
     7
 10
281.149071556
 20
129.9874288223
 30
0.0
  0
VERTEX
  5
2AC
  8
0
  6
CONTINUOUS
 62
     7
 10
279.7399423164
 20
129.9159032486
 30
0.0
  0
VERTEX
  5
2AD
  8
0
  6
CONTINUOUS
 62
     7
 10
278.3330519762
 20
129.883314409
 30
0.0
  0
VERTEX
  5
2AE
  8
0
  6
CONTINUOUS
 62
     7
 10
276.9859981801
 20
129.8909885071
 30
0.0
  0
VERTEX
  5
2AF
  8
0
  6
CONTINUOUS
 62
     7
 10
275.7539291944
 20
129.9386126182
 30
0.0
  0
VERTEX
  5
2B0
  8
0
  6
CONTINUOUS
 62
     7
 10
274.6872859154
 20
130.024242141
 30
0.0
  0
VERTEX
  5
2B1
  8
0
  6
CONTINUOUS
 62
     7
 10
273.8297371272
 20
130.144367852
 30
0.0
  0
VERTEX
  5
2B2
  8
0
  6
CONTINUOUS
 62
     7
 10
273.2163913626
 20
130.2940723679
 30
0.0
  0
VERTEX
  5
2B3
  8
0
  6
CONTINUOUS
 62
     7
 10
272.8723584753
 20
130.467223861
 30
0.0
  0
VERTEX
  5
2B4
  8
0
  6
CONTINUOUS
 62
     7
 10
272.7997683998
 20
130.5996579311
 30
0.0
  0
SEQEND
  5
390
  8
0
  6
CONTINUOUS
 62
     7
  0
POLYLINE
  5
D4
  8
0
  6
CONTINUOUS
 62
     7
 66
     1
 10
0.0
 20
0.0
 30
0.0
 70
   128
  0
VERTEX
  5
2B5
  8
0
  6
CONTINUOUS
 62
     7
 10
285.3495012116
 20
138.9124197147
 30
0.0
  0
VERTEX
  5
2B6
  8
0
  6
CONTINUOUS
 62
     7
 10
285.8670166772
 20
139.0933421634
 30
0.0
  0
VERTEX
  5
2B7
  8
0
  6
CONTINUOUS
 62
     7
 10
286.1580698829
 20
139.284106829
 30
0.0
  0
VERTEX
  5
2B8
  8
0
  6
CONTINUOUS
 62
     7
 10
286.2209267061
 20
139.4358304522
 30
0.0
  0
SEQEND
  5
391
  8
0
  6
CONTINUOUS
 62
     7
  0
LINE
  5
D5
  8
0
  6
CONTINUOUS
 62
     7
 10
285.3495012116
 20
138.9124197147
 30
0.0
 11
285.443589006
 21
137.454214432
 31
0.0
  0
POLYLINE
  5
D6
  8
0
  6
CONTINUOUS
 62
     7
 66
     1
 10
0.0
 20
0.0
 30
0.0
 70
   128
  0
VERTEX
  5
2B9
  8
0
  6
CONTINUOUS
 62
     7
 10
285.3918205094
 20
138.2565451048
 30
0.0
  0
VERTEX
  5
2BA
  8
0
  6
CONTINUOUS
 62
     7
 10
285.7199980956
 20
138.2036161802
 30
0.0
  0
VERTEX
  5
2BB
  8
0
  6
CONTINUOUS
 62
     7
 10
286.1349004399
 20
138.0885568641
 30
0.0
  0
VERTEX
  5
2BC
  8
0
  6
CONTINUOUS
 62
     7
 10
286.3169162613
 20
137.9509371898
 30
0.0
  0
VERTEX
  5
2BD
  8
0
  6
CONTINUOUS
 62
     7
 10
286.2596268844
 20
137.7956223867
 30
0.0
  0
VERTEX
  5
2BE
  8
0
  6
CONTINUOUS
 62
     7
 10
285.965055142
 20
137.6280737303
 30
0.0
  0
VERTEX
  5
2BF
  8
0
  6
CONTINUOUS
 62
     7
 10
285.443589006
 20
137.454214432
 30
0.0
  0
SEQEND
  5
392
  8
0
  6
CONTINUOUS
 62
     7
  0
POLYLINE
  5
D7
  8
0
  6
CONTINUOUS
 62
     7
 66
     1
 10
0.0
 20
0.0
 30
0.0
 70
   128
  0
VERTEX
  5
2C0
  8
0
  6
CONTINUOUS
 62
     7
 10
284.9014326077
 20
145.8567184589
 30
0.0
  0
VERTEX
  5
2C1
  8
0
  6
CONTINUOUS
 62
     7
 10
285.4040711265
 20
146.0325372598
 30
0.0
  0
VERTEX
  5
2C2
  8
0
  6
CONTINUOUS
 62
     7
 10
285.6861072671
 20
146.2179375074
 30
0.0
  0
VERTEX
  5
2C3
  8
0
  6
CONTINUOUS
 62
     7
 10
285.7462688428
 20
146.3641551516
 30
0.0
  0
SEQEND
  5
393
  8
0
  6
CONTINUOUS
 62
     7
  0
LINE
  5
D8
  8
0
  6
CONTINUOUS
 62
     7
 10
284.9014326077
 20
145.8567184589
 30
0.0
 11
284.9964349609
 21
144.3843421719
 31
0.0
  0
POLYLINE
  5
D9
  8
0
  6
CONTINUOUS
 62
     7
 66
     1
 10
0.0
 20
0.0
 30
0.0
 70
   128
  0
VERTEX
  5
2C4
  8
0
  6
CONTINUOUS
 62
     7
 10
284.9462329488
 20
145.1623988531
 30
0.0
  0
VERTEX
  5
2C5
  8
0
  6
CONTINUOUS
 62
     7
 10
285.2586357933
 20
145.1122042916
 30
0.0
  0
VERTEX
  5
2C6
  8
0
  6
CONTINUOUS
 62
     7
 10
285.6641615819
 20
145.000616946
 30
0.0
  0
VERTEX
  5
2C7
  8
0
  6
CONTINUOUS
 62
     7
 10
285.8429159116
 20
144.8670131347
 30
0.0
  0
VERTEX
  5
2C8
  8
0
  6
CONTINUOUS
 62
     7
 10
285.7885620635
 20
144.7161314271
 30
0.0
  0
VERTEX
  5
2C9
  8
0
  6
CONTINUOUS
 62
     7
 10
285.503029738
 20
144.5533213399
 30
0.0
  0
VERTEX
  5
2CA
  8
0
  6
CONTINUOUS
 62
     7
 10
284.9964349609
 20
144.3843421719
 30
0.0
  0
SEQEND
  5
394
  8
0
  6
CONTINUOUS
 62
     7
  0
POLYLINE
  5
DA
  8
0
  6
CONTINUOUS
 62
     7
 66
     1
 10
0.0
 20
0.0
 30
0.0
 70
   128
  0
VERTEX
  5
2CB
  8
0
  6
CONTINUOUS
 62
     7
 10
284.4533640038
 20
152.8010134778
 30
0.0
  0
VERTEX
  5
2CC
  8
0
  6
CONTINUOUS
 62
     7
 10
284.9411237132
 20
152.9717360816
 30
0.0
  0
VERTEX
  5
2CD
  8
0
  6
CONTINUOUS
 62
     7
 10
285.2141390633
 20
153.1517607353
 30
0.0
  0
VERTEX
  5
2CE
  8
0
  6
CONTINUOUS
 62
     7
 10
285.2716091167
 20
153.2924835763
 30
0.0
  0
SEQEND
  5
395
  8
0
  6
CONTINUOUS
 62
     7
  0
LINE
  5
DB
  8
0
  6
CONTINUOUS
 62
     7
 10
284.4533640038
 20
152.8010134778
 30
0.0
 11
284.5492809158
 21
151.3144699118
 31
0.0
  0
POLYLINE
  5
DC
  8
0
  6
CONTINUOUS
 62
     7
 66
     1
 10
0.0
 20
0.0
 30
0.0
 70
   128
  0
VERTEX
  5
2CF
  8
0
  6
CONTINUOUS
 62
     7
 10
284.5006435257
 20
152.0682488761
 30
0.0
  0
VERTEX
  5
2D0
  8
0
  6
CONTINUOUS
 62
     7
 10
284.7972399634
 20
152.0207812271
 30
0.0
  0
VERTEX
  5
2D1
  8
0
  6
CONTINUOUS
 62
     7
 10
285.1934022349
 20
151.9126733027
 30
0.0
  0
VERTEX
  5
2D2
  8
0
  6
CONTINUOUS
 62
     7
 10
285.3689025235
 20
151.7830928049
 30
0.0
  0
VERTEX
  5
2D3
  8
0
  6
CONTINUOUS
 62
     7
 10
285.3174935173
 20
151.6366516433
 30
0.0
  0
VERTEX
  5
2D4
  8
0
  6
CONTINUOUS
 62
     7
 10
285.041004334
 20
151.4785652242
 30
0.0
  0
VERTEX
  5
2D5
  8
0
  6
CONTINUOUS
 62
     7
 10
284.5492809158
 20
151.3144699118
 30
0.0
  0
SEQEND
  5
396
  8
0
  6
CONTINUOUS
 62
     7
  0
ARC
  5
DD
  8
0
  6
CONTINUOUS
 62
     7
 10
276.3857322498
 20
182.6084989925
 30
0.0
 40
42.61847908114691
 50
268.7993184924
 51
281.9637572511
  0
LINE
  5
DE
  8
0
  6
CONTINUOUS
 62
     7
 10
285.2202410888
 20
140.9157392762
 30
0.0
 11
285.1252387356
 21
142.3881155632
 31
0.0
  0
ARC
  5
DF
  8
0
  6
CONTINUOUS
 62
     7
 10
278.9692239382
 20
173.9889856834
 30
0.0
 40
32.19489882796589
 50
263.7156417469
 51
281.0234579509
  0
POLYLINE
  5
E0
  8
0
  6
CONTINUOUS
 62
     7
 66
     1
 10
0.0
 20
0.0
 30
0.0
 70
   128
  0
VERTEX
  5
2D6
  8
0
  6
CONTINUOUS
 62
     7
 10
275.4926913496
 20
139.9993774674
 30
0.0
  0
VERTEX
  5
2D7
  8
0
  6
CONTINUOUS
 62
     7
 10
275.2245677713
 20
140.0731158636
 30
0.0
  0
VERTEX
  5
2D8
  8
0
  6
CONTINUOUS
 62
     7
 10
274.9924416732
 20
140.2519745014
 30
0.0
  0
VERTEX
  5
2D9
  8
0
  6
CONTINUOUS
 62
     7
 10
274.8152026054
 20
140.5198079727
 30
0.0
  0
VERTEX
  5
2DA
  8
0
  6
CONTINUOUS
 62
     7
 10
274.7128148642
 20
140.8441615484
 30
0.0
  0
VERTEX
  5
2DB
  8
0
  6
CONTINUOUS
 62
     7
 10
274.6946345162
 20
141.1771950505
 30
0.0
  0
VERTEX
  5
2DC
  8
0
  6
CONTINUOUS
 62
     7
 10
274.7561507005
 20
141.4806348465
 30
0.0
  0
VERTEX
  5
2DD
  8
0
  6
CONTINUOUS
 62
     7
 10
274.8911282126
 20
141.7317790172
 30
0.0
  0
VERTEX
  5
2DE
  8
0
  6
CONTINUOUS
 62
     7
 10
275.0941616561
 20
141.9085738442
 30
0.0
  0
VERTEX
  5
2DF
  8
0
  6
CONTINUOUS
 62
     7
 10
275.3500443962
 20
141.9865516208
 30
0.0
  0
VERTEX
  5
2E0
  8
0
  6
CONTINUOUS
 62
     7
 10
275.4450751547
 20
141.9875499986
 30
0.0
  0
SEQEND
  5
397
  8
0
  6
CONTINUOUS
 62
     7
  0
ARC
  5
E1
  8
0
  6
CONTINUOUS
 62
     7
 10
275.664617499
 20
146.5119117357
 30
0.0
 40
8.148802269728904
 50
248.8507915176
 51
278.7127287162
  0
LINE
  5
E2
  8
0
  6
CONTINUOUS
 62
     7
 10
273.6088660624
 20
138.5767040036
 30
0.0
 11
273.6174598415
 21
137.9113597057
 31
0.0
  0
POLYLINE
  5
E3
  8
0
  6
CONTINUOUS
 62
     7
 66
     1
 10
0.0
 20
0.0
 30
0.0
 70
   128
  0
VERTEX
  5
2E1
  8
0
  6
CONTINUOUS
 62
     7
 10
276.946570639
 20
136.4689645551
 30
0.0
  0
VERTEX
  5
2E2
  8
0
  6
CONTINUOUS
 62
     7
 10
275.8159096431
 20
136.5509358428
 30
0.0
  0
VERTEX
  5
2E3
  8
0
  6
CONTINUOUS
 62
     7
 10
274.8168272976
 20
136.664572098
 30
0.0
  0
VERTEX
  5
2E4
  8
0
  6
CONTINUOUS
 62
     7
 10
273.9845681083
 20
136.8058798096
 30
0.0
  0
VERTEX
  5
2E5
  8
0
  6
CONTINUOUS
 62
     7
 10
273.3484938819
 20
136.9698521874
 30
0.0
  0
VERTEX
  5
2E6
  8
0
  6
CONTINUOUS
 62
     7
 10
272.931043439
 20
137.150722482
 30
0.0
  0
VERTEX
  5
2E7
  8
0
  6
CONTINUOUS
 62
     7
 10
272.7469437834
 20
137.3420980952
 30
0.0
  0
VERTEX
  5
2E8
  8
0
  6
CONTINUOUS
 62
     7
 10
272.8026894931
 20
137.5372362516
 30
0.0
  0
VERTEX
  5
2E9
  8
0
  6
CONTINUOUS
 62
     7
 10
273.0963145461
 20
137.7292451642
 30
0.0
  0
VERTEX
  5
2EA
  8
0
  6
CONTINUOUS
 62
     7
 10
273.6174598415
 20
137.9113597057
 30
0.0
  0
SEQEND
  5
398
  8
0
  6
CONTINUOUS
 62
     7
  0
ARC
  5
E4
  8
0
  6
CONTINUOUS
 62
     7
 10
276.9018800706
 20
137.4625543496
 30
0.0
 40
0.9945943528470149
 50
272.5753648884
 51
90.1658279725
  0
ARC
  5
E5
  8
0
  6
CONTINUOUS
 62
     7
 10
275.5256183322
 20
153.2927561469
 30
0.0
 40
7.968882518963497
 50
248.9374338278
 51
278.7112134458
  0
LINE
  5
E6
  8
0
  6
CONTINUOUS
 62
     7
 10
273.5190404657
 20
145.5312472961
 30
0.0
 11
273.5281278458
 21
144.8276517175
 31
0.0
  0
POLYLINE
  5
E7
  8
0
  6
CONTINUOUS
 62
     7
 66
     1
 10
0.0
 20
0.0
 30
0.0
 70
   128
  0
VERTEX
  5
2EB
  8
0
  6
CONTINUOUS
 62
     7
 10
276.7800948661
 20
143.4276131175
 30
0.0
  0
VERTEX
  5
2EC
  8
0
  6
CONTINUOUS
 62
     7
 10
275.6790406149
 20
143.506656327
 30
0.0
  0
VERTEX
  5
2ED
  8
0
  6
CONTINUOUS
 62
     7
 10
274.7054923404
 20
143.6166119955
 30
0.0
  0
VERTEX
  5
2EE
  8
0
  6
CONTINUOUS
 62
     7
 10
273.8939504217
 20
143.7535834692
 30
0.0
  0
VERTEX
  5
2EF
  8
0
  6
CONTINUOUS
 62
     7
 10
273.2731759627
 20
143.9127204202
 30
0.0
  0
VERTEX
  5
2F0
  8
0
  6
CONTINUOUS
 62
     7
 10
272.865167268
 20
144.0883753083
 30
0.0
  0
VERTEX
  5
2F1
  8
0
  6
CONTINUOUS
 62
     7
 10
272.6843849834
 20
144.2743268988
 30
0.0
  0
VERTEX
  5
2F2
  8
0
  6
CONTINUOUS
 62
     7
 10
272.7372352112
 20
144.4639888785
 30
0.0
  0
VERTEX
  5
2F3
  8
0
  6
CONTINUOUS
 62
     7
 10
273.0218450617
 20
144.6506333731
 30
0.0
  0
VERTEX
  5
2F4
  8
0
  6
CONTINUOUS
 62
     7
 10
273.5281278458
 20
144.8276517175
 30
0.0
  0
SEQEND
  5
399
  8
0
  6
CONTINUOUS
 62
     7
  0
ARC
  5
E8
  8
0
  6
CONTINUOUS
 62
     7
 10
276.737431031
 20
144.4212550962
 30
0.0
 40
0.9945574818230734
 50
272.4585889323
 51
90.2817889523
  0
ARC
  5
E9
  8
0
  6
CONTINUOUS
 62
     7
 10
276.209197552
 20
188.2631637245
 30
0.0
 40
41.31462264791895
 50
268.7751419885
 51
281.9632738376
  0
LINE
  5
EA
  8
0
  6
CONTINUOUS
 62
     7
 10
284.7730851811
 20
147.8458670161
 30
0.0
 11
284.6771682691
 21
149.3324068568
 31
0.0
  0
ARC
  5
EB
  8
0
  6
CONTINUOUS
 62
     7
 10
278.7110630874
 20
179.9630361069
 30
0.0
 40
31.20624711970378
 50
263.6848099449
 51
281.0218330902
  0
POLYLINE
  5
EC
  8
0
  6
CONTINUOUS
 62
     7
 66
     1
 10
0.0
 20
0.0
 30
0.0
 70
   128
  0
VERTEX
  5
2F5
  8
0
  6
CONTINUOUS
 62
     7
 10
275.32604887
 20
146.9579813264
 30
0.0
  0
VERTEX
  5
2F6
  8
0
  6
CONTINUOUS
 62
     7
 10
275.058564179
 20
147.0319581411
 30
0.0
  0
VERTEX
  5
2F7
  8
0
  6
CONTINUOUS
 62
     7
 10
274.8273377385
 20
147.2110775492
 30
0.0
  0
VERTEX
  5
2F8
  8
0
  6
CONTINUOUS
 62
     7
 10
274.6508334842
 20
147.47941766
 30
0.0
  0
VERTEX
  5
2F9
  8
0
  6
CONTINUOUS
 62
     7
 10
274.549020369
 20
147.8043374799
 30
0.0
  0
VERTEX
  5
2FA
  8
0
  6
CONTINUOUS
 62
     7
 10
274.5310877528
 20
148.1372070692
 30
0.0
  0
VERTEX
  5
2FB
  8
0
  6
CONTINUOUS
 62
     7
 10
274.5921112675
 20
148.4398124001
 30
0.0
  0
VERTEX
  5
2FC
  8
0
  6
CONTINUOUS
 62
     7
 10
274.7259474438
 20
148.6903232715
 30
0.0
  0
VERTEX
  5
2FD
  8
0
  6
CONTINUOUS
 62
     7
 10
274.9278134745
 20
148.8670435927
 30
0.0
  0
VERTEX
  5
2FE
  8
0
  6
CONTINUOUS
 62
     7
 10
275.182991669
 20
148.9451629303
 30
0.0
  0
VERTEX
  5
2FF
  8
0
  6
CONTINUOUS
 62
     7
 10
275.278443851
 20
148.9461538575
 30
0.0
  0
SEQEND
  5
39A
  8
0
  6
CONTINUOUS
 62
     7
  0
ARC
  5
ED
  8
0
  6
CONTINUOUS
 62
     7
 10
275.3865956878
 20
160.0736581652
 30
0.0
 40
7.789020263832676
 50
249.028371988
 51
278.7101331536
  0
LINE
  5
EE
  8
0
  6
CONTINUOUS
 62
     7
 10
273.4292144034
 20
152.4857868634
 30
0.0
 11
273.4387963157
 21
151.7439511798
 31
0.0
  0
POLYLINE
  5
EF
  8
0
  6
CONTINUOUS
 62
     7
 66
     1
 10
0.0
 20
0.0
 30
0.0
 70
   128
  0
VERTEX
  5
300
  8
0
  6
CONTINUOUS
 62
     7
 10
276.613670316
 20
150.3862765811
 30
0.0
  0
VERTEX
  5
301
  8
0
  6
CONTINUOUS
 62
     7
 10
275.5422265347
 20
150.4623842619
 30
0.0
  0
VERTEX
  5
302
  8
0
  6
CONTINUOUS
 62
     7
 10
274.594208606
 20
150.5686518929
 30
0.0
  0
VERTEX
  5
303
  8
0
  6
CONTINUOUS
 62
     7
 10
273.8033760417
 20
150.7012945793
 30
0.0
  0
VERTEX
  5
304
  8
0
  6
CONTINUOUS
 62
     7
 10
273.197890174
 20
150.8555886529
 30
0.0
  0
VERTEX
  5
305
  8
0
  6
CONTINUOUS
 62
     7
 10
272.7993129831
 20
151.0260281346
 30
0.0
  0
VERTEX
  5
306
  8
0
  6
CONTINUOUS
 62
     7
 10
272.6218382906
 20
151.2065594278
 30
0.0
  0
VERTEX
  5
307
  8
0
  6
CONTINUOUS
 62
     7
 10
272.671785586
 20
151.3907415054
 30
0.0
  0
VERTEX
  5
308
  8
0
  6
CONTINUOUS
 62
     7
 10
272.947376043
 20
151.5720253072
 30
0.0
  0
VERTEX
  5
309
  8
0
  6
CONTINUOUS
 62
     7
 10
273.4387963157
 20
151.7439511798
 30
0.0
  0
SEQEND
  5
39B
  8
0
  6
CONTINUOUS
 62
     7
  0
ARC
  5
F0
  8
0
  6
CONTINUOUS
 62
     7
 10
276.5731756595
 20
151.3799722513
 30
0.0
 40
0.99452043831606
 50
272.3336016202
 51
90.4058591308
  0
LINE
  5
F1
  8
0
  6
CONTINUOUS
 62
     7
 10
283.7483975183
 20
119.9819100282
 30
0.0
 11
289.1894689839
 21
97.2435501597
 31
0.0
  0
ARC
  5
F2
  8
0
  6
CONTINUOUS
 62
     7
 10
282.7032360256
 20
124.9299930066
 30
0.0
 40
28.43607454452712
 50
274.8706016213
 51
283.1851628033
  0
LINE
  5
F3
  8
0
  6
CONTINUOUS
 62
     7
 10
285.117620517
 20
96.5966013453
 30
0.0
 11
279.7855966803
 21
118.8792390011
 31
0.0
  0
POLYLINE
  5
F4
  8
0
  6
CONTINUOUS
 62
     7
 66
     1
 10
0.0
 20
0.0
 30
0.0
 70
   128
  0
VERTEX
  5
30A
  8
0
  6
CONTINUOUS
 62
     7
 10
283.7483975183
 20
119.9819100282
 30
0.0
  0
VERTEX
  5
30B
  8
0
  6
CONTINUOUS
 62
     7
 10
283.1205519926
 20
119.8067841313
 30
0.0
  0
VERTEX
  5
30C
  8
0
  6
CONTINUOUS
 62
     7
 10
282.283723269
 20
119.5728359006
 30
0.0
  0
VERTEX
  5
30D
  8
0
  6
CONTINUOUS
 62
     7
 10
281.3315250989
 20
119.3071854494
 30
0.0
  0
VERTEX
  5
30E
  8
0
  6
CONTINUOUS
 62
     7
 10
280.370417897
 20
119.0404844663
 30
0.0
  0
VERTEX
  5
30F
  8
0
  6
CONTINUOUS
 62
     7
 10
279.8179834228
 20
118.8881424449
 30
0.0
  0
VERTEX
  5
310
  8
0
  6
CONTINUOUS
 62
     7
 10
279.7855966803
 20
118.8792390011
 30
0.0
  0
SEQEND
  5
39C
  8
0
  6
CONTINUOUS
 62
     7
  0
ARC
  5
F5
  8
0
  6
CONTINUOUS
 62
     7
 10
261.2424280621
 20
121.8239104981
 30
0.0
 40
10.85577183155605
 50
345.9526203887
 51
34.1746902095
  0
LINE
  5
F6
  8
0
  6
CONTINUOUS
 62
     7
 10
270.1494674277
 20
129.8382234953
 30
0.0
 11
270.2237206124
 21
127.9217926047
 31
0.0
  0
LINE
  5
F7
  8
0
  6
CONTINUOUS
 62
     7
 10
280.5881024417
 20
129.4347149513
 30
0.0
 11
270.1494674277
 21
129.8382234953
 31
0.0
  0
LINE
  5
F8
  8
0
  6
CONTINUOUS
 62
     7
 10
280.6623558592
 20
127.5182840607
 30
0.0
 11
280.5881024417
 21
129.4347149513
 31
0.0
  0
ARC
  5
F9
  8
0
  6
CONTINUOUS
 62
     7
 10
289.4445488825
 20
122.2629842989
 30
0.0
 40
10.23450486761856
 50
149.103527521
 51
199.3064901632
  0
LINE
  5
FA
  8
0
  6
CONTINUOUS
 62
     7
 10
285.2196133774
 20
93.9641845606
 30
0.0
 11
285.117620517
 21
96.5966013453
 31
0.0
  0
LINE
  5
FB
  8
0
  6
CONTINUOUS
 62
     7
 10
268.2568316543
 20
94.6198878072
 30
0.0
 11
285.2196133774
 21
93.9641845606
 31
0.0
  0
LINE
  5
FC
  8
0
  6
CONTINUOUS
 62
     7
 10
268.154837164
 20
97.2523045919
 30
0.0
 11
268.2568316543
 21
94.6198878072
 31
0.0
  0
LINE
  5
FD
  8
0
  6
CONTINUOUS
 62
     7
 10
271.77356175
 20
119.1889521859
 30
0.0
 11
268.154837164
 21
97.2523045919
 31
0.0
  0
ARC
  5
FE
  8
0
  6
CONTINUOUS
 62
     7
 10
290.3559163138
 20
122.4459694753
 30
0.0
 40
7.052013442392765
 50
142.141920898
 51
200.451366132
  0
ARC
  5
FF
  8
0
  6
CONTINUOUS
 62
     7
 10
284.1985373701
 20
135.3112497301
 30
0.0
 40
8.55773881359625
 50
245.5930765989
 51
273.9504814908
  0
LINE
  5
100
  8
0
  6
CONTINUOUS
 62
     7
 10
289.4397544753
 20
131.8954927109
 30
0.0
 11
286.7303396654
 21
132.0002255223
 31
0.0
  0
POLYLINE
  5
101
  8
0
  6
CONTINUOUS
 62
     7
 66
     1
 10
0.0
 20
0.0
 30
0.0
 70
   128
  0
VERTEX
  5
311
  8
0
  6
CONTINUOUS
 62
     7
 10
290.5741388988
 20
131.38448719
 30
0.0
  0
VERTEX
  5
312
  8
0
  6
CONTINUOUS
 62
     7
 10
290.8118068319
 20
131.466436126
 30
0.0
  0
VERTEX
  5
313
  8
0
  6
CONTINUOUS
 62
     7
 10
290.9400536757
 20
131.5491152189
 30
0.0
  0
VERTEX
  5
314
  8
0
  6
CONTINUOUS
 62
     7
 10
290.9539508712
 20
131.6293430708
 30
0.0
  0
VERTEX
  5
315
  8
0
  6
CONTINUOUS
 62
     7
 10
290.8529638391
 20
131.7040351413
 30
0.0
  0
VERTEX
  5
316
  8
0
  6
CONTINUOUS
 62
     7
 10
290.640974332
 20
131.7703304074
 30
0.0
  0
VERTEX
  5
317
  8
0
  6
CONTINUOUS
 62
     7
 10
290.3261295598
 20
131.8256733201
 30
0.0
  0
VERTEX
  5
318
  8
0
  6
CONTINUOUS
 62
     7
 10
289.9205274027
 20
131.8679330132
 30
0.0
  0
VERTEX
  5
319
  8
0
  6
CONTINUOUS
 62
     7
 10
289.4397544753
 20
131.8954927109
 30
0.0
  0
SEQEND
  5
39D
  8
0
  6
CONTINUOUS
 62
     7
  0
LINE
  5
102
  8
0
  6
CONTINUOUS
 62
     7
 10
284.6730369222
 20
129.7439662001
 30
0.0
 11
290.5741388988
 21
131.38448719
 31
0.0
  0
ARC
  5
103
  8
0
  6
CONTINUOUS
 62
     7
 10
281.4008594305
 20
145.832721406
 30
0.0
 40
16.418135996824
 50
267.1624923781
 51
281.49618102
  0
POLYLINE
  5
104
  8
0
  6
CONTINUOUS
 62
     7
 66
     1
 10
0.0
 20
0.0
 30
0.0
 70
   128
  0
VERTEX
  5
31A
  8
0
  6
CONTINUOUS
 62
     7
 10
269.0150838191
 20
130.3492364667
 30
0.0
  0
VERTEX
  5
31B
  8
0
  6
CONTINUOUS
 62
     7
 10
268.7774157696
 20
130.2672800801
 30
0.0
  0
VERTEX
  5
31C
  8
0
  6
CONTINUOUS
 62
     7
 10
268.6491689257
 20
130.1846084378
 30
0.0
  0
VERTEX
  5
31D
  8
0
  6
CONTINUOUS
 62
     7
 10
268.6352716139
 20
130.1043731354
 30
0.0
  0
VERTEX
  5
31E
  8
0
  6
CONTINUOUS
 62
     7
 10
268.7362580639
 20
130.0296810649
 30
0.0
  0
VERTEX
  5
31F
  8
0
  6
CONTINUOUS
 62
     7
 10
268.9482473381
 20
129.9633932493
 30
0.0
  0
VERTEX
  5
320
  8
0
  6
CONTINUOUS
 62
     7
 10
269.2630928088
 20
129.9080503366
 30
0.0
  0
VERTEX
  5
321
  8
0
  6
CONTINUOUS
 62
     7
 10
269.6686951988
 20
129.8657831929
 30
0.0
  0
VERTEX
  5
322
  8
0
  6
CONTINUOUS
 62
     7
 10
270.1494674277
 20
129.8382234953
 30
0.0
  0
SEQEND
  5
39E
  8
0
  6
CONTINUOUS
 62
     7
  0
LINE
  5
105
  8
0
  6
CONTINUOUS
 62
     7
 10
269.0150838191
 20
130.3492364667
 30
0.0
 11
272.7925315578
 21
131.3993734501
 31
0.0
  0
LINE
  5
106
  8
0
  6
CONTINUOUS
 62
     7
 10
284.6730369222
 20
129.7439662001
 30
0.0
 11
284.7881167274
 21
126.7738443992
 31
0.0
  0
LINE
  5
107
  8
0
  6
CONTINUOUS
 62
     7
 10
275.32604887
 20
146.9579813264
 30
0.0
 11
276.441694152
 21
147.2681340955
 31
0.0
  0
ARC
  5
108
  8
0
  6
CONTINUOUS
 62
     7
 10
277.222813683
 20
174.2997812299
 30
0.0
 40
27.04293058313233
 50
268.3448140778
 51
281.9630509508
  0
LINE
  5
109
  8
0
  6
CONTINUOUS
 62
     7
 10
284.7730851811
 20
147.8458670161
 30
0.0
 11
282.8282955181
 21
147.8441831849
 31
0.0
  0
LINE
  5
10A
  8
0
  6
CONTINUOUS
 62
     7
 10
275.4926913496
 20
139.9993774674
 30
0.0
 11
276.7102112141
 21
140.3378498934
 31
0.0
  0
ARC
  5
10B
  8
0
  6
CONTINUOUS
 62
     7
 10
277.4913617299
 20
167.3688203987
 30
0.0
 40
27.04225513134215
 50
268.3447070472
 51
281.9632890896
  0
LINE
  5
10C
  8
0
  6
CONTINUOUS
 62
     7
 10
285.2202410888
 20
140.9157392762
 30
0.0
 11
283.0968135115
 21
140.9139064334
 31
0.0
  0
LINE
  5
10D
  8
0
  6
CONTINUOUS
 62
     7
 10
289.649499495
 20
121.6224310181
 30
0.0
 11
283.7483975183
 21
119.9819100282
 31
0.0
  0
LINE
  5
10E
  8
0
  6
CONTINUOUS
 62
     7
 10
295.0905709606
 20
98.8840711496
 30
0.0
 11
289.649499495
 21
121.6224310181
 31
0.0
  0
LINE
  5
10F
  8
0
  6
CONTINUOUS
 62
     7
 10
289.1894689839
 20
97.2435501597
 30
0.0
 11
295.0905709606
 21
98.8840711496
 31
0.0
  0
LINE
  5
110
  8
0
  6
CONTINUOUS
 62
     7
 10
284.7881167274
 20
126.7738443992
 30
0.0
 11
290.6892168414
 21
128.4143653891
 31
0.0
  0
ARC
  5
111
  8
0
  6
CONTINUOUS
 62
     7
 10
296.4442203893
 20
124.0578348735
 30
0.0
 40
7.217993070859179
 50
142.8743239154
 51
199.7189938211
  0
LINE
  5
112
  8
0
  6
CONTINUOUS
 62
     7
 10
290.6892168414
 20
128.4143653891
 30
0.0
 11
290.5741388988
 21
131.38448719
 31
0.0
  0
LINE
  5
113
  8
0
  6
CONTINUOUS
 62
     7
 10
289.1894689839
 20
97.2435501597
 30
0.0
 11
289.3045487892
 21
94.2734358094
 31
0.0
  0
ARC
  5
114
  8
0
  6
CONTINUOUS
 62
     7
 10
286.0324335601
 20
110.3613661343
 30
0.0
 40
16.4173152559382
 50
267.1621295933
 51
281.4965418382
  0
LINE
  5
115
  8
0
  6
CONTINUOUS
 62
     7
 10
276.613670316
 20
150.3862765811
 30
0.0
 11
277.0742884915
 21
150.5143297098
 31
0.0
  0
LINE
  5
116
  8
0
  6
CONTINUOUS
 62
     7
 10
274.7364536937
 20
151.6426605366
 30
0.0
 11
273.4387963157
 21
151.7439511798
 31
0.0
  0
ARC
  5
117
  8
0
  6
CONTINUOUS
 62
     7
 10
276.7959431198
 20
154.4640409889
 30
0.0
 40
3.791052942128864
 50
237.3530380239
 51
277.2901708338
  0
LINE
  5
118
  8
0
  6
CONTINUOUS
 62
     7
 10
276.7800948661
 20
143.4276131175
 30
0.0
 11
277.238978919
 21
143.5551819585
 31
0.0
  0
POLYLINE
  5
119
  8
0
  6
CONTINUOUS
 62
     7
 66
     1
 10
0.0
 20
0.0
 30
0.0
 70
   128
  0
VERTEX
  5
323
  8
0
  6
CONTINUOUS
 62
     7
 10
276.441694152
 20
147.2681340955
 30
0.0
  0
VERTEX
  5
324
  8
0
  6
CONTINUOUS
 62
     7
 10
276.1836246666
 20
147.3466408632
 30
0.0
  0
VERTEX
  5
325
  8
0
  6
CONTINUOUS
 62
     7
 10
275.965218347
 20
147.5312140963
 30
0.0
  0
VERTEX
  5
326
  8
0
  6
CONTINUOUS
 62
     7
 10
275.7982694622
 20
147.8097764037
 30
0.0
  0
VERTEX
  5
327
  8
0
  6
CONTINUOUS
 62
     7
 10
275.7031246167
 20
148.1425342343
 30
0.0
  0
VERTEX
  5
328
  8
0
  6
CONTINUOUS
 62
     7
 10
275.6844739508
 20
148.4649804614
 30
0.0
  0
VERTEX
  5
329
  8
0
  6
CONTINUOUS
 62
     7
 10
275.730218653
 20
148.7470519922
 30
0.0
  0
VERTEX
  5
32A
  8
0
  6
CONTINUOUS
 62
     7
 10
275.8058802303
 20
148.9141908667
 30
0.0
  0
SEQEND
  5
39F
  8
0
  6
CONTINUOUS
 62
     7
  0
LINE
  5
11A
  8
0
  6
CONTINUOUS
 62
     7
 10
282.8282955181
 20
147.8441831849
 30
0.0
 11
282.7835920345
 21
148.9979577444
 31
0.0
  0
LINE
  5
11B
  8
0
  6
CONTINUOUS
 62
     7
 10
275.0049707558
 20
144.712383785
 30
0.0
 11
273.5281278458
 21
144.8276517175
 31
0.0
  0
ARC
  5
11C
  8
0
  6
CONTINUOUS
 62
     7
 10
277.0213564568
 20
147.4511977847
 30
0.0
 40
3.698293798280804
 50
237.2253243165
 51
276.7799287593
  0
LINE
  5
11D
  8
0
  6
CONTINUOUS
 62
     7
 10
276.946570639
 20
136.4689645551
 30
0.0
 11
277.4038453665
 21
136.5960863612
 31
0.0
  0
POLYLINE
  5
11E
  8
0
  6
CONTINUOUS
 62
     7
 66
     1
 10
0.0
 20
0.0
 30
0.0
 70
   128
  0
VERTEX
  5
32B
  8
0
  6
CONTINUOUS
 62
     7
 10
276.7102112141
 20
140.3378498934
 30
0.0
  0
VERTEX
  5
32C
  8
0
  6
CONTINUOUS
 62
     7
 10
276.4521417286
 20
140.4163641117
 30
0.0
  0
VERTEX
  5
32D
  8
0
  6
CONTINUOUS
 62
     7
 10
276.233735409
 20
140.6009298942
 30
0.0
  0
VERTEX
  5
32E
  8
0
  6
CONTINUOUS
 62
     7
 10
276.0667865243
 20
140.8794996522
 30
0.0
  0
VERTEX
  5
32F
  8
0
  6
CONTINUOUS
 62
     7
 10
275.9716416787
 20
141.2122574828
 30
0.0
  0
VERTEX
  5
330
  8
0
  6
CONTINUOUS
 62
     7
 10
275.9529910129
 20
141.5347037099
 30
0.0
  0
VERTEX
  5
331
  8
0
  6
CONTINUOUS
 62
     7
 10
275.9987357151
 20
141.8167677901
 30
0.0
  0
VERTEX
  5
332
  8
0
  6
CONTINUOUS
 62
     7
 10
276.0592130091
 20
141.9503641508
 30
0.0
  0
SEQEND
  5
3A0
  8
0
  6
CONTINUOUS
 62
     7
  0
LINE
  5
11F
  8
0
  6
CONTINUOUS
 62
     7
 10
283.0968135115
 20
140.9139064334
 30
0.0
 11
283.0535824489
 21
142.0296681307
 31
0.0
  0
LINE
  5
120
  8
0
  6
CONTINUOUS
 62
     7
 10
275.2734878179
 20
137.7820995829
 30
0.0
 11
273.6174598415
 21
137.9113597057
 31
0.0
  0
ARC
  5
121
  8
0
  6
CONTINUOUS
 62
     7
 10
277.2469818766
 20
140.4385363424
 30
0.0
 40
3.605815289332178
 50
237.0897218167
 51
276.2564224794
  0
LINE
  5
122
  8
0
  6
CONTINUOUS
 62
     7
 10
295.2056507658
 20
95.9139493487
 30
0.0
 11
295.0905709606
 21
98.8840711496
 31
0.0
  0
LINE
  5
123
  8
0
  6
CONTINUOUS
 62
     7
 10
289.3045487892
 20
94.2734358094
 30
0.0
 11
295.2056507658
 21
95.9139493487
 31
0.0
  0
POLYLINE
  5
124
  8
0
  6
CONTINUOUS
 62
     7
 66
     1
 10
0.0
 20
0.0
 30
0.0
 70
   128
  0
VERTEX
  5
333
  8
0
  6
CONTINUOUS
 62
     7
 10
271.77356175
 20
119.1889521859
 30
0.0
  0
VERTEX
  5
334
  8
0
  6
CONTINUOUS
 62
     7
 10
271.7406381
 20
119.2003813765
 30
0.0
  0
VERTEX
  5
335
  8
0
  6
CONTINUOUS
 62
     7
 10
271.2479060594
 20
119.393120446
 30
0.0
  0
VERTEX
  5
336
  8
0
  6
CONTINUOUS
 62
     7
 10
270.6453010053
 20
119.7202679894
 30
0.0
  0
VERTEX
  5
337
  8
0
  6
CONTINUOUS
 62
     7
 10
270.336491669
 20
120.0346601389
 30
0.0
  0
VERTEX
  5
338
  8
0
  6
CONTINUOUS
 62
     7
 10
270.3483029347
 20
120.1995191357
 30
0.0
  0
SEQEND
  5
3A1
  8
0
  6
CONTINUOUS
 62
     7
  0
POLYLINE
  5
125
  8
0
  6
CONTINUOUS
 62
     7
 66
     1
 10
0.0
 20
0.0
 30
0.0
 70
   128
  0
VERTEX
  5
339
  8
0
  6
CONTINUOUS
 62
     7
 10
270.2237206124
 20
127.9217926047
 30
0.0
  0
VERTEX
  5
33A
  8
0
  6
CONTINUOUS
 62
     7
 10
270.212127509
 20
127.9178661487
 30
0.0
  0
VERTEX
  5
33B
  8
0
  6
CONTINUOUS
 62
     7
 10
269.5734505853
 20
127.6923668764
 30
0.0
  0
VERTEX
  5
33C
  8
0
  6
CONTINUOUS
 62
     7
 10
269.0125143001
 20
127.4691549323
 30
0.0
  0
VERTEX
  5
33D
  8
0
  6
CONTINUOUS
 62
     7
 10
268.7558658965
 20
127.3361248157
 30
0.0
  0
VERTEX
  5
33E
  8
0
  6
CONTINUOUS
 62
     7
 10
268.7742387954
 20
127.3208511255
 30
0.0
  0
SEQEND
  5
3A2
  8
0
  6
CONTINUOUS
 62
     7
  0
POLYLINE
  5
126
  8
0
  6
CONTINUOUS
 62
     7
 66
     1
 10
0.0
 20
0.0
 30
0.0
 70
   128
  0
VERTEX
  5
33F
  8
0
  6
CONTINUOUS
 62
     7
 10
268.154837164
 20
97.2523045919
 30
0.0
  0
VERTEX
  5
340
  8
0
  6
CONTINUOUS
 62
     7
 10
267.6715123691
 20
97.3457497738
 30
0.0
  0
VERTEX
  5
341
  8
0
  6
CONTINUOUS
 62
     7
 10
267.263455464
 20
97.4513617537
 30
0.0
  0
VERTEX
  5
342
  8
0
  6
CONTINUOUS
 62
     7
 10
266.9463478689
 20
97.565087416
 30
0.0
  0
VERTEX
  5
343
  8
0
  6
CONTINUOUS
 62
     7
 10
266.7323758089
 20
97.6825532697
 30
0.0
  0
VERTEX
  5
344
  8
0
  6
CONTINUOUS
 62
     7
 10
266.6297621638
 20
97.799244263
 30
0.0
  0
VERTEX
  5
345
  8
0
  6
CONTINUOUS
 62
     7
 10
266.6223751459
 20
97.8613150499
 30
0.0
  0
SEQEND
  5
3A3
  8
0
  6
CONTINUOUS
 62
     7
  0
LINE
  5
127
  8
0
  6
CONTINUOUS
 62
     7
 10
286.8082187217
 20
77.8758851073
 30
0.0
 11
286.1852570515
 21
93.9541709802
 31
0.0
  0
LINE
  5
128
  8
0
  6
CONTINUOUS
 62
     7
 10
286.8082187217
 20
77.8758851073
 30
0.0
 11
285.5033892285
 21
77.9263255379
 31
0.0
  0
LINE
  5
129
  8
0
  6
CONTINUOUS
 62
     7
 10
285.5033892285
 20
77.9263255379
 30
0.0
 11
284.8814892661
 21
93.9772528789
 31
0.0
  0
LINE
  5
12A
  8
0
  6
CONTINUOUS
 62
     7
 10
290.742287327
 20
78.9695707343
 30
0.0
 11
290.1403288435
 21
94.5057821653
 31
0.0
  0
LINE
  5
12B
  8
0
  6
CONTINUOUS
 62
     7
 10
290.742287327
 20
78.9695707343
 30
0.0
 11
286.8082187217
 21
77.8758851073
 31
0.0
  0
POLYLINE
  5
12C
  8
0
  6
CONTINUOUS
 62
     7
 66
     1
 10
0.0
 20
0.0
 30
0.0
 70
   128
  0
VERTEX
  5
346
  8
0
  6
CONTINUOUS
 62
     7
 10
287.9239860069
 20
82.6151696227
 30
0.0
  0
VERTEX
  5
347
  8
0
  6
CONTINUOUS
 62
     7
 10
287.8458163779
 20
83.1678685925
 30
0.0
  0
VERTEX
  5
348
  8
0
  6
CONTINUOUS
 62
     7
 10
287.8799474877
 20
83.7517854951
 30
0.0
  0
VERTEX
  5
349
  8
0
  6
CONTINUOUS
 62
     7
 10
288.0211788308
 20
84.2780200026
 30
0.0
  0
VERTEX
  5
34A
  8
0
  6
CONTINUOUS
 62
     7
 10
288.2480136197
 20
84.6664783738
 30
0.0
  0
VERTEX
  5
34B
  8
0
  6
CONTINUOUS
 62
     7
 10
288.525914688
 20
84.8579880975
 30
0.0
  0
VERTEX
  5
34C
  8
0
  6
CONTINUOUS
 62
     7
 10
288.8125776392
 20
84.8234323046
 30
0.0
  0
VERTEX
  5
34D
  8
0
  6
CONTINUOUS
 62
     7
 10
289.0643569719
 20
84.5680264018
 30
0.0
  0
VERTEX
  5
34E
  8
0
  6
CONTINUOUS
 62
     7
 10
289.2429231744
 20
84.1306922219
 30
0.0
  0
VERTEX
  5
34F
  8
0
  6
CONTINUOUS
 62
     7
 10
289.3210928034
 20
83.5779932521
 30
0.0
  0
VERTEX
  5
350
  8
0
  6
CONTINUOUS
 62
     7
 10
289.2869616937
 20
82.9940763495
 30
0.0
  0
VERTEX
  5
351
  8
0
  6
CONTINUOUS
 62
     7
 10
289.1457303506
 20
82.467841842
 30
0.0
  0
VERTEX
  5
352
  8
0
  6
CONTINUOUS
 62
     7
 10
288.9188955616
 20
82.079398372
 30
0.0
  0
VERTEX
  5
353
  8
0
  6
CONTINUOUS
 62
     7
 10
288.6409944933
 20
81.8878737471
 30
0.0
  0
VERTEX
  5
354
  8
0
  6
CONTINUOUS
 62
     7
 10
288.3543315422
 20
81.9224444411
 30
0.0
  0
VERTEX
  5
355
  8
0
  6
CONTINUOUS
 62
     7
 10
288.1025522094
 20
82.1778354428
 30
0.0
  0
VERTEX
  5
356
  8
0
  6
CONTINUOUS
 62
     7
 10
287.9239860069
 20
82.6151696227
 30
0.0
  0
SEQEND
  5
3A4
  8
0
  6
CONTINUOUS
 62
     7
  0
ARC
  5
12D
  8
0
  6
CONTINUOUS
 62
     7
 10
295.0757654757
 20
99.4352620982
 30
0.0
 40
0.5513897570671238
 50
271.5386462178
 51
317.1317219027
  0
POLYLINE
  5
12E
  8
0
  6
CONTINUOUS
 62
     7
 66
     1
 10
0.0
 20
0.0
 30
0.0
 70
   128
  0
VERTEX
  5
357
  8
0
  6
CONTINUOUS
 62
     7
 10
290.0146617632
 20
121.7225891731
 30
0.0
  0
VERTEX
  5
358
  8
0
  6
CONTINUOUS
 62
     7
 10
289.9975682687
 20
121.7186031125
 30
0.0
  0
VERTEX
  5
359
  8
0
  6
CONTINUOUS
 62
     7
 10
289.649499495
 20
121.6224310181
 30
0.0
  0
SEQEND
  5
3A5
  8
0
  6
CONTINUOUS
 62
     7
  0
POLYLINE
  5
12F
  8
0
  6
CONTINUOUS
 62
     7
 66
     1
 10
0.0
 20
0.0
 30
0.0
 70
   128
  0
VERTEX
  5
35A
  8
0
  6
CONTINUOUS
 62
     7
 10
291.0362611603
 20
128.7908059738
 30
0.0
  0
VERTEX
  5
35B
  8
0
  6
CONTINUOUS
 62
     7
 10
291.0189497363
 20
128.6069107435
 30
0.0
  0
VERTEX
  5
35C
  8
0
  6
CONTINUOUS
 62
     7
 10
290.6892168414
 20
128.4143653891
 30
0.0
  0
SEQEND
  5
3A6
  8
0
  6
CONTINUOUS
 62
     7
  0
ARC
  5
130
  8
0
  6
CONTINUOUS
 62
     7
 10
285.1267449837
 20
83.5065510455
 30
0.0
 40
2.892325318575633
 50
343.7845575763
 51
11.788114438
  0
ARC
  5
131
  8
0
  6
CONTINUOUS
 62
     7
 10
267.8932734308
 20
96.8264118161
 30
0.0
 40
2.236274308684103
 50
238.7860222811
 51
279.35628441
  0
POLYLINE
  5
132
  8
0
  6
CONTINUOUS
 62
     7
 66
     1
 10
0.0
 20
0.0
 30
0.0
 70
   128
  0
VERTEX
  5
35D
  8
0
  6
CONTINUOUS
 62
     7
 10
295.5937421959
 20
96.1309773109
 30
0.0
  0
VERTEX
  5
35E
  8
0
  6
CONTINUOUS
 62
     7
 10
295.5715655428
 20
96.0785848282
 30
0.0
  0
VERTEX
  5
35F
  8
0
  6
CONTINUOUS
 62
     7
 10
295.4433186989
 20
95.9959057353
 30
0.0
  0
VERTEX
  5
360
  8
0
  6
CONTINUOUS
 62
     7
 10
295.2056507658
 20
95.9139493487
 30
0.0
  0
SEQEND
  5
3A7
  8
0
  6
CONTINUOUS
 62
     7
  0
LINE
  5
133
  8
0
  6
CONTINUOUS
 62
     7
 10
274.1948677305
 20
78.3634660027
 30
0.0
 11
273.5729668368
 21
94.4143858931
 31
0.0
  0
LINE
  5
134
  8
0
  6
CONTINUOUS
 62
     7
 10
274.1948677305
 20
78.3634660027
 30
0.0
 11
272.8900382374
 21
78.4139064334
 31
0.0
  0
LINE
  5
135
  8
0
  6
CONTINUOUS
 62
     7
 10
272.8900382374
 20
78.4139064334
 30
0.0
 11
272.2681373436
 21
94.4648263238
 31
0.0
  0
LINE
  5
136
  8
0
  6
CONTINUOUS
 62
     7
 10
278.1289349388
 20
79.4571516297
 30
0.0
 11
277.5553743433
 21
94.2604494474
 31
0.0
  0
LINE
  5
137
  8
0
  6
CONTINUOUS
 62
     7
 10
278.1289349388
 20
79.4571516297
 30
0.0
 11
274.1948677305
 21
78.3634660027
 31
0.0
  0
POLYLINE
  5
138
  8
0
  6
CONTINUOUS
 62
     7
 66
     1
 10
0.0
 20
0.0
 30
0.0
 70
   128
  0
VERTEX
  5
361
  8
0
  6
CONTINUOUS
 62
     7
 10
276.3055450361
 20
82.5669643662
 30
0.0
  0
VERTEX
  5
362
  8
0
  6
CONTINUOUS
 62
     7
 10
276.0276430365
 20
82.3754546426
 30
0.0
  0
VERTEX
  5
363
  8
0
  6
CONTINUOUS
 62
     7
 10
275.7409810167
 20
82.4100104354
 30
0.0
  0
VERTEX
  5
364
  8
0
  6
CONTINUOUS
 62
     7
 10
275.4892016839
 20
82.6654163382
 30
0.0
  0
VERTEX
  5
365
  8
0
  6
CONTINUOUS
 62
     7
 10
275.3106345501
 20
83.1027505181
 30
0.0
  0
VERTEX
  5
366
  8
0
  6
CONTINUOUS
 62
     7
 10
275.2324658524
 20
83.655449488
 30
0.0
  0
VERTEX
  5
367
  8
0
  6
CONTINUOUS
 62
     7
 10
275.2665955652
 20
84.2393663905
 30
0.0
  0
VERTEX
  5
368
  8
0
  6
CONTINUOUS
 62
     7
 10
275.4078283053
 20
84.7656008981
 30
0.0
  0
VERTEX
  5
369
  8
0
  6
CONTINUOUS
 62
     7
 10
275.6346621629
 20
85.1540443681
 30
0.0
  0
VERTEX
  5
36A
  8
0
  6
CONTINUOUS
 62
     7
 10
275.9125641626
 20
85.3455689929
 30
0.0
  0
VERTEX
  5
36B
  8
0
  6
CONTINUOUS
 62
     7
 10
276.1992261823
 20
85.3109982989
 30
0.0
  0
VERTEX
  5
36C
  8
0
  6
CONTINUOUS
 62
     7
 10
276.4510055151
 20
85.0556072972
 30
0.0
  0
VERTEX
  5
36D
  8
0
  6
CONTINUOUS
 62
     7
 10
276.6295726489
 20
84.6182731173
 30
0.0
  0
VERTEX
  5
36E
  8
0
  6
CONTINUOUS
 62
     7
 10
276.7077413466
 20
84.0655741475
 30
0.0
  0
VERTEX
  5
36F
  8
0
  6
CONTINUOUS
 62
     7
 10
276.6736111682
 20
83.4816572449
 30
0.0
  0
VERTEX
  5
370
  8
0
  6
CONTINUOUS
 62
     7
 10
276.5323788937
 20
82.9554227374
 30
0.0
  0
VERTEX
  5
371
  8
0
  6
CONTINUOUS
 62
     7
 10
276.3055450361
 20
82.5669643662
 30
0.0
  0
SEQEND
  5
3A8
  8
0
  6
CONTINUOUS
 62
     7
  0
ARC
  5
139
  8
0
  6
CONTINUOUS
 62
     7
 10
272.5133974594
 20
83.9941336743
 30
0.0
 40
2.892322026537343
 50
343.7845028501
 51
11.7880929699
  0
TEXT
  5
13A
  8
レイヤー_1
 62
     7
 10
376.1607127668
 20
152.3486708366
 30
0.0
 40
5.2916666667
  1
HEA-029S
 41
0.7
 11
376.1607127668
 21
150.4793363423
 31
0.0
 73
     1
  0
TEXT
  5
13B
  8
レイヤー_1
 62
     7
 10
376.1607127668
 20
143.2931150385
 30
0.0
 40
5.2916666667
  1
HEA-029K
 41
0.7
 11
376.1607127668
 21
141.4237805442
 31
0.0
 73
     1
  0
ARC
  5
13C
  8
0
  6
HIDDEN
 62
     7
 10
282.9293681644
 20
199.515568512
 30
0.0
 40
13.78414554782744
 50
247.380135052
 51
292.619864948
  0
ARC
  5
13D
  8
0
  6
HIDDEN
 62
     7
 10
272.3261792815
 20
174.0679151929
 30
0.0
 40
13.78414554782747
 50
67.380135052
 51
112.619864948
  0
ARC
  5
13E
  8
0
  6
HIDDEN
 62
     7
 10
282.4986633433
 20
205.515568512
 30
0.0
 40
13.78414554782747
 50
247.380135052
 51
292.619864948
  0
ARC
  5
13F
  8
0
  6
HIDDEN
 62
     7
 10
271.8954744603
 20
180.0679151929
 30
0.0
 40
13.78414554782744
 50
67.380135052
 51
112.619864948
  0
ENDSEC
  0
EOF
