  0
SECTION
  2
HEADER
  9
$ACADVER
  1
AC1032
  9
$ACADMAINTVER
 90
        4
  9
$DWGCODEPAGE
  3
ANSI_932
  9
$LASTSAVEDBY
  1
9128
  9
$REQUIREDVERSIONS
160
                 0
  9
$INSBASE
 10
0.0
 20
0.0
 30
0.0
  9
$EXTMIN
 10
111.3702920402071
 20
67.33875142715331
 30
0.0
  9
$EXTMAX
 10
198.7584835876845
 20
133.5195192592108
 30
0.0
  9
$LIMMIN
 10
0.0
 20
0.0
  9
$LIMMAX
 10
12.0
 20
9.0
  9
$ORTHOMODE
 70
     0
  9
$REGENMODE
 70
     1
  9
$FILLMODE
 70
     1
  9
$QTEXTMODE
 70
     0
  9
$MIRRTEXT
 70
     1
  9
$LTSCALE
 40
1.0
  9
$ATTMODE
 70
     1
  9
$TEXTSIZE
 40
0.2
  9
$TRACEWID
 40
0.05
  9
$TEXTSTYLE
  7
Standard
  9
$CLAYER
  8
0
  9
$CELTYPE
  6
ByLayer
  9
$CECOLOR
 62
   256
  9
$CELTSCALE
 40
1.0
  9
$DISPSILH
 70
     0
  9
$DIMSCALE
 40
1.0
  9
$DIMASZ
 40
0.18
  9
$DIMEXO
 40
0.0625
  9
$DIMDLI
 40
0.38
  9
$DIMRND
 40
0.0
  9
$DIMDLE
 40
0.0
  9
$DIMEXE
 40
0.18
  9
$DIMTP
 40
0.0
  9
$DIMTM
 40
0.0
  9
$DIMTXT
 40
0.18
  9
$DIMCEN
 40
0.09
  9
$DIMTSZ
 40
0.0
  9
$DIMTOL
 70
     0
  9
$DIMLIM
 70
     0
  9
$DIMTIH
 70
     1
  9
$DIMTOH
 70
     1
  9
$DIMSE1
 70
     0
  9
$DIMSE2
 70
     0
  9
$DIMTAD
 70
     0
  9
$DIMZIN
 70
     0
  9
$DIMBLK
  1

  9
$DIMASO
 70
     1
  9
$DIMSHO
 70
     1
  9
$DIMPOST
  1

  9
$DIMAPOST
  1

  9
$DIMALT
 70
     0
  9
$DIMALTD
 70
     2
  9
$DIMALTF
 40
25.4
  9
$DIMLFAC
 40
1.0
  9
$DIMTOFL
 70
     0
  9
$DIMTVP
 40
0.0
  9
$DIMTIX
 70
     0
  9
$DIMSOXD
 70
     0
  9
$DIMSAH
 70
     0
  9
$DIMBLK1
  1

  9
$DIMBLK2
  1

  9
$DIMSTYLE
  2
Standard
  9
$DIMCLRD
 70
     0
  9
$DIMCLRE
 70
     0
  9
$DIMCLRT
 70
     0
  9
$DIMTFAC
 40
1.0
  9
$DIMGAP
 40
0.09
  9
$DIMJUST
 70
     0
  9
$DIMSD1
 70
     0
  9
$DIMSD2
 70
     0
  9
$DIMTOLJ
 70
     1
  9
$DIMTZIN
 70
     0
  9
$DIMALTZ
 70
     0
  9
$DIMALTTZ
 70
     0
  9
$DIMUPT
 70
     0
  9
$DIMDEC
 70
     4
  9
$DIMTDEC
 70
     4
  9
$DIMALTU
 70
     2
  9
$DIMALTTD
 70
     2
  9
$DIMTXSTY
  7
Standard
  9
$DIMAUNIT
 70
     0
  9
$DIMADEC
 70
     0
  9
$DIMALTRND
 40
0.0
  9
$DIMAZIN
 70
     0
  9
$DIMDSEP
 70
    46
  9
$DIMATFIT
 70
     3
  9
$DIMFRAC
 70
     0
  9
$DIMLDRBLK
  1

  9
$DIMLUNIT
 70
     2
  9
$DIMLWD
 70
    -2
  9
$DIMLWE
 70
    -2
  9
$DIMTMOVE
 70
     0
  9
$DIMFXL
 40
1.0
  9
$DIMFXLON
 70
     0
  9
$DIMJOGANG
 40
0.7853981633974483
  9
$DIMTFILL
 70
     0
  9
$DIMTFILLCLR
 70
     0
  9
$DIMARCSYM
 70
     0
  9
$DIMLTYPE
  6

  9
$DIMLTEX1
  6

  9
$DIMLTEX2
  6

  9
$DIMTXTDIRECTION
 70
     0
  9
$LUNITS
 70
     2
  9
$LUPREC
 70
     4
  9
$SKETCHINC
 40
0.1
  9
$FILLETRAD
 40
0.5
  9
$AUNITS
 70
     0
  9
$AUPREC
 70
     0
  9
$MENU
  1
.
  9
$ELEVATION
 40
0.0
  9
$PELEVATION
 40
0.0
  9
$THICKNESS
 40
0.0
  9
$LIMCHECK
 70
     0
  9
$CHAMFERA
 40
0.5
  9
$CHAMFERB
 40
0.5
  9
$CHAMFERC
 40
1.0
  9
$CHAMFERD
 40
0.0
  9
$SKPOLY
 70
     0
  9
$TDCREATE
 40
2457543.377417651
  9
$TDUCREATE
 40
2457543.002417651
  9
$TDUPDATE
 40
2459859.723467002
  9
$TDUUPDATE
 40
2459859.348467002
  9
$TDINDWG
 40
0.0012089931
  9
$TDUSRTIMER
 40
0.0000602894
  9
$USRTIMER
 70
     1
  9
$ANGBASE
 50
0.0
  9
$ANGDIR
 70
     0
  9
$PDMODE
 70
     0
  9
$PDSIZE
 40
0.0
  9
$PLINEWID
 40
0.0
  9
$SPLFRAME
 70
     0
  9
$SPLINETYPE
 70
     6
  9
$SPLINESEGS
 70
     8
  9
$HANDSEED
  5
20E
  9
$SURFTAB1
 70
     6
  9
$SURFTAB2
 70
     6
  9
$SURFTYPE
 70
     6
  9
$SURFU
 70
     6
  9
$SURFV
 70
     6
  9
$UCSBASE
  2

  9
$UCSNAME
  2

  9
$UCSORG
 10
0.0
 20
0.0
 30
0.0
  9
$UCSXDIR
 10
1.0
 20
0.0
 30
0.0
  9
$UCSYDIR
 10
0.0
 20
1.0
 30
0.0
  9
$UCSORTHOREF
  2

  9
$UCSORTHOVIEW
 70
     0
  9
$UCSORGTOP
 10
0.0
 20
0.0
 30
0.0
  9
$UCSORGBOTTOM
 10
0.0
 20
0.0
 30
0.0
  9
$UCSORGLEFT
 10
0.0
 20
0.0
 30
0.0
  9
$UCSORGRIGHT
 10
0.0
 20
0.0
 30
0.0
  9
$UCSORGFRONT
 10
0.0
 20
0.0
 30
0.0
  9
$UCSORGBACK
 10
0.0
 20
0.0
 30
0.0
  9
$PUCSBASE
  2

  9
$PUCSNAME
  2

  9
$PUCSORG
 10
0.0
 20
0.0
 30
0.0
  9
$PUCSXDIR
 10
1.0
 20
0.0
 30
0.0
  9
$PUCSYDIR
 10
0.0
 20
1.0
 30
0.0
  9
$PUCSORTHOREF
  2

  9
$PUCSORTHOVIEW
 70
     0
  9
$PUCSORGTOP
 10
0.0
 20
0.0
 30
0.0
  9
$PUCSORGBOTTOM
 10
0.0
 20
0.0
 30
0.0
  9
$PUCSORGLEFT
 10
0.0
 20
0.0
 30
0.0
  9
$PUCSORGRIGHT
 10
0.0
 20
0.0
 30
0.0
  9
$PUCSORGFRONT
 10
0.0
 20
0.0
 30
0.0
  9
$PUCSORGBACK
 10
0.0
 20
0.0
 30
0.0
  9
$USERI1
 70
     0
  9
$USERI2
 70
     0
  9
$USERI3
 70
     0
  9
$USERI4
 70
     0
  9
$USERI5
 70
     0
  9
$USERR1
 40
0.0
  9
$USERR2
 40
0.0
  9
$USERR3
 40
0.0
  9
$USERR4
 40
0.0
  9
$USERR5
 40
0.0
  9
$WORLDVIEW
 70
     1
  9
$SHADEDGE
 70
     3
  9
$SHADEDIF
 70
    70
  9
$TILEMODE
 70
     1
  9
$MAXACTVP
 70
    64
  9
$PINSBASE
 10
0.0
 20
0.0
 30
0.0
  9
$PLIMCHECK
 70
     0
  9
$PEXTMIN
 10
1.000000000000000E+20
 20
1.000000000000000E+20
 30
1.000000000000000E+20
  9
$PEXTMAX
 10
-1.000000000000000E+20
 20
-1.000000000000000E+20
 30
-1.000000000000000E+20
  9
$PLIMMIN
 10
0.0
 20
0.0
  9
$PLIMMAX
 10
0.0
 20
0.0
  9
$UNITMODE
 70
     0
  9
$VISRETAIN
 70
     1
  9
$PLINEGEN
 70
     0
  9
$PSLTSCALE
 70
     1
  9
$TREEDEPTH
 70
  3020
  9
$CMLSTYLE
  2
Standard
  9
$CMLJUST
 70
     0
  9
$CMLSCALE
 40
1.0
  9
$PROXYGRAPHICS
 70
     1
  9
$MEASUREMENT
 70
     0
  9
$CELWEIGHT
370
    -1
  9
$ENDCAPS
280
     0
  9
$JOINSTYLE
280
     0
  9
$LWDISPLAY
290
     1
  9
$INSUNITS
 70
     1
  9
$HYPERLINKBASE
  1

  9
$STYLESHEET
  1

  9
$XEDIT
290
     1
  9
$CEPSNTYPE
380
     0
  9
$PSTYLEMODE
290
     1
  9
$FINGERPRINTGUID
  2
{975E38CE-C9E1-4F89-A9DC-38910B5193A2}
  9
$VERSIONGUID
  2
{FAEB1C32-E019-11D5-929B-00C0DF256EC4}
  9
$EXTNAMES
290
     1
  9
$PSVPSCALE
 40
0.0
  9
$OLESTARTUP
290
     0
  9
$SORTENTS
280
   127
  9
$INDEXCTL
280
     0
  9
$HIDETEXT
280
     1
  9
$XCLIPFRAME
280
     2
  9
$HALOGAP
280
     0
  9
$OBSCOLOR
 70
   257
  9
$OBSLTYPE
280
     0
  9
$INTERSECTIONDISPLAY
280
     0
  9
$INTERSECTIONCOLOR
 70
   257
  9
$DIMASSOC
280
     2
  9
$PROJECTNAME
  1

  9
$CAMERADISPLAY
290
     0
  9
$LENSLENGTH
 40
50.0
  9
$CAMERAHEIGHT
 40
0.0
  9
$STEPSPERSEC
 40
2.0
  9
$STEPSIZE
 40
6.0
  9
$3DDWFPREC
 40
2.0
  9
$PSOLWIDTH
 40
0.25
  9
$PSOLHEIGHT
 40
4.0
  9
$LOFTANG1
 40
1.570796326794897
  9
$LOFTANG2
 40
1.570796326794897
  9
$LOFTMAG1
 40
0.0
  9
$LOFTMAG2
 40
0.0
  9
$LOFTPARAM
 70
     7
  9
$LOFTNORMALS
280
     1
  9
$LATITUDE
 40
37.795
  9
$LONGITUDE
 40
-122.394
  9
$NORTHDIRECTION
 40
0.0
  9
$TIMEZONE
 70
 -8000
  9
$LIGHTGLYPHDISPLAY
280
     1
  9
$TILEMODELIGHTSYNCH
280
     1
  9
$SOLIDHIST
280
     0
  9
$SHOWHIST
280
     1
  9
$DWFFRAME
280
     2
  9
$DGNFRAME
280
     2
  9
$REALWORLDSCALE
290
     1
  9
$INTERFERECOLOR
 62
   256
  9
$CSHADOW
280
     0
  9
$SHADOWPLANELOCATION
 40
0.0
  0
ENDSEC
  0
SECTION
  2
CLASSES
  0
CLASS
  1
ACDBDICTIONARYWDFLT
  2
AcDbDictionaryWithDefault
  3
ObjectDBX Classes
 90
        0
 91
        3
280
     0
281
     0
  0
CLASS
  1
VISUALSTYLE
  2
AcDbVisualStyle
  3
ObjectDBX Classes
 90
     4095
 91
        3
280
     0
281
     0
  0
CLASS
  1
ACDBPLACEHOLDER
  2
AcDbPlaceHolder
  3
ObjectDBX Classes
 90
        0
 91
        1
280
     0
281
     0
  0
CLASS
  1
LAYOUT
  2
AcDbLayout
  3
ObjectDBX Classes
 90
        0
 91
        1
280
     0
281
     0
  0
CLASS
  1
SCALE
  2
AcDbScale
  3
ObjectDBX Classes
 90
     1153
 91
        3
280
     0
281
     0
  0
CLASS
  1
MATERIAL
  2
AcDbMaterial
  3
ObjectDBX Classes
 90
     1153
 91
        3
280
     0
281
     0
  0
CLASS
  1
TABLESTYLE
  2
AcDbTableStyle
  3
ObjectDBX Classes
 90
     4095
 91
        3
280
     0
281
     0
  0
CLASS
  1
MLEADERSTYLE
  2
AcDbMLeaderStyle
  3
ACDB_MLEADERSTYLE_CLASS
 90
     4095
 91
        3
280
     0
281
     0
  0
CLASS
  1
DICTIONARYVAR
  2
AcDbDictionaryVar
  3
ObjectDBX Classes
 90
        0
 91
        3
280
     0
281
     0
  0
CLASS
  1
SUN
  2
AcDbSun
  3
SCENEOE
 90
     1153
 91
        3
280
     0
281
     0
  0
CLASS
  1
CELLSTYLEMAP
  2
AcDbCellStyleMap
  3
ObjectDBX Classes
 90
     1152
 91
        3
280
     0
281
     0
  0
ENDSEC
  0
SECTION
  2
TABLES
  0
TABLE
  2
VPORT
  5
8
330
0
100
AcDbSymbolTable
 70
     1
  0
VPORT
  5
29
330
8
100
AcDbSymbolTableRecord
100
AcDbViewportTableRecord
  2
*Active
 70
     0
 10
0.0
 20
0.0
 11
1.0
 21
1.0
 12
59.94666528484399
 22
-23.09532260911747
 13
0.0
 23
0.0
 14
0.5
 24
0.5
 15
0.5
 25
0.5
 16
0.0
 26
0.0
 36
1.0
 17
148.3916313648118
 27
104.891616455982
 37
0.0
 40
152.0639791286507
 41
2.072237960339943
 42
50.0
 43
0.0
 44
0.0
 50
0.0
 51
0.0
 71
    16
 72
   100
 73
     1
 74
     3
 75
     0
 76
     0
 77
     0
 78
     0
281
     0
 65
     1
110
0.0
120
0.0
130
0.0
111
1.0
121
0.0
131
0.0
112
0.0
122
1.0
132
0.0
 79
     0
146
0.0
348
2F
 60
     3
 61
     5
292
     1
282
     1
141
0.0
142
0.0
 63
   256
361
209
  0
ENDTAB
  0
TABLE
  2
LTYPE
  5
5
330
0
100
AcDbSymbolTable
 70
     1
  0
LTYPE
  5
14
330
5
100
AcDbSymbolTableRecord
100
AcDbLinetypeTableRecord
  2
ByBlock
 70
     0
  3

 72
    65
 73
     0
 40
0.0
  0
LTYPE
  5
15
330
5
100
AcDbSymbolTableRecord
100
AcDbLinetypeTableRecord
  2
ByLayer
 70
     0
  3

 72
    65
 73
     0
 40
0.0
  0
LTYPE
  5
16
330
5
100
AcDbSymbolTableRecord
100
AcDbLinetypeTableRecord
  2
Continuous
 70
     0
  3
Solid line
 72
    65
 73
     0
 40
0.0
  0
ENDTAB
  0
TABLE
  2
LAYER
  5
2
102
{ACAD_XDICTIONARY
360
206
102
}
330
0
100
AcDbSymbolTable
 70
     3
  0
LAYER
  5
10
330
2
100
AcDbSymbolTableRecord
100
AcDbLayerTableRecord
  2
0
 70
     0
 62
     7
  6
Continuous
370
    -3
390
F
347
1E1
348
0
  0
LAYER
  5
3B
330
2
100
AcDbSymbolTableRecord
100
AcDbLayerTableRecord
  2
フォーマット
 70
     0
 62
     7
  6
Continuous
370
    -3
390
F
347
1E1
348
0
  0
LAYER
  5
198
330
2
100
AcDbSymbolTableRecord
100
AcDbLayerTableRecord
  2
レイヤー 1
 70
     0
 62
     7
  6
Continuous
370
    -3
390
F
347
1E1
348
0
  0
ENDTAB
  0
TABLE
  2
STYLE
  5
3
330
0
100
AcDbSymbolTable
 70
     2
  0
STYLE
  5
11
330
3
100
AcDbSymbolTableRecord
100
AcDbTextStyleTableRecord
  2
Standard
 70
     0
 40
0.0
 41
1.0
 50
0.0
 71
     0
 42
0.2
  3
txt
  4

  0
STYLE
  5
1FA
330
3
100
AcDbSymbolTableRecord
100
AcDbTextStyleTableRecord
  2
________
 70
     0
 40
0.0
 41
1.0
 50
0.0
 71
     0
 42
0.2
  3
ＭＳ Ｐゴシック
  4

1001
ACAD
1000
ＭＳ Ｐゴシック
1071
        0
  0
ENDTAB
  0
TABLE
  2
VIEW
  5
6
330
0
100
AcDbSymbolTable
 70
     0
  0
ENDTAB
  0
TABLE
  2
UCS
  5
7
330
0
100
AcDbSymbolTable
 70
     0
  0
ENDTAB
  0
TABLE
  2
APPID
  5
9
330
0
100
AcDbSymbolTable
 70
     2
  0
APPID
  5
12
330
9
100
AcDbSymbolTableRecord
100
AcDbRegAppTableRecord
  2
ACAD
 70
     0
  0
APPID
  5
20A
330
9
100
AcDbSymbolTableRecord
100
AcDbRegAppTableRecord
  2
PLOTTRANSPARENCY
 70
     0
  0
ENDTAB
  0
TABLE
  2
DIMSTYLE
  5
A
330
0
100
AcDbSymbolTable
 70
     1
100
AcDbDimStyleTable
  0
DIMSTYLE
105
27
330
A
100
AcDbSymbolTableRecord
100
AcDbDimStyleTableRecord
  2
Standard
 70
     0
178
     0
340
11
  0
ENDTAB
  0
TABLE
  2
BLOCK_RECORD
  5
1
330
0
100
AcDbSymbolTable
 70
    19
  0
BLOCK_RECORD
  5
1F
330
1
100
AcDbSymbolTableRecord
100
AcDbBlockTableRecord
  2
*Model_Space
340
22
 70
     0
280
     1
281
     0
  0
BLOCK_RECORD
  5
1B
330
1
100
AcDbSymbolTableRecord
100
AcDbBlockTableRecord
  2
*Paper_Space
340
1E
 70
     0
280
     1
281
     0
  0
BLOCK_RECORD
  5
23
330
1
100
AcDbSymbolTableRecord
100
AcDbBlockTableRecord
  2
*Paper_Space0
340
26
 70
     0
280
     1
281
     0
  0
BLOCK_RECORD
  5
3C
330
1
100
AcDbSymbolTableRecord
100
AcDbBlockTableRecord
  2
block 2
340
0
 70
     0
280
     1
281
     0
  0
BLOCK_RECORD
  5
50
330
1
100
AcDbSymbolTableRecord
100
AcDbBlockTableRecord
  2
block 3
340
0
102
{BLKREFS
331
51
102
}
 70
     0
280
     1
281
     0
  0
BLOCK_RECORD
  5
54
330
1
100
AcDbSymbolTableRecord
100
AcDbBlockTableRecord
  2
block 4
340
0
102
{BLKREFS
331
55
102
}
 70
     0
280
     1
281
     0
  0
BLOCK_RECORD
  5
58
330
1
100
AcDbSymbolTableRecord
100
AcDbBlockTableRecord
  2
block 5
340
0
102
{BLKREFS
331
59
102
}
 70
     0
280
     1
281
     0
  0
BLOCK_RECORD
  5
5C
330
1
100
AcDbSymbolTableRecord
100
AcDbBlockTableRecord
  2
block 6
340
0
102
{BLKREFS
331
5D
102
}
 70
     0
280
     1
281
     0
  0
BLOCK_RECORD
  5
97
330
1
100
AcDbSymbolTableRecord
100
AcDbBlockTableRecord
  2
block 7
340
0
102
{BLKREFS
331
98
102
}
 70
     0
280
     1
281
     0
  0
BLOCK_RECORD
  5
9B
330
1
100
AcDbSymbolTableRecord
100
AcDbBlockTableRecord
  2
block 8
340
0
102
{BLKREFS
331
9C
102
}
 70
     0
280
     1
281
     0
  0
BLOCK_RECORD
  5
9F
330
1
100
AcDbSymbolTableRecord
100
AcDbBlockTableRecord
  2
block 9
340
0
102
{BLKREFS
331
A0
102
}
 70
     0
280
     1
281
     0
  0
BLOCK_RECORD
  5
A3
330
1
100
AcDbSymbolTableRecord
100
AcDbBlockTableRecord
  2
block 10
340
0
102
{BLKREFS
331
A4
102
}
 70
     0
280
     1
281
     0
  0
BLOCK_RECORD
  5
B1
330
1
100
AcDbSymbolTableRecord
100
AcDbBlockTableRecord
  2
block 11
340
0
102
{BLKREFS
331
B2
102
}
 70
     0
280
     1
281
     0
  0
BLOCK_RECORD
  5
B5
330
1
100
AcDbSymbolTableRecord
100
AcDbBlockTableRecord
  2
block 12
340
0
102
{BLKREFS
331
B6
102
}
 70
     0
280
     1
281
     0
  0
BLOCK_RECORD
  5
B9
330
1
100
AcDbSymbolTableRecord
100
AcDbBlockTableRecord
  2
block 13
340
0
102
{BLKREFS
331
BA
102
}
 70
     0
280
     1
281
     0
  0
BLOCK_RECORD
  5
BD
330
1
100
AcDbSymbolTableRecord
100
AcDbBlockTableRecord
  2
block 14
340
0
102
{BLKREFS
331
BE
102
}
 70
     0
280
     1
281
     0
  0
BLOCK_RECORD
  5
F8
330
1
100
AcDbSymbolTableRecord
100
AcDbBlockTableRecord
  2
block 15
340
0
102
{BLKREFS
331
F9
102
}
 70
     0
280
     1
281
     0
  0
BLOCK_RECORD
  5
FC
330
1
100
AcDbSymbolTableRecord
100
AcDbBlockTableRecord
  2
block 16
340
0
102
{BLKREFS
331
FD
102
}
 70
     0
280
     1
281
     0
  0
BLOCK_RECORD
  5
100
330
1
100
AcDbSymbolTableRecord
100
AcDbBlockTableRecord
  2
block 17
340
0
102
{BLKREFS
331
101
102
}
 70
     0
280
     1
281
     0
  0
BLOCK_RECORD
  5
104
330
1
100
AcDbSymbolTableRecord
100
AcDbBlockTableRecord
  2
block 18
340
0
102
{BLKREFS
331
105
102
}
 70
     0
280
     1
281
     0
  0
BLOCK_RECORD
  5
19B
330
1
100
AcDbSymbolTableRecord
100
AcDbBlockTableRecord
  2
block 19
340
0
102
{BLKREFS
331
19C
102
}
 70
     0
280
     1
281
     0
  0
ENDTAB
  0
ENDSEC
  0
SECTION
  2
BLOCKS
  0
BLOCK
  5
20
330
1F
100
AcDbEntity
  8
0
100
AcDbBlockBegin
  2
*Model_Space
 70
     0
 10
0.0
 20
0.0
 30
0.0
  3
*Model_Space
  1

  0
ENDBLK
  5
21
330
1F
100
AcDbEntity
  8
0
100
AcDbBlockEnd
  0
BLOCK
  5
1C
330
1B
100
AcDbEntity
 67
     1
  8
0
100
AcDbBlockBegin
  2
*Paper_Space
 70
     0
 10
0.0
 20
0.0
 30
0.0
  3
*Paper_Space
  1

  0
ENDBLK
  5
1D
330
1B
100
AcDbEntity
 67
     1
  8
0
100
AcDbBlockEnd
  0
BLOCK
  5
24
330
23
100
AcDbEntity
  8
0
100
AcDbBlockBegin
  2
*Paper_Space0
 70
     0
 10
0.0
 20
0.0
 30
0.0
  3
*Paper_Space0
  1

  0
ENDBLK
  5
25
330
23
100
AcDbEntity
  8
0
100
AcDbBlockEnd
  0
BLOCK
  5
3E
330
3C
100
AcDbEntity
  8
0
100
AcDbBlockBegin
  2
block 2
 70
     0
 10
0.0
 20
0.0
 30
0.0
  3
block 2
  1

  0
POLYLINE
  5
40
330
3C
100
AcDbEntity
  8
フォーマット
 62
     7
370
    35
100
AcDb2dPolyline
 66
     1
 10
0.0
 20
0.0
 30
0.0
  0
VERTEX
  5
41
330
40
100
AcDbEntity
  8
フォーマット
 62
     7
370
    35
100
AcDbVertex
100
AcDb2dVertex
 10
243.3915174087702
 20
-33.60828449680626
 30
0.0
  0
VERTEX
  5
42
330
40
100
AcDbEntity
  8
フォーマット
 62
     7
370
    35
100
AcDbVertex
100
AcDb2dVertex
 10
53.39174532085345
 20
-33.60828449680626
 30
0.0
  0
VERTEX
  5
43
330
40
100
AcDbEntity
  8
フォーマット
 62
     7
370
    35
100
AcDbVertex
100
AcDb2dVertex
 10
53.39174532085345
 20
243.3915174087702
 30
0.0
  0
VERTEX
  5
44
330
40
100
AcDbEntity
  8
フォーマット
 62
     7
370
    35
100
AcDbVertex
100
AcDb2dVertex
 10
243.3915174087702
 20
243.3915174087702
 30
0.0
  0
VERTEX
  5
45
330
40
100
AcDbEntity
  8
フォーマット
 62
     7
370
    35
100
AcDbVertex
100
AcDb2dVertex
 10
243.3915174087702
 20
-33.60828449680626
 30
0.0
  0
SEQEND
  5
46
330
40
100
AcDbEntity
  8
フォーマット
370
    35
  0
POLYLINE
  5
47
330
3C
100
AcDbEntity
  8
フォーマット
 62
     7
370
    35
100
AcDb2dPolyline
 66
     1
 10
0.0
 20
0.0
 30
0.0
  0
VERTEX
  5
48
330
47
100
AcDbEntity
  8
フォーマット
 62
     7
370
    35
100
AcDbVertex
100
AcDb2dVertex
 10
53.39174532085345
 20
-33.60828449680626
 30
0.0
  0
VERTEX
  5
49
330
47
100
AcDbEntity
  8
フォーマット
 62
     7
370
    35
100
AcDbVertex
100
AcDb2dVertex
 10
53.39174532085345
 20
-8.631686738293467
 30
0.0
  0
VERTEX
  5
4A
330
47
100
AcDbEntity
  8
フォーマット
 62
     7
370
    35
100
AcDbVertex
100
AcDb2dVertex
 10
243.3084906075757
 20
-8.631686738293467
 30
0.0
  0
SEQEND
  5
4B
330
47
100
AcDbEntity
  8
フォーマット
370
    35
  0
POLYLINE
  5
4C
330
3C
100
AcDbEntity
  8
フォーマット
 62
     7
370
    35
100
AcDb2dPolyline
 66
     1
 10
0.0
 20
0.0
 30
0.0
  0
VERTEX
  5
4D
330
4C
100
AcDbEntity
  8
フォーマット
 62
     7
370
    35
100
AcDbVertex
100
AcDb2dVertex
 10
243.3915174087702
 20
-33.60828449680626
 30
0.0
  0
VERTEX
  5
4E
330
4C
100
AcDbEntity
  8
フォーマット
 62
     7
370
    35
100
AcDbVertex
100
AcDb2dVertex
 10
54.09247774255327
 20
-33.60828449680626
 30
0.0
  0
SEQEND
  5
4F
330
4C
100
AcDbEntity
  8
フォーマット
370
    35
  0
INSERT
  5
51
330
3C
100
AcDbEntity
  8
フォーマット
100
AcDbBlockReference
  2
block 3
 10
0.0
 20
0.0
 30
0.0
  0
INSERT
  5
98
330
3C
100
AcDbEntity
  8
フォーマット
100
AcDbBlockReference
  2
block 7
 10
0.0
 20
0.0
 30
0.0
  0
INSERT
  5
B2
330
3C
100
AcDbEntity
  8
フォーマット
100
AcDbBlockReference
  2
block 11
 10
0.0
 20
0.0
 30
0.0
  0
INSERT
  5
F9
330
3C
100
AcDbEntity
  8
フォーマット
100
AcDbBlockReference
  2
block 15
 10
0.0
 20
0.0
 30
0.0
  0
POLYLINE
  5
127
330
3C
100
AcDbEntity
  8
フォーマット
 62
     7
370
    35
100
AcDb2dPolyline
 66
     1
 10
0.0
 20
0.0
 30
0.0
  0
VERTEX
  5
128
330
127
100
AcDbEntity
  8
フォーマット
 62
     7
370
    35
100
AcDbVertex
100
AcDb2dVertex
 10
53.39174532085345
 20
-19.04104274697585
 30
0.0
  0
VERTEX
  5
129
330
127
100
AcDbEntity
  8
フォーマット
 62
     7
370
    35
100
AcDbVertex
100
AcDb2dVertex
 10
119.1162434598043
 20
-19.04104274697585
 30
0.0
  0
SEQEND
  5
12A
330
127
100
AcDbEntity
  8
フォーマット
370
    35
  0
POLYLINE
  5
12B
330
3C
100
AcDbEntity
  8
フォーマット
 62
     7
370
    35
100
AcDb2dPolyline
 66
     1
 10
0.0
 20
0.0
 30
0.0
  0
VERTEX
  5
12C
330
12B
100
AcDbEntity
  8
フォーマット
 62
     7
370
    35
100
AcDbVertex
100
AcDb2dVertex
 10
59.08786619616554
 20
-8.631686738293467
 30
0.0
  0
VERTEX
  5
12D
330
12B
100
AcDbEntity
  8
フォーマット
 62
     7
370
    35
100
AcDbVertex
100
AcDb2dVertex
 10
59.08786619616554
 20
-33.60828449680626
 30
0.0
  0
SEQEND
  5
12E
330
12B
100
AcDbEntity
  8
フォーマット
370
    35
  0
POLYLINE
  5
12F
330
3C
100
AcDbEntity
  8
フォーマット
 62
     7
370
    35
100
AcDb2dPolyline
 66
     1
 10
0.0
 20
0.0
 30
0.0
  0
VERTEX
  5
130
330
12F
100
AcDbEntity
  8
フォーマット
 62
     7
370
    35
100
AcDbVertex
100
AcDb2dVertex
 10
59.08786619616554
 20
-8.631686738293467
 30
0.0
  0
VERTEX
  5
131
330
12F
100
AcDbEntity
  8
フォーマット
 62
     7
370
    35
100
AcDbVertex
100
AcDb2dVertex
 10
59.08786619616554
 20
-33.60828449680626
 30
0.0
  0
SEQEND
  5
132
330
12F
100
AcDbEntity
  8
フォーマット
370
    35
  0
POLYLINE
  5
133
330
3C
100
AcDbEntity
  8
フォーマット
 62
     7
370
    35
100
AcDb2dPolyline
 66
     1
 10
0.0
 20
0.0
 30
0.0
  0
VERTEX
  5
134
330
133
100
AcDbEntity
  8
フォーマット
 62
     7
370
    35
100
AcDbVertex
100
AcDb2dVertex
 10
119.1162434598043
 20
-8.631686738293467
 30
0.0
  0
VERTEX
  5
135
330
133
100
AcDbEntity
  8
フォーマット
 62
     7
370
    35
100
AcDbVertex
100
AcDb2dVertex
 10
119.1162434598043
 20
-33.60828449680626
 30
0.0
  0
SEQEND
  5
136
330
133
100
AcDbEntity
  8
フォーマット
370
    35
  0
ENDBLK
  5
3F
330
3C
100
AcDbEntity
  8
0
100
AcDbBlockEnd
  0
BLOCK
  5
52
330
50
100
AcDbEntity
  8
0
100
AcDbBlockBegin
  2
block 3
 70
     0
 10
0.0
 20
0.0
 30
0.0
  3
block 3
  1

  0
INSERT
  5
55
330
50
100
AcDbEntity
  8
フォーマット
100
AcDbBlockReference
  2
block 4
 10
0.0
 20
0.0
 30
0.0
  0
ENDBLK
  5
53
330
50
100
AcDbEntity
  8
0
100
AcDbBlockEnd
  0
BLOCK
  5
56
330
54
100
AcDbEntity
  8
0
100
AcDbBlockBegin
  2
block 4
 70
     0
 10
0.0
 20
0.0
 30
0.0
  3
block 4
  1

  0
INSERT
  5
59
330
54
100
AcDbEntity
  8
フォーマット
100
AcDbBlockReference
  2
block 5
 10
0.0
 20
0.0
 30
0.0
  0
ENDBLK
  5
57
330
54
100
AcDbEntity
  8
0
100
AcDbBlockEnd
  0
BLOCK
  5
5A
330
58
100
AcDbEntity
  8
0
100
AcDbBlockBegin
  2
block 5
 70
     0
 10
0.0
 20
0.0
 30
0.0
  3
block 5
  1

  0
INSERT
  5
5D
330
58
100
AcDbEntity
  8
フォーマット
100
AcDbBlockReference
  2
block 6
 10
0.0
 20
0.0
 30
0.0
  0
ENDBLK
  5
5B
330
58
100
AcDbEntity
  8
0
100
AcDbBlockEnd
  0
BLOCK
  5
5E
330
5C
100
AcDbEntity
  8
0
100
AcDbBlockBegin
  2
block 6
 70
     0
 10
0.0
 20
0.0
 30
0.0
  3
block 6
  1

  0
POLYLINE
  5
60
330
5C
100
AcDbEntity
  8
フォーマット
370
     0
100
AcDb2dPolyline
 66
     1
 10
0.0
 20
0.0
 30
0.0
  0
VERTEX
  5
61
330
60
100
AcDbEntity
  8
フォーマット
370
     0
100
AcDbVertex
100
AcDb2dVertex
 10
55.79228785497554
 20
-24.07708332731406
 30
0.0
  0
VERTEX
  5
62
330
60
100
AcDbEntity
  8
フォーマット
370
     0
100
AcDbVertex
100
AcDb2dVertex
 10
55.18905163550829
 20
-24.07708332731406
 30
0.0
  0
VERTEX
  5
63
330
60
100
AcDbEntity
  8
フォーマット
370
     0
100
AcDbVertex
100
AcDb2dVertex
 10
55.18905163550829
 20
-24.30308159114645
 30
0.0
  0
VERTEX
  5
64
330
60
100
AcDbEntity
  8
フォーマット
370
     0
100
AcDbVertex
100
AcDb2dVertex
 10
54.93755966508505
 20
-24.30308159114645
 30
0.0
  0
VERTEX
  5
65
330
60
100
AcDbEntity
  8
フォーマット
370
     0
100
AcDbVertex
100
AcDb2dVertex
 10
54.93755966508505
 20
-22.97120767654886
 30
0.0
  0
VERTEX
  5
66
330
60
100
AcDbEntity
  8
フォーマット
370
     0
100
AcDbVertex
100
AcDb2dVertex
 10
56.04360757062452
 20
-22.97120767654886
 30
0.0
  0
VERTEX
  5
67
330
60
100
AcDbEntity
  8
フォーマット
370
     0
100
AcDbVertex
100
AcDb2dVertex
 10
56.04360757062452
 20
-24.26553005035723
 30
0.0
  0
VERTEX
  5
68
330
60
100
AcDbEntity
  8
フォーマット
370
     0
100
AcDbVertex
100
AcDb2dVertex
 10
55.79228785497554
 20
-24.26553005035723
 30
0.0
  0
VERTEX
  5
69
330
60
100
AcDbEntity
  8
フォーマット
370
     0
100
AcDbVertex
100
AcDb2dVertex
 10
55.79228785497554
 20
-24.07708332731406
 30
0.0
  0
SEQEND
  5
6A
330
60
100
AcDbEntity
  8
フォーマット
370
     0
  0
POLYLINE
  5
6B
330
5C
100
AcDbEntity
  8
フォーマット
370
     0
100
AcDb2dPolyline
 66
     1
 10
0.0
 20
0.0
 30
0.0
  0
VERTEX
  5
6C
330
6B
100
AcDbEntity
  8
フォーマット
370
     0
100
AcDbVertex
100
AcDb2dVertex
 10
55.18905163550829
 20
-23.20995279367668
 30
0.0
  0
VERTEX
  5
6D
330
6B
100
AcDbEntity
  8
フォーマット
370
     0
100
AcDbVertex
100
AcDb2dVertex
 10
55.18905163550829
 20
-23.83833821018625
 30
0.0
  0
VERTEX
  5
6E
330
6B
100
AcDbEntity
  8
フォーマット
370
     0
100
AcDbVertex
100
AcDb2dVertex
 10
55.79228785497554
 20
-23.83833821018625
 30
0.0
  0
VERTEX
  5
6F
330
6B
100
AcDbEntity
  8
フォーマット
370
     0
100
AcDbVertex
100
AcDb2dVertex
 10
55.79228785497554
 20
-23.20995279367668
 30
0.0
  0
VERTEX
  5
70
330
6B
100
AcDbEntity
  8
フォーマット
370
     0
100
AcDbVertex
100
AcDb2dVertex
 10
55.18905163550829
 20
-23.20995279367668
 30
0.0
  0
SEQEND
  5
71
330
6B
100
AcDbEntity
  8
フォーマット
370
     0
  0
POLYLINE
  5
72
330
5C
100
AcDbEntity
  8
フォーマット
370
     0
100
AcDb2dPolyline
 66
     1
 10
0.0
 20
0.0
 30
0.0
  0
VERTEX
  5
73
330
72
100
AcDbEntity
  8
フォーマット
370
     0
100
AcDbVertex
100
AcDb2dVertex
 10
56.73486597973989
 20
-22.65701496829408
 30
0.0
  0
VERTEX
  5
74
330
72
100
AcDbEntity
  8
フォーマット
370
     0
100
AcDbVertex
100
AcDb2dVertex
 10
55.62881807420044
 20
-22.65701496829408
 30
0.0
  0
VERTEX
  5
75
330
72
100
AcDbEntity
  8
フォーマット
370
     0
100
AcDbVertex
100
AcDb2dVertex
 10
55.62881807420044
 20
-22.74486490316795
 30
0.0
  0
VERTEX
  5
76
330
72
100
AcDbEntity
  8
フォーマット
370
     0
100
AcDbVertex
100
AcDb2dVertex
 10
55.37749835855146
 20
-22.74486490316795
 30
0.0
  0
VERTEX
  5
77
330
72
100
AcDbEntity
  8
フォーマット
370
     0
100
AcDbVertex
100
AcDb2dVertex
 10
55.37749835855146
 20
-21.57594400502268
 30
0.0
  0
VERTEX
  5
78
330
72
100
AcDbEntity
  8
フォーマット
370
     0
100
AcDbVertex
100
AcDb2dVertex
 10
56.98618569538888
 20
-21.57594400502268
 30
0.0
  0
VERTEX
  5
79
330
72
100
AcDbEntity
  8
フォーマット
370
     0
100
AcDbVertex
100
AcDb2dVertex
 10
56.98618569538888
 20
-22.71971570612563
 30
0.0
  0
VERTEX
  5
7A
330
72
100
AcDbEntity
  8
フォーマット
370
     0
100
AcDbVertex
100
AcDb2dVertex
 10
56.73486597973989
 20
-22.71971570612563
 30
0.0
  0
VERTEX
  5
7B
330
72
100
AcDbEntity
  8
フォーマット
370
     0
100
AcDbVertex
100
AcDb2dVertex
 10
56.73486597973989
 20
-22.65701496829408
 30
0.0
  0
SEQEND
  5
7C
330
72
100
AcDbEntity
  8
フォーマット
370
     0
  0
POLYLINE
  5
7D
330
5C
100
AcDbEntity
  8
フォーマット
370
     0
100
AcDb2dPolyline
 66
     1
 10
0.0
 20
0.0
 30
0.0
  0
VERTEX
  5
7E
330
7D
100
AcDbEntity
  8
フォーマット
370
     0
100
AcDbVertex
100
AcDb2dVertex
 10
55.62881807420044
 20
-22.41792534161774
 30
0.0
  0
VERTEX
  5
7F
330
7D
100
AcDbEntity
  8
フォーマット
370
     0
100
AcDbVertex
100
AcDb2dVertex
 10
56.73486597973989
 20
-22.41792534161774
 30
0.0
  0
VERTEX
  5
80
330
7D
100
AcDbEntity
  8
フォーマット
370
     0
100
AcDbVertex
100
AcDb2dVertex
 10
56.73486597973989
 20
-21.81468912215049
 30
0.0
  0
VERTEX
  5
81
330
7D
100
AcDbEntity
  8
フォーマット
370
     0
100
AcDbVertex
100
AcDb2dVertex
 10
55.62881807420044
 20
-21.81468912215049
 30
0.0
  0
VERTEX
  5
82
330
7D
100
AcDbEntity
  8
フォーマット
370
     0
100
AcDbVertex
100
AcDb2dVertex
 10
55.62881807420044
 20
-22.41792534161774
 30
0.0
  0
SEQEND
  5
83
330
7D
100
AcDbEntity
  8
フォーマット
370
     0
  0
POLYLINE
  5
84
330
5C
100
AcDbEntity
  8
フォーマット
370
     0
100
AcDb2dPolyline
 66
     1
 10
0.0
 20
0.0
 30
0.0
  0
VERTEX
  5
85
330
84
100
AcDbEntity
  8
フォーマット
370
     0
100
AcDbVertex
100
AcDb2dVertex
 10
57.22493081251669
 20
-24.07708332731406
 30
0.0
  0
VERTEX
  5
86
330
84
100
AcDbEntity
  8
フォーマット
370
     0
100
AcDbVertex
100
AcDb2dVertex
 10
56.62169459304944
 20
-24.07708332731406
 30
0.0
  0
VERTEX
  5
87
330
84
100
AcDbEntity
  8
フォーマット
370
     0
100
AcDbVertex
100
AcDb2dVertex
 10
56.62169459304944
 20
-24.30308159114645
 30
0.0
  0
VERTEX
  5
88
330
84
100
AcDbEntity
  8
フォーマット
370
     0
100
AcDbVertex
100
AcDb2dVertex
 10
56.37037487740047
 20
-24.30308159114645
 30
0.0
  0
VERTEX
  5
89
330
84
100
AcDbEntity
  8
フォーマット
370
     0
100
AcDbVertex
100
AcDb2dVertex
 10
56.37037487740047
 20
-22.97120767654886
 30
0.0
  0
VERTEX
  5
8A
330
84
100
AcDbEntity
  8
フォーマット
370
     0
100
AcDbVertex
100
AcDb2dVertex
 10
57.47625052816566
 20
-22.97120767654886
 30
0.0
  0
VERTEX
  5
8B
330
84
100
AcDbEntity
  8
フォーマット
370
     0
100
AcDbVertex
100
AcDb2dVertex
 10
57.47625052816566
 20
-24.26553005035723
 30
0.0
  0
VERTEX
  5
8C
330
84
100
AcDbEntity
  8
フォーマット
370
     0
100
AcDbVertex
100
AcDb2dVertex
 10
57.22493081251669
 20
-24.26553005035723
 30
0.0
  0
VERTEX
  5
8D
330
84
100
AcDbEntity
  8
フォーマット
370
     0
100
AcDbVertex
100
AcDb2dVertex
 10
57.22493081251669
 20
-24.07708332731406
 30
0.0
  0
SEQEND
  5
8E
330
84
100
AcDbEntity
  8
フォーマット
370
     0
  0
POLYLINE
  5
8F
330
5C
100
AcDbEntity
  8
フォーマット
370
     0
100
AcDb2dPolyline
 66
     1
 10
0.0
 20
0.0
 30
0.0
  0
VERTEX
  5
90
330
8F
100
AcDbEntity
  8
フォーマット
370
     0
100
AcDbVertex
100
AcDb2dVertex
 10
56.62169459304944
 20
-23.20995279367668
 30
0.0
  0
VERTEX
  5
91
330
8F
100
AcDbEntity
  8
フォーマット
370
     0
100
AcDbVertex
100
AcDb2dVertex
 10
56.62169459304944
 20
-23.83833821018625
 30
0.0
  0
VERTEX
  5
92
330
8F
100
AcDbEntity
  8
フォーマット
370
     0
100
AcDbVertex
100
AcDb2dVertex
 10
57.22493081251669
 20
-23.83833821018625
 30
0.0
  0
VERTEX
  5
93
330
8F
100
AcDbEntity
  8
フォーマット
370
     0
100
AcDbVertex
100
AcDb2dVertex
 10
57.22493081251669
 20
-23.20995279367668
 30
0.0
  0
VERTEX
  5
94
330
8F
100
AcDbEntity
  8
フォーマット
370
     0
100
AcDbVertex
100
AcDb2dVertex
 10
56.62169459304944
 20
-23.20995279367668
 30
0.0
  0
SEQEND
  5
95
330
8F
100
AcDbEntity
  8
フォーマット
370
     0
  0
HATCH
  5
96
330
5C
100
AcDbEntity
  8
フォーマット
 62
     7
100
AcDbHatch
 10
0.0
 20
0.0
 30
0.0
210
0.0
220
0.0
230
1.0
  2
SOLID
 70
     1
 71
     0
 91
        6
 92
        1
 93
        8
 72
     1
 10
55.79228785497554
 20
-24.07708332731406
 11
55.18905163550829
 21
-24.07708332731406
 72
     1
 10
55.18905163550829
 20
-24.07708332731406
 11
55.18905163550829
 21
-24.30308159114645
 72
     1
 10
55.18905163550829
 20
-24.30308159114645
 11
54.93755966508505
 21
-24.30308159114645
 72
     1
 10
54.93755966508505
 20
-24.30308159114645
 11
54.93755966508505
 21
-22.97120767654886
 72
     1
 10
54.93755966508505
 20
-22.97120767654886
 11
56.04360757062452
 21
-22.97120767654886
 72
     1
 10
56.04360757062452
 20
-22.97120767654886
 11
56.04360757062452
 21
-24.26553005035723
 72
     1
 10
56.04360757062452
 20
-24.26553005035723
 11
55.79228785497554
 21
-24.26553005035723
 72
     1
 10
55.79228785497554
 20
-24.26553005035723
 11
55.79228785497554
 21
-24.07708332731406
 97
        0
 92
        1
 93
        4
 72
     1
 10
55.18905163550829
 20
-23.20995279367668
 11
55.18905163550829
 21
-23.83833821018625
 72
     1
 10
55.18905163550829
 20
-23.83833821018625
 11
55.79228785497554
 21
-23.83833821018625
 72
     1
 10
55.79228785497554
 20
-23.83833821018625
 11
55.79228785497554
 21
-23.20995279367668
 72
     1
 10
55.79228785497554
 20
-23.20995279367668
 11
55.18905163550829
 21
-23.20995279367668
 97
        0
 92
        1
 93
        8
 72
     1
 10
56.73486597973989
 20
-22.65701496829408
 11
55.62881807420044
 21
-22.65701496829408
 72
     1
 10
55.62881807420044
 20
-22.65701496829408
 11
55.62881807420044
 21
-22.74486490316795
 72
     1
 10
55.62881807420044
 20
-22.74486490316795
 11
55.37749835855146
 21
-22.74486490316795
 72
     1
 10
55.37749835855146
 20
-22.74486490316795
 11
55.37749835855146
 21
-21.57594400502268
 72
     1
 10
55.37749835855146
 20
-21.57594400502268
 11
56.98618569538888
 21
-21.57594400502268
 72
     1
 10
56.98618569538888
 20
-21.57594400502268
 11
56.98618569538888
 21
-22.71971570612563
 72
     1
 10
56.98618569538888
 20
-22.71971570612563
 11
56.73486597973989
 21
-22.71971570612563
 72
     1
 10
56.73486597973989
 20
-22.71971570612563
 11
56.73486597973989
 21
-22.65701496829408
 97
        0
 92
        1
 93
        4
 72
     1
 10
55.62881807420044
 20
-22.41792534161774
 11
56.73486597973989
 21
-22.41792534161774
 72
     1
 10
56.73486597973989
 20
-22.41792534161774
 11
56.73486597973989
 21
-21.81468912215049
 72
     1
 10
56.73486597973989
 20
-21.81468912215049
 11
55.62881807420044
 21
-21.81468912215049
 72
     1
 10
55.62881807420044
 20
-21.81468912215049
 11
55.62881807420044
 21
-22.41792534161774
 97
        0
 92
        1
 93
        8
 72
     1
 10
57.22493081251669
 20
-24.07708332731406
 11
56.62169459304944
 21
-24.07708332731406
 72
     1
 10
56.62169459304944
 20
-24.07708332731406
 11
56.62169459304944
 21
-24.30308159114645
 72
     1
 10
56.62169459304944
 20
-24.30308159114645
 11
56.37037487740047
 21
-24.30308159114645
 72
     1
 10
56.37037487740047
 20
-24.30308159114645
 11
56.37037487740047
 21
-22.97120767654886
 72
     1
 10
56.37037487740047
 20
-22.97120767654886
 11
57.47625052816566
 21
-22.97120767654886
 72
     1
 10
57.47625052816566
 20
-22.97120767654886
 11
57.47625052816566
 21
-24.26553005035723
 72
     1
 10
57.47625052816566
 20
-24.26553005035723
 11
57.22493081251669
 21
-24.26553005035723
 72
     1
 10
57.22493081251669
 20
-24.26553005035723
 11
57.22493081251669
 21
-24.07708332731406
 97
        0
 92
        1
 93
        4
 72
     1
 10
56.62169459304944
 20
-23.20995279367668
 11
56.62169459304944
 21
-23.83833821018625
 72
     1
 10
56.62169459304944
 20
-23.83833821018625
 11
57.22493081251669
 21
-23.83833821018625
 72
     1
 10
57.22493081251669
 20
-23.83833821018625
 11
57.22493081251669
 21
-23.20995279367668
 72
     1
 10
57.22493081251669
 20
-23.20995279367668
 11
56.62169459304944
 21
-23.20995279367668
 97
        0
 75
     2
 76
     1
 98
        0
  0
ENDBLK
  5
5F
330
5C
100
AcDbEntity
  8
0
100
AcDbBlockEnd
  0
BLOCK
  5
99
330
97
100
AcDbEntity
  8
0
100
AcDbBlockBegin
  2
block 7
 70
     0
 10
0.0
 20
0.0
 30
0.0
  3
block 7
  1

  0
INSERT
  5
9C
330
97
100
AcDbEntity
  8
フォーマット
100
AcDbBlockReference
  2
block 8
 10
0.0
 20
0.0
 30
0.0
  0
ENDBLK
  5
9A
330
97
100
AcDbEntity
  8
0
100
AcDbBlockEnd
  0
BLOCK
  5
9D
330
9B
100
AcDbEntity
  8
0
100
AcDbBlockBegin
  2
block 8
 70
     0
 10
0.0
 20
0.0
 30
0.0
  3
block 8
  1

  0
INSERT
  5
A0
330
9B
100
AcDbEntity
  8
フォーマット
100
AcDbBlockReference
  2
block 9
 10
0.0
 20
0.0
 30
0.0
  0
ENDBLK
  5
9E
330
9B
100
AcDbEntity
  8
0
100
AcDbBlockEnd
  0
BLOCK
  5
A1
330
9F
100
AcDbEntity
  8
0
100
AcDbBlockBegin
  2
block 9
 70
     0
 10
0.0
 20
0.0
 30
0.0
  3
block 9
  1

  0
INSERT
  5
A4
330
9F
100
AcDbEntity
  8
フォーマット
100
AcDbBlockReference
  2
block 10
 10
0.0
 20
0.0
 30
0.0
  0
ENDBLK
  5
A2
330
9F
100
AcDbEntity
  8
0
100
AcDbBlockEnd
  0
BLOCK
  5
A5
330
A3
100
AcDbEntity
  8
0
100
AcDbBlockBegin
  2
block 10
 70
     0
 10
0.0
 20
0.0
 30
0.0
  3
block 10
  1

  0
SPLINE
  5
A7
330
A3
100
AcDbEntity
  8
フォーマット
370
     0
100
AcDbSpline
210
0.0
220
0.0
230
1.0
 70
    11
 71
     3
 72
    77
 73
    73
 74
     0
 42
0.000000001
 43
0.0000000001
 40
0.0
 40
0.0
 40
0.0
 40
0.0
 40
1.0
 40
1.0
 40
1.0
 40
2.0
 40
2.0
 40
2.0
 40
3.0
 40
3.0
 40
3.0
 40
4.0
 40
4.0
 40
4.0
 40
5.0
 40
5.0
 40
5.0
 40
6.0
 40
6.0
 40
6.0
 40
7.0
 40
7.0
 40
7.0
 40
8.0
 40
8.0
 40
8.0
 40
9.0
 40
9.0
 40
9.0
 40
10.0
 40
10.0
 40
10.0
 40
11.0
 40
11.0
 40
11.0
 40
12.0
 40
12.0
 40
12.0
 40
13.0
 40
13.0
 40
13.0
 40
14.0
 40
14.0
 40
14.0
 40
15.0
 40
15.0
 40
15.0
 40
16.0
 40
16.0
 40
16.0
 40
17.0
 40
17.0
 40
17.0
 40
18.0
 40
18.0
 40
18.0
 40
19.0
 40
19.0
 40
19.0
 40
20.0
 40
20.0
 40
20.0
 40
21.0
 40
21.0
 40
21.0
 40
22.0
 40
22.0
 40
22.0
 40
23.0
 40
23.0
 40
23.0
 40
24.0
 40
24.0
 40
24.0
 40
24.0
 10
57.10073512027343
 20
-30.28480088218575
 30
0.0
 10
56.81582572364327
 20
-30.69545626402753
 30
0.0
 10
56.48492430228502
 20
-31.04306639848923
 30
0.0
 10
56.10785860142443
 20
-31.3279757951194
 30
0.0
 10
56.10785860142443
 20
-31.3279757951194
 30
0.0
 10
57.27660724479544
 20
-31.3279757951194
 30
0.0
 10
57.27660724479544
 20
-31.3279757951194
 30
0.0
 10
57.27660724479544
 20
-31.3279757951194
 30
0.0
 10
57.27660724479544
 20
-32.63470051267466
 30
0.0
 10
57.27660724479544
 20
-32.63470051267466
 30
0.0
 10
57.27660724479544
 20
-32.63470051267466
 30
0.0
 10
57.02528752914646
 20
-32.63470051267466
 30
0.0
 10
57.02528752914646
 20
-32.63470051267466
 30
0.0
 10
57.02528752914646
 20
-32.63470051267466
 30
0.0
 10
57.02528752914646
 20
-32.52170138075846
 30
0.0
 10
57.02528752914646
 20
-32.52170138075846
 30
0.0
 10
57.02528752914646
 20
-32.52170138075846
 30
0.0
 10
55.88168808281777
 20
-32.52170138075846
 30
0.0
 10
55.88168808281777
 20
-32.52170138075846
 30
0.0
 10
55.88168808281777
 20
-32.52170138075846
 30
0.0
 10
55.88168808281777
 20
-32.67259656301241
 30
0.0
 10
55.88168808281777
 20
-32.67259656301241
 30
0.0
 10
55.88168808281777
 20
-32.67259656301241
 30
0.0
 10
55.6303683671688
 20
-32.67259656301241
 30
0.0
 10
55.6303683671688
 20
-32.67259656301241
 30
0.0
 10
55.6303683671688
 20
-32.67259656301241
 30
0.0
 10
55.6303683671688
 20
-31.65457084712108
 30
0.0
 10
55.6303683671688
 20
-31.65457084712108
 30
0.0
 10
55.37887639674556
 20
-31.79719780021042
 30
0.0
 10
55.14839950878235
 20
-31.90606281754432
 30
0.0
 10
54.93910995805342
 20
-31.98151040867129
 30
0.0
 10
54.93910995805342
 20
-31.98151040867129
 30
0.0
 10
54.83851316988412
 20
-31.6921223879103
 30
0.0
 10
54.83851316988412
 20
-31.6921223879103
 30
0.0
 10
55.23228758384818
 20
-31.58360188012493
 30
0.0
 10
55.61348739929107
 20
-31.38240830378635
 30
0.0
 10
55.98228487098707
 20
-31.08888616844306
 30
0.0
 10
55.9068372798601
 20
-31.00551485770001
 30
0.0
 10
55.76851669612732
 20
-30.89630533081759
 30
0.0
 10
55.56749537456299
 20
-30.76229111644137
 30
0.0
 10
55.39971922443132
 20
-30.92145452785991
 30
0.0
 10
55.21557887074472
 20
-31.05581325178466
 30
0.0
 10
55.01455754918039
 20
-31.16433375957003
 30
0.0
 10
55.01455754918039
 20
-31.16433375957003
 30
0.0
 10
54.85108776840529
 20
-30.96348469277996
 30
0.0
 10
54.85108776840529
 20
-30.96348469277996
 30
0.0
 10
55.31186928955745
 20
-30.72887369023445
 30
0.0
 10
55.6345024817511
 20
-30.35611435873042
 30
0.0
 10
55.81881509021196
 20
-29.84486218871934
 30
0.0
 10
55.81881509021196
 20
-29.84486218871934
 30
0.0
 10
56.09528400290326
 20
-29.90756292655089
 30
0.0
 10
56.09528400290326
 20
-29.90756292655089
 30
0.0
 10
56.12870142911019
 20
-29.94132486230634
 30
0.0
 10
56.11612683058902
 20
-29.96233994476636
 30
0.0
 10
56.05756020733978
 20
-29.97060817393096
 30
0.0
 10
56.05756020733978
 20
-29.97060817393096
 30
0.0
 10
56.00726181325513
 20
-30.08360730584716
 30
0.0
 10
56.00726181325513
 20
-30.08360730584716
 30
0.0
 10
56.00726181325513
 20
-30.08360730584716
 30
0.0
 10
56.84941540462445
 20
-30.08360730584716
 30
0.0
 10
56.84941540462445
 20
-30.08360730584716
 30
0.0
 10
56.84941540462445
 20
-30.08360730584716
 30
0.0
 10
56.87456460166678
 20
-30.03330891176251
 30
0.0
 10
56.87456460166678
 20
-30.03330891176251
 30
0.0
 10
56.87456460166678
 20
-30.03330891176251
 30
0.0
 10
57.13845891583691
 20
-30.22175563480567
 30
0.0
 10
57.13845891583691
 20
-30.22175563480567
 30
0.0
 10
57.17187634204384
 20
-30.25551757056112
 30
0.0
 10
57.15930174352268
 20
-30.27653265302115
 30
0.0
 10
57.10073512027343
 20
-30.28480088218575
 30
0.0
 10
57.10073512027343
 20
-30.28480088218575
 30
0.0
 10
57.10073512027343
 20
-30.28480088218575
 30
0.0
 10
57.10073512027343
 20
-30.28480088218575
 30
0.0
  0
SPLINE
  5
A8
330
A3
100
AcDbEntity
  8
フォーマット
370
     0
100
AcDbSpline
210
0.0
220
0.0
230
1.0
 70
    11
 71
     3
 72
    20
 73
    16
 74
     0
 42
0.000000001
 43
0.0000000001
 40
0.0
 40
0.0
 40
0.0
 40
0.0
 40
1.0
 40
1.0
 40
1.0
 40
2.0
 40
2.0
 40
2.0
 40
3.0
 40
3.0
 40
3.0
 40
4.0
 40
4.0
 40
4.0
 40
5.0
 40
5.0
 40
5.0
 40
5.0
 10
56.19588079107256
 20
-30.91318629869532
 30
0.0
 10
56.38002114475916
 20
-30.73714191939905
 30
0.0
 10
56.55606552405543
 20
-30.54042696719128
 30
0.0
 10
56.72366941941284
 20
-30.32235242297497
 30
0.0
 10
56.72366941941284
 20
-30.32235242297497
 30
0.0
 10
55.89426268133894
 20
-30.32235242297497
 30
0.0
 10
55.89426268133894
 20
-30.32235242297497
 30
0.0
 10
55.89426268133894
 20
-30.32235242297497
 30
0.0
 10
55.70564370352151
 20
-30.58624673714511
 30
0.0
 10
55.70564370352151
 20
-30.58624673714511
 30
0.0
 10
55.88995631198237
 20
-30.6868435253144
 30
0.0
 10
56.05325383798322
 20
-30.7957085426483
 30
0.0
 10
56.19588079107256
 20
-30.91318629869532
 30
0.0
 10
56.19588079107256
 20
-30.91318629869532
 30
0.0
 10
56.19588079107256
 20
-30.91318629869532
 30
0.0
 10
56.19588079107256
 20
-30.91318629869532
 30
0.0
  0
POLYLINE
  5
A9
330
A3
100
AcDbEntity
  8
フォーマット
370
     0
100
AcDb2dPolyline
 66
     1
 10
0.0
 20
0.0
 30
0.0
  0
VERTEX
  5
AA
330
A9
100
AcDbEntity
  8
フォーマット
370
     0
100
AcDbVertex
100
AcDb2dVertex
 10
57.02528752914646
 20
-31.56672091224721
 30
0.0
  0
VERTEX
  5
AB
330
A9
100
AcDbEntity
  8
フォーマット
370
     0
100
AcDbVertex
100
AcDb2dVertex
 10
55.88168808281777
 20
-31.56672091224721
 30
0.0
  0
VERTEX
  5
AC
330
A9
100
AcDbEntity
  8
フォーマット
370
     0
100
AcDbVertex
100
AcDb2dVertex
 10
55.88168808281777
 20
-32.28295626363065
 30
0.0
  0
VERTEX
  5
AD
330
A9
100
AcDbEntity
  8
フォーマット
370
     0
100
AcDbVertex
100
AcDb2dVertex
 10
57.02528752914646
 20
-32.28295626363065
 30
0.0
  0
VERTEX
  5
AE
330
A9
100
AcDbEntity
  8
フォーマット
370
     0
100
AcDbVertex
100
AcDb2dVertex
 10
57.02528752914646
 20
-31.56672091224721
 30
0.0
  0
SEQEND
  5
AF
330
A9
100
AcDbEntity
  8
フォーマット
370
     0
  0
HATCH
  5
B0
330
A3
100
AcDbEntity
  8
フォーマット
 62
     7
100
AcDbHatch
 10
0.0
 20
0.0
 30
0.0
210
0.0
220
0.0
230
1.0
  2
SOLID
 70
     1
 71
     0
 91
        3
 92
        1
 93
        1
 72
     4
 94
        3
 73
     0
 74
     1
 95
       77
 96
       73
 40
0.0
 40
0.0
 40
0.0
 40
0.0
 40
1.0
 40
1.0
 40
1.0
 40
2.0
 40
2.0
 40
2.0
 40
3.0
 40
3.0
 40
3.0
 40
4.0
 40
4.0
 40
4.0
 40
5.0
 40
5.0
 40
5.0
 40
6.0
 40
6.0
 40
6.0
 40
7.0
 40
7.0
 40
7.0
 40
8.0
 40
8.0
 40
8.0
 40
9.0
 40
9.0
 40
9.0
 40
10.0
 40
10.0
 40
10.0
 40
11.0
 40
11.0
 40
11.0
 40
12.0
 40
12.0
 40
12.0
 40
13.0
 40
13.0
 40
13.0
 40
14.0
 40
14.0
 40
14.0
 40
15.0
 40
15.0
 40
15.0
 40
16.0
 40
16.0
 40
16.0
 40
17.0
 40
17.0
 40
17.0
 40
18.0
 40
18.0
 40
18.0
 40
19.0
 40
19.0
 40
19.0
 40
20.0
 40
20.0
 40
20.0
 40
21.0
 40
21.0
 40
21.0
 40
22.0
 40
22.0
 40
22.0
 40
23.0
 40
23.0
 40
23.0
 40
24.0
 40
24.0
 40
24.0
 40
24.0
 10
57.10073512027343
 20
-30.28480088218575
 10
56.81582572364327
 20
-30.69545626402753
 10
56.48492430228502
 20
-31.04306639848923
 10
56.10785860142443
 20
-31.3279757951194
 10
56.10785860142443
 20
-31.3279757951194
 10
57.27660724479544
 20
-31.3279757951194
 10
57.27660724479544
 20
-31.3279757951194
 10
57.27660724479544
 20
-31.3279757951194
 10
57.27660724479544
 20
-32.63470051267466
 10
57.27660724479544
 20
-32.63470051267466
 10
57.27660724479544
 20
-32.63470051267466
 10
57.02528752914646
 20
-32.63470051267466
 10
57.02528752914646
 20
-32.63470051267466
 10
57.02528752914646
 20
-32.63470051267466
 10
57.02528752914646
 20
-32.52170138075846
 10
57.02528752914646
 20
-32.52170138075846
 10
57.02528752914646
 20
-32.52170138075846
 10
55.88168808281777
 20
-32.52170138075846
 10
55.88168808281777
 20
-32.52170138075846
 10
55.88168808281777
 20
-32.52170138075846
 10
55.88168808281777
 20
-32.67259656301241
 10
55.88168808281777
 20
-32.67259656301241
 10
55.88168808281777
 20
-32.67259656301241
 10
55.6303683671688
 20
-32.67259656301241
 10
55.6303683671688
 20
-32.67259656301241
 10
55.6303683671688
 20
-32.67259656301241
 10
55.6303683671688
 20
-31.65457084712108
 10
55.6303683671688
 20
-31.65457084712108
 10
55.37887639674556
 20
-31.79719780021042
 10
55.14839950878235
 20
-31.90606281754432
 10
54.93910995805342
 20
-31.98151040867129
 10
54.93910995805342
 20
-31.98151040867129
 10
54.83851316988412
 20
-31.6921223879103
 10
54.83851316988412
 20
-31.6921223879103
 10
55.23228758384818
 20
-31.58360188012493
 10
55.61348739929107
 20
-31.38240830378635
 10
55.98228487098707
 20
-31.08888616844306
 10
55.9068372798601
 20
-31.00551485770001
 10
55.76851669612732
 20
-30.89630533081759
 10
55.56749537456299
 20
-30.76229111644137
 10
55.39971922443132
 20
-30.92145452785991
 10
55.21557887074472
 20
-31.05581325178466
 10
55.01455754918039
 20
-31.16433375957003
 10
55.01455754918039
 20
-31.16433375957003
 10
54.85108776840529
 20
-30.96348469277996
 10
54.85108776840529
 20
-30.96348469277996
 10
55.31186928955745
 20
-30.72887369023445
 10
55.6345024817511
 20
-30.35611435873042
 10
55.81881509021196
 20
-29.84486218871934
 10
55.81881509021196
 20
-29.84486218871934
 10
56.09528400290326
 20
-29.90756292655089
 10
56.09528400290326
 20
-29.90756292655089
 10
56.12870142911019
 20
-29.94132486230634
 10
56.11612683058902
 20
-29.96233994476636
 10
56.05756020733978
 20
-29.97060817393096
 10
56.05756020733978
 20
-29.97060817393096
 10
56.00726181325513
 20
-30.08360730584716
 10
56.00726181325513
 20
-30.08360730584716
 10
56.00726181325513
 20
-30.08360730584716
 10
56.84941540462445
 20
-30.08360730584716
 10
56.84941540462445
 20
-30.08360730584716
 10
56.84941540462445
 20
-30.08360730584716
 10
56.87456460166678
 20
-30.03330891176251
 10
56.87456460166678
 20
-30.03330891176251
 10
56.87456460166678
 20
-30.03330891176251
 10
57.13845891583691
 20
-30.22175563480567
 10
57.13845891583691
 20
-30.22175563480567
 10
57.17187634204384
 20
-30.25551757056112
 10
57.15930174352268
 20
-30.27653265302115
 10
57.10073512027343
 20
-30.28480088218575
 10
57.10073512027343
 20
-30.28480088218575
 10
57.10073512027343
 20
-30.28480088218575
 10
57.10073512027343
 20
-30.28480088218575
 97
        0
 97
        0
 92
        1
 93
        1
 72
     4
 94
        3
 73
     0
 74
     1
 95
       20
 96
       16
 40
0.0
 40
0.0
 40
0.0
 40
0.0
 40
1.0
 40
1.0
 40
1.0
 40
2.0
 40
2.0
 40
2.0
 40
3.0
 40
3.0
 40
3.0
 40
4.0
 40
4.0
 40
4.0
 40
5.0
 40
5.0
 40
5.0
 40
5.0
 10
56.19588079107256
 20
-30.91318629869532
 10
56.38002114475916
 20
-30.73714191939905
 10
56.55606552405543
 20
-30.54042696719128
 10
56.72366941941284
 20
-30.32235242297497
 10
56.72366941941284
 20
-30.32235242297497
 10
55.89426268133894
 20
-30.32235242297497
 10
55.89426268133894
 20
-30.32235242297497
 10
55.89426268133894
 20
-30.32235242297497
 10
55.70564370352151
 20
-30.58624673714511
 10
55.70564370352151
 20
-30.58624673714511
 10
55.88995631198237
 20
-30.6868435253144
 10
56.05325383798322
 20
-30.7957085426483
 10
56.19588079107256
 20
-30.91318629869532
 10
56.19588079107256
 20
-30.91318629869532
 10
56.19588079107256
 20
-30.91318629869532
 10
56.19588079107256
 20
-30.91318629869532
 97
        0
 97
        0
 92
        1
 93
        4
 72
     1
 10
57.02528752914646
 20
-31.56672091224721
 11
55.88168808281777
 21
-31.56672091224721
 72
     1
 10
55.88168808281777
 20
-31.56672091224721
 11
55.88168808281777
 21
-32.28295626363065
 72
     1
 10
55.88168808281777
 20
-32.28295626363065
 11
57.02528752914646
 21
-32.28295626363065
 72
     1
 10
57.02528752914646
 20
-32.28295626363065
 11
57.02528752914646
 21
-31.56672091224721
 97
        0
 75
     2
 76
     1
 98
        0
  0
ENDBLK
  5
A6
330
A3
100
AcDbEntity
  8
0
100
AcDbBlockEnd
  0
BLOCK
  5
B3
330
B1
100
AcDbEntity
  8
0
100
AcDbBlockBegin
  2
block 11
 70
     0
 10
0.0
 20
0.0
 30
0.0
  3
block 11
  1

  0
INSERT
  5
B6
330
B1
100
AcDbEntity
  8
フォーマット
100
AcDbBlockReference
  2
block 12
 10
0.0
 20
0.0
 30
0.0
  0
ENDBLK
  5
B4
330
B1
100
AcDbEntity
  8
0
100
AcDbBlockEnd
  0
BLOCK
  5
B7
330
B5
100
AcDbEntity
  8
0
100
AcDbBlockBegin
  2
block 12
 70
     0
 10
0.0
 20
0.0
 30
0.0
  3
block 12
  1

  0
INSERT
  5
BA
330
B5
100
AcDbEntity
  8
フォーマット
100
AcDbBlockReference
  2
block 13
 10
0.0
 20
0.0
 30
0.0
  0
ENDBLK
  5
B8
330
B5
100
AcDbEntity
  8
0
100
AcDbBlockEnd
  0
BLOCK
  5
BB
330
B9
100
AcDbEntity
  8
0
100
AcDbBlockBegin
  2
block 13
 70
     0
 10
0.0
 20
0.0
 30
0.0
  3
block 13
  1

  0
INSERT
  5
BE
330
B9
100
AcDbEntity
  8
フォーマット
100
AcDbBlockReference
  2
block 14
 10
0.0
 20
0.0
 30
0.0
  0
ENDBLK
  5
BC
330
B9
100
AcDbEntity
  8
0
100
AcDbBlockEnd
  0
BLOCK
  5
BF
330
BD
100
AcDbEntity
  8
0
100
AcDbBlockBegin
  2
block 14
 70
     0
 10
0.0
 20
0.0
 30
0.0
  3
block 14
  1

  0
POLYLINE
  5
C1
330
BD
100
AcDbEntity
  8
フォーマット
370
     0
100
AcDb2dPolyline
 66
     1
 10
0.0
 20
0.0
 30
0.0
  0
VERTEX
  5
C2
330
C1
100
AcDbEntity
  8
フォーマット
370
     0
100
AcDbVertex
100
AcDb2dVertex
 10
55.79366589316964
 20
-12.41474609064631
 30
0.0
  0
VERTEX
  5
C3
330
C1
100
AcDbEntity
  8
フォーマット
370
     0
100
AcDbVertex
100
AcDb2dVertex
 10
55.1904296737024
 20
-12.41474609064631
 30
0.0
  0
VERTEX
  5
C4
330
C1
100
AcDbEntity
  8
フォーマット
370
     0
100
AcDbVertex
100
AcDb2dVertex
 10
55.1904296737024
 20
-12.6407443544787
 30
0.0
  0
VERTEX
  5
C5
330
C1
100
AcDbEntity
  8
フォーマット
370
     0
100
AcDbVertex
100
AcDb2dVertex
 10
54.93910995805342
 20
-12.6407443544787
 30
0.0
  0
VERTEX
  5
C6
330
C1
100
AcDbEntity
  8
フォーマット
370
     0
100
AcDbVertex
100
AcDb2dVertex
 10
54.93910995805342
 20
-11.30887043988112
 30
0.0
  0
VERTEX
  5
C7
330
C1
100
AcDbEntity
  8
フォーマット
370
     0
100
AcDbVertex
100
AcDb2dVertex
 10
56.04498560881861
 20
-11.30887043988112
 30
0.0
  0
VERTEX
  5
C8
330
C1
100
AcDbEntity
  8
フォーマット
370
     0
100
AcDbVertex
100
AcDb2dVertex
 10
56.04498560881861
 20
-12.60319281368948
 30
0.0
  0
VERTEX
  5
C9
330
C1
100
AcDbEntity
  8
フォーマット
370
     0
100
AcDbVertex
100
AcDb2dVertex
 10
55.79366589316964
 20
-12.60319281368948
 30
0.0
  0
VERTEX
  5
CA
330
C1
100
AcDbEntity
  8
フォーマット
370
     0
100
AcDbVertex
100
AcDb2dVertex
 10
55.79366589316964
 20
-12.41474609064631
 30
0.0
  0
SEQEND
  5
CB
330
C1
100
AcDbEntity
  8
フォーマット
370
     0
  0
POLYLINE
  5
CC
330
BD
100
AcDbEntity
  8
フォーマット
370
     0
100
AcDb2dPolyline
 66
     1
 10
0.0
 20
0.0
 30
0.0
  0
VERTEX
  5
CD
330
CC
100
AcDbEntity
  8
フォーマット
370
     0
100
AcDbVertex
100
AcDb2dVertex
 10
55.1904296737024
 20
-11.54761555700893
 30
0.0
  0
VERTEX
  5
CE
330
CC
100
AcDbEntity
  8
フォーマット
370
     0
100
AcDbVertex
100
AcDb2dVertex
 10
55.1904296737024
 20
-12.1760009735185
 30
0.0
  0
VERTEX
  5
CF
330
CC
100
AcDbEntity
  8
フォーマット
370
     0
100
AcDbVertex
100
AcDb2dVertex
 10
55.79366589316964
 20
-12.1760009735185
 30
0.0
  0
VERTEX
  5
D0
330
CC
100
AcDbEntity
  8
フォーマット
370
     0
100
AcDbVertex
100
AcDb2dVertex
 10
55.79366589316964
 20
-11.54761555700893
 30
0.0
  0
VERTEX
  5
D1
330
CC
100
AcDbEntity
  8
フォーマット
370
     0
100
AcDbVertex
100
AcDb2dVertex
 10
55.1904296737024
 20
-11.54761555700893
 30
0.0
  0
SEQEND
  5
D2
330
CC
100
AcDbEntity
  8
フォーマット
370
     0
  0
POLYLINE
  5
D3
330
BD
100
AcDbEntity
  8
フォーマット
370
     0
100
AcDb2dPolyline
 66
     1
 10
0.0
 20
0.0
 30
0.0
  0
VERTEX
  5
D4
330
D3
100
AcDbEntity
  8
フォーマット
370
     0
100
AcDbVertex
100
AcDb2dVertex
 10
56.736244017934
 20
-10.99467773162633
 30
0.0
  0
VERTEX
  5
D5
330
D3
100
AcDbEntity
  8
フォーマット
370
     0
100
AcDbVertex
100
AcDb2dVertex
 10
55.6303683671688
 20
-10.99467773162633
 30
0.0
  0
VERTEX
  5
D6
330
D3
100
AcDbEntity
  8
フォーマット
370
     0
100
AcDbVertex
100
AcDb2dVertex
 10
55.6303683671688
 20
-11.0825276665002
 30
0.0
  0
VERTEX
  5
D7
330
D3
100
AcDbEntity
  8
フォーマット
370
     0
100
AcDbVertex
100
AcDb2dVertex
 10
55.37887639674556
 20
-11.0825276665002
 30
0.0
  0
VERTEX
  5
D8
330
D3
100
AcDbEntity
  8
フォーマット
370
     0
100
AcDbVertex
100
AcDb2dVertex
 10
55.37887639674556
 20
-9.913606768354931
 30
0.0
  0
VERTEX
  5
D9
330
D3
100
AcDbEntity
  8
フォーマット
370
     0
100
AcDbVertex
100
AcDb2dVertex
 10
56.98756373358297
 20
-9.913606768354931
 30
0.0
  0
VERTEX
  5
DA
330
D3
100
AcDbEntity
  8
フォーマット
370
     0
100
AcDbVertex
100
AcDb2dVertex
 10
56.98756373358297
 20
-11.05737846945788
 30
0.0
  0
VERTEX
  5
DB
330
D3
100
AcDbEntity
  8
フォーマット
370
     0
100
AcDbVertex
100
AcDb2dVertex
 10
56.736244017934
 20
-11.05737846945788
 30
0.0
  0
VERTEX
  5
DC
330
D3
100
AcDbEntity
  8
フォーマット
370
     0
100
AcDbVertex
100
AcDb2dVertex
 10
56.736244017934
 20
-10.99467773162633
 30
0.0
  0
SEQEND
  5
DD
330
D3
100
AcDbEntity
  8
フォーマット
370
     0
  0
POLYLINE
  5
DE
330
BD
100
AcDbEntity
  8
フォーマット
370
     0
100
AcDb2dPolyline
 66
     1
 10
0.0
 20
0.0
 30
0.0
  0
VERTEX
  5
DF
330
DE
100
AcDbEntity
  8
フォーマット
370
     0
100
AcDbVertex
100
AcDb2dVertex
 10
55.6303683671688
 20
-10.75558810494999
 30
0.0
  0
VERTEX
  5
E0
330
DE
100
AcDbEntity
  8
フォーマット
370
     0
100
AcDbVertex
100
AcDb2dVertex
 10
56.736244017934
 20
-10.75558810494999
 30
0.0
  0
VERTEX
  5
E1
330
DE
100
AcDbEntity
  8
フォーマット
370
     0
100
AcDbVertex
100
AcDb2dVertex
 10
56.736244017934
 20
-10.15235188548275
 30
0.0
  0
VERTEX
  5
E2
330
DE
100
AcDbEntity
  8
フォーマット
370
     0
100
AcDbVertex
100
AcDb2dVertex
 10
55.6303683671688
 20
-10.15235188548275
 30
0.0
  0
VERTEX
  5
E3
330
DE
100
AcDbEntity
  8
フォーマット
370
     0
100
AcDbVertex
100
AcDb2dVertex
 10
55.6303683671688
 20
-10.75558810494999
 30
0.0
  0
SEQEND
  5
E4
330
DE
100
AcDbEntity
  8
フォーマット
370
     0
  0
POLYLINE
  5
E5
330
BD
100
AcDbEntity
  8
フォーマット
370
     0
100
AcDb2dPolyline
 66
     1
 10
0.0
 20
0.0
 30
0.0
  0
VERTEX
  5
E6
330
E5
100
AcDbEntity
  8
フォーマット
370
     0
100
AcDbVertex
100
AcDb2dVertex
 10
57.22648110548505
 20
-12.41474609064631
 30
0.0
  0
VERTEX
  5
E7
330
E5
100
AcDbEntity
  8
フォーマット
370
     0
100
AcDbVertex
100
AcDb2dVertex
 10
56.6232448860178
 20
-12.41474609064631
 30
0.0
  0
VERTEX
  5
E8
330
E5
100
AcDbEntity
  8
フォーマット
370
     0
100
AcDbVertex
100
AcDb2dVertex
 10
56.6232448860178
 20
-12.6407443544787
 30
0.0
  0
VERTEX
  5
E9
330
E5
100
AcDbEntity
  8
フォーマット
370
     0
100
AcDbVertex
100
AcDb2dVertex
 10
56.37175291559456
 20
-12.6407443544787
 30
0.0
  0
VERTEX
  5
EA
330
E5
100
AcDbEntity
  8
フォーマット
370
     0
100
AcDbVertex
100
AcDb2dVertex
 10
56.37175291559456
 20
-11.30887043988112
 30
0.0
  0
VERTEX
  5
EB
330
E5
100
AcDbEntity
  8
フォーマット
370
     0
100
AcDbVertex
100
AcDb2dVertex
 10
57.47780082113402
 20
-11.30887043988112
 30
0.0
  0
VERTEX
  5
EC
330
E5
100
AcDbEntity
  8
フォーマット
370
     0
100
AcDbVertex
100
AcDb2dVertex
 10
57.47780082113402
 20
-12.60319281368948
 30
0.0
  0
VERTEX
  5
ED
330
E5
100
AcDbEntity
  8
フォーマット
370
     0
100
AcDbVertex
100
AcDb2dVertex
 10
57.22648110548505
 20
-12.60319281368948
 30
0.0
  0
VERTEX
  5
EE
330
E5
100
AcDbEntity
  8
フォーマット
370
     0
100
AcDbVertex
100
AcDb2dVertex
 10
57.22648110548505
 20
-12.41474609064631
 30
0.0
  0
SEQEND
  5
EF
330
E5
100
AcDbEntity
  8
フォーマット
370
     0
  0
POLYLINE
  5
F0
330
BD
100
AcDbEntity
  8
フォーマット
370
     0
100
AcDb2dPolyline
 66
     1
 10
0.0
 20
0.0
 30
0.0
  0
VERTEX
  5
F1
330
F0
100
AcDbEntity
  8
フォーマット
370
     0
100
AcDbVertex
100
AcDb2dVertex
 10
56.6232448860178
 20
-11.54761555700893
 30
0.0
  0
VERTEX
  5
F2
330
F0
100
AcDbEntity
  8
フォーマット
370
     0
100
AcDbVertex
100
AcDb2dVertex
 10
56.6232448860178
 20
-12.1760009735185
 30
0.0
  0
VERTEX
  5
F3
330
F0
100
AcDbEntity
  8
フォーマット
370
     0
100
AcDbVertex
100
AcDb2dVertex
 10
57.22648110548505
 20
-12.1760009735185
 30
0.0
  0
VERTEX
  5
F4
330
F0
100
AcDbEntity
  8
フォーマット
370
     0
100
AcDbVertex
100
AcDb2dVertex
 10
57.22648110548505
 20
-11.54761555700893
 30
0.0
  0
VERTEX
  5
F5
330
F0
100
AcDbEntity
  8
フォーマット
370
     0
100
AcDbVertex
100
AcDb2dVertex
 10
56.6232448860178
 20
-11.54761555700893
 30
0.0
  0
SEQEND
  5
F6
330
F0
100
AcDbEntity
  8
フォーマット
370
     0
  0
HATCH
  5
F7
330
BD
100
AcDbEntity
  8
フォーマット
 62
     7
100
AcDbHatch
 10
0.0
 20
0.0
 30
0.0
210
0.0
220
0.0
230
1.0
  2
SOLID
 70
     1
 71
     0
 91
        6
 92
        1
 93
        8
 72
     1
 10
55.79366589316964
 20
-12.41474609064631
 11
55.1904296737024
 21
-12.41474609064631
 72
     1
 10
55.1904296737024
 20
-12.41474609064631
 11
55.1904296737024
 21
-12.6407443544787
 72
     1
 10
55.1904296737024
 20
-12.6407443544787
 11
54.93910995805342
 21
-12.6407443544787
 72
     1
 10
54.93910995805342
 20
-12.6407443544787
 11
54.93910995805342
 21
-11.30887043988112
 72
     1
 10
54.93910995805342
 20
-11.30887043988112
 11
56.04498560881861
 21
-11.30887043988112
 72
     1
 10
56.04498560881861
 20
-11.30887043988112
 11
56.04498560881861
 21
-12.60319281368948
 72
     1
 10
56.04498560881861
 20
-12.60319281368948
 11
55.79366589316964
 21
-12.60319281368948
 72
     1
 10
55.79366589316964
 20
-12.60319281368948
 11
55.79366589316964
 21
-12.41474609064631
 97
        0
 92
        1
 93
        4
 72
     1
 10
55.1904296737024
 20
-11.54761555700893
 11
55.1904296737024
 21
-12.1760009735185
 72
     1
 10
55.1904296737024
 20
-12.1760009735185
 11
55.79366589316964
 21
-12.1760009735185
 72
     1
 10
55.79366589316964
 20
-12.1760009735185
 11
55.79366589316964
 21
-11.54761555700893
 72
     1
 10
55.79366589316964
 20
-11.54761555700893
 11
55.1904296737024
 21
-11.54761555700893
 97
        0
 92
        1
 93
        8
 72
     1
 10
56.736244017934
 20
-10.99467773162633
 11
55.6303683671688
 21
-10.99467773162633
 72
     1
 10
55.6303683671688
 20
-10.99467773162633
 11
55.6303683671688
 21
-11.0825276665002
 72
     1
 10
55.6303683671688
 20
-11.0825276665002
 11
55.37887639674556
 21
-11.0825276665002
 72
     1
 10
55.37887639674556
 20
-11.0825276665002
 11
55.37887639674556
 21
-9.913606768354931
 72
     1
 10
55.37887639674556
 20
-9.913606768354931
 11
56.98756373358297
 21
-9.913606768354931
 72
     1
 10
56.98756373358297
 20
-9.913606768354931
 11
56.98756373358297
 21
-11.05737846945788
 72
     1
 10
56.98756373358297
 20
-11.05737846945788
 11
56.736244017934
 21
-11.05737846945788
 72
     1
 10
56.736244017934
 20
-11.05737846945788
 11
56.736244017934
 21
-10.99467773162633
 97
        0
 92
        1
 93
        4
 72
     1
 10
55.6303683671688
 20
-10.75558810494999
 11
56.736244017934
 21
-10.75558810494999
 72
     1
 10
56.736244017934
 20
-10.75558810494999
 11
56.736244017934
 21
-10.15235188548275
 72
     1
 10
56.736244017934
 20
-10.15235188548275
 11
55.6303683671688
 21
-10.15235188548275
 72
     1
 10
55.6303683671688
 20
-10.15235188548275
 11
55.6303683671688
 21
-10.75558810494999
 97
        0
 92
        1
 93
        8
 72
     1
 10
57.22648110548505
 20
-12.41474609064631
 11
56.6232448860178
 21
-12.41474609064631
 72
     1
 10
56.6232448860178
 20
-12.41474609064631
 11
56.6232448860178
 21
-12.6407443544787
 72
     1
 10
56.6232448860178
 20
-12.6407443544787
 11
56.37175291559456
 21
-12.6407443544787
 72
     1
 10
56.37175291559456
 20
-12.6407443544787
 11
56.37175291559456
 21
-11.30887043988112
 72
     1
 10
56.37175291559456
 20
-11.30887043988112
 11
57.47780082113402
 21
-11.30887043988112
 72
     1
 10
57.47780082113402
 20
-11.30887043988112
 11
57.47780082113402
 21
-12.60319281368948
 72
     1
 10
57.47780082113402
 20
-12.60319281368948
 11
57.22648110548505
 21
-12.60319281368948
 72
     1
 10
57.22648110548505
 20
-12.60319281368948
 11
57.22648110548505
 21
-12.41474609064631
 97
        0
 92
        1
 93
        4
 72
     1
 10
56.6232448860178
 20
-11.54761555700893
 11
56.6232448860178
 21
-12.1760009735185
 72
     1
 10
56.6232448860178
 20
-12.1760009735185
 11
57.22648110548505
 21
-12.1760009735185
 72
     1
 10
57.22648110548505
 20
-12.1760009735185
 11
57.22648110548505
 21
-11.54761555700893
 72
     1
 10
57.22648110548505
 20
-11.54761555700893
 11
56.6232448860178
 21
-11.54761555700893
 97
        0
 75
     2
 76
     1
 98
        0
  0
ENDBLK
  5
C0
330
BD
100
AcDbEntity
  8
0
100
AcDbBlockEnd
  0
BLOCK
  5
FA
330
F8
100
AcDbEntity
  8
0
100
AcDbBlockBegin
  2
block 15
 70
     0
 10
0.0
 20
0.0
 30
0.0
  3
block 15
  1

  0
INSERT
  5
FD
330
F8
100
AcDbEntity
  8
フォーマット
100
AcDbBlockReference
  2
block 16
 10
0.0
 20
0.0
 30
0.0
  0
ENDBLK
  5
FB
330
F8
100
AcDbEntity
  8
0
100
AcDbBlockEnd
  0
BLOCK
  5
FE
330
FC
100
AcDbEntity
  8
0
100
AcDbBlockBegin
  2
block 16
 70
     0
 10
0.0
 20
0.0
 30
0.0
  3
block 16
  1

  0
INSERT
  5
101
330
FC
100
AcDbEntity
  8
フォーマット
100
AcDbBlockReference
  2
block 17
 10
0.0
 20
0.0
 30
0.0
  0
ENDBLK
  5
FF
330
FC
100
AcDbEntity
  8
0
100
AcDbBlockEnd
  0
BLOCK
  5
102
330
100
100
AcDbEntity
  8
0
100
AcDbBlockBegin
  2
block 17
 70
     0
 10
0.0
 20
0.0
 30
0.0
  3
block 17
  1

  0
INSERT
  5
105
330
100
100
AcDbEntity
  8
フォーマット
100
AcDbBlockReference
  2
block 18
 10
0.0
 20
0.0
 30
0.0
  0
ENDBLK
  5
103
330
100
100
AcDbEntity
  8
0
100
AcDbBlockEnd
  0
BLOCK
  5
106
330
104
100
AcDbEntity
  8
0
100
AcDbBlockBegin
  2
block 18
 70
     0
 10
0.0
 20
0.0
 30
0.0
  3
block 18
  1

  0
SPLINE
  5
108
330
104
100
AcDbEntity
  8
フォーマット
370
     0
100
AcDbSpline
210
0.0
220
0.0
230
1.0
 70
    11
 71
     3
 72
   119
 73
   115
 74
     0
 42
0.000000001
 43
0.0000000001
 40
0.0
 40
0.0
 40
0.0
 40
0.0
 40
1.0
 40
1.0
 40
1.0
 40
2.0
 40
2.0
 40
2.0
 40
3.0
 40
3.0
 40
3.0
 40
4.0
 40
4.0
 40
4.0
 40
5.0
 40
5.0
 40
5.0
 40
6.0
 40
6.0
 40
6.0
 40
7.0
 40
7.0
 40
7.0
 40
8.0
 40
8.0
 40
8.0
 40
9.0
 40
9.0
 40
9.0
 40
10.0
 40
10.0
 40
10.0
 40
11.0
 40
11.0
 40
11.0
 40
12.0
 40
12.0
 40
12.0
 40
13.0
 40
13.0
 40
13.0
 40
14.0
 40
14.0
 40
14.0
 40
15.0
 40
15.0
 40
15.0
 40
16.0
 40
16.0
 40
16.0
 40
17.0
 40
17.0
 40
17.0
 40
18.0
 40
18.0
 40
18.0
 40
19.0
 40
19.0
 40
19.0
 40
20.0
 40
20.0
 40
20.0
 40
21.0
 40
21.0
 40
21.0
 40
22.0
 40
22.0
 40
22.0
 40
23.0
 40
23.0
 40
23.0
 40
24.0
 40
24.0
 40
24.0
 40
25.0
 40
25.0
 40
25.0
 40
26.0
 40
26.0
 40
26.0
 40
27.0
 40
27.0
 40
27.0
 40
28.0
 40
28.0
 40
28.0
 40
29.0
 40
29.0
 40
29.0
 40
30.0
 40
30.0
 40
30.0
 40
31.0
 40
31.0
 40
31.0
 40
32.0
 40
32.0
 40
32.0
 40
33.0
 40
33.0
 40
33.0
 40
34.0
 40
34.0
 40
34.0
 40
35.0
 40
35.0
 40
35.0
 40
36.0
 40
36.0
 40
36.0
 40
37.0
 40
37.0
 40
37.0
 40
38.0
 40
38.0
 40
38.0
 40
38.0
 10
56.57311874670742
 20
-15.8812011679047
 30
0.0
 10
56.82443846235639
 20
-16.09927571212102
 30
0.0
 10
57.17635496617466
 20
-16.27532009141728
 30
0.0
 10
57.62869600338797
 20
-16.40898979624497
 30
0.0
 10
57.62869600338797
 20
-16.40898979624497
 30
0.0
 10
57.5408460685141
 20
-16.69837781700596
 30
0.0
 10
57.5408460685141
 20
-16.69837781700596
 30
0.0
 10
57.37306991838243
 20
-16.64807942292131
 30
0.0
 10
57.25576441710967
 20
-16.59778102883667
 30
0.0
 10
57.18892956469583
 20
-16.54748263475202
 30
0.0
 10
57.18892956469583
 20
-16.54748263475202
 30
0.0
 10
57.18892956469583
 20
-17.71605902334876
 30
0.0
 10
57.18892956469583
 20
-17.71605902334876
 30
0.0
 10
57.18892956469583
 20
-17.71605902334876
 30
0.0
 10
56.93760984904685
 20
-17.71605902334876
 30
0.0
 10
56.93760984904685
 20
-17.71605902334876
 30
0.0
 10
56.93760984904685
 20
-17.71605902334876
 30
0.0
 10
56.93760984904685
 20
-17.59065754768567
 30
0.0
 10
56.93760984904685
 20
-17.59065754768567
 30
0.0
 10
56.93760984904685
 20
-17.59065754768567
 30
0.0
 10
55.50479463673144
 20
-17.59065754768567
 30
0.0
 10
55.50479463673144
 20
-17.59065754768567
 30
0.0
 10
55.50479463673144
 20
-17.59065754768567
 30
0.0
 10
55.50479463673144
 20
-17.75395507368651
 30
0.0
 10
55.50479463673144
 20
-17.75395507368651
 30
0.0
 10
55.50479463673144
 20
-17.75395507368651
 30
0.0
 10
55.25347492108246
 20
-17.75395507368651
 30
0.0
 10
55.25347492108246
 20
-17.75395507368651
 30
0.0
 10
55.25347492108246
 20
-17.75395507368651
 30
0.0
 10
55.25347492108246
 20
-16.58503417554124
 30
0.0
 10
55.25347492108246
 20
-16.58503417554124
 30
0.0
 10
55.16958684601664
 20
-16.63533256962589
 30
0.0
 10
55.04401311557928
 20
-16.68563096371054
 30
0.0
 10
54.87640922022187
 20
-16.73592935779519
 30
0.0
 10
54.87640922022187
 20
-16.73592935779519
 30
0.0
 10
54.73826089126335
 20
-16.49718424066737
 30
0.0
 10
54.73826089126335
 20
-16.49718424066737
 30
0.0
 10
55.16545273143434
 20
-16.37143825545575
 30
0.0
 10
55.53821206293836
 20
-16.16611056453486
 30
0.0
 10
55.85671114054971
 20
-15.8812011679047
 30
0.0
 10
55.85671114054971
 20
-15.8812011679047
 30
0.0
 10
54.82611082613722
 20
-15.8812011679047
 30
0.0
 10
54.82611082613722
 20
-15.8812011679047
 30
0.0
 10
54.82611082613722
 20
-15.8812011679047
 30
0.0
 10
54.82611082613722
 20
-15.64245605077689
 30
0.0
 10
54.82611082613722
 20
-15.64245605077689
 30
0.0
 10
54.82611082613722
 20
-15.64245605077689
 30
0.0
 10
55.50479463673144
 20
-15.64245605077689
 30
0.0
 10
55.50479463673144
 20
-15.64245605077689
 30
0.0
 10
55.42934704560447
 20
-15.53359103344299
 30
0.0
 10
55.36664630777292
 20
-15.44987521315142
 30
0.0
 10
55.31634791368828
 20
-15.39130858990217
 30
0.0
 10
55.31634791368828
 20
-15.39130858990217
 30
0.0
 10
55.52994383377376
 20
-15.30311414547978
 30
0.0
 10
55.52994383377376
 20
-15.30311414547978
 30
0.0
 10
55.60539142490074
 20
-15.37029350744215
 30
0.0
 10
55.67636039189689
 20
-15.45848795186455
 30
0.0
 10
55.74353975385926
 20
-15.56700845964992
 30
0.0
 10
55.74353975385926
 20
-15.56700845964992
 30
0.0
 10
55.56766762933725
 20
-15.64245605077689
 30
0.0
 10
55.56766762933725
 20
-15.64245605077689
 30
0.0
 10
55.56766762933725
 20
-15.64245605077689
 30
0.0
 10
56.0703070606352
 20
-15.64245605077689
 30
0.0
 10
56.0703070606352
 20
-15.64245605077689
 30
0.0
 10
56.0703070606352
 20
-15.64245605077689
 30
0.0
 10
56.0703070606352
 20
-15.22766655435281
 30
0.0
 10
56.0703070606352
 20
-15.22766655435281
 30
0.0
 10
56.0703070606352
 20
-15.22766655435281
 30
0.0
 10
55.05245359951814
 20
-15.25281575139513
 30
0.0
 10
55.05245359951814
 20
-15.25281575139513
 30
0.0
 10
55.05245359951814
 20
-15.25281575139513
 30
0.0
 10
54.97700600839116
 20
-15.05196668460506
 30
0.0
 10
54.97700600839116
 20
-15.05196668460506
 30
0.0
 10
55.93215873167669
 20
-15.03508571672734
 30
0.0
 10
56.64839408306013
 20
-14.98478732264269
 30
0.0
 10
57.12605657209001
 20
-14.90107150235112
 30
0.0
 10
57.12605657209001
 20
-14.90107150235112
 30
0.0
 10
57.25180255730164
 20
-15.11466742243661
 30
0.0
 10
57.25180255730164
 20
-15.11466742243661
 30
0.0
 10
57.26833901563084
 20
-15.15669758735666
 30
0.0
 10
57.23922795878048
 20
-15.16496581652126
 30
0.0
 10
57.1637803676535
 20
-15.13981661947894
 30
0.0
 10
57.1637803676535
 20
-15.13981661947894
 30
0.0
 10
56.32179903105844
 20
-15.20251735731048
 30
0.0
 10
56.32179903105844
 20
-15.20251735731048
 30
0.0
 10
56.32179903105844
 20
-15.20251735731048
 30
0.0
 10
56.32179903105844
 20
-15.64245605077689
 30
0.0
 10
56.32179903105844
 20
-15.64245605077689
 30
0.0
 10
56.32179903105844
 20
-15.64245605077689
 30
0.0
 10
56.56054414818625
 20
-15.64245605077689
 30
0.0
 10
56.56054414818625
 20
-15.64245605077689
 30
0.0
 10
56.56054414818625
 20
-15.64245605077689
 30
0.0
 10
56.82443846235639
 20
-15.20251735731048
 30
0.0
 10
56.82443846235639
 20
-15.20251735731048
 30
0.0
 10
56.82443846235639
 20
-15.20251735731048
 30
0.0
 10
57.05060898096305
 20
-15.3282633425221
 30
0.0
 10
57.05060898096305
 20
-15.3282633425221
 30
0.0
 10
57.09246689110883
 20
-15.37029350744215
 30
0.0
 10
57.07989229258767
 20
-15.38717447531987
 30
0.0
 10
57.01288518539956
 20
-15.37856173660675
 30
0.0
 10
57.01288518539956
 20
-15.37856173660675
 30
0.0
 10
56.81186386383523
 20
-15.64245605077689
 30
0.0
 10
56.81186386383523
 20
-15.64245605077689
 30
0.0
 10
56.81186386383523
 20
-15.64245605077689
 30
0.0
 10
57.56599526555642
 20
-15.64245605077689
 30
0.0
 10
57.56599526555642
 20
-15.64245605077689
 30
0.0
 10
57.56599526555642
 20
-15.64245605077689
 30
0.0
 10
57.56599526555642
 20
-15.8812011679047
 30
0.0
 10
57.56599526555642
 20
-15.8812011679047
 30
0.0
 10
57.56599526555642
 20
-15.8812011679047
 30
0.0
 10
56.57311874670742
 20
-15.8812011679047
 30
0.0
 10
56.57311874670742
 20
-15.8812011679047
 30
0.0
 10
56.57311874670742
 20
-15.8812011679047
 30
0.0
 10
56.57311874670742
 20
-15.8812011679047
 30
0.0
 10
56.57311874670742
 20
-15.8812011679047
 30
0.0
  0
SPLINE
  5
109
330
104
100
AcDbEntity
  8
フォーマット
370
     0
100
AcDbSpline
210
0.0
220
0.0
230
1.0
 70
    11
 71
     3
 72
    23
 73
    19
 74
     0
 42
0.000000001
 43
0.0000000001
 40
0.0
 40
0.0
 40
0.0
 40
0.0
 40
1.0
 40
1.0
 40
1.0
 40
2.0
 40
2.0
 40
2.0
 40
3.0
 40
3.0
 40
3.0
 40
4.0
 40
4.0
 40
4.0
 40
5.0
 40
5.0
 40
5.0
 40
6.0
 40
6.0
 40
6.0
 40
6.0
 10
57.03803438244189
 20
-16.48443738737195
 30
0.0
 10
56.81186386383523
 20
-16.39245333791578
 30
0.0
 10
56.57311874670742
 20
-16.22915581191494
 30
0.0
 10
56.32179903105844
 20
-15.99454480936942
 30
0.0
 10
56.32179903105844
 20
-15.99454480936942
 30
0.0
 10
56.32179903105844
 20
-16.4217366495404
 30
0.0
 10
56.32179903105844
 20
-16.4217366495404
 30
0.0
 10
56.32179903105844
 20
-16.4217366495404
 30
0.0
 10
56.0703070606352
 20
-16.4217366495404
 30
0.0
 10
56.0703070606352
 20
-16.4217366495404
 30
0.0
 10
56.0703070606352
 20
-16.4217366495404
 30
0.0
 10
56.0703070606352
 20
-15.99454480936942
 30
0.0
 10
56.0703070606352
 20
-15.99454480936942
 30
0.0
 10
55.86928573907088
 20
-16.21227484403721
 30
0.0
 10
55.65138344962882
 20
-16.37591687958658
 30
0.0
 10
55.41677244708331
 20
-16.48443738737195
 30
0.0
 10
55.41677244708331
 20
-16.48443738737195
 30
0.0
 10
57.03803438244189
 20
-16.48443738737195
 30
0.0
 10
57.03803438244189
 20
-16.48443738737195
 30
0.0
  0
POLYLINE
  5
10A
330
104
100
AcDbEntity
  8
フォーマット
370
     0
100
AcDb2dPolyline
 66
     1
 10
0.0
 20
0.0
 30
0.0
  0
VERTEX
  5
10B
330
10A
100
AcDbEntity
  8
フォーマット
370
     0
100
AcDbVertex
100
AcDb2dVertex
 10
56.0703070606352
 20
-16.93712293413378
 30
0.0
  0
VERTEX
  5
10C
330
10A
100
AcDbEntity
  8
フォーマット
370
     0
100
AcDbVertex
100
AcDb2dVertex
 10
56.0703070606352
 20
-16.68563096371054
 30
0.0
  0
VERTEX
  5
10D
330
10A
100
AcDbEntity
  8
フォーマット
370
     0
100
AcDbVertex
100
AcDb2dVertex
 10
55.50479463673144
 20
-16.68563096371054
 30
0.0
  0
VERTEX
  5
10E
330
10A
100
AcDbEntity
  8
フォーマット
370
     0
100
AcDbVertex
100
AcDb2dVertex
 10
55.50479463673144
 20
-16.93712293413378
 30
0.0
  0
VERTEX
  5
10F
330
10A
100
AcDbEntity
  8
フォーマット
370
     0
100
AcDbVertex
100
AcDb2dVertex
 10
56.0703070606352
 20
-16.93712293413378
 30
0.0
  0
SEQEND
  5
110
330
10A
100
AcDbEntity
  8
フォーマット
370
     0
  0
POLYLINE
  5
111
330
104
100
AcDbEntity
  8
フォーマット
370
     0
100
AcDb2dPolyline
 66
     1
 10
0.0
 20
0.0
 30
0.0
  0
VERTEX
  5
112
330
111
100
AcDbEntity
  8
フォーマット
370
     0
100
AcDbVertex
100
AcDb2dVertex
 10
56.0703070606352
 20
-17.13797200092384
 30
0.0
  0
VERTEX
  5
113
330
111
100
AcDbEntity
  8
フォーマット
370
     0
100
AcDbVertex
100
AcDb2dVertex
 10
55.50479463673144
 20
-17.13797200092384
 30
0.0
  0
VERTEX
  5
114
330
111
100
AcDbEntity
  8
フォーマット
370
     0
100
AcDbVertex
100
AcDb2dVertex
 10
55.50479463673144
 20
-17.38946397134708
 30
0.0
  0
VERTEX
  5
115
330
111
100
AcDbEntity
  8
フォーマット
370
     0
100
AcDbVertex
100
AcDb2dVertex
 10
56.0703070606352
 20
-17.38946397134708
 30
0.0
  0
VERTEX
  5
116
330
111
100
AcDbEntity
  8
フォーマット
370
     0
100
AcDbVertex
100
AcDb2dVertex
 10
56.0703070606352
 20
-17.13797200092384
 30
0.0
  0
SEQEND
  5
117
330
111
100
AcDbEntity
  8
フォーマット
370
     0
  0
POLYLINE
  5
118
330
104
100
AcDbEntity
  8
フォーマット
370
     0
100
AcDb2dPolyline
 66
     1
 10
0.0
 20
0.0
 30
0.0
  0
VERTEX
  5
119
330
118
100
AcDbEntity
  8
フォーマット
370
     0
100
AcDbVertex
100
AcDb2dVertex
 10
56.93760984904685
 20
-16.93712293413378
 30
0.0
  0
VERTEX
  5
11A
330
118
100
AcDbEntity
  8
フォーマット
370
     0
100
AcDbVertex
100
AcDb2dVertex
 10
56.93760984904685
 20
-16.68563096371054
 30
0.0
  0
VERTEX
  5
11B
330
118
100
AcDbEntity
  8
フォーマット
370
     0
100
AcDbVertex
100
AcDb2dVertex
 10
56.32179903105844
 20
-16.68563096371054
 30
0.0
  0
VERTEX
  5
11C
330
118
100
AcDbEntity
  8
フォーマット
370
     0
100
AcDbVertex
100
AcDb2dVertex
 10
56.32179903105844
 20
-16.93712293413378
 30
0.0
  0
VERTEX
  5
11D
330
118
100
AcDbEntity
  8
フォーマット
370
     0
100
AcDbVertex
100
AcDb2dVertex
 10
56.93760984904685
 20
-16.93712293413378
 30
0.0
  0
SEQEND
  5
11E
330
118
100
AcDbEntity
  8
フォーマット
370
     0
  0
POLYLINE
  5
11F
330
104
100
AcDbEntity
  8
フォーマット
370
     0
100
AcDb2dPolyline
 66
     1
 10
0.0
 20
0.0
 30
0.0
  0
VERTEX
  5
120
330
11F
100
AcDbEntity
  8
フォーマット
370
     0
100
AcDbVertex
100
AcDb2dVertex
 10
56.93760984904685
 20
-17.38946397134708
 30
0.0
  0
VERTEX
  5
121
330
11F
100
AcDbEntity
  8
フォーマット
370
     0
100
AcDbVertex
100
AcDb2dVertex
 10
56.93760984904685
 20
-17.13797200092384
 30
0.0
  0
VERTEX
  5
122
330
11F
100
AcDbEntity
  8
フォーマット
370
     0
100
AcDbVertex
100
AcDb2dVertex
 10
56.32179903105844
 20
-17.13797200092384
 30
0.0
  0
VERTEX
  5
123
330
11F
100
AcDbEntity
  8
フォーマット
370
     0
100
AcDbVertex
100
AcDb2dVertex
 10
56.32179903105844
 20
-17.38946397134708
 30
0.0
  0
VERTEX
  5
124
330
11F
100
AcDbEntity
  8
フォーマット
370
     0
100
AcDbVertex
100
AcDb2dVertex
 10
56.93760984904685
 20
-17.38946397134708
 30
0.0
  0
SEQEND
  5
125
330
11F
100
AcDbEntity
  8
フォーマット
370
     0
  0
HATCH
  5
126
330
104
100
AcDbEntity
  8
フォーマット
 62
     7
100
AcDbHatch
 10
0.0
 20
0.0
 30
0.0
210
0.0
220
0.0
230
1.0
  2
SOLID
 70
     1
 71
     0
 91
        6
 92
        1
 93
        1
 72
     4
 94
        3
 73
     0
 74
     1
 95
      119
 96
      115
 40
0.0
 40
0.0
 40
0.0
 40
0.0
 40
1.0
 40
1.0
 40
1.0
 40
2.0
 40
2.0
 40
2.0
 40
3.0
 40
3.0
 40
3.0
 40
4.0
 40
4.0
 40
4.0
 40
5.0
 40
5.0
 40
5.0
 40
6.0
 40
6.0
 40
6.0
 40
7.0
 40
7.0
 40
7.0
 40
8.0
 40
8.0
 40
8.0
 40
9.0
 40
9.0
 40
9.0
 40
10.0
 40
10.0
 40
10.0
 40
11.0
 40
11.0
 40
11.0
 40
12.0
 40
12.0
 40
12.0
 40
13.0
 40
13.0
 40
13.0
 40
14.0
 40
14.0
 40
14.0
 40
15.0
 40
15.0
 40
15.0
 40
16.0
 40
16.0
 40
16.0
 40
17.0
 40
17.0
 40
17.0
 40
18.0
 40
18.0
 40
18.0
 40
19.0
 40
19.0
 40
19.0
 40
20.0
 40
20.0
 40
20.0
 40
21.0
 40
21.0
 40
21.0
 40
22.0
 40
22.0
 40
22.0
 40
23.0
 40
23.0
 40
23.0
 40
24.0
 40
24.0
 40
24.0
 40
25.0
 40
25.0
 40
25.0
 40
26.0
 40
26.0
 40
26.0
 40
27.0
 40
27.0
 40
27.0
 40
28.0
 40
28.0
 40
28.0
 40
29.0
 40
29.0
 40
29.0
 40
30.0
 40
30.0
 40
30.0
 40
31.0
 40
31.0
 40
31.0
 40
32.0
 40
32.0
 40
32.0
 40
33.0
 40
33.0
 40
33.0
 40
34.0
 40
34.0
 40
34.0
 40
35.0
 40
35.0
 40
35.0
 40
36.0
 40
36.0
 40
36.0
 40
37.0
 40
37.0
 40
37.0
 40
38.0
 40
38.0
 40
38.0
 40
38.0
 10
56.57311874670742
 20
-15.8812011679047
 10
56.82443846235639
 20
-16.09927571212102
 10
57.17635496617466
 20
-16.27532009141728
 10
57.62869600338797
 20
-16.40898979624497
 10
57.62869600338797
 20
-16.40898979624497
 10
57.5408460685141
 20
-16.69837781700596
 10
57.5408460685141
 20
-16.69837781700596
 10
57.37306991838243
 20
-16.64807942292131
 10
57.25576441710967
 20
-16.59778102883667
 10
57.18892956469583
 20
-16.54748263475202
 10
57.18892956469583
 20
-16.54748263475202
 10
57.18892956469583
 20
-17.71605902334876
 10
57.18892956469583
 20
-17.71605902334876
 10
57.18892956469583
 20
-17.71605902334876
 10
56.93760984904685
 20
-17.71605902334876
 10
56.93760984904685
 20
-17.71605902334876
 10
56.93760984904685
 20
-17.71605902334876
 10
56.93760984904685
 20
-17.59065754768567
 10
56.93760984904685
 20
-17.59065754768567
 10
56.93760984904685
 20
-17.59065754768567
 10
55.50479463673144
 20
-17.59065754768567
 10
55.50479463673144
 20
-17.59065754768567
 10
55.50479463673144
 20
-17.59065754768567
 10
55.50479463673144
 20
-17.75395507368651
 10
55.50479463673144
 20
-17.75395507368651
 10
55.50479463673144
 20
-17.75395507368651
 10
55.25347492108246
 20
-17.75395507368651
 10
55.25347492108246
 20
-17.75395507368651
 10
55.25347492108246
 20
-17.75395507368651
 10
55.25347492108246
 20
-16.58503417554124
 10
55.25347492108246
 20
-16.58503417554124
 10
55.16958684601664
 20
-16.63533256962589
 10
55.04401311557928
 20
-16.68563096371054
 10
54.87640922022187
 20
-16.73592935779519
 10
54.87640922022187
 20
-16.73592935779519
 10
54.73826089126335
 20
-16.49718424066737
 10
54.73826089126335
 20
-16.49718424066737
 10
55.16545273143434
 20
-16.37143825545575
 10
55.53821206293836
 20
-16.16611056453486
 10
55.85671114054971
 20
-15.8812011679047
 10
55.85671114054971
 20
-15.8812011679047
 10
54.82611082613722
 20
-15.8812011679047
 10
54.82611082613722
 20
-15.8812011679047
 10
54.82611082613722
 20
-15.8812011679047
 10
54.82611082613722
 20
-15.64245605077689
 10
54.82611082613722
 20
-15.64245605077689
 10
54.82611082613722
 20
-15.64245605077689
 10
55.50479463673144
 20
-15.64245605077689
 10
55.50479463673144
 20
-15.64245605077689
 10
55.42934704560447
 20
-15.53359103344299
 10
55.36664630777292
 20
-15.44987521315142
 10
55.31634791368828
 20
-15.39130858990217
 10
55.31634791368828
 20
-15.39130858990217
 10
55.52994383377376
 20
-15.30311414547978
 10
55.52994383377376
 20
-15.30311414547978
 10
55.60539142490074
 20
-15.37029350744215
 10
55.67636039189689
 20
-15.45848795186455
 10
55.74353975385926
 20
-15.56700845964992
 10
55.74353975385926
 20
-15.56700845964992
 10
55.56766762933725
 20
-15.64245605077689
 10
55.56766762933725
 20
-15.64245605077689
 10
55.56766762933725
 20
-15.64245605077689
 10
56.0703070606352
 20
-15.64245605077689
 10
56.0703070606352
 20
-15.64245605077689
 10
56.0703070606352
 20
-15.64245605077689
 10
56.0703070606352
 20
-15.22766655435281
 10
56.0703070606352
 20
-15.22766655435281
 10
56.0703070606352
 20
-15.22766655435281
 10
55.05245359951814
 20
-15.25281575139513
 10
55.05245359951814
 20
-15.25281575139513
 10
55.05245359951814
 20
-15.25281575139513
 10
54.97700600839116
 20
-15.05196668460506
 10
54.97700600839116
 20
-15.05196668460506
 10
55.93215873167669
 20
-15.03508571672734
 10
56.64839408306013
 20
-14.98478732264269
 10
57.12605657209001
 20
-14.90107150235112
 10
57.12605657209001
 20
-14.90107150235112
 10
57.25180255730164
 20
-15.11466742243661
 10
57.25180255730164
 20
-15.11466742243661
 10
57.26833901563084
 20
-15.15669758735666
 10
57.23922795878048
 20
-15.16496581652126
 10
57.1637803676535
 20
-15.13981661947894
 10
57.1637803676535
 20
-15.13981661947894
 10
56.32179903105844
 20
-15.20251735731048
 10
56.32179903105844
 20
-15.20251735731048
 10
56.32179903105844
 20
-15.20251735731048
 10
56.32179903105844
 20
-15.64245605077689
 10
56.32179903105844
 20
-15.64245605077689
 10
56.32179903105844
 20
-15.64245605077689
 10
56.56054414818625
 20
-15.64245605077689
 10
56.56054414818625
 20
-15.64245605077689
 10
56.56054414818625
 20
-15.64245605077689
 10
56.82443846235639
 20
-15.20251735731048
 10
56.82443846235639
 20
-15.20251735731048
 10
56.82443846235639
 20
-15.20251735731048
 10
57.05060898096305
 20
-15.3282633425221
 10
57.05060898096305
 20
-15.3282633425221
 10
57.09246689110883
 20
-15.37029350744215
 10
57.07989229258767
 20
-15.38717447531987
 10
57.01288518539956
 20
-15.37856173660675
 10
57.01288518539956
 20
-15.37856173660675
 10
56.81186386383523
 20
-15.64245605077689
 10
56.81186386383523
 20
-15.64245605077689
 10
56.81186386383523
 20
-15.64245605077689
 10
57.56599526555642
 20
-15.64245605077689
 10
57.56599526555642
 20
-15.64245605077689
 10
57.56599526555642
 20
-15.64245605077689
 10
57.56599526555642
 20
-15.8812011679047
 10
57.56599526555642
 20
-15.8812011679047
 10
57.56599526555642
 20
-15.8812011679047
 10
56.57311874670742
 20
-15.8812011679047
 10
56.57311874670742
 20
-15.8812011679047
 10
56.57311874670742
 20
-15.8812011679047
 10
56.57311874670742
 20
-15.8812011679047
 10
56.57311874670742
 20
-15.8812011679047
 97
        0
 97
        0
 92
        1
 93
        1
 72
     4
 94
        3
 73
     0
 74
     1
 95
       23
 96
       19
 40
0.0
 40
0.0
 40
0.0
 40
0.0
 40
1.0
 40
1.0
 40
1.0
 40
2.0
 40
2.0
 40
2.0
 40
3.0
 40
3.0
 40
3.0
 40
4.0
 40
4.0
 40
4.0
 40
5.0
 40
5.0
 40
5.0
 40
6.0
 40
6.0
 40
6.0
 40
6.0
 10
57.03803438244189
 20
-16.48443738737195
 10
56.81186386383523
 20
-16.39245333791578
 10
56.57311874670742
 20
-16.22915581191494
 10
56.32179903105844
 20
-15.99454480936942
 10
56.32179903105844
 20
-15.99454480936942
 10
56.32179903105844
 20
-16.4217366495404
 10
56.32179903105844
 20
-16.4217366495404
 10
56.32179903105844
 20
-16.4217366495404
 10
56.0703070606352
 20
-16.4217366495404
 10
56.0703070606352
 20
-16.4217366495404
 10
56.0703070606352
 20
-16.4217366495404
 10
56.0703070606352
 20
-15.99454480936942
 10
56.0703070606352
 20
-15.99454480936942
 10
55.86928573907088
 20
-16.21227484403721
 10
55.65138344962882
 20
-16.37591687958658
 10
55.41677244708331
 20
-16.48443738737195
 10
55.41677244708331
 20
-16.48443738737195
 10
57.03803438244189
 20
-16.48443738737195
 10
57.03803438244189
 20
-16.48443738737195
 97
        0
 97
        0
 92
        1
 93
        4
 72
     1
 10
56.0703070606352
 20
-16.93712293413378
 11
56.0703070606352
 21
-16.68563096371054
 72
     1
 10
56.0703070606352
 20
-16.68563096371054
 11
55.50479463673144
 21
-16.68563096371054
 72
     1
 10
55.50479463673144
 20
-16.68563096371054
 11
55.50479463673144
 21
-16.93712293413378
 72
     1
 10
55.50479463673144
 20
-16.93712293413378
 11
56.0703070606352
 21
-16.93712293413378
 97
        0
 92
        1
 93
        4
 72
     1
 10
56.0703070606352
 20
-17.13797200092384
 11
55.50479463673144
 21
-17.13797200092384
 72
     1
 10
55.50479463673144
 20
-17.13797200092384
 11
55.50479463673144
 21
-17.38946397134708
 72
     1
 10
55.50479463673144
 20
-17.38946397134708
 11
56.0703070606352
 21
-17.38946397134708
 72
     1
 10
56.0703070606352
 20
-17.38946397134708
 11
56.0703070606352
 21
-17.13797200092384
 97
        0
 92
        1
 93
        4
 72
     1
 10
56.93760984904685
 20
-16.93712293413378
 11
56.93760984904685
 21
-16.68563096371054
 72
     1
 10
56.93760984904685
 20
-16.68563096371054
 11
56.32179903105844
 21
-16.68563096371054
 72
     1
 10
56.32179903105844
 20
-16.68563096371054
 11
56.32179903105844
 21
-16.93712293413378
 72
     1
 10
56.32179903105844
 20
-16.93712293413378
 11
56.93760984904685
 21
-16.93712293413378
 97
        0
 92
        1
 93
        4
 72
     1
 10
56.93760984904685
 20
-17.38946397134708
 11
56.93760984904685
 21
-17.13797200092384
 72
     1
 10
56.93760984904685
 20
-17.13797200092384
 11
56.32179903105844
 21
-17.13797200092384
 72
     1
 10
56.32179903105844
 20
-17.13797200092384
 11
56.32179903105844
 21
-17.38946397134708
 72
     1
 10
56.32179903105844
 20
-17.38946397134708
 11
56.93760984904685
 21
-17.38946397134708
 97
        0
 75
     2
 76
     1
 98
        0
  0
ENDBLK
  5
107
330
104
100
AcDbEntity
  8
0
100
AcDbBlockEnd
  0
BLOCK
  5
19D
330
19B
100
AcDbEntity
  8
0
100
AcDbBlockBegin
  2
block 19
 70
     0
 10
0.0
 20
0.0
 30
0.0
  3
block 19
  1

  0
SPLINE
  5
19F
330
19B
100
AcDbEntity
  8
レイヤー 1
 62
     7
370
     9
100
AcDbSpline
210
0.0
220
0.0
230
1.0
 70
     8
 71
     3
 72
    98
 73
    94
 74
     0
 42
0.000000001
 43
0.0000000001
 40
0.0
 40
0.0
 40
0.0
 40
0.0
 40
1.0
 40
1.0
 40
1.0
 40
2.0
 40
2.0
 40
2.0
 40
3.0
 40
3.0
 40
3.0
 40
4.0
 40
4.0
 40
4.0
 40
5.0
 40
5.0
 40
5.0
 40
6.0
 40
6.0
 40
6.0
 40
7.0
 40
7.0
 40
7.0
 40
8.0
 40
8.0
 40
8.0
 40
9.0
 40
9.0
 40
9.0
 40
10.0
 40
10.0
 40
10.0
 40
11.0
 40
11.0
 40
11.0
 40
12.0
 40
12.0
 40
12.0
 40
13.0
 40
13.0
 40
13.0
 40
14.0
 40
14.0
 40
14.0
 40
15.0
 40
15.0
 40
15.0
 40
16.0
 40
16.0
 40
16.0
 40
17.0
 40
17.0
 40
17.0
 40
18.0
 40
18.0
 40
18.0
 40
19.0
 40
19.0
 40
19.0
 40
20.0
 40
20.0
 40
20.0
 40
21.0
 40
21.0
 40
21.0
 40
22.0
 40
22.0
 40
22.0
 40
23.0
 40
23.0
 40
23.0
 40
24.0
 40
24.0
 40
24.0
 40
25.0
 40
25.0
 40
25.0
 40
26.0
 40
26.0
 40
26.0
 40
27.0
 40
27.0
 40
27.0
 40
28.0
 40
28.0
 40
28.0
 40
29.0
 40
29.0
 40
29.0
 40
30.0
 40
30.0
 40
30.0
 40
31.0
 40
31.0
 40
31.0
 40
31.0
 10
182.6310573545159
 20
119.6826171575794
 30
0.0
 10
182.6310573545159
 20
119.6826171575794
 30
0.0
 10
179.8791150808983
 20
122.9638983525056
 30
0.0
 10
178.7959770603357
 20
123.8672023887381
 30
0.0
 10
177.7152506066129
 20
124.7758463229727
 30
0.0
 10
172.2768228735975
 20
129.0291612090622
 30
0.0
 10
168.5785128701818
 20
130.2366671766422
 30
0.0
 10
164.8767577712808
 20
131.4445176537708
 30
0.0
 10
163.0122720946636
 20
131.9476738493915
 30
0.0
 10
163.0122720946636
 20
131.9476738493915
 30
0.0
 10
163.0122720946636
 20
131.9476738493915
 30
0.0
 10
155.6628498959801
 20
133.6612643437548
 30
0.0
 10
151.7619682780317
 20
133.5103691615009
 30
0.0
 10
147.8621201887289
 20
133.3593017244727
 30
0.0
 10
142.8274576465848
 20
133.0072129658801
 30
0.0
 10
138.3708821268656
 20
131.1187838756404
 30
0.0
 10
133.9167181739861
 20
129.230527040175
 30
0.0
 10
132.3075140728259
 20
128.4769124027766
 30
0.0
 10
131.0493652016127
 20
127.8214829867078
 30
0.0
 10
129.7874267253657
 20
127.1670870992846
 30
0.0
 10
125.1196668524006
 20
124.3305677315042
 30
0.0
 10
122.7904377948232
 20
121.4279025304069
 30
0.0
 10
121.0541096702573
 20
119.2640380561215
 30
0.0
 10
121.4816460199768
 20
119.0364894993207
 30
0.0
 10
120.2982557207935
 20
117.651388859476
 30
0.0
 10
120.2982557207935
 20
117.651388859476
 30
0.0
 10
117.2272976052418
 20
113.4721435263195
 30
0.0
 10
115.8933566333531
 20
110.4263346078101
 30
0.0
 10
114.5601046805614
 20
107.3808701988492
 30
0.0
 10
114.079513860369
 20
106.6257052684825
 30
0.0
 10
112.6980305707838
 20
101.895933676783
 30
0.0
 10
112.6980305707838
 20
101.895933676783
 30
0.0
 10
111.6655354538545
 20
98.42362193719966
 30
0.0
 10
111.466408934807
 20
95.42535533638672
 30
0.0
 10
111.2614257534347
 20
92.4288112833164
 30
0.0
 10
111.3117241475193
 20
84.7782877392221
 30
0.0
 10
112.3462863217398
 20
82.36293129451344
 30
0.0
 10
112.5340440256859
 20
81.915757900528
 30
0.0
 10
112.7989718685017
 20
81.96019963228773
 30
0.0
 10
113.1259114300519
 20
82.03461369476913
 30
0.0
 10
113.4528509916021
 20
82.10902775725053
 30
0.0
 10
114.5601046805614
 20
82.36293129451344
 30
0.0
 10
114.5601046805614
 20
82.89003090375667
 30
0.0
 10
114.5601046805614
 20
82.89003090375667
 30
0.0
 10
113.7577419420467
 20
88.37531193537146
 30
0.0
 10
113.7577419420467
 20
90.36692163539439
 30
0.0
 10
113.7577419420467
 20
92.35301918264092
 30
0.0
 10
113.6292398804469
 20
100.5609591762487
 30
0.0
 10
117.0019883605065
 20
107.3302272952161
 30
0.0
 10
117.0019883605065
 20
107.3302272952161
 30
0.0
 10
118.6918076960215
 20
111.2311089131644
 30
0.0
 10
119.1975477132562
 20
111.8326225848891
 30
0.0
 10
119.1975477132562
 20
111.8326225848891
 30
0.0
 10
118.7644992107603
 20
109.3721353893236
 30
0.0
 10
118.8892116673263
 20
107.7856689183661
 30
0.0
 10
118.8892116673263
 20
107.7856689183661
 30
0.0
 10
119.4201008816033
 20
104.4087863237242
 30
0.0
 10
119.7866590412339
 20
103.3866264932506
 30
0.0
 10
119.8307562634451
 20
103.2677706990094
 30
0.0
 10
119.8889783771458
 20
103.0514187025358
 30
0.0
 10
119.8889783771458
 20
103.0514187025358
 30
0.0
 10
119.8889783771458
 20
103.0514187025358
 30
0.0
 10
120.1749213024216
 20
100.2588243021922
 30
0.0
 10
120.3998860376084
 20
99.55395776591013
 30
0.0
 10
120.6279513587319
 20
98.84978024872505
 30
0.0
 10
122.0845377298955
 20
94.11208493740948
 30
0.0
 10
125.6109374685973
 20
91.4235324207205
 30
0.0
 10
128.7824923723183
 20
89.00541989962365
 30
0.0
 10
131.2509032874998
 20
87.97533634953395
 30
0.0
 10
132.9114393113902
 20
87.19364418393076
 30
0.0
 10
132.9114393113902
 20
87.19364418393076
 30
0.0
 10
138.8242566927245
 20
84.22500540429097
 30
0.0
 10
143.0283067133749
 20
83.69825030459627
 30
0.0
 10
147.2340792817679
 20
83.16839461896485
 30
0.0
 10
154.4567219665942
 20
82.58789602970025
 30
0.0
 10
155.8657660200613
 20
82.63853893333342
 30
0.0
 10
157.2772216403682
 20
82.69159340380627
 30
0.0
 10
164.1712022159016
 20
83.19492185420127
 30
0.0
 10
167.2194227012507
 20
84.39932723584462
 30
0.0
 10
170.2655761293086
 20
85.60752222252174
 30
0.0
 10
177.3059732629652
 20
88.59752059417006
 30
0.0
 10
181.1134927932633
 20
93.7648193124963
 30
0.0
 10
184.1324299669877
 20
97.86758352588033
 30
0.0
 10
184.2588649712964
 20
101.6730359988873
 30
0.0
 10
184.2588649712964
 20
101.6730359988873
 30
0.0
 10
184.2588649712964
 20
101.6730359988873
 30
0.0
 10
184.3446478488791
 20
102.6638454604452
 30
0.0
 10
184.3446478488791
 20
102.6638454604452
 30
0.0
 10
184.3446478488791
 20
102.6638454604452
 30
0.0
 10
185.5414740204549
 20
105.1412136238883
 30
0.0
 10
185.6451713945609
 20
107.8097845867628
 30
0.0
 10
185.7457681827302
 20
110.4769775114433
 30
0.0
 10
185.2982502791963
 20
112.4892577843777
 30
0.0
 10
185.2982502791963
 20
112.4892577843777
 30
0.0
  0
SPLINE
  5
1A0
330
19B
100
AcDbEntity
  8
レイヤー 1
 62
     7
370
     9
100
AcDbSpline
210
0.0
220
0.0
230
1.0
 70
     8
 71
     3
 72
    11
 73
     7
 74
     0
 42
0.000000001
 43
0.0000000001
 40
0.0
 40
0.0
 40
0.0
 40
0.0
 40
1.0
 40
1.0
 40
1.0
 40
2.0
 40
2.0
 40
2.0
 40
2.0
 10
182.3716416644766
 20
119.891734453534
 30
0.0
 10
182.3716416644766
 20
119.891734453534
 30
0.0
 10
175.3002386714527
 20
126.7142292977485
 30
0.0
 10
170.9697536464937
 20
128.6291856232247
 30
0.0
 10
170.9697536464937
 20
128.6291856232247
 30
0.0
 10
165.6333007398417
 20
131.1928534285733
 30
0.0
 10
164.9525498719563
 20
131.3969753360744
 30
0.0
  0
SPLINE
  5
1A1
330
19B
100
AcDbEntity
  8
レイヤー 1
 62
     7
370
     9
100
AcDbSpline
210
0.0
220
0.0
230
1.0
 70
     8
 71
     3
 72
    50
 73
    46
 74
     0
 42
0.000000001
 43
0.0000000001
 40
0.0
 40
0.0
 40
0.0
 40
0.0
 40
1.0
 40
1.0
 40
1.0
 40
2.0
 40
2.0
 40
2.0
 40
3.0
 40
3.0
 40
3.0
 40
4.0
 40
4.0
 40
4.0
 40
5.0
 40
5.0
 40
5.0
 40
6.0
 40
6.0
 40
6.0
 40
7.0
 40
7.0
 40
7.0
 40
8.0
 40
8.0
 40
8.0
 40
9.0
 40
9.0
 40
9.0
 40
10.0
 40
10.0
 40
10.0
 40
11.0
 40
11.0
 40
11.0
 40
12.0
 40
12.0
 40
12.0
 40
13.0
 40
13.0
 40
13.0
 40
14.0
 40
14.0
 40
14.0
 40
15.0
 40
15.0
 40
15.0
 40
15.0
 10
120.8952907683873
 20
118.4351480823704
 30
0.0
 10
120.8952907683873
 20
118.4351480823704
 30
0.0
 10
121.2845865582205
 20
118.7688055801168
 30
0.0
 10
121.835457326312
 20
119.5158745360933
 30
0.0
 10
122.7677001646206
 20
120.7735066429837
 30
0.0
 10
125.9144503808478
 20
123.3163316206466
 30
0.0
 10
125.9144503808478
 20
123.3163316206466
 30
0.0
 10
132.1552408523779
 20
128.4769124027766
 30
0.0
 10
142.3744275902745
 20
130.2711181314947
 30
0.0
 10
142.3744275902745
 20
130.2711181314947
 30
0.0
 10
142.3744275902745
 20
130.2711181314947
 30
0.0
 10
145.4953395903623
 20
131.5795653967926
 30
0.0
 10
154.7929632859546
 20
131.0419582463194
 30
0.0
 10
167.5560085301596
 20
130.3055690863472
 30
0.0
 10
176.9752440963812
 20
121.4094712695608
 30
0.0
 10
176.9752440963812
 20
121.4094712695608
 30
0.0
 10
176.9752440963812
 20
121.4094712695608
 30
0.0
 10
183.1302516903285
 20
115.3314615597088
 30
0.0
 10
184.0480251275991
 20
114.2906982136148
 30
0.0
 10
184.5668565076777
 20
113.7026204142827
 30
0.0
 10
186.6845567024608
 20
110.3150580236365
 30
0.0
 10
186.6845567024608
 20
110.3150580236365
 30
0.0
 10
190.8861951562715
 20
104.0222466102792
 30
0.0
 10
191.8001789885083
 20
95.86805010624133
 30
0.0
 10
192.0502929207374
 20
93.89469941229022
 30
0.0
 10
192.3004068529666
 20
91.92410479472731
 30
0.0
 10
192.1946424215694
 20
86.37543400618392
 30
0.0
 10
192.1946424215694
 20
86.37543400618392
 30
0.0
 10
192.2611327644347
 20
85.85074596378037
 30
0.0
 10
193.3942246695334
 20
85.742225455995
 30
0.0
 10
193.7283989316026
 20
85.70811901069104
 30
0.0
 10
194.0618841745748
 20
85.67642413222673
 30
0.0
 10
194.326467507842
 20
85.66884492215918
 30
0.0
 10
194.4618597604123
 20
86.13186575537677
 30
0.0
 10
195.1767170736017
 20
88.65884329380752
 30
0.0
 10
194.2589436363311
 20
96.25700138652603
 30
0.0
 10
193.6829236711973
 20
99.20221351686612
 30
0.0
 10
193.1055256678695
 20
102.1498372140459
 30
0.0
 10
191.6410155770897
 20
105.4633300517592
 30
0.0
 10
191.6410155770897
 20
105.4633300517592
 30
0.0
 10
189.6704209595268
 20
109.9843288570525
 30
0.0
 10
189.1012911853636
 20
110.6726589350055
 30
0.0
 10
187.3928683342282
 20
113.5251979967923
 30
0.0
 10
185.6847899926413
 20
116.3773925490307
 30
0.0
 10
182.1105034266946
 20
120.1354749591154
 30
0.0
 10
182.1105034266946
 20
120.1354749591154
 30
0.0
  0
SPLINE
  5
1A2
330
19B
100
AcDbEntity
  8
レイヤー 1
 62
     7
370
     9
100
AcDbSpline
210
0.0
220
0.0
230
1.0
 70
     8
 71
     3
 72
     8
 73
     4
 74
     0
 42
0.000000001
 43
0.0000000001
 40
0.0
 40
0.0
 40
0.0
 40
0.0
 40
1.0
 40
1.0
 40
1.0
 40
1.0
 10
132.9114393113902
 20
128.7018771379634
 30
0.0
 10
132.9114393113902
 20
128.7018771379634
 30
0.0
 10
129.6565130969261
 20
126.8441093975425
 30
0.0
 10
127.8419813048451
 20
124.7279594957277
 30
0.0
  0
SPLINE
  5
1A3
330
19B
100
AcDbEntity
  8
レイヤー 1
 62
     7
370
     9
100
AcDbSpline
210
0.0
220
0.0
230
1.0
 70
     8
 71
     3
 72
    20
 73
    16
 74
     0
 42
0.000000001
 43
0.0000000001
 40
0.0
 40
0.0
 40
0.0
 40
0.0
 40
1.0
 40
1.0
 40
1.0
 40
2.0
 40
2.0
 40
2.0
 40
3.0
 40
3.0
 40
3.0
 40
4.0
 40
4.0
 40
4.0
 40
5.0
 40
5.0
 40
5.0
 40
5.0
 10
119.1923800700283
 20
111.7609645987959
 30
0.0
 10
119.1923800700283
 20
111.7609645987959
 30
0.0
 10
122.2378444789892
 20
117.8288112769664
 30
0.0
 10
126.7192246862021
 20
120.9753892384194
 30
0.0
 10
126.7192246862021
 20
120.9753892384194
 30
0.0
 10
129.9899983398983
 20
123.9705552532956
 30
0.0
 10
134.4197021148326
 20
125.5041395085545
 30
0.0
 10
138.852161966155
 20
127.0401353306532
 30
0.0
 10
144.2654405021281
 20
128.7602715064384
 30
0.0
 10
149.3476453619687
 20
128.929942459087
 30
0.0
 10
154.6076171488481
 20
129.105814583609
 30
0.0
 10
160.7998317740362
 20
128.929942459087
 30
0.0
 10
166.8411512169703
 20
126.9633097013321
 30
0.0
 10
166.8411512169703
 20
126.9633097013321
 30
0.0
 10
170.1873724617934
 20
126.0336506846374
 30
0.0
 10
172.4290960940455
 20
124.7493190877363
 30
0.0
  0
SPLINE
  5
1A4
330
19B
100
AcDbEntity
  8
レイヤー 1
 62
     7
370
     9
100
AcDbSpline
210
0.0
220
0.0
230
1.0
 70
     8
 71
     3
 72
    11
 73
     7
 74
     0
 42
0.000000001
 43
0.0000000001
 40
0.0
 40
0.0
 40
0.0
 40
0.0
 40
1.0
 40
1.0
 40
1.0
 40
2.0
 40
2.0
 40
2.0
 40
2.0
 10
119.9234293319983
 20
102.9838948310249
 30
0.0
 10
119.9234293319983
 20
102.9838948310249
 30
0.0
 10
121.3982747092338
 20
97.71599932452934
 30
0.0
 10
126.13114688687
 20
94.22577308842273
 30
0.0
 10
130.8598849499239
 20
90.73382430457349
 30
0.0
 10
132.5245550883967
 20
89.92698294192797
 30
0.0
 10
135.0422308690172
 20
89.28895125805971
 30
0.0
  0
SPLINE
  5
1A5
330
19B
100
AcDbEntity
  8
レイヤー 1
 62
     7
370
     9
100
AcDbSpline
210
0.0
220
0.0
230
1.0
 70
     8
 71
     3
 72
    35
 73
    31
 74
     0
 42
0.000000001
 43
0.0000000001
 40
0.0
 40
0.0
 40
0.0
 40
0.0
 40
1.0
 40
1.0
 40
1.0
 40
2.0
 40
2.0
 40
2.0
 40
3.0
 40
3.0
 40
3.0
 40
4.0
 40
4.0
 40
4.0
 40
5.0
 40
5.0
 40
5.0
 40
6.0
 40
6.0
 40
6.0
 40
7.0
 40
7.0
 40
7.0
 40
8.0
 40
8.0
 40
8.0
 40
9.0
 40
9.0
 40
9.0
 40
10.0
 40
10.0
 40
10.0
 40
10.0
 10
122.3728922220109
 20
116.578413870595
 30
0.0
 10
122.3728922220109
 20
116.578413870595
 30
0.0
 10
120.3923068275408
 20
110.5376111919837
 30
0.0
 10
122.1720431552209
 20
106.2415771218771
 30
0.0
 10
123.9490234065128
 20
101.9458875613191
 30
0.0
 10
123.8484266183435
 20
100.9395751700776
 30
0.0
 10
128.8486382056351
 20
96.3076442901592
 30
0.0
 10
128.8486382056351
 20
96.3076442901592
 30
0.0
 10
131.8017740555912
 20
93.48680010683664
 30
0.0
 10
136.6032036333839
 20
91.30398760738234
 30
0.0
 10
141.3994655679487
 20
89.12496471296181
 30
0.0
 10
142.8446831240111
 20
88.75358341965189
 30
0.0
 10
144.3212510489891
 20
88.48900008638469
 30
0.0
 10
145.7991970121613
 20
88.21924910988963
 30
0.0
 10
146.0348415433524
 20
88.21924910988963
 30
0.0
 10
146.0348415433524
 20
88.21924910988963
 30
0.0
 10
146.0348415433524
 20
88.21924910988963
 30
0.0
 10
143.415535445917
 20
88.017366514454
 30
0.0
 10
141.3360758110202
 20
88.18445364548862
 30
0.0
 10
139.251793042444
 20
88.3539523433629
 30
0.0
 10
135.7984293280296
 20
89.024023415244
 30
0.0
 10
135.1256021797603
 20
89.2917073344479
 30
0.0
 10
134.4555311078792
 20
89.5618028204915
 30
0.0
 10
131.5551052188473
 20
90.90297849289927
 30
0.0
 10
127.806496821347
 20
93.95808916921881
 30
0.0
 10
123.2786078250831
 20
97.6477864339214
 30
0.0
 10
123.2128065013149
 20
98.30545516205558
 30
0.0
 10
121.9680935024941
 20
100.2664035122598
 30
0.0
 10
119.8913899439855
 20
103.5533691147367
 30
0.0
 10
118.9167724312083
 20
109.1947129718333
 30
0.0
 10
118.9167724312083
 20
109.1947129718333
 30
0.0
  0
SPLINE
  5
1A6
330
19B
100
AcDbEntity
  8
レイヤー 1
 62
     7
370
     9
100
AcDbSpline
210
0.0
220
0.0
230
1.0
 70
     8
 71
     3
 72
    20
 73
    16
 74
     0
 42
0.000000001
 43
0.0000000001
 40
0.0
 40
0.0
 40
0.0
 40
0.0
 40
1.0
 40
1.0
 40
1.0
 40
2.0
 40
2.0
 40
2.0
 40
3.0
 40
3.0
 40
3.0
 40
4.0
 40
4.0
 40
4.0
 40
5.0
 40
5.0
 40
5.0
 40
5.0
 10
129.3199272680172
 20
122.9189398564231
 30
0.0
 10
129.3199272680172
 20
122.9189398564231
 30
0.0
 10
123.0078233199425
 20
116.5467189921307
 30
0.0
 10
124.0175808066692
 20
110.6726589350055
 30
0.0
 10
125.0242377074592
 20
104.7956705467178
 30
0.0
 10
126.400208844268
 20
102.9180935072566
 30
0.0
 10
128.4142116649451
 20
100.703586129338
 30
0.0
 10
130.4271809569765
 20
98.48976777051645
 30
0.0
 10
134.3204833648574
 20
94.46141761961381
 30
0.0
 10
140.2264105552212
 20
92.51493867044766
 30
0.0
 10
146.1326822551335
 20
90.56811521173297
 30
0.0
 10
151.7392306478291
 20
89.7313015183658
 30
0.0
 10
154.8591091192714
 20
89.83052026834099
 30
0.0
 10
157.9803656289077
 20
89.92973901831618
 30
0.0
 10
159.0886528465126
 20
90.06478676133797
 30
0.0
 10
159.0886528465126
 20
90.06478676133797
 30
0.0
  0
SPLINE
  5
1A7
330
19B
100
AcDbEntity
  8
レイヤー 1
 62
     7
370
     9
100
AcDbSpline
210
0.0
220
0.0
230
1.0
 70
     8
 71
     3
 72
    20
 73
    16
 74
     0
 42
0.000000001
 43
0.0000000001
 40
0.0
 40
0.0
 40
0.0
 40
0.0
 40
1.0
 40
1.0
 40
1.0
 40
2.0
 40
2.0
 40
2.0
 40
3.0
 40
3.0
 40
3.0
 40
4.0
 40
4.0
 40
4.0
 40
5.0
 40
5.0
 40
5.0
 40
5.0
 10
145.6982557144435
 20
88.16343856302859
 30
0.0
 10
145.6982557144435
 20
88.16343856302859
 30
0.0
 10
153.7177489850081
 20
88.451793055144
 30
0.0
 10
157.5104546047196
 20
89.5934976989558
 30
0.0
 10
161.3031602244312
 20
90.73382430457349
 30
0.0
 10
167.4778048626444
 20
92.78193357055451
 30
0.0
 10
170.601817448669
 20
94.6943060744167
 30
0.0
 10
173.7216959201112
 20
96.61012367376414
 30
0.0
 10
179.9624863916413
 20
100.703586129338
 30
0.0
 10
181.3067626499858
 20
104.4301459157328
 30
0.0
 10
182.6493163605877
 20
108.156361192579
 30
0.0
 10
182.6138318770896
 20
112.0472520336201
 30
0.0
 10
181.9768337218669
 20
113.7260470635824
 30
0.0
 10
181.3412136048383
 20
115.4027750362535
 30
0.0
 10
180.2236246294233
 20
118.27874074734
 30
0.0
 10
179.6183213526649
 20
118.7824137072836
 30
0.0
  0
SPLINE
  5
1A8
330
19B
100
AcDbEntity
  8
レイヤー 1
 62
     7
370
     9
100
AcDbSpline
210
0.0
220
0.0
230
1.0
 70
     8
 71
     3
 72
    23
 73
    19
 74
     0
 42
0.000000001
 43
0.0000000001
 40
0.0
 40
0.0
 40
0.0
 40
0.0
 40
1.0
 40
1.0
 40
1.0
 40
2.0
 40
2.0
 40
2.0
 40
3.0
 40
3.0
 40
3.0
 40
4.0
 40
4.0
 40
4.0
 40
5.0
 40
5.0
 40
5.0
 40
6.0
 40
6.0
 40
6.0
 40
6.0
 10
184.4256075927825
 20
113.7815131008949
 30
0.0
 10
184.4256075927825
 20
113.7815131008949
 30
0.0
 10
185.3988470673656
 20
106.8775417484542
 30
0.0
 10
183.6215223065252
 20
103.8579155556327
 30
0.0
 10
181.8445420552333
 20
100.8386338723598
 30
0.0
 10
181.2047878236224
 20
99.12504337799652
 30
0.0
 10
176.1370523648199
 20
95.16559513679888
 30
0.0
 10
173.2262911893323
 20
92.89079858788841
 30
0.0
 10
172.042211871052
 20
92.68409285877343
 30
0.0
 10
170.4984645841115
 20
91.84452308901804
 30
0.0
 10
168.9543727876225
 20
91.00495331926265
 30
0.0
 10
162.9478488090894
 20
88.52103947439753
 30
0.0
 10
160.7653808191837
 20
87.94880911429752
 30
0.0
 10
158.5853243961176
 20
87.37933483058572
 30
0.0
 10
152.9122856605566
 20
85.26576875038495
 30
0.0
 10
146.3683267863246
 20
85.50141328157603
 30
0.0
 10
139.824023402544
 20
85.73464624592745
 30
0.0
 10
134.9747069975063
 20
86.46845158428567
 30
0.0
 10
132.9579481004411
 20
87.20742456587176
 30
0.0
  0
SPLINE
  5
1A9
330
19B
100
AcDbEntity
  8
レイヤー 1
 62
     7
370
     9
100
AcDbSpline
210
0.0
220
0.0
230
1.0
 70
     8
 71
     3
 72
    11
 73
     7
 74
     0
 42
0.000000001
 43
0.0000000001
 40
0.0
 40
0.0
 40
0.0
 40
0.0
 40
1.0
 40
1.0
 40
1.0
 40
2.0
 40
2.0
 40
2.0
 40
2.0
 10
159.321885810864
 20
87.51300453541342
 30
0.0
 10
159.321885810864
 20
87.51300453541342
 30
0.0
 10
168.6842773015789
 20
88.82799748213328
 30
0.0
 10
174.2250243705062
 20
92.27929413925656
 30
0.0
 10
179.8319172727504
 20
95.76952037536319
 30
0.0
 10
183.1857177276411
 20
99.37446829112861
 30
0.0
 10
184.2940049452459
 20
102.5629041627273
 30
0.0
  0
SPLINE
  5
1AA
330
19B
100
AcDbEntity
  8
レイヤー 1
 62
     7
370
     9
100
AcDbSpline
210
0.0
220
0.0
230
1.0
 70
     8
 71
     3
 72
    14
 73
    10
 74
     0
 42
0.000000001
 43
0.0000000001
 40
0.0
 40
0.0
 40
0.0
 40
0.0
 40
1.0
 40
1.0
 40
1.0
 40
2.0
 40
2.0
 40
2.0
 40
3.0
 40
3.0
 40
3.0
 40
3.0
 10
179.2937933579543
 20
95.95245494562995
 30
0.0
 10
179.2937933579543
 20
95.95245494562995
 30
0.0
 10
176.4736381937288
 20
91.84452308901804
 30
0.0
 10
173.3851100912023
 20
89.99588485163298
 30
0.0
 10
170.2958929695788
 20
88.15241425747578
 30
0.0
 10
167.0754177099673
 20
85.50141328157603
 30
0.0
 10
160.1611110710708
 20
84.05826278280489
 30
0.0
 10
153.7391085770166
 20
82.7181206390427
 30
0.0
 10
152.6452907604498
 20
82.94859752700592
 30
0.0
 10
151.200417713936
 20
82.94859752700592
 30
0.0
  0
SPLINE
  5
1AB
330
19B
100
AcDbEntity
  8
レイヤー 1
 62
     7
370
     9
100
AcDbSpline
210
0.0
220
0.0
230
1.0
 70
     8
 71
     3
 72
    11
 73
     7
 74
     0
 42
0.000000001
 43
0.0000000001
 40
0.0
 40
0.0
 40
0.0
 40
0.0
 40
1.0
 40
1.0
 40
1.0
 40
2.0
 40
2.0
 40
2.0
 40
2.0
 10
167.1746364599425
 20
89.25691187004689
 30
0.0
 10
167.1746364599425
 20
89.25691187004689
 30
0.0
 10
160.4618679069332
 20
85.97063528666706
 30
0.0
 10
152.0413655218855
 20
85.50141328157603
 30
0.0
 10
146.9126518729941
 20
85.2127142799121
 30
0.0
 10
145.9986680407573
 20
85.50141328157603
 30
0.0
 10
145.9986680407573
 20
85.50141328157603
 30
0.0
  0
SPLINE
  5
1AC
330
19B
100
AcDbEntity
  8
レイヤー 1
 62
     7
370
     9
100
AcDbSpline
210
0.0
220
0.0
230
1.0
 70
     8
 71
     3
 72
    29
 73
    25
 74
     0
 42
0.000000001
 43
0.0000000001
 40
0.0
 40
0.0
 40
0.0
 40
0.0
 40
1.0
 40
1.0
 40
1.0
 40
2.0
 40
2.0
 40
2.0
 40
3.0
 40
3.0
 40
3.0
 40
4.0
 40
4.0
 40
4.0
 40
5.0
 40
5.0
 40
5.0
 40
6.0
 40
6.0
 40
6.0
 40
7.0
 40
7.0
 40
7.0
 40
8.0
 40
8.0
 40
8.0
 40
8.0
 10
133.6156168285753
 20
125.1358588011813
 30
0.0
 10
133.6156168285753
 20
125.1358588011813
 30
0.0
 10
127.6673149637429
 20
121.084082000979
 30
0.0
 10
127.0702799161491
 20
116.1760267179178
 30
0.0
 10
126.9362657017729
 20
115.0689452837328
 30
0.0
 10
126.2003933061235
 20
112.349042398128
 30
0.0
 10
127.3734483188511
 20
109.4279459361847
 30
0.0
 10
128.5454698029331
 20
106.5116726079207
 30
0.0
 10
130.7289713214844
 20
102.0464843494884
 30
0.0
 10
134.9891763985444
 20
99.15983884239755
 30
0.0
 10
139.251793042444
 20
96.27284882575817
 30
0.0
 10
142.6775959929764
 20
94.09313691224061
 30
0.0
 10
147.0408094250454
 20
93.42065427351984
 30
0.0
 10
151.4029893284687
 20
92.75023869209022
 30
0.0
 10
155.4936957076544
 20
92.31340058456054
 30
0.0
 10
158.9536051034908
 20
93.01826712084267
 30
0.0
 10
162.4100694038419
 20
93.72244463802772
 30
0.0
 10
167.3110622411583
 20
95.13148869149491
 30
0.0
 10
169.6258218976977
 20
96.71003144283638
 30
0.0
 10
171.9405815542371
 20
98.28822968462934
 30
0.0
 10
175.3002386714527
 20
100.669479684034
 30
0.0
 10
177.1778157109139
 20
104.0939045963724
 30
0.0
 10
179.1508218953165
 20
107.6833495824542
 30
0.0
 10
179.2090440090172
 20
108.956312364254
 30
0.0
 10
179.1401420993122
 20
111.5067165519844
 30
0.0
  0
SPLINE
  5
1AD
330
19B
100
AcDbEntity
  8
レイヤー 1
 62
     7
370
     9
100
AcDbSpline
210
0.0
220
0.0
230
1.0
 70
     8
 71
     3
 72
    17
 73
    13
 74
     0
 42
0.000000001
 43
0.0000000001
 40
0.0
 40
0.0
 40
0.0
 40
0.0
 40
1.0
 40
1.0
 40
1.0
 40
2.0
 40
2.0
 40
2.0
 40
3.0
 40
3.0
 40
3.0
 40
4.0
 40
4.0
 40
4.0
 40
4.0
 10
172.4290960940455
 20
124.7493190877363
 30
0.0
 10
172.4290960940455
 20
124.7493190877363
 30
0.0
 10
177.0427679678921
 20
121.1738267383697
 30
0.0
 10
178.2850693998732
 20
119.5978678086422
 30
0.0
 10
179.5266818127572
 20
118.0220811336889
 30
0.0
 10
182.6138318770896
 20
113.2230631227359
 30
0.0
 10
181.2047878236224
 20
107.8177083063789
 30
0.0
 10
180.8020561613967
 20
106.2732720003414
 30
0.0
 10
179.4395208969804
 20
103.1985242797559
 30
0.0
 10
178.6557616740861
 20
101.9458875613191
 30
0.0
 10
177.7476345041742
 20
100.5027370625479
 30
0.0
 10
176.0030381504437
 20
98.40191783564258
 30
0.0
 10
176.0030381504437
 20
98.40191783564258
 30
0.0
  0
SPLINE
  5
1AE
330
19B
100
AcDbEntity
  8
レイヤー 1
 62
     7
370
     9
100
AcDbSpline
210
0.0
220
0.0
230
1.0
 70
     8
 71
     3
 72
    17
 73
    13
 74
     0
 42
0.000000001
 43
0.0000000001
 40
0.0
 40
0.0
 40
0.0
 40
0.0
 40
1.0
 40
1.0
 40
1.0
 40
2.0
 40
2.0
 40
2.0
 40
3.0
 40
3.0
 40
3.0
 40
4.0
 40
4.0
 40
4.0
 40
4.0
 10
170.1804822708229
 20
125.7528754025896
 30
0.0
 10
170.1804822708229
 20
125.7528754025896
 30
0.0
 10
175.4246066184702
 20
122.6731322935505
 30
0.0
 10
177.379353796801
 20
119.4974432752472
 30
0.0
 10
177.379353796801
 20
119.4974432752472
 30
0.0
 10
179.3258327459671
 20
116.5467189921307
 30
0.0
 10
179.2596869126504
 20
114.0626328924913
 30
0.0
 10
179.193196569785
 20
111.5783745380776
 30
0.0
 10
179.2596869126504
 20
108.2200954590561
 30
0.0
 10
175.3002386714527
 20
102.4833224570181
 30
0.0
 10
175.3002386714527
 20
102.4833224570181
 30
0.0
 10
172.7150390193212
 20
99.02203502298755
 30
0.0
 10
171.5378498920114
 20
98.08186846506287
 30
0.0
  0
SPLINE
  5
1AF
330
19B
100
AcDbEntity
  8
レイヤー 1
 62
     7
370
     9
100
AcDbSpline
210
0.0
220
0.0
230
1.0
 70
     8
 71
     3
 72
    14
 73
    10
 74
     0
 42
0.000000001
 43
0.0000000001
 40
0.0
 40
0.0
 40
0.0
 40
0.0
 40
1.0
 40
1.0
 40
1.0
 40
2.0
 40
2.0
 40
2.0
 40
3.0
 40
3.0
 40
3.0
 40
3.0
 10
150.8335150447569
 20
123.6923637928616
 30
0.0
 10
150.8335150447569
 20
123.6923637928616
 30
0.0
 10
160.7481553417574
 20
123.0887830638459
 30
0.0
 10
165.3800862216758
 20
120.2681111352976
 30
0.0
 10
170.0123616111428
 20
117.4498507735889
 30
0.0
 10
172.2265244795128
 20
115.7393608651624
 30
0.0
 10
173.132240082585
 20
114.3778591293917
 30
0.0
 10
174.0393337238513
 20
113.0191134700091
 30
0.0
 10
176.1697807719298
 20
109.997075710348
 30
0.0
 10
176.2214572042085
 20
109.342852077699
 30
0.0
  0
SPLINE
  5
1B0
330
19B
100
AcDbEntity
  8
レイヤー 1
 62
     7
370
     9
100
AcDbSpline
210
0.0
220
0.0
230
1.0
 70
     8
 71
     3
 72
    14
 73
    10
 74
     0
 42
0.000000001
 43
0.0000000001
 40
0.0
 40
0.0
 40
0.0
 40
0.0
 40
1.0
 40
1.0
 40
1.0
 40
2.0
 40
2.0
 40
2.0
 40
3.0
 40
3.0
 40
3.0
 40
3.0
 10
159.2553954679987
 20
124.6988484388774
 30
0.0
 10
159.2553954679987
 20
124.6988484388774
 30
0.0
 10
165.7828178839015
 20
123.1892075972409
 30
0.0
 10
168.8537759994532
 20
121.0746079883945
 30
0.0
 10
171.926112153199
 20
118.9594916152254
 30
0.0
 10
174.7965657115092
 20
116.5467189921307
 30
0.0
 10
175.7026258241299
 20
115.1354356265981
 30
0.0
 10
176.6086859367506
 20
113.7260470635824
 30
0.0
 10
176.7754285582367
 20
113.4466498197286
 30
0.0
 10
176.7754285582367
 20
113.4466498197286
 30
0.0
  0
SPLINE
  5
1B1
330
19B
100
AcDbEntity
  8
レイヤー 1
 62
     7
370
     9
100
AcDbSpline
210
0.0
220
0.0
230
1.0
 70
     8
 71
     3
 72
    11
 73
     7
 74
     0
 42
0.000000001
 43
0.0000000001
 40
0.0
 40
0.0
 40
0.0
 40
0.0
 40
1.0
 40
1.0
 40
1.0
 40
2.0
 40
2.0
 40
2.0
 40
2.0
 10
134.7228705175346
 20
125.6045640419496
 30
0.0
 10
134.7228705175346
 20
125.6045640419496
 30
0.0
 10
128.6233289608997
 20
121.2318765972962
 30
0.0
 10
128.0776258360362
 20
115.2356879052189
 30
0.0
 10
128.0776258360362
 20
115.2356879052189
 30
0.0
 10
127.0196370125159
 20
110.6540554193851
 30
0.0
 10
128.6815510746005
 20
106.7769449602849
 30
0.0
  0
SPLINE
  5
1B2
330
19B
100
AcDbEntity
  8
レイヤー 1
 62
     7
370
     9
100
AcDbSpline
210
0.0
220
0.0
230
1.0
 70
     8
 71
     3
 72
    47
 73
    43
 74
     0
 42
0.000000001
 43
0.0000000001
 40
0.0
 40
0.0
 40
0.0
 40
0.0
 40
1.0
 40
1.0
 40
1.0
 40
2.0
 40
2.0
 40
2.0
 40
3.0
 40
3.0
 40
3.0
 40
4.0
 40
4.0
 40
4.0
 40
5.0
 40
5.0
 40
5.0
 40
6.0
 40
6.0
 40
6.0
 40
7.0
 40
7.0
 40
7.0
 40
8.0
 40
8.0
 40
8.0
 40
9.0
 40
9.0
 40
9.0
 40
10.0
 40
10.0
 40
10.0
 40
11.0
 40
11.0
 40
11.0
 40
12.0
 40
12.0
 40
12.0
 40
13.0
 40
13.0
 40
13.0
 40
14.0
 40
14.0
 40
14.0
 40
14.0
 10
141.8194227076007
 20
127.768428516235
 30
0.0
 10
141.8194227076007
 20
127.768428516235
 30
0.0
 10
132.8611409173056
 20
123.038312414987
 30
0.0
 10
130.8957139429705
 20
116.692618785931
 30
0.0
 10
130.8957139429705
 20
116.692618785931
 30
0.0
 10
128.9175401153401
 20
109.5681613224343
 30
0.0
 10
131.8017740555912
 20
105.3200140795728
 30
0.0
 10
133.6156168285753
 20
102.6500650785042
 30
0.0
 10
136.1811794364408
 20
98.67235783123469
 30
0.0
 10
141.2661403726696
 20
96.61012367376414
 30
0.0
 10
146.3511013088983
 20
94.54616696855096
 30
0.0
 10
149.3714165208169
 20
93.64045136547878
 30
0.0
 10
154.054334813917
 20
93.43650171275199
 30
0.0
 10
158.7369085974686
 20
93.2353081364134
 30
0.0
 10
160.0450113532179
 20
93.33556041503417
 30
0.0
 10
160.0450113532179
 20
93.33556041503417
 30
0.0
 10
160.3468017177258
 20
93.48680010683664
 30
0.0
 10
161.2008408885193
 20
93.68764917362671
 30
0.0
 10
163.4680582273621
 20
94.89791121759497
 30
0.0
 10
165.733897528011
 20
96.1061062042721
 30
0.0
 10
169.2058647580458
 20
99.32658146388364
 30
0.0
 10
171.070350434663
 20
101.1910671405008
 30
0.0
 10
175.221690494389
 20
105.343785238421
 30
0.0
 10
175.7174397347165
 20
107.8121961536025
 30
0.0
 10
176.0030381504437
 20
108.5539252115768
 30
0.0
 10
176.3303222215424
 20
109.4038302677879
 30
0.0
 10
176.9087537535159
 20
112.314935952824
 30
0.0
 10
176.7564805330678
 20
114.7327039643724
 30
0.0
 10
176.6086859367506
 20
117.148060409081
 30
0.0
 10
174.6935573565002
 20
119.5158745360933
 30
0.0
 10
172.7801513239925
 20
121.1233560895108
 30
0.0
 10
170.8681233296788
 20
122.7363497957048
 30
0.0
 10
167.244571898293
 20
123.5414686106077
 30
0.0
 10
162.714615844738
 20
124.4473564684541
 30
0.0
 10
158.1829372434404
 20
125.3556558931403
 30
0.0
 10
150.6309434302242
 20
123.642065398777
 30
0.0
 10
150.6309434302242
 20
123.642065398777
 30
0.0
 10
150.6309434302242
 20
123.642065398777
 30
0.0
 10
142.8419270476228
 20
122.3336181334791
 30
0.0
 10
137.2918782208854
 20
118.4062092802943
 30
0.0
 10
132.3075140728259
 20
114.8811875797867
 30
0.0
 10
130.5966796548508
 20
110.955845783893
 30
0.0
 10
130.2907551757606
 20
109.8964789221787
 30
0.0
  0
SPLINE
  5
1B3
330
19B
100
AcDbEntity
  8
レイヤー 1
 62
     7
370
     9
100
AcDbSpline
210
0.0
220
0.0
230
1.0
 70
     8
 71
     3
 72
    20
 73
    16
 74
     0
 42
0.000000001
 43
0.0000000001
 40
0.0
 40
0.0
 40
0.0
 40
0.0
 40
1.0
 40
1.0
 40
1.0
 40
2.0
 40
2.0
 40
2.0
 40
3.0
 40
3.0
 40
3.0
 40
4.0
 40
4.0
 40
4.0
 40
5.0
 40
5.0
 40
5.0
 40
5.0
 10
130.5966796548508
 20
115.2492960323856
 30
0.0
 10
130.5966796548508
 20
115.2492960323856
 30
0.0
 10
132.5576280050551
 20
118.25772566488
 30
0.0
 10
136.6869194536755
 20
120.6243340084724
 30
0.0
 10
140.8131103163592
 20
122.9852579445141
 30
0.0
 10
146.8544297592933
 20
125.5041395085545
 30
0.0
 10
150.179291412108
 20
126.0098795257892
 30
0.0
 10
153.5003634598888
 20
126.510451899796
 30
0.0
 10
158.8361273474437
 20
126.8652967347767
 30
0.0
 10
161.3031602244312
 20
126.7142292977485
 30
0.0
 10
163.7715711396127
 20
126.5607502938806
 30
0.0
 10
168.3731851792609
 20
125.7649332367879
 30
0.0
 10
170.7158501092308
 20
124.8524996975195
 30
0.0
 10
172.8821261503559
 20
124.007590029762
 30
0.0
 10
172.8462971573093
 20
123.9598754572913
 30
0.0
 10
172.8462971573093
 20
123.9598754572913
 30
0.0
  0
SPLINE
  5
1B4
330
19B
100
AcDbEntity
  8
レイヤー 1
 62
     7
370
     9
100
AcDbSpline
210
0.0
220
0.0
230
1.0
 70
     8
 71
     3
 72
    14
 73
    10
 74
     0
 42
0.000000001
 43
0.0000000001
 40
0.0
 40
0.0
 40
0.0
 40
0.0
 40
1.0
 40
1.0
 40
1.0
 40
2.0
 40
2.0
 40
2.0
 40
3.0
 40
3.0
 40
3.0
 40
3.0
 10
138.8015190625219
 20
125.9092827376199
 30
0.0
 10
138.8015190625219
 20
125.9092827376199
 30
0.0
 10
142.0219943221334
 20
126.8652967347767
 30
0.0
 10
145.7485541085281
 20
127.5153862528434
 30
0.0
 10
149.4751138949229
 20
128.1735717453004
 30
0.0
 10
152.0916639159701
 20
128.2743407882439
 30
0.0
 10
154.7068358988233
 20
128.0200927414325
 30
0.0
 10
157.3278645440014
 20
127.7711845926232
 30
0.0
 10
161.2008408885193
 20
126.9633097013321
 30
0.0
 10
161.8588541262019
 20
126.7092339092949
 30
0.0
  0
SPLINE
  5
1B5
330
19B
100
AcDbEntity
  8
レイヤー 1
 62
     7
370
     9
100
AcDbSpline
210
0.0
220
0.0
230
1.0
 70
     8
 71
     3
 72
    11
 73
     7
 74
     0
 42
0.000000001
 43
0.0000000001
 40
0.0
 40
0.0
 40
0.0
 40
0.0
 40
1.0
 40
1.0
 40
1.0
 40
2.0
 40
2.0
 40
2.0
 40
2.0
 10
132.2386121631209
 20
119.5291381537115
 30
0.0
 10
132.2386121631209
 20
119.5291381537115
 30
0.0
 10
137.0400417409136
 20
123.1892075972409
 30
0.0
 10
141.1162787190612
 20
124.3465874255106
 30
0.0
 10
145.1949272640485
 20
125.5041395085545
 30
0.0
 10
148.2831108570265
 20
125.6045640419496
 30
0.0
 10
148.2831108570265
 20
125.6045640419496
 30
0.0
  0
SPLINE
  5
1B6
330
19B
100
AcDbEntity
  8
レイヤー 1
 62
     7
370
     9
100
AcDbSpline
210
0.0
220
0.0
230
1.0
 70
     8
 71
     3
 72
    11
 73
     7
 74
     0
 42
0.000000001
 43
0.0000000001
 40
0.0
 40
0.0
 40
0.0
 40
0.0
 40
1.0
 40
1.0
 40
1.0
 40
2.0
 40
2.0
 40
2.0
 40
2.0
 10
130.2604383354904
 20
120.8718641190876
 30
0.0
 10
130.2604383354904
 20
120.8718641190876
 30
0.0
 10
129.4897704754401
 20
120.5724853214194
 30
0.0
 10
128.2791639219233
 20
118.8115247641339
 30
0.0
 10
127.0702799161491
 20
117.0474636209118
 30
0.0
 10
127.4078992737036
 20
117.4284911815804
 30
0.0
 10
127.1560627937318
 20
116.7272419955578
 30
0.0
  0
SPLINE
  5
1B7
330
19B
100
AcDbEntity
  8
レイヤー 1
 62
     7
370
     9
100
AcDbSpline
210
0.0
220
0.0
230
1.0
 70
     8
 71
     3
 72
     8
 73
     4
 74
     0
 42
0.000000001
 43
0.0000000001
 40
0.0
 40
0.0
 40
0.0
 40
0.0
 40
1.0
 40
1.0
 40
1.0
 40
1.0
 10
129.1349256404593
 20
120.7735066429837
 30
0.0
 10
129.1349256404593
 20
120.7735066429837
 30
0.0
 10
130.0936957140044
 20
121.4757893576519
 30
0.0
 10
130.7978732311894
 20
121.674054602828
 30
0.0
  0
SPLINE
  5
1B8
330
19B
100
AcDbEntity
  8
レイヤー 1
 62
     7
370
     9
100
AcDbSpline
210
0.0
220
0.0
230
1.0
 70
     8
 71
     3
 72
     8
 73
     4
 74
     0
 42
0.000000001
 43
0.0000000001
 40
0.0
 40
0.0
 40
0.0
 40
0.0
 40
1.0
 40
1.0
 40
1.0
 40
1.0
 10
128.1441161789015
 20
115.8714802770217
 30
0.0
 10
128.1441161789015
 20
115.8714802770217
 30
0.0
 10
126.6837402027041
 20
113.0191134700091
 30
0.0
 10
126.8863118172368
 20
111.1546277933919
 30
0.0
  0
SPLINE
  5
1B9
330
19B
100
AcDbEntity
  8
レイヤー 1
 62
     7
370
     9
100
AcDbSpline
210
0.0
220
0.0
230
1.0
 70
     8
 71
     3
 72
    17
 73
    13
 74
     0
 42
0.000000001
 43
0.0000000001
 40
0.0
 40
0.0
 40
0.0
 40
0.0
 40
1.0
 40
1.0
 40
1.0
 40
2.0
 40
2.0
 40
2.0
 40
3.0
 40
3.0
 40
3.0
 40
4.0
 40
4.0
 40
4.0
 40
4.0
 10
112.6876952843281
 20
81.9777696192625
 30
0.0
 10
112.5819308529309
 20
82.03736977115733
 30
0.0
 10
112.4927028798629
 20
82.12177461054596
 30
0.0
 10
112.4399929189386
 20
82.23063962787984
 30
0.0
 10
112.2477565908617
 20
82.62510306094094
 30
0.0
 10
112.5591932227283
 20
83.17631833858093
 30
0.0
 10
113.1403808310899
 20
83.46226126385666
 30
0.0
 10
113.720534910806
 20
83.7482041891324
 30
0.0
 10
114.3509873846067
 20
83.66104327335557
 30
0.0
 10
114.5442572413292
 20
83.26382376390627
 30
0.0
 10
114.6396863862706
 20
83.06779783079556
 30
0.0
 10
114.6131591510342
 20
82.82905271366774
 30
0.0
 10
114.4846570894344
 20
82.60443248802945
 30
0.0
  0
SPLINE
  5
1BA
330
19B
100
AcDbEntity
  8
レイヤー 1
 62
     7
370
     9
100
AcDbSpline
210
0.0
220
0.0
230
1.0
 70
     8
 71
     3
 72
    11
 73
     7
 74
     0
 42
0.000000001
 43
0.0000000001
 40
0.0
 40
0.0
 40
0.0
 40
0.0
 40
1.0
 40
1.0
 40
1.0
 40
2.0
 40
2.0
 40
2.0
 40
2.0
 10
194.3984700034837
 20
86.05262855921602
 30
0.0
 10
194.4842528810665
 20
86.45467120234467
 30
0.0
 10
194.1149386450477
 20
86.92630477427537
 30
0.0
 10
193.5320284889434
 20
87.1250867837743
 30
0.0
 10
192.9205240403115
 20
87.33420407972895
 30
0.0
 10
192.3665526862834
 20
87.19674476986748
 30
0.0
 10
192.2225476949999
 20
86.78057723524931
 30
0.0
  0
ENDBLK
  5
19E
330
19B
100
AcDbEntity
  8
0
100
AcDbBlockEnd
  0
ENDSEC
  0
SECTION
  2
ENTITIES
  0
INSERT
  5
19C
330
1F
100
AcDbEntity
  8
レイヤー 1
100
AcDbBlockReference
  2
block 19
 10
0.0
 20
0.0
 30
0.0
  0
MTEXT
  5
205
330
1F
100
AcDbEntity
  8
0
 62
     7
100
AcDbMText
 10
180.2034400296836
 20
70.24825824741924
 30
0.0
 40
2.910416666666666
 41
0.0
 46
2.910416666666666
 71
     1
 72
     1
  1
{\C256;HEC-035K}
  7
________
 73
     1
 44
1.0
  0
ENDSEC
  0
SECTION
  2
OBJECTS
  0
DICTIONARY
  5
C
330
0
100
AcDbDictionary
281
     1
  3
ACAD_DETAILVIEWSTYLE
350
1F5
  3
ACAD_GROUP
350
D
  3
ACAD_LAYOUT
350
1A
  3
ACAD_MATERIAL
350
1DE
  3
ACAD_MLEADERSTYLE
350
1ED
  3
ACAD_MLINESTYLE
350
17
  3
ACAD_PLOTSETTINGS
350
19
  3
ACAD_PLOTSTYLENAME
350
E
  3
ACAD_SCALELIST
350
1BC
  3
ACAD_SECTIONVIEWSTYLE
350
1F6
  3
ACAD_TABLESTYLE
350
1BB
  3
ACAD_VISUALSTYLE
350
2A
  3
ACDB_RECOMPOSE_DATA
350
20D
  3
AcDbVariableDictionary
350
1F0
  3
APPDATA
350
1EF
  0
SUN
  5
209
330
29
100
AcDbSun
 90
        1
290
     0
 63
     7
421
 16777215
 40
1.0
291
     1
 91
  2455826
 92
 54000000
292
     0
 70
     2
 71
   256
280
     1
  0
DICTIONARY
  5
206
330
2
100
AcDbDictionary
280
     1
281
     1
  3
ACAD_LAYERSTATES
360
207
  0
DICTIONARY
  5
1F5
102
{ACAD_REACTORS
330
C
102
}
330
C
100
AcDbDictionary
281
     1
  0
DICTIONARY
  5
D
102
{ACAD_REACTORS
330
C
102
}
330
C
100
AcDbDictionary
281
     1
  0
DICTIONARY
  5
1A
102
{ACAD_REACTORS
330
C
102
}
330
C
100
AcDbDictionary
281
     1
  3
Layout1
350
1E
  3
Layout2
350
26
  3
Model
350
22
  0
DICTIONARY
  5
1DE
102
{ACAD_REACTORS
330
C
102
}
330
C
100
AcDbDictionary
281
     1
  3
ByBlock
350
1E0
  3
ByLayer
350
1DF
  3
Global
350
1E1
  0
DICTIONARY
  5
1ED
102
{ACAD_REACTORS
330
C
102
}
330
C
100
AcDbDictionary
281
     1
  3
Standard
350
1EE
  0
DICTIONARY
  5
17
102
{ACAD_REACTORS
330
C
102
}
330
C
100
AcDbDictionary
281
     1
  3
Standard
350
18
  0
DICTIONARY
  5
19
102
{ACAD_REACTORS
330
C
102
}
330
C
100
AcDbDictionary
281
     1
  0
ACDBDICTIONARYWDFLT
  5
E
102
{ACAD_REACTORS
330
C
102
}
330
C
100
AcDbDictionary
281
     1
  3
Normal
350
F
100
AcDbDictionaryWithDefault
340
F
  0
DICTIONARY
  5
1BC
102
{ACAD_REACTORS
330
C
102
}
330
C
100
AcDbDictionary
281
     1
  3
A0
350
1BD
  3
A1
350
1BE
  3
A2
350
1BF
  3
A3
350
1C0
  3
A4
350
1C1
  3
A5
350
1C2
  3
A6
350
1C3
  3
A7
350
1C4
  3
A8
350
1C5
  3
A9
350
1C6
  3
B0
350
1C7
  3
B1
350
1C8
  3
B2
350
1C9
  3
B3
350
1CA
  3
B4
350
1CB
  3
B5
350
1CC
  3
B6
350
1CD
  3
B7
350
1CE
  3
B8
350
1CF
  3
B9
350
1D0
  3
C0
350
1D1
  3
C1
350
1D2
  3
C2
350
1D3
  3
C3
350
1D4
  3
C4
350
1D5
  3
C5
350
1D6
  3
C6
350
1D7
  3
C7
350
1D8
  3
C8
350
1D9
  3
C9
350
1DA
  3
D0
350
1DB
  3
D1
350
1DC
  3
D2
350
1DD
  0
DICTIONARY
  5
1F6
102
{ACAD_REACTORS
330
C
102
}
330
C
100
AcDbDictionary
281
     1
  0
DICTIONARY
  5
1BB
102
{ACAD_REACTORS
330
C
102
}
330
C
100
AcDbDictionary
281
     1
  3
Standard
350
1EC
  0
DICTIONARY
  5
2A
102
{ACAD_REACTORS
330
C
102
}
330
C
100
AcDbDictionary
281
     1
  3
2dWireframe
350
2F
  3
3D Hidden
350
31
  3
3dWireframe
350
30
  3
Basic
350
32
  3
Brighten
350
36
  3
ColorChange
350
3A
  3
Conceptual
350
34
  3
Dim
350
35
  3
EdgeColorOff
350
1E6
  3
Facepattern
350
39
  3
Flat
350
2B
  3
FlatWithEdges
350
2C
  3
Gouraud
350
2D
  3
GouraudWithEdges
350
2E
  3
Hidden
350
1E3
  3
JitterOff
350
1E4
  3
Linepattern
350
38
  3
OverhangOff
350
1E5
  3
Realistic
350
33
  3
Shaded
350
1EB
  3
Shaded with edges
350
1EA
  3
Shades of Gray
350
1E7
  3
Sketchy
350
1E8
  3
Thicken
350
37
  3
Wireframe
350
1E2
  3
X-Ray
350
1E9
  0
XRECORD
  5
20D
102
{ACAD_REACTORS
330
C
102
}
330
C
100
AcDbXrecord
280
     1
 90
        1
330
1EC
  0
DICTIONARY
  5
1F0
102
{ACAD_REACTORS
330
C
102
}
330
C
100
AcDbDictionary
281
     1
  3
CANNOSCALE
350
1F1
  3
CMLEADERSTYLE
350
1F3
  3
CTABLESTYLE
350
1F2
  3
MSLTSCALE
350
1F4
  0
DICTIONARY
  5
1EF
102
{ACAD_REACTORS
330
C
102
}
330
C
100
AcDbDictionary
281
     1
  0
DICTIONARY
  5
207
102
{ACAD_REACTORS
330
206
102
}
330
206
100
AcDbDictionary
281
     1
  0
LAYOUT
  5
1E
102
{ACAD_REACTORS
330
1A
102
}
330
1A
100
AcDbPlotSettings
  1

  2
none_device
  4

  6

 40
0.0
 41
0.0
 42
0.0
 43
0.0
 44
0.0
 45
0.0
 46
0.0
 47
0.0
 48
0.0
 49
0.0
140
0.0
141
0.0
142
1.0
143
1.0
 70
   688
 72
     0
 73
     0
 74
     5
  7

 75
    16
 76
     0
 77
     2
 78
   300
147
1.0
148
0.0
149
0.0
100
AcDbLayout
  1
Layout1
 70
     1
 71
     1
 10
0.0
 20
0.0
 11
12.0
 21
9.0
 12
0.0
 22
0.0
 32
0.0
 14
1.000000000000000E+20
 24
1.000000000000000E+20
 34
1.000000000000000E+20
 15
-1.000000000000000E+20
 25
-1.000000000000000E+20
 35
-1.000000000000000E+20
146
0.0
 13
0.0
 23
0.0
 33
0.0
 16
1.0
 26
0.0
 36
0.0
 17
0.0
 27
1.0
 37
0.0
 76
     0
330
1B
  0
LAYOUT
  5
26
102
{ACAD_REACTORS
330
1A
102
}
330
1A
100
AcDbPlotSettings
  1

  2
none_device
  4

  6

 40
0.0
 41
0.0
 42
0.0
 43
0.0
 44
0.0
 45
0.0
 46
0.0
 47
0.0
 48
0.0
 49
0.0
140
0.0
141
0.0
142
1.0
143
1.0
 70
   688
 72
     0
 73
     0
 74
     5
  7

 75
    16
 76
     0
 77
     2
 78
   300
147
1.0
148
0.0
149
0.0
100
AcDbLayout
  1
Layout2
 70
     1
 71
     2
 10
0.0
 20
0.0
 11
0.0
 21
0.0
 12
0.0
 22
0.0
 32
0.0
 14
0.0
 24
0.0
 34
0.0
 15
0.0
 25
0.0
 35
0.0
146
0.0
 13
0.0
 23
0.0
 33
0.0
 16
1.0
 26
0.0
 36
0.0
 17
0.0
 27
1.0
 37
0.0
 76
     0
330
23
  0
LAYOUT
  5
22
102
{ACAD_REACTORS
330
1A
102
}
330
1A
100
AcDbPlotSettings
  1

  2
none_device
  4

  6

 40
0.0
 41
0.0
 42
0.0
 43
0.0
 44
0.0
 45
0.0
 46
0.0
 47
0.0
 48
0.0
 49
0.0
140
0.0
141
0.0
142
1.0
143
1.0
 70
  1712
 72
     0
 73
     0
 74
     0
  7

 75
     0
 76
     0
 77
     2
 78
   300
147
1.0
148
0.0
149
0.0
100
AcDbLayout
  1
Model
 70
     1
 71
     0
 10
0.0
 20
0.0
 11
12.0
 21
9.0
 12
0.0
 22
0.0
 32
0.0
 14
111.3702920402071
 24
67.33875142715331
 34
0.0
 15
198.7584835876845
 25
133.5195192592108
 35
0.0
146
0.0
 13
0.0
 23
0.0
 33
0.0
 16
1.0
 26
0.0
 36
0.0
 17
0.0
 27
1.0
 37
0.0
 76
     0
330
1F
331
29
  0
MATERIAL
  5
1E0
102
{ACAD_REACTORS
330
1DE
102
}
330
1DE
100
AcDbMaterial
  1
ByBlock
 72
     1
 94
      127
  0
MATERIAL
  5
1DF
102
{ACAD_REACTORS
330
1DE
102
}
330
1DE
100
AcDbMaterial
  1
ByLayer
 72
     1
 94
      127
  0
MATERIAL
  5
1E1
102
{ACAD_REACTORS
330
1DE
102
}
330
1DE
100
AcDbMaterial
  1
Global
 72
     1
 94
      127
  0
MLEADERSTYLE
  5
1EE
102
{ACAD_REACTORS
330
1ED
102
}
330
1ED
100
AcDbMLeaderStyle
179
     2
170
     2
171
     1
172
     0
 90
        2
 40
0.0
 41
0.0
173
     1
 91
-1056964608
340
14
 92
       -2
290
     1
 42
0.09
291
     1
 43
0.36
  3
Standard
341
0
 44
0.18
300

342
11
174
     1
178
     1
175
     1
176
     0
 93
-1056964608
 45
0.18
292
     0
297
     0
 46
0.18
343
0
 94
-1056964608
 47
1.0
 49
1.0
140
1.0
293
     1
141
0.0
294
     1
177
     0
142
1.0
295
     0
296
     0
143
0.125
271
     0
272
     9
273
     9
298
     0
  0
MLINESTYLE
  5
18
102
{ACAD_REACTORS
330
17
102
}
330
17
100
AcDbMlineStyle
  2
Standard
 70
     0
  3

 62
   256
 51
90.0
 52
90.0
 71
     2
 49
0.5
 62
   256
  6
BYLAYER
 49
-0.5
 62
   256
  6
BYLAYER
  0
ACDBPLACEHOLDER
  5
F
102
{ACAD_REACTORS
330
E
102
}
330
E
  0
SCALE
  5
1BD
102
{ACAD_REACTORS
330
1BC
102
}
330
1BC
100
AcDbScale
 70
     0
300
1:1
140
1.0
141
1.0
290
     1
  0
SCALE
  5
1BE
102
{ACAD_REACTORS
330
1BC
102
}
330
1BC
100
AcDbScale
 70
     0
300
1:2
140
1.0
141
2.0
290
     0
  0
SCALE
  5
1BF
102
{ACAD_REACTORS
330
1BC
102
}
330
1BC
100
AcDbScale
 70
     0
300
1:4
140
1.0
141
4.0
290
     0
  0
SCALE
  5
1C0
102
{ACAD_REACTORS
330
1BC
102
}
330
1BC
100
AcDbScale
 70
     0
300
1:5
140
1.0
141
5.0
290
     0
  0
SCALE
  5
1C1
102
{ACAD_REACTORS
330
1BC
102
}
330
1BC
100
AcDbScale
 70
     0
300
1:8
140
1.0
141
8.0
290
     0
  0
SCALE
  5
1C2
102
{ACAD_REACTORS
330
1BC
102
}
330
1BC
100
AcDbScale
 70
     0
300
1:10
140
1.0
141
10.0
290
     0
  0
SCALE
  5
1C3
102
{ACAD_REACTORS
330
1BC
102
}
330
1BC
100
AcDbScale
 70
     0
300
1:16
140
1.0
141
16.0
290
     0
  0
SCALE
  5
1C4
102
{ACAD_REACTORS
330
1BC
102
}
330
1BC
100
AcDbScale
 70
     0
300
1:20
140
1.0
141
20.0
290
     0
  0
SCALE
  5
1C5
102
{ACAD_REACTORS
330
1BC
102
}
330
1BC
100
AcDbScale
 70
     0
300
1:30
140
1.0
141
30.0
290
     0
  0
SCALE
  5
1C6
102
{ACAD_REACTORS
330
1BC
102
}
330
1BC
100
AcDbScale
 70
     0
300
1:40
140
1.0
141
40.0
290
     0
  0
SCALE
  5
1C7
102
{ACAD_REACTORS
330
1BC
102
}
330
1BC
100
AcDbScale
 70
     0
300
1:50
140
1.0
141
50.0
290
     0
  0
SCALE
  5
1C8
102
{ACAD_REACTORS
330
1BC
102
}
330
1BC
100
AcDbScale
 70
     0
300
1:100
140
1.0
141
100.0
290
     0
  0
SCALE
  5
1C9
102
{ACAD_REACTORS
330
1BC
102
}
330
1BC
100
AcDbScale
 70
     0
300
2:1
140
2.0
141
1.0
290
     0
  0
SCALE
  5
1CA
102
{ACAD_REACTORS
330
1BC
102
}
330
1BC
100
AcDbScale
 70
     0
300
4:1
140
4.0
141
1.0
290
     0
  0
SCALE
  5
1CB
102
{ACAD_REACTORS
330
1BC
102
}
330
1BC
100
AcDbScale
 70
     0
300
8:1
140
8.0
141
1.0
290
     0
  0
SCALE
  5
1CC
102
{ACAD_REACTORS
330
1BC
102
}
330
1BC
100
AcDbScale
 70
     0
300
10:1
140
10.0
141
1.0
290
     0
  0
SCALE
  5
1CD
102
{ACAD_REACTORS
330
1BC
102
}
330
1BC
100
AcDbScale
 70
     0
300
100:1
140
100.0
141
1.0
290
     0
  0
SCALE
  5
1CE
102
{ACAD_REACTORS
330
1BC
102
}
330
1BC
100
AcDbScale
 70
     0
300
1/128" = 1'-0"
140
0.0078125
141
12.0
290
     0
  0
SCALE
  5
1CF
102
{ACAD_REACTORS
330
1BC
102
}
330
1BC
100
AcDbScale
 70
     0
300
1/64" = 1'-0"
140
0.015625
141
12.0
290
     0
  0
SCALE
  5
1D0
102
{ACAD_REACTORS
330
1BC
102
}
330
1BC
100
AcDbScale
 70
     0
300
1/32" = 1'-0"
140
0.03125
141
12.0
290
     0
  0
SCALE
  5
1D1
102
{ACAD_REACTORS
330
1BC
102
}
330
1BC
100
AcDbScale
 70
     0
300
1/16" = 1'-0"
140
0.0625
141
12.0
290
     0
  0
SCALE
  5
1D2
102
{ACAD_REACTORS
330
1BC
102
}
330
1BC
100
AcDbScale
 70
     0
300
3/32" = 1'-0"
140
0.09375
141
12.0
290
     0
  0
SCALE
  5
1D3
102
{ACAD_REACTORS
330
1BC
102
}
330
1BC
100
AcDbScale
 70
     0
300
1/8" = 1'-0"
140
0.125
141
12.0
290
     0
  0
SCALE
  5
1D4
102
{ACAD_REACTORS
330
1BC
102
}
330
1BC
100
AcDbScale
 70
     0
300
3/16" = 1'-0"
140
0.1875
141
12.0
290
     0
  0
SCALE
  5
1D5
102
{ACAD_REACTORS
330
1BC
102
}
330
1BC
100
AcDbScale
 70
     0
300
1/4" = 1'-0"
140
0.25
141
12.0
290
     0
  0
SCALE
  5
1D6
102
{ACAD_REACTORS
330
1BC
102
}
330
1BC
100
AcDbScale
 70
     0
300
3/8" = 1'-0"
140
0.375
141
12.0
290
     0
  0
SCALE
  5
1D7
102
{ACAD_REACTORS
330
1BC
102
}
330
1BC
100
AcDbScale
 70
     0
300
1/2" = 1'-0"
140
0.5
141
12.0
290
     0
  0
SCALE
  5
1D8
102
{ACAD_REACTORS
330
1BC
102
}
330
1BC
100
AcDbScale
 70
     0
300
3/4" = 1'-0"
140
0.75
141
12.0
290
     0
  0
SCALE
  5
1D9
102
{ACAD_REACTORS
330
1BC
102
}
330
1BC
100
AcDbScale
 70
     0
300
1" = 1'-0"
140
1.0
141
12.0
290
     0
  0
SCALE
  5
1DA
102
{ACAD_REACTORS
330
1BC
102
}
330
1BC
100
AcDbScale
 70
     0
300
1-1/2" = 1'-0"
140
1.5
141
12.0
290
     0
  0
SCALE
  5
1DB
102
{ACAD_REACTORS
330
1BC
102
}
330
1BC
100
AcDbScale
 70
     0
300
3" = 1'-0"
140
3.0
141
12.0
290
     0
  0
SCALE
  5
1DC
102
{ACAD_REACTORS
330
1BC
102
}
330
1BC
100
AcDbScale
 70
     0
300
6" = 1'-0"
140
6.0
141
12.0
290
     0
  0
SCALE
  5
1DD
102
{ACAD_REACTORS
330
1BC
102
}
330
1BC
100
AcDbScale
 70
     0
300
1'-0" = 1'-0"
140
12.0
141
12.0
290
     0
  0
TABLESTYLE
  5
1EC
102
{ACAD_REACTORS
330
1BB
102
}
102
{ACAD_XDICTIONARY
360
20B
102
}
330
1BB
100
AcDbTableStyle
  3
Standard
 70
     0
 71
     0
 40
0.06
 41
0.06
280
     0
281
     0
  7
Standard
140
0.18
170
     2
 62
     0
 63
   257
283
     0
 90
        4
 91
        0
  1

274
    -2
284
     1
 64
     0
275
    -2
285
     1
 65
     0
276
    -2
286
     1
 66
     0
277
    -2
287
     1
 67
     0
278
    -2
288
     1
 68
     0
279
    -2
289
     1
 69
     0
  7
Standard
140
0.25
170
     5
 62
     0
 63
   257
283
     0
 90
        4
 91
        0
  1

274
    -2
284
     1
 64
     0
275
    -2
285
     1
 65
     0
276
    -2
286
     1
 66
     0
277
    -2
287
     1
 67
     0
278
    -2
288
     1
 68
     0
279
    -2
289
     1
 69
     0
  7
Standard
140
0.18
170
     5
 62
     0
 63
   257
283
     0
 90
        4
 91
        0
  1

274
    -2
284
     1
 64
     0
275
    -2
285
     1
 65
     0
276
    -2
286
     1
 66
     0
277
    -2
287
     1
 67
     0
278
    -2
288
     1
 68
     0
279
    -2
289
     1
 69
     0
  0
VISUALSTYLE
  5
2F
102
{ACAD_REACTORS
330
2A
102
}
330
2A
100
AcDbVisualStyle
  2
2dWireframe
 70
     4
177
     3
291
     0
 70
    58
 90
        0
176
     1
 90
        2
176
     1
 90
        0
176
     1
 90
        0
176
     1
 40
-0.6
176
     1
 40
-30.0
176
     1
 62
     7
176
     1
 90
        1
176
     1
 90
        4
176
     1
 62
     7
176
     1
 62
   257
176
     1
 90
        1
176
     1
 90
        1
176
     1
 40
1.0
176
     1
 90
        0
176
     1
 62
   257
176
     1
 40
1.0
176
     1
 90
        1
176
     1
 90
        6
176
     1
 90
        2
176
     1
 62
     7
176
     1
 90
        5
176
     1
 90
        0
176
     1
 90
        0
176
     1
290
     0
176
     1
 90
        1
176
     1
 40
0.0
176
     1
 90
        0
176
     1
290
     1
176
     1
290
     1
176
     1
290
     0
176
     1
290
     0
176
     1
290
     0
176
     1
290
     0
176
     1
290
     0
176
     1
290
     0
176
     1
290
     0
176
     1
 90
       50
176
     1
 40
0.0
176
     1
 40
1.0
176
     1
 90
        0
176
     1
 62
    18
420
        0
176
     1
 90
       50
176
     1
 90
        3
176
     1
 62
     5
420
      255
176
     1
290
     0
176
     1
 90
       50
176
     1
 90
       50
176
     1
 90
       50
176
     1
290
     0
176
     1
 90
       50
176
     1
 62
   256
176
     0
 40
1.0
176
     0
 90
        2
176
     1
  1
strokes_ogs.tif
176
     1
290
     0
176
     1
 40
1.0
176
     1
 40
1.0
176
     1
  0
VISUALSTYLE
  5
31
102
{ACAD_REACTORS
330
2A
102
}
330
2A
100
AcDbVisualStyle
  2
3D Hidden
 70
     6
177
     3
291
     0
 70
    58
 90
        1
176
     1
 90
        2
176
     1
 90
        2
176
     1
 90
        0
176
     1
 40
-0.6
176
     1
 40
-30.0
176
     1
 62
     7
176
     1
 90
        2
176
     1
 90
        2
176
     1
 62
     7
176
     1
 62
   257
176
     1
 90
        2
176
     1
 90
        1
176
     1
 40
40.0
176
     1
 90
        0
176
     1
 62
   257
176
     1
 40
1.0
176
     1
 90
        1
176
     1
 90
        6
176
     1
 90
        2
176
     1
 62
     7
176
     1
 90
        3
176
     1
 90
        0
176
     1
 90
        0
176
     1
290
     0
176
     1
 90
        1
176
     1
 40
0.0
176
     1
 90
        0
176
     1
290
     0
176
     1
290
     1
176
     1
290
     1
176
     1
290
     0
176
     1
290
     0
176
     1
290
     0
176
     1
290
     0
176
     1
290
     0
176
     1
290
     0
176
     1
 90
       50
176
     1
 40
0.0
176
     1
 40
1.0
176
     1
 90
        0
176
     1
 62
    18
420
        0
176
     1
 90
       50
176
     1
 90
        3
176
     1
 62
     5
420
      255
176
     1
290
     0
176
     1
 90
       50
176
     1
 90
       50
176
     1
 90
       50
176
     1
290
     0
176
     1
 90
       50
176
     1
 62
   256
176
     0
 40
1.0
176
     0
 90
        2
176
     1
  1
strokes_ogs.tif
176
     1
290
     0
176
     1
 40
1.0
176
     1
 40
1.0
176
     1
  0
VISUALSTYLE
  5
30
102
{ACAD_REACTORS
330
2A
102
}
330
2A
100
AcDbVisualStyle
  2
3dWireframe
 70
     5
177
     3
291
     0
 70
    58
 90
        0
176
     1
 90
        2
176
     1
 90
        0
176
     1
 90
        0
176
     1
 40
-0.6
176
     1
 40
-30.0
176
     1
 62
     7
176
     1
 90
        1
176
     1
 90
        4
176
     1
 62
     7
176
     1
 62
   257
176
     1
 90
        1
176
     1
 90
        1
176
     1
 40
1.0
176
     1
 90
        0
176
     1
 62
   257
176
     1
 40
1.0
176
     1
 90
        1
176
     1
 90
        6
176
     1
 90
        2
176
     1
 62
     7
176
     1
 90
        5
176
     1
 90
        0
176
     1
 90
        0
176
     1
290
     0
176
     1
 90
        1
176
     1
 40
0.0
176
     1
 90
        0
176
     1
290
     0
176
     1
290
     1
176
     1
290
     1
176
     1
290
     0
176
     1
290
     0
176
     1
290
     0
176
     1
290
     0
176
     1
290
     0
176
     1
290
     0
176
     1
 90
       50
176
     1
 40
0.0
176
     1
 40
1.0
176
     1
 90
        0
176
     1
 62
    18
420
        0
176
     1
 90
       50
176
     1
 90
        3
176
     1
 62
     5
420
      255
176
     1
290
     0
176
     1
 90
       50
176
     1
 90
       50
176
     1
 90
       50
176
     1
290
     0
176
     1
 90
       50
176
     1
 62
   256
176
     0
 40
1.0
176
     0
 90
        2
176
     1
  1
strokes_ogs.tif
176
     1
290
     0
176
     1
 40
1.0
176
     1
 40
1.0
176
     1
  0
VISUALSTYLE
  5
32
102
{ACAD_REACTORS
330
2A
102
}
330
2A
100
AcDbVisualStyle
  2
Basic
 70
     7
177
     3
291
     1
 70
    58
 90
        1
176
     1
 90
        0
176
     1
 90
        1
176
     1
 90
        0
176
     1
 40
-0.6
176
     1
 40
-30.0
176
     1
 62
     7
176
     1
 90
        0
176
     1
 90
        4
176
     1
 62
     7
176
     1
 62
   257
176
     1
 90
        1
176
     1
 90
        1
176
     1
 40
1.0
176
     1
 90
        8
176
     1
 62
     7
176
     1
 40
1.0
176
     1
 90
        1
176
     1
 90
        6
176
     1
 90
        2
176
     1
 62
     7
176
     1
 90
        5
176
     1
 90
        0
176
     1
 90
        0
176
     1
290
     0
176
     1
 90
        1
176
     1
 40
0.0
176
     1
 90
        0
176
     1
290
     0
176
     1
290
     1
176
     1
290
     1
176
     1
290
     0
176
     1
290
     0
176
     1
290
     0
176
     1
290
     0
176
     1
290
     0
176
     1
290
     0
176
     1
 90
       50
176
     1
 40
0.0
176
     1
 40
1.0
176
     1
 90
        0
176
     1
 62
    18
420
        0
176
     1
 90
       50
176
     1
 90
        3
176
     1
 62
     5
420
      255
176
     1
290
     0
176
     1
 90
       50
176
     1
 90
       50
176
     1
 90
       50
176
     1
290
     0
176
     1
 90
       50
176
     1
 62
   256
176
     0
 40
1.0
176
     0
 90
        2
176
     1
  1
strokes_ogs.tif
176
     1
290
     0
176
     1
 40
1.0
176
     1
 40
1.0
176
     1
  0
VISUALSTYLE
  5
36
102
{ACAD_REACTORS
330
2A
102
}
330
2A
100
AcDbVisualStyle
  2
Brighten
 70
    12
177
     3
291
     1
 70
    58
 90
        2
176
     1
 90
        2
176
     1
 90
        0
176
     1
 90
        0
176
     1
 40
-0.6
176
     1
 40
-30.0
176
     1
 62
     7
176
     1
 90
        1
176
     1
 90
        4
176
     1
 62
     7
176
     1
 62
   257
176
     1
 90
        1
176
     1
 90
        1
176
     1
 40
1.0
176
     1
 90
        8
176
     1
 62
     7
176
     1
 40
1.0
176
     1
 90
        1
176
     1
 90
        6
176
     1
 90
        2
176
     1
 62
     7
176
     1
 90
        5
176
     1
 90
        0
176
     1
 90
        0
176
     1
290
     0
176
     1
 90
        1
176
     1
 40
50.0
176
     1
 90
        0
176
     1
290
     0
176
     1
290
     1
176
     1
290
     1
176
     1
290
     0
176
     1
290
     0
176
     1
290
     0
176
     1
290
     0
176
     1
290
     0
176
     1
290
     0
176
     1
 90
       50
176
     1
 40
0.0
176
     1
 40
1.0
176
     1
 90
        0
176
     1
 62
    18
420
        0
176
     1
 90
       50
176
     1
 90
        3
176
     1
 62
     5
420
      255
176
     1
290
     0
176
     1
 90
       50
176
     1
 90
       50
176
     1
 90
       50
176
     1
290
     0
176
     1
 90
       50
176
     1
 62
   256
176
     0
 40
1.0
176
     0
 90
        2
176
     1
  1
strokes_ogs.tif
176
     1
290
     0
176
     1
 40
1.0
176
     1
 40
1.0
176
     1
  0
VISUALSTYLE
  5
3A
102
{ACAD_REACTORS
330
2A
102
}
330
2A
100
AcDbVisualStyle
  2
ColorChange
 70
    16
177
     3
291
     1
 70
    58
 90
        2
176
     1
 90
        2
176
     1
 90
        3
176
     1
 90
        0
176
     1
 40
-0.6
176
     1
 40
-30.0
176
     1
 62
     8
176
     1
 90
        1
176
     1
 90
        4
176
     1
 62
     7
176
     1
 62
   257
176
     1
 90
        1
176
     1
 90
        1
176
     1
 40
1.0
176
     1
 90
        8
176
     1
 62
     8
176
     1
 40
1.0
176
     1
 90
        1
176
     1
 90
        6
176
     1
 90
        2
176
     1
 62
     7
176
     1
 90
        5
176
     1
 90
        0
176
     1
 90
        0
176
     1
290
     0
176
     1
 90
        1
176
     1
 40
0.0
176
     1
 90
        0
176
     1
290
     0
176
     1
290
     1
176
     1
290
     1
176
     1
290
     0
176
     1
290
     0
176
     1
290
     0
176
     1
290
     0
176
     1
290
     0
176
     1
290
     0
176
     1
 90
       50
176
     1
 40
0.0
176
     1
 40
1.0
176
     1
 90
        0
176
     1
 62
    18
420
        0
176
     1
 90
       50
176
     1
 90
        3
176
     1
 62
     5
420
      255
176
     1
290
     0
176
     1
 90
       50
176
     1
 90
       50
176
     1
 90
       50
176
     1
290
     0
176
     1
 90
       50
176
     1
 62
   256
176
     0
 40
1.0
176
     0
 90
        2
176
     1
  1
strokes_ogs.tif
176
     1
290
     0
176
     1
 40
1.0
176
     1
 40
1.0
176
     1
  0
VISUALSTYLE
  5
34
102
{ACAD_REACTORS
330
2A
102
}
330
2A
100
AcDbVisualStyle
  2
Conceptual
 70
     9
177
     3
291
     0
 70
    58
 90
        3
176
     1
 90
        2
176
     1
 90
        0
176
     1
 90
        0
176
     1
 40
-0.6
176
     1
 40
-30.0
176
     1
 62
     7
176
     1
 90
        2
176
     1
 90
        2
176
     1
 62
     7
176
     1
 62
   257
176
     1
 90
        1
176
     1
 90
        1
176
     1
 40
40.0
176
     1
 90
        8
176
     1
 62
     7
176
     1
 40
1.0
176
     1
 90
        1
176
     1
 90
        6
176
     1
 90
        2
176
     1
 62
     7
176
     1
 90
        3
176
     1
 90
        0
176
     1
 90
        0
176
     1
290
     0
176
     1
 90
        1
176
     1
 40
0.0
176
     1
 90
        0
176
     1
290
     0
176
     1
290
     1
176
     1
290
     1
176
     1
290
     0
176
     1
290
     0
176
     1
290
     0
176
     1
290
     0
176
     1
290
     0
176
     1
290
     0
176
     1
 90
       50
176
     1
 40
0.0
176
     1
 40
1.0
176
     1
 90
        0
176
     1
 62
    18
420
        0
176
     1
 90
       50
176
     1
 90
        3
176
     1
 62
     5
420
      255
176
     1
290
     0
176
     1
 90
       50
176
     1
 90
       50
176
     1
 90
       50
176
     1
290
     0
176
     1
 90
       50
176
     1
 62
   256
176
     0
 40
1.0
176
     0
 90
        2
176
     1
  1
strokes_ogs.tif
176
     1
290
     0
176
     1
 40
1.0
176
     1
 40
1.0
176
     1
  0
VISUALSTYLE
  5
35
102
{ACAD_REACTORS
330
2A
102
}
330
2A
100
AcDbVisualStyle
  2
Dim
 70
    11
177
     3
291
     1
 70
    58
 90
        2
176
     1
 90
        2
176
     1
 90
        0
176
     1
 90
        0
176
     1
 40
-0.6
176
     1
 40
-30.0
176
     1
 62
     7
176
     1
 90
        1
176
     1
 90
        4
176
     1
 62
     7
176
     1
 62
   257
176
     1
 90
        1
176
     1
 90
        1
176
     1
 40
1.0
176
     1
 90
        8
176
     1
 62
     7
176
     1
 40
1.0
176
     1
 90
        1
176
     1
 90
        6
176
     1
 90
        2
176
     1
 62
     7
176
     1
 90
        5
176
     1
 90
        0
176
     1
 90
        0
176
     1
290
     0
176
     1
 90
        1
176
     1
 40
-50.0
176
     1
 90
        0
176
     1
290
     0
176
     1
290
     1
176
     1
290
     1
176
     1
290
     0
176
     1
290
     0
176
     1
290
     0
176
     1
290
     0
176
     1
290
     0
176
     1
290
     0
176
     1
 90
       50
176
     1
 40
0.0
176
     1
 40
1.0
176
     1
 90
        0
176
     1
 62
    18
420
        0
176
     1
 90
       50
176
     1
 90
        3
176
     1
 62
     5
420
      255
176
     1
290
     0
176
     1
 90
       50
176
     1
 90
       50
176
     1
 90
       50
176
     1
290
     0
176
     1
 90
       50
176
     1
 62
   256
176
     0
 40
1.0
176
     0
 90
        2
176
     1
  1
strokes_ogs.tif
176
     1
290
     0
176
     1
 40
1.0
176
     1
 40
1.0
176
     1
  0
VISUALSTYLE
  5
1E6
102
{ACAD_REACTORS
330
2A
102
}
330
2A
100
AcDbVisualStyle
  2
EdgeColorOff
 70
    22
177
     3
291
     1
 70
    58
 90
        2
176
     0
 90
        2
176
     0
 90
        0
176
     0
 90
        0
176
     0
 40
0.6
176
     0
 40
30.0
176
     0
 62
     7
420
 16777215
176
     0
 90
        1
176
     0
 90
        4
176
     0
 62
     7
176
     0
 62
   257
176
     0
 90
        1
176
     0
 90
        1
176
     0
 40
1.0
176
     0
 90
        8
176
     2
 62
     7
176
     0
 40
1.0
176
     0
 90
        1
176
     0
 90
        6
176
     0
 90
        2
176
     0
 62
     7
176
     0
 90
        5
176
     0
 90
        0
176
     0
 90
        0
176
     0
290
     0
176
     0
 90
        1
176
     0
 40
0.0
176
     0
 90
        0
176
     0
290
     0
176
     0
290
     1
176
     0
290
     1
176
     0
290
     0
176
     0
290
     0
176
     0
290
     0
176
     0
290
     0
176
     0
290
     0
176
     0
290
     0
176
     0
 90
       50
176
     0
 40
0.0
176
     0
 40
1.0
176
     0
 90
        0
176
     0
 62
    18
420
        0
176
     0
 90
       50
176
     0
 90
        3
176
     0
 62
     5
420
      255
176
     0
290
     0
176
     0
 90
       50
176
     0
 90
       50
176
     0
 90
       50
176
     0
290
     0
176
     0
 90
       50
176
     0
 62
   256
176
     0
 40
1.0
176
     0
 90
        2
176
     0
  1
strokes_ogs.tif
176
     0
290
     0
176
     0
 40
1.0
176
     0
 40
1.0
176
     0
  0
VISUALSTYLE
  5
39
102
{ACAD_REACTORS
330
2A
102
}
330
2A
100
AcDbVisualStyle
  2
Facepattern
 70
    15
177
     3
291
     1
 70
    58
 90
        2
176
     1
 90
        2
176
     1
 90
        0
176
     1
 90
        0
176
     1
 40
-0.6
176
     1
 40
-30.0
176
     1
 62
     7
176
     1
 90
        1
176
     1
 90
        4
176
     1
 62
     7
176
     1
 62
   257
176
     1
 90
        1
176
     1
 90
        1
176
     1
 40
1.0
176
     1
 90
        8
176
     1
 62
     7
176
     1
 40
1.0
176
     1
 90
        1
176
     1
 90
        6
176
     1
 90
        2
176
     1
 62
     7
176
     1
 90
        5
176
     1
 90
        0
176
     1
 90
        0
176
     1
290
     0
176
     1
 90
        1
176
     1
 40
0.0
176
     1
 90
        0
176
     1
290
     0
176
     1
290
     1
176
     1
290
     1
176
     1
290
     0
176
     1
290
     0
176
     1
290
     0
176
     1
290
     0
176
     1
290
     0
176
     1
290
     0
176
     1
 90
       50
176
     1
 40
0.0
176
     1
 40
1.0
176
     1
 90
        0
176
     1
 62
    18
420
        0
176
     1
 90
       50
176
     1
 90
        3
176
     1
 62
     5
420
      255
176
     1
290
     0
176
     1
 90
       50
176
     1
 90
       50
176
     1
 90
       50
176
     1
290
     0
176
     1
 90
       50
176
     1
 62
   256
176
     0
 40
1.0
176
     0
 90
        2
176
     1
  1
strokes_ogs.tif
176
     1
290
     0
176
     1
 40
1.0
176
     1
 40
1.0
176
     1
  0
VISUALSTYLE
  5
2B
102
{ACAD_REACTORS
330
2A
102
}
330
2A
100
AcDbVisualStyle
  2
Flat
 70
     0
177
     3
291
     1
 70
    58
 90
        2
176
     1
 90
        1
176
     1
 90
        1
176
     1
 90
        2
176
     1
 40
-0.6
176
     1
 40
30.0
176
     1
 62
     7
176
     1
 90
        0
176
     1
 90
        4
176
     1
 62
     7
176
     1
 62
   257
176
     1
 90
        1
176
     1
 90
        1
176
     1
 40
1.0
176
     1
 90
        8
176
     1
 62
     7
176
     1
 40
1.0
176
     1
 90
        1
176
     1
 90
        6
176
     1
 90
        2
176
     1
 62
     7
176
     1
 90
        5
176
     1
 90
        0
176
     1
 90
        0
176
     1
290
     0
176
     1
 90
       13
176
     1
 40
0.0
176
     1
 90
        0
176
     1
290
     0
176
     1
290
     1
176
     1
290
     1
176
     1
290
     0
176
     1
290
     0
176
     1
290
     0
176
     1
290
     0
176
     1
290
     0
176
     1
290
     0
176
     1
 90
       50
176
     1
 40
0.0
176
     1
 40
1.0
176
     1
 90
        0
176
     1
 62
    18
420
        0
176
     1
 90
       50
176
     1
 90
        3
176
     1
 62
     5
420
      255
176
     1
290
     0
176
     1
 90
       50
176
     1
 90
       50
176
     1
 90
       50
176
     1
290
     0
176
     1
 90
       50
176
     1
 62
   256
176
     0
 40
1.0
176
     0
 90
        2
176
     1
  1
strokes_ogs.tif
176
     1
290
     0
176
     1
 40
1.0
176
     1
 40
1.0
176
     1
  0
VISUALSTYLE
  5
2C
102
{ACAD_REACTORS
330
2A
102
}
330
2A
100
AcDbVisualStyle
  2
FlatWithEdges
 70
     1
177
     3
291
     1
 70
    58
 90
        2
176
     1
 90
        1
176
     1
 90
        1
176
     1
 90
        2
176
     1
 40
-0.6
176
     1
 40
30.0
176
     1
 62
     7
176
     1
 90
        1
176
     1
 90
        4
176
     1
 62
     7
176
     1
 62
   257
176
     1
 90
        1
176
     1
 90
        1
176
     1
 40
1.0
176
     1
 90
        0
176
     1
 62
   257
176
     1
 40
1.0
176
     1
 90
        1
176
     1
 90
        6
176
     1
 90
        2
176
     1
 62
     7
176
     1
 90
        5
176
     1
 90
        0
176
     1
 90
        0
176
     1
290
     0
176
     1
 90
       13
176
     1
 40
0.0
176
     1
 90
        0
176
     1
290
     0
176
     1
290
     1
176
     1
290
     1
176
     1
290
     0
176
     1
290
     0
176
     1
290
     0
176
     1
290
     0
176
     1
290
     0
176
     1
290
     0
176
     1
 90
       50
176
     1
 40
0.0
176
     1
 40
1.0
176
     1
 90
        0
176
     1
 62
    18
420
        0
176
     1
 90
       50
176
     1
 90
        3
176
     1
 62
     5
420
      255
176
     1
290
     0
176
     1
 90
       50
176
     1
 90
       50
176
     1
 90
       50
176
     1
290
     0
176
     1
 90
       50
176
     1
 62
   256
176
     0
 40
1.0
176
     0
 90
        2
176
     1
  1
strokes_ogs.tif
176
     1
290
     0
176
     1
 40
1.0
176
     1
 40
1.0
176
     1
  0
VISUALSTYLE
  5
2D
102
{ACAD_REACTORS
330
2A
102
}
330
2A
100
AcDbVisualStyle
  2
Gouraud
 70
     2
177
     3
291
     1
 70
    58
 90
        2
176
     1
 90
        2
176
     1
 90
        1
176
     1
 90
        2
176
     1
 40
-0.6
176
     1
 40
30.0
176
     1
 62
     7
176
     1
 90
        0
176
     1
 90
        4
176
     1
 62
     7
176
     1
 62
   257
176
     1
 90
        1
176
     1
 90
        1
176
     1
 40
1.0
176
     1
 90
        0
176
     1
 62
     7
176
     1
 40
1.0
176
     1
 90
        1
176
     1
 90
        6
176
     1
 90
        2
176
     1
 62
     7
176
     1
 90
        5
176
     1
 90
        0
176
     1
 90
        0
176
     1
290
     0
176
     1
 90
       13
176
     1
 40
0.0
176
     1
 90
        0
176
     1
290
     0
176
     1
290
     1
176
     1
290
     1
176
     1
290
     0
176
     1
290
     0
176
     1
290
     0
176
     1
290
     0
176
     1
290
     0
176
     1
290
     0
176
     1
 90
       50
176
     1
 40
0.0
176
     1
 40
1.0
176
     1
 90
        0
176
     1
 62
    18
420
        0
176
     1
 90
       50
176
     1
 90
        3
176
     1
 62
     5
420
      255
176
     1
290
     0
176
     1
 90
       50
176
     1
 90
       50
176
     1
 90
       50
176
     1
290
     0
176
     1
 90
       50
176
     1
 62
   256
176
     0
 40
1.0
176
     0
 90
        2
176
     1
  1
strokes_ogs.tif
176
     1
290
     0
176
     1
 40
1.0
176
     1
 40
1.0
176
     1
  0
VISUALSTYLE
  5
2E
102
{ACAD_REACTORS
330
2A
102
}
330
2A
100
AcDbVisualStyle
  2
GouraudWithEdges
 70
     3
177
     3
291
     1
 70
    58
 90
        2
176
     1
 90
        2
176
     1
 90
        1
176
     1
 90
        2
176
     1
 40
-0.6
176
     1
 40
30.0
176
     1
 62
     7
176
     1
 90
        1
176
     1
 90
        4
176
     1
 62
     7
176
     1
 62
   257
176
     1
 90
        1
176
     1
 90
        1
176
     1
 40
1.0
176
     1
 90
        0
176
     1
 62
   257
176
     1
 40
1.0
176
     1
 90
        1
176
     1
 90
        6
176
     1
 90
        2
176
     1
 62
     7
176
     1
 90
        5
176
     1
 90
        0
176
     1
 90
        0
176
     1
290
     0
176
     1
 90
       13
176
     1
 40
0.0
176
     1
 90
        0
176
     1
290
     0
176
     1
290
     1
176
     1
290
     1
176
     1
290
     0
176
     1
290
     0
176
     1
290
     0
176
     1
290
     0
176
     1
290
     0
176
     1
290
     0
176
     1
 90
       50
176
     1
 40
0.0
176
     1
 40
1.0
176
     1
 90
        0
176
     1
 62
    18
420
        0
176
     1
 90
       50
176
     1
 90
        3
176
     1
 62
     5
420
      255
176
     1
290
     0
176
     1
 90
       50
176
     1
 90
       50
176
     1
 90
       50
176
     1
290
     0
176
     1
 90
       50
176
     1
 62
   256
176
     0
 40
1.0
176
     0
 90
        2
176
     1
  1
strokes_ogs.tif
176
     1
290
     0
176
     1
 40
1.0
176
     1
 40
1.0
176
     1
  0
VISUALSTYLE
  5
1E3
102
{ACAD_REACTORS
330
2A
102
}
330
2A
100
AcDbVisualStyle
  2
Hidden
 70
     6
177
     3
291
     0
 70
    58
 90
        1
176
     1
 90
        2
176
     1
 90
        2
176
     1
 90
        0
176
     1
 40
0.6
176
     1
 40
30.0
176
     1
 62
     7
420
 16777215
176
     1
 90
        2
176
     1
 90
        2
176
     1
 62
     7
176
     1
 62
   257
176
     1
 90
        2
176
     1
 90
        1
176
     1
 40
40.0
176
     1
 90
        0
176
     1
 62
   257
176
     1
 40
1.0
176
     1
 90
        1
176
     1
 90
        6
176
     1
 90
        2
176
     1
 62
     7
176
     1
 90
        3
176
     1
 90
        0
176
     1
 90
        0
176
     1
290
     0
176
     1
 90
        1
176
     1
 40
0.0
176
     1
 90
        0
176
     1
290
     0
176
     1
290
     1
176
     1
290
     1
176
     1
290
     0
176
     1
290
     0
176
     1
290
     0
176
     1
290
     0
176
     1
290
     0
176
     1
290
     0
176
     1
 90
       50
176
     1
 40
0.0
176
     1
 40
1.0
176
     1
 90
        0
176
     1
 62
    18
420
        0
176
     1
 90
       50
176
     1
 90
        3
176
     1
 62
     5
420
      255
176
     1
290
     0
176
     1
 90
       50
176
     1
 90
       50
176
     1
 90
       50
176
     1
290
     0
176
     1
 90
       50
176
     1
 62
   256
176
     0
 40
1.0
176
     0
 90
        2
176
     1
  1
strokes_ogs.tif
176
     1
290
     0
176
     1
 40
1.0
176
     1
 40
1.0
176
     1
  0
VISUALSTYLE
  5
1E4
102
{ACAD_REACTORS
330
2A
102
}
330
2A
100
AcDbVisualStyle
  2
JitterOff
 70
    20
177
     3
291
     1
 70
    58
 90
        2
176
     0
 90
        2
176
     0
 90
        0
176
     0
 90
        0
176
     0
 40
0.6
176
     0
 40
30.0
176
     0
 62
     7
420
 16777215
176
     0
 90
        1
176
     0
 90
        4
176
     0
 62
     7
176
     0
 62
   257
176
     0
 90
        1
176
     0
 90
        1
176
     0
 40
1.0
176
     0
 90
       10
176
     2
 62
     7
176
     0
 40
1.0
176
     0
 90
        1
176
     0
 90
        6
176
     0
 90
        2
176
     0
 62
     7
176
     0
 90
        5
176
     0
 90
        0
176
     0
 90
        0
176
     0
290
     0
176
     0
 90
        1
176
     0
 40
0.0
176
     0
 90
        0
176
     0
290
     0
176
     0
290
     1
176
     0
290
     1
176
     0
290
     0
176
     0
290
     0
176
     0
290
     0
176
     0
290
     0
176
     0
290
     0
176
     0
290
     0
176
     0
 90
       50
176
     0
 40
0.0
176
     0
 40
1.0
176
     0
 90
        0
176
     0
 62
    18
420
        0
176
     0
 90
       50
176
     0
 90
        3
176
     0
 62
     5
420
      255
176
     0
290
     0
176
     0
 90
       50
176
     0
 90
       50
176
     0
 90
       50
176
     0
290
     0
176
     0
 90
       50
176
     0
 62
   256
176
     0
 40
1.0
176
     0
 90
        2
176
     0
  1
strokes_ogs.tif
176
     0
290
     0
176
     0
 40
1.0
176
     0
 40
1.0
176
     0
  0
VISUALSTYLE
  5
38
102
{ACAD_REACTORS
330
2A
102
}
330
2A
100
AcDbVisualStyle
  2
Linepattern
 70
    14
177
     3
291
     1
 70
    58
 90
        2
176
     1
 90
        2
176
     1
 90
        0
176
     1
 90
        0
176
     1
 40
-0.6
176
     1
 40
-30.0
176
     1
 62
     7
176
     1
 90
        1
176
     1
 90
        4
176
     1
 62
     7
176
     1
 62
   257
176
     1
 90
        7
176
     1
 90
        7
176
     1
 40
1.0
176
     1
 90
        8
176
     1
 62
     7
176
     1
 40
1.0
176
     1
 90
        1
176
     1
 90
        6
176
     1
 90
        2
176
     1
 62
     7
176
     1
 90
        5
176
     1
 90
        0
176
     1
 90
        0
176
     1
290
     0
176
     1
 90
        1
176
     1
 40
0.0
176
     1
 90
        0
176
     1
290
     0
176
     1
290
     1
176
     1
290
     1
176
     1
290
     0
176
     1
290
     0
176
     1
290
     0
176
     1
290
     0
176
     1
290
     0
176
     1
290
     0
176
     1
 90
       50
176
     1
 40
0.0
176
     1
 40
1.0
176
     1
 90
        0
176
     1
 62
    18
420
        0
176
     1
 90
       50
176
     1
 90
        3
176
     1
 62
     5
420
      255
176
     1
290
     0
176
     1
 90
       50
176
     1
 90
       50
176
     1
 90
       50
176
     1
290
     0
176
     1
 90
       50
176
     1
 62
   256
176
     0
 40
1.0
176
     0
 90
        2
176
     1
  1
strokes_ogs.tif
176
     1
290
     0
176
     1
 40
1.0
176
     1
 40
1.0
176
     1
  0
VISUALSTYLE
  5
1E5
102
{ACAD_REACTORS
330
2A
102
}
330
2A
100
AcDbVisualStyle
  2
OverhangOff
 70
    21
177
     3
291
     1
 70
    58
 90
        2
176
     0
 90
        2
176
     0
 90
        0
176
     0
 90
        0
176
     0
 40
0.6
176
     0
 40
30.0
176
     0
 62
     7
420
 16777215
176
     0
 90
        1
176
     0
 90
        4
176
     0
 62
     7
176
     0
 62
   257
176
     0
 90
        1
176
     0
 90
        1
176
     0
 40
1.0
176
     0
 90
        9
176
     2
 62
     7
176
     0
 40
1.0
176
     0
 90
        1
176
     0
 90
        6
176
     0
 90
        2
176
     0
 62
     7
176
     0
 90
        5
176
     0
 90
        0
176
     0
 90
        0
176
     0
290
     0
176
     0
 90
        1
176
     0
 40
0.0
176
     0
 90
        0
176
     0
290
     0
176
     0
290
     1
176
     0
290
     1
176
     0
290
     0
176
     0
290
     0
176
     0
290
     0
176
     0
290
     0
176
     0
290
     0
176
     0
290
     0
176
     0
 90
       50
176
     0
 40
0.0
176
     0
 40
1.0
176
     0
 90
        0
176
     0
 62
    18
420
        0
176
     0
 90
       50
176
     0
 90
        3
176
     0
 62
     5
420
      255
176
     0
290
     0
176
     0
 90
       50
176
     0
 90
       50
176
     0
 90
       50
176
     0
290
     0
176
     0
 90
       50
176
     0
 62
   256
176
     0
 40
1.0
176
     0
 90
        2
176
     0
  1
strokes_ogs.tif
176
     0
290
     0
176
     0
 40
1.0
176
     0
 40
1.0
176
     0
  0
VISUALSTYLE
  5
33
102
{ACAD_REACTORS
330
2A
102
}
330
2A
100
AcDbVisualStyle
  2
Realistic
 70
     8
177
     3
291
     0
 70
    58
 90
        2
176
     1
 90
        2
176
     1
 90
        0
176
     1
 90
        0
176
     1
 40
-0.6
176
     1
 40
-30.0
176
     1
 62
     7
176
     1
 90
        1
176
     1
 90
        0
176
     1
 62
     7
176
     1
 62
   257
176
     1
 90
        1
176
     1
 90
        1
176
     1
 40
1.0
176
     1
 90
        8
176
     1
 62
     8
176
     1
 40
1.0
176
     1
 90
        1
176
     1
 90
        6
176
     1
 90
        2
176
     1
 62
     7
176
     1
 90
        5
176
     1
 90
        0
176
     1
 90
        0
176
     1
290
     0
176
     1
 90
       13
176
     1
 40
0.0
176
     1
 90
        0
176
     1
290
     0
176
     1
290
     1
176
     1
290
     1
176
     1
290
     0
176
     1
290
     0
176
     1
290
     0
176
     1
290
     0
176
     1
290
     0
176
     1
290
     0
176
     1
 90
       50
176
     1
 40
0.0
176
     1
 40
1.0
176
     1
 90
        0
176
     1
 62
    18
420
        0
176
     1
 90
       50
176
     1
 90
        3
176
     1
 62
     5
420
      255
176
     1
290
     0
176
     1
 90
       50
176
     1
 90
       50
176
     1
 90
       50
176
     1
290
     0
176
     1
 90
       50
176
     1
 62
   256
176
     0
 40
1.0
176
     0
 90
        2
176
     1
  1
strokes_ogs.tif
176
     1
290
     0
176
     1
 40
1.0
176
     1
 40
1.0
176
     1
  0
VISUALSTYLE
  5
1EB
102
{ACAD_REACTORS
330
2A
102
}
330
2A
100
AcDbVisualStyle
  2
Shaded
 70
    27
177
     3
291
     0
 70
    58
 90
        2
176
     1
 90
        2
176
     1
 90
        1
176
     1
 90
        2
176
     1
 40
0.6
176
     1
 40
30.0
176
     1
 62
     7
420
 16777215
176
     1
 90
        0
176
     1
 90
        4
176
     1
 62
     7
176
     1
 62
   257
176
     1
 90
        1
176
     1
 90
        1
176
     1
 40
1.0
176
     1
 90
        8
176
     1
 62
   257
176
     1
 40
1.0
176
     1
 90
        1
176
     1
 90
        6
176
     1
 90
        2
176
     1
 62
     8
420
  7895160
176
     1
 90
        3
176
     1
 90
        0
176
     1
 90
        0
176
     1
290
     0
176
     1
 90
        5
176
     1
 40
0.0
176
     1
 90
        0
176
     1
290
     0
176
     1
290
     1
176
     1
290
     1
176
     1
290
     0
176
     1
290
     0
176
     1
290
     0
176
     1
290
     0
176
     1
290
     0
176
     1
290
     0
176
     1
 90
       50
176
     1
 40
0.0
176
     1
 40
1.0
176
     1
 90
        0
176
     1
 62
    18
420
        0
176
     1
 90
       50
176
     1
 90
        3
176
     1
 62
     5
420
      255
176
     1
290
     0
176
     1
 90
       50
176
     1
 90
       50
176
     1
 90
       50
176
     1
290
     0
176
     1
 90
       50
176
     1
 62
   256
176
     0
 40
1.0
176
     0
 90
        2
176
     1
  1
strokes_ogs.tif
176
     1
290
     0
176
     1
 40
1.0
176
     1
 40
1.0
176
     1
  0
VISUALSTYLE
  5
1EA
102
{ACAD_REACTORS
330
2A
102
}
330
2A
100
AcDbVisualStyle
  2
Shaded with edges
 70
    26
177
     3
291
     0
 70
    58
 90
        2
176
     1
 90
        2
176
     1
 90
        1
176
     1
 90
        2
176
     1
 40
0.6
176
     1
 40
30.0
176
     1
 62
     7
420
 16777215
176
     1
 90
        1
176
     1
 90
       10
176
     1
 62
     7
176
     1
 62
   257
176
     1
 90
        2
176
     1
 90
        1
176
     1
 40
1.0
176
     1
 90
        8
176
     1
 62
   257
176
     1
 40
1.0
176
     1
 90
        1
176
     1
 90
        6
176
     1
 90
        2
176
     1
 62
     7
176
     1
 90
        3
176
     1
 90
        0
176
     1
 90
        0
176
     1
290
     0
176
     1
 90
        5
176
     1
 40
0.0
176
     1
 90
        0
176
     1
290
     0
176
     1
290
     1
176
     1
290
     1
176
     1
290
     0
176
     1
290
     0
176
     1
290
     0
176
     1
290
     0
176
     1
290
     0
176
     1
290
     0
176
     1
 90
       50
176
     1
 40
0.0
176
     1
 40
1.0
176
     1
 90
        0
176
     1
 62
    18
420
        0
176
     1
 90
       50
176
     1
 90
        3
176
     1
 62
     5
420
      255
176
     1
290
     0
176
     1
 90
       50
176
     1
 90
       50
176
     1
 90
       50
176
     1
290
     0
176
     1
 90
       50
176
     1
 62
   256
176
     0
 40
1.0
176
     0
 90
        2
176
     1
  1
strokes_ogs.tif
176
     1
290
     0
176
     1
 40
1.0
176
     1
 40
1.0
176
     1
  0
VISUALSTYLE
  5
1E7
102
{ACAD_REACTORS
330
2A
102
}
330
2A
100
AcDbVisualStyle
  2
Shades of Gray
 70
    23
177
     3
291
     0
 70
    58
 90
        2
176
     1
 90
        2
176
     1
 90
        3
176
     1
 90
        0
176
     1
 40
0.6
176
     1
 40
30.0
176
     1
 62
     7
420
 16777215
176
     1
 90
        2
176
     1
 90
        2
176
     1
 62
     7
176
     1
 62
     7
176
     1
 90
        1
176
     1
 90
        1
176
     1
 40
40.0
176
     1
 90
        8
176
     1
 62
     7
176
     1
 40
1.0
176
     1
 90
        1
176
     1
 90
        6
176
     1
 90
        2
176
     1
 62
     7
176
     1
 90
        3
176
     1
 90
        0
176
     1
 90
        0
176
     1
290
     0
176
     1
 90
        1
176
     1
 40
0.0
176
     1
 90
        0
176
     1
290
     0
176
     1
290
     1
176
     1
290
     1
176
     1
290
     0
176
     1
290
     0
176
     1
290
     0
176
     1
290
     0
176
     1
290
     0
176
     1
290
     0
176
     1
 90
       50
176
     1
 40
0.0
176
     1
 40
1.0
176
     1
 90
        0
176
     1
 62
    18
420
        0
176
     1
 90
       50
176
     1
 90
        3
176
     1
 62
     5
420
      255
176
     1
290
     0
176
     1
 90
       50
176
     1
 90
       50
176
     1
 90
       50
176
     1
290
     0
176
     1
 90
       50
176
     1
 62
   256
176
     0
 40
1.0
176
     0
 90
        2
176
     1
  1
strokes_ogs.tif
176
     1
290
     0
176
     1
 40
1.0
176
     1
 40
1.0
176
     1
  0
VISUALSTYLE
  5
1E8
102
{ACAD_REACTORS
330
2A
102
}
330
2A
100
AcDbVisualStyle
  2
Sketchy
 70
    24
177
     3
291
     0
 70
    58
 90
        1
176
     1
 90
        2
176
     1
 90
        2
176
     1
 90
        0
176
     1
 40
0.6
176
     1
 40
30.0
176
     1
 62
     7
420
 16777215
176
     1
 90
        2
176
     1
 90
        2
176
     1
 62
     7
176
     1
 62
     7
176
     1
 90
        1
176
     1
 90
        1
176
     1
 40
40.0
176
     1
 90
       11
176
     1
 62
     7
176
     1
 40
1.0
176
     1
 90
        1
176
     1
 90
        6
176
     1
 90
        2
176
     1
 62
     7
176
     1
 90
        6
176
     1
 90
        0
176
     1
 90
        0
176
     1
290
     0
176
     1
 90
        1
176
     1
 40
0.0
176
     1
 90
        0
176
     1
290
     0
176
     1
290
     1
176
     1
290
     1
176
     1
290
     0
176
     1
290
     0
176
     1
290
     0
176
     1
290
     0
176
     1
290
     0
176
     1
290
     0
176
     1
 90
       50
176
     1
 40
0.0
176
     1
 40
1.0
176
     1
 90
        0
176
     1
 62
    18
420
        0
176
     1
 90
       50
176
     1
 90
        3
176
     1
 62
     5
420
      255
176
     1
290
     0
176
     1
 90
       50
176
     1
 90
       50
176
     1
 90
       50
176
     1
290
     0
176
     1
 90
       50
176
     1
 62
   256
176
     0
 40
1.0
176
     0
 90
        2
176
     1
  1
strokes_ogs.tif
176
     1
290
     0
176
     1
 40
1.0
176
     1
 40
1.0
176
     1
  0
VISUALSTYLE
  5
37
102
{ACAD_REACTORS
330
2A
102
}
330
2A
100
AcDbVisualStyle
  2
Thicken
 70
    13
177
     3
291
     1
 70
    58
 90
        2
176
     1
 90
        2
176
     1
 90
        0
176
     1
 90
        0
176
     1
 40
-0.6
176
     1
 40
-30.0
176
     1
 62
     7
176
     1
 90
        1
176
     1
 90
        4
176
     1
 62
     7
176
     1
 62
   257
176
     1
 90
        1
176
     1
 90
        1
176
     1
 40
1.0
176
     1
 90
       12
176
     1
 62
     7
176
     1
 40
1.0
176
     1
 90
        1
176
     1
 90
        6
176
     1
 90
        2
176
     1
 62
     7
176
     1
 90
        5
176
     1
 90
        0
176
     1
 90
        0
176
     1
290
     0
176
     1
 90
        1
176
     1
 40
0.0
176
     1
 90
        0
176
     1
290
     0
176
     1
290
     1
176
     1
290
     1
176
     1
290
     0
176
     1
290
     0
176
     1
290
     0
176
     1
290
     0
176
     1
290
     0
176
     1
290
     0
176
     1
 90
       50
176
     1
 40
0.0
176
     1
 40
1.0
176
     1
 90
        0
176
     1
 62
    18
420
        0
176
     1
 90
       50
176
     1
 90
        3
176
     1
 62
     5
420
      255
176
     1
290
     0
176
     1
 90
       50
176
     1
 90
       50
176
     1
 90
       50
176
     1
290
     0
176
     1
 90
       50
176
     1
 62
   256
176
     0
 40
1.0
176
     0
 90
        2
176
     1
  1
strokes_ogs.tif
176
     1
290
     0
176
     1
 40
1.0
176
     1
 40
1.0
176
     1
  0
VISUALSTYLE
  5
1E2
102
{ACAD_REACTORS
330
2A
102
}
330
2A
100
AcDbVisualStyle
  2
Wireframe
 70
     5
177
     3
291
     0
 70
    58
 90
        0
176
     1
 90
        2
176
     1
 90
        0
176
     1
 90
        0
176
     1
 40
0.6
176
     1
 40
30.0
176
     1
 62
     7
420
 16777215
176
     1
 90
        1
176
     1
 90
        4
176
     1
 62
     7
176
     1
 62
   257
176
     1
 90
        1
176
     1
 90
        1
176
     1
 40
1.0
176
     1
 90
        0
176
     1
 62
   257
176
     1
 40
1.0
176
     1
 90
        1
176
     1
 90
        6
176
     1
 90
        2
176
     1
 62
     7
176
     1
 90
        3
176
     1
 90
        0
176
     1
 90
        0
176
     1
290
     0
176
     1
 90
        1
176
     1
 40
0.0
176
     1
 90
        0
176
     1
290
     0
176
     1
290
     1
176
     1
290
     1
176
     1
290
     0
176
     1
290
     0
176
     1
290
     0
176
     1
290
     0
176
     1
290
     0
176
     1
290
     0
176
     1
 90
       50
176
     1
 40
0.0
176
     1
 40
1.0
176
     1
 90
        0
176
     1
 62
    18
420
        0
176
     1
 90
       50
176
     1
 90
        3
176
     1
 62
     5
420
      255
176
     1
290
     0
176
     1
 90
       50
176
     1
 90
       50
176
     1
 90
       50
176
     1
290
     0
176
     1
 90
       50
176
     1
 62
   256
176
     0
 40
1.0
176
     0
 90
        2
176
     1
  1
strokes_ogs.tif
176
     1
290
     0
176
     1
 40
1.0
176
     1
 40
1.0
176
     1
  0
VISUALSTYLE
  5
1E9
102
{ACAD_REACTORS
330
2A
102
}
330
2A
100
AcDbVisualStyle
  2
X-Ray
 70
    25
177
     3
291
     0
 70
    58
 90
        2
176
     1
 90
        2
176
     1
 90
        1
176
     1
 90
        1
176
     1
 40
0.5
176
     1
 40
30.0
176
     1
 62
     7
420
 16777215
176
     1
 90
        1
176
     1
 90
        0
176
     1
 62
     7
176
     1
 62
   257
176
     1
 90
        1
176
     1
 90
        1
176
     1
 40
1.0
176
     1
 90
        8
176
     1
 62
     7
176
     1
 40
1.0
176
     1
 90
        1
176
     1
 90
        6
176
     1
 90
        2
176
     1
 62
     7
176
     1
 90
        3
176
     1
 90
        0
176
     1
 90
        0
176
     1
290
     0
176
     1
 90
       13
176
     1
 40
0.0
176
     1
 90
        0
176
     1
290
     0
176
     1
290
     1
176
     1
290
     1
176
     1
290
     0
176
     1
290
     0
176
     1
290
     0
176
     1
290
     0
176
     1
290
     0
176
     1
290
     0
176
     1
 90
       50
176
     1
 40
0.0
176
     1
 40
1.0
176
     1
 90
        0
176
     1
 62
    18
420
        0
176
     1
 90
       50
176
     1
 90
        3
176
     1
 62
     5
420
      255
176
     1
290
     0
176
     1
 90
       50
176
     1
 90
       50
176
     1
 90
       50
176
     1
290
     0
176
     1
 90
       50
176
     1
 62
   256
176
     0
 40
1.0
176
     0
 90
        2
176
     1
  1
strokes_ogs.tif
176
     1
290
     0
176
     1
 40
1.0
176
     1
 40
1.0
176
     1
  0
DICTIONARYVAR
  5
1F1
102
{ACAD_REACTORS
330
1F0
102
}
330
1F0
100
DictionaryVariables
280
     0
  1
1:1
  0
DICTIONARYVAR
  5
1F3
102
{ACAD_REACTORS
330
1F0
102
}
330
1F0
100
DictionaryVariables
280
     0
  1
Standard
  0
DICTIONARYVAR
  5
1F2
102
{ACAD_REACTORS
330
1F0
102
}
330
1F0
100
DictionaryVariables
280
     0
  1
Standard
  0
DICTIONARYVAR
  5
1F4
102
{ACAD_REACTORS
330
1F0
102
}
330
1F0
100
DictionaryVariables
280
     0
  1
0
  0
DICTIONARY
  5
20B
330
1EC
100
AcDbDictionary
280
     1
281
     1
  3
ACAD_ROUNDTRIP_2008_TABLESTYLE_CELLSTYLEMAP
360
20C
  0
CELLSTYLEMAP
  5
20C
102
{ACAD_REACTORS
330
20B
102
}
330
20B
100
AcDbCellStyleMap
 90
        3
300
CELLSTYLE
  1
TABLEFORMAT_BEGIN
 90
        5
170
     1
 91
        0
 92
    32768
 62
   257
 93
        1
300
CONTENTFORMAT
  1
CONTENTFORMAT_BEGIN
 90
        0
 91
        0
 92
        4
 93
        0
300

 40
0.0
140
1.0
 94
        5
 62
     0
340
11
144
0.25
309
CONTENTFORMAT_END
171
     1
301
MARGIN
  1
CELLMARGIN_BEGIN
 40
0.06
 40
0.06
 40
0.06
 40
0.06
 40
0.06
 40
0.06
309
CELLMARGIN_END
 94
        6
 95
        1
302
GRIDFORMAT
  1
GRIDFORMAT_BEGIN
 90
        0
 91
        1
 62
     0
 92
       -2
340
14
 93
        0
 40
0.045
309
GRIDFORMAT_END
 95
        2
302
GRIDFORMAT
  1
GRIDFORMAT_BEGIN
 90
        0
 91
        1
 62
     0
 92
       -2
340
14
 93
        0
 40
0.045
309
GRIDFORMAT_END
 95
        4
302
GRIDFORMAT
  1
GRIDFORMAT_BEGIN
 90
        0
 91
        1
 62
     0
 92
       -2
340
14
 93
        0
 40
0.045
309
GRIDFORMAT_END
 95
        8
302
GRIDFORMAT
  1
GRIDFORMAT_BEGIN
 90
        0
 91
        1
 62
     0
 92
       -2
340
14
 93
        0
 40
0.045
309
GRIDFORMAT_END
 95
       16
302
GRIDFORMAT
  1
GRIDFORMAT_BEGIN
 90
        0
 91
        1
 62
     0
 92
       -2
340
14
 93
        0
 40
0.045
309
GRIDFORMAT_END
 95
       32
302
GRIDFORMAT
  1
GRIDFORMAT_BEGIN
 90
        0
 91
        1
 62
     0
 92
       -2
340
14
 93
        0
 40
0.045
309
GRIDFORMAT_END
309
TABLEFORMAT_END
  1
CELLSTYLE_BEGIN
 90
        1
 91
        1
300
_TITLE
309
CELLSTYLE_END
300
CELLSTYLE
  1
TABLEFORMAT_BEGIN
 90
        5
170
     1
 91
        0
 92
        0
 62
   257
 93
        1
300
CONTENTFORMAT
  1
CONTENTFORMAT_BEGIN
 90
        0
 91
        0
 92
        4
 93
        0
300

 40
0.0
140
1.0
 94
        5
 62
     0
340
11
144
0.18
309
CONTENTFORMAT_END
171
     1
301
MARGIN
  1
CELLMARGIN_BEGIN
 40
0.06
 40
0.06
 40
0.06
 40
0.06
 40
0.06
 40
0.06
309
CELLMARGIN_END
 94
        6
 95
        1
302
GRIDFORMAT
  1
GRIDFORMAT_BEGIN
 90
        0
 91
        1
 62
     0
 92
       -2
340
14
 93
        0
 40
0.045
309
GRIDFORMAT_END
 95
        2
302
GRIDFORMAT
  1
GRIDFORMAT_BEGIN
 90
        0
 91
        1
 62
     0
 92
       -2
340
14
 93
        0
 40
0.045
309
GRIDFORMAT_END
 95
        4
302
GRIDFORMAT
  1
GRIDFORMAT_BEGIN
 90
        0
 91
        1
 62
     0
 92
       -2
340
14
 93
        0
 40
0.045
309
GRIDFORMAT_END
 95
        8
302
GRIDFORMAT
  1
GRIDFORMAT_BEGIN
 90
        0
 91
        1
 62
     0
 92
       -2
340
14
 93
        0
 40
0.045
309
GRIDFORMAT_END
 95
       16
302
GRIDFORMAT
  1
GRIDFORMAT_BEGIN
 90
        0
 91
        1
 62
     0
 92
       -2
340
14
 93
        0
 40
0.045
309
GRIDFORMAT_END
 95
       32
302
GRIDFORMAT
  1
GRIDFORMAT_BEGIN
 90
        0
 91
        1
 62
     0
 92
       -2
340
14
 93
        0
 40
0.045
309
GRIDFORMAT_END
309
TABLEFORMAT_END
  1
CELLSTYLE_BEGIN
 90
        2
 91
        1
300
_HEADER
309
CELLSTYLE_END
300
CELLSTYLE
  1
TABLEFORMAT_BEGIN
 90
        5
170
     1
 91
        0
 92
        0
 62
   257
 93
        1
300
CONTENTFORMAT
  1
CONTENTFORMAT_BEGIN
 90
        0
 91
        0
 92
        4
 93
        0
300

 40
0.0
140
1.0
 94
        2
 62
     0
340
11
144
0.18
309
CONTENTFORMAT_END
171
     1
301
MARGIN
  1
CELLMARGIN_BEGIN
 40
0.06
 40
0.06
 40
0.06
 40
0.06
 40
0.06
 40
0.06
309
CELLMARGIN_END
 94
        6
 95
        1
302
GRIDFORMAT
  1
GRIDFORMAT_BEGIN
 90
        0
 91
        1
 62
     0
 92
       -2
340
14
 93
        0
 40
0.045
309
GRIDFORMAT_END
 95
        2
302
GRIDFORMAT
  1
GRIDFORMAT_BEGIN
 90
        0
 91
        1
 62
     0
 92
       -2
340
14
 93
        0
 40
0.045
309
GRIDFORMAT_END
 95
        4
302
GRIDFORMAT
  1
GRIDFORMAT_BEGIN
 90
        0
 91
        1
 62
     0
 92
       -2
340
14
 93
        0
 40
0.045
309
GRIDFORMAT_END
 95
        8
302
GRIDFORMAT
  1
GRIDFORMAT_BEGIN
 90
        0
 91
        1
 62
     0
 92
       -2
340
14
 93
        0
 40
0.045
309
GRIDFORMAT_END
 95
       16
302
GRIDFORMAT
  1
GRIDFORMAT_BEGIN
 90
        0
 91
        1
 62
     0
 92
       -2
340
14
 93
        0
 40
0.045
309
GRIDFORMAT_END
 95
       32
302
GRIDFORMAT
  1
GRIDFORMAT_BEGIN
 90
        0
 91
        1
 62
     0
 92
       -2
340
14
 93
        0
 40
0.045
309
GRIDFORMAT_END
309
TABLEFORMAT_END
  1
CELLSTYLE_BEGIN
 90
        3
 91
        2
300
_DATA
309
CELLSTYLE_END
  0
ENDSEC
  0
EOF
