  0
SECTION
  2
HEADER
  9
$ACADVER
  1
AC1015
  9
$ACADMAINTVER
 70
               6
  9
$DWGCODEPAGE
  3
ANSI_932
  9
$INSBASE
 10
0.0
 20
0.0
 30
0.0
  9
$EXTMIN
 10
241.0
 20
61.266666666666666
 30
0.0
  9
$EXTMAX
 10
260.00766569773356
 20
65.5
 30
0.0
  9
$LIMMIN
 10
0.0
 20
0.0
  9
$LIMMAX
 10
0.0
 20
0.0
  9
$ORTHOMODE
 70
               0
  9
$REGENMODE
 70
               1
  9
$FILLMODE
 70
               1
  9
$QTEXTMODE
 70
               0
  9
$MIRRTEXT
 70
               1
  9
$LTSCALE
 40
12.699999999999999
  9
$ATTMODE
 70
               1
  9
$TEXTSIZE
 40
0.2
  9
$TRACEWID
 40
1.0
  9
$TEXTSTYLE
  7
Standard
  9
$CLAYER
  8
0
  9
$CELTYPE
  6
Continuous
  9
$CECOLOR
 62
             256
  9
$CELTSCALE
 40
1.0
  9
$DISPSILH
 70
               0
  9
$DIMSCALE
 40
1.0
  9
$DIMASZ
 40
0.18
  9
$DIMEXO
 40
0.0625
  9
$DIMDLI
 40
0.38
  9
$DIMRND
 40
0.0
  9
$DIMDLE
 40
0.0
  9
$DIMEXE
 40
0.18
  9
$DIMTP
 40
0.0
  9
$DIMTM
 40
0.0
  9
$DIMTXT
 40
0.18
  9
$DIMCEN
 40
0.09
  9
$DIMTSZ
 40
0.0
  9
$DIMTOL
 70
               0
  9
$DIMLIM
 70
               0
  9
$DIMTIH
 70
               1
  9
$DIMTOH
 70
               1
  9
$DIMSE1
 70
               0
  9
$DIMSE2
 70
               0
  9
$DIMTAD
 70
               0
  9
$DIMZIN
 70
               0
  9
$DIMBLK
  1

  9
$DIMASO
 70
               1
  9
$DIMSHO
 70
               1
  9
$DIMPOST
  1

  9
$DIMAPOST
  1

  9
$DIMALT
 70
               0
  9
$DIMALTD
 70
               2
  9
$DIMALTF
 40
25.399999999999999
  9
$DIMLFAC
 40
1.0
  9
$DIMTOFL
 70
               0
  9
$DIMTVP
 40
0.0
  9
$DIMTIX
 70
               0
  9
$DIMSOXD
 70
               0
  9
$DIMSAH
 70
               0
  9
$DIMBLK1
  1

  9
$DIMBLK2
  1

  9
$DIMSTYLE
  2
Standard
  9
$DIMCLRD
 70
               0
  9
$DIMCLRE
 70
               0
  9
$DIMCLRT
 70
               0
  9
$DIMTFAC
 40
1.0
  9
$DIMGAP
 40
0.09
  9
$DIMJUST
 70
               0
  9
$DIMSD1
 70
               0
  9
$DIMSD2
 70
               0
  9
$DIMTOLJ
 70
               1
  9
$DIMTZIN
 70
               0
  9
$DIMALTZ
 70
               0
  9
$DIMALTTZ
 70
               0
  9
$DIMUPT
 70
               0
  9
$DIMDEC
 70
               4
  9
$DIMTDEC
 70
               4
  9
$DIMALTU
 70
               2
  9
$DIMALTTD
 70
               2
  9
$DIMTXSTY
  7
Standard
  9
$DIMAUNIT
 70
               0
  9
$DIMADEC
 70
               0
  9
$DIMALTRND
 40
0.0
  9
$DIMAZIN
 70
               0
  9
$DIMDSEP
 70
               0
  9
$DIMATFIT
 70
               3
  9
$DIMFRAC
 70
               0
  9
$DIMLDRBLK
  1

  9
$DIMLUNIT
 70
               2
  9
$DIMLWD
 70
               0
  9
$DIMLWE
 70
               0
  9
$DIMTMOVE
 70
               0
  9
$LUNITS
 70
               2
  9
$LUPREC
 70
               4
  9
$SKETCHINC
 40
0.1
  9
$FILLETRAD
 40
0.0
  9
$AUNITS
 70
               0
  9
$AUPREC
 70
               0
  9
$MENU
  1
acad
  9
$ELEVATION
 40
0.0
  9
$PELEVATION
 40
0.0
  9
$THICKNESS
 40
0.0
  9
$LIMCHECK
 70
               0
  9
$CHAMFERA
 40
0.0
  9
$CHAMFERB
 40
0.0
  9
$CHAMFERC
 40
0.0
  9
$CHAMFERD
 40
0.0
  9
$SKPOLY
 70
               0
  9
$TDCREATE
 40
2458268.700185185
  9
$TDUCREATE
 40
0.000000000
  9
$TDUPDATE
 40
2458268.700185185
  9
$TDUUPDATE
 40
0.000000000
  9
$TDINDWG
 40
0.0000000000
  9
$TDUSRTIMER
 40
0.0000000000
  9
$USRTIMER
 70
               1
  9
$ANGBASE
 50
0.0
  9
$ANGDIR
 70
               0
  9
$PDMODE
 70
               1
  9
$PDSIZE
 40
-2.0
  9
$PLINEWID
 40
0.0
  9
$SPLFRAME
 70
               0
  9
$SPLINETYPE
 70
               6
  9
$SPLINESEGS
 70
               8
  9
$HANDSEED
  5
1D4
  9
$SURFTAB1
 70
               6
  9
$SURFTAB2
 70
               6
  9
$SURFTYPE
 70
               6
  9
$SURFU
 70
               6
  9
$SURFV
 70
               6
  9
$UCSBASE
  2

  9
$UCSNAME
  2

  9
$UCSORG
 10
0.0
 20
0.0
 30
0.0
  9
$UCSXDIR
 10
1.0
 20
0.0
 30
0.0
  9
$UCSYDIR
 10
0.0
 20
1.0
 30
0.0
  9
$UCSORTHOREF
  2

  9
$UCSORTHOVIEW
 70
               0
  9
$UCSORGTOP
 10
0.0
 20
0.0
 30
0.0
  9
$UCSORGBOTTOM
 10
0.0
 20
0.0
 30
0.0
  9
$UCSORGLEFT
 10
0.0
 20
0.0
 30
0.0
  9
$UCSORGRIGHT
 10
0.0
 20
0.0
 30
0.0
  9
$UCSORGFRONT
 10
0.0
 20
0.0
 30
0.0
  9
$UCSORGBACK
 10
0.0
 20
0.0
 30
0.0
  9
$PUCSBASE
  2

  9
$PUCSNAME
  2

  9
$PUCSORG
 10
0.0
 20
0.0
 30
0.0
  9
$PUCSXDIR
 10
1.0
 20
0.0
 30
0.0
  9
$PUCSYDIR
 10
0.0
 20
1.0
 30
0.0
  9
$PUCSORTHOREF
  2

  9
$PUCSORTHOVIEW
 70
               0
  9
$PUCSORGTOP
 10
0.0
 20
0.0
 30
0.0
  9
$PUCSORGBOTTOM
 10
0.0
 20
0.0
 30
0.0
  9
$PUCSORGLEFT
 10
0.0
 20
0.0
 30
0.0
  9
$PUCSORGRIGHT
 10
0.0
 20
0.0
 30
0.0
  9
$PUCSORGFRONT
 10
0.0
 20
0.0
 30
0.0
  9
$PUCSORGBACK
 10
0.0
 20
0.0
 30
0.0
  9
$USERI1
 70
               0
  9
$USERI2
 70
               0
  9
$USERI3
 70
               0
  9
$USERI4
 70
               0
  9
$USERI5
 70
               0
  9
$USERR1
 40
0.0
  9
$USERR2
 40
0.0
  9
$USERR3
 40
0.0
  9
$USERR4
 40
0.0
  9
$USERR5
 40
0.0
  9
$WORLDVIEW
 70
               1
  9
$SHADEDGE
 70
               3
  9
$SHADEDIF
 70
              70
  9
$TILEMODE
 70
               1
  9
$MAXACTVP
 70
              16
  9
$PINSBASE
 10
0.0
 20
0.0
 30
0.0
  9
$PLIMCHECK
 70
               0
  9
$PEXTMIN
 10
1.0000000000000000E+20
 20
1.0000000000000000E+20
 30
1.0000000000000000E+20
  9
$PEXTMAX
 10
-1.0000000000000000E+20
 20
-1.0000000000000000E+20
 30
-1.0000000000000000E+20
  9
$PLIMMIN
 10
0.0
 20
0.0
  9
$PLIMMAX
 10
12.0
 20
9.0
  9
$UNITMODE
 70
               0
  9
$VISRETAIN
 70
               0
  9
$PLINEGEN
 70
               1
  9
$PSLTSCALE
 70
               0
  9
$TREEDEPTH
 70
            3020
  9
$CMLSTYLE
  2
Standard
  9
$CMLJUST
 70
               0
  9
$CMLSCALE
 40
1.0
  9
$PROXYGRAPHICS
 70
               0
  9
$MEASUREMENT
 70
               1
  9
$CELWEIGHT
370
               0
  9
$ENDCAPS
280
               0
  9
$JOINSTYLE
280
               0
  9
$LWDISPLAY
290
               1
  9
$INSUNITS
 70
               4
  9
$HYPERLINKBASE
  1

  9
$STYLESHEET
  1

  9
$XEDIT
290
               1
  9
$CEPSNTYPE
380
               0
  9
$PSTYLEMODE
290
               1
  9
$FINGERPRINTGUID
  2

  9
$VERSIONGUID
  2

  9
$EXTNAMES
290
               1
  9
$PSVPSCALE
 40
0.0
  0
ENDSEC
  0
SECTION
  2
CLASSES
  0
CLASS
  1
LWPOLYLINE
  2
AcDbPolyline
  3
AutoCAD 2000
 90
    32768
280
               0
281
               1
  0
CLASS
  1
IMAGE
  2
AcDbRasterImage
  3
ISM
 90
    32895
280
               0
281
               1
  0
CLASS
  1
OLE2FRAME
  2
AcDbOle2Frame
  3
AutoCAD 2000
 90
    32768
280
               0
281
               1
  0
CLASS
  1
HATCH
  2
AcDbHatch
  3
AutoCAD 2000
 90
    32768
280
               0
281
               1
  0
CLASS
  1
DICTIONARYVAR
  2
AcDbDictionaryVar
  3
AutoCAD 2000
 90
    32768
280
               0
281
               0
  0
CLASS
  1
RASTERVARIABLES
  2
AcDbRasterVariables
  3
ISM
 90
    32768
280
               0
281
               0
  0
CLASS
  1
IMAGEDEF
  2
AcDbRasterImageDef
  3
ISM
 90
    32768
280
               0
281
               0
  0
CLASS
  1
IMAGEDEF_REACTOR
  2
AcDbRasterImageDefReactor
  3
ISM
 90
    32769
280
               0
281
               0
  0
CLASS
  1
IDBUFFER
  2
AcDbIdBuffer
  3
AutoCAD 2000
 90
    32768
280
               0
281
               0
  0
CLASS
  1
SPATIAL_FILTER
  2
AcDbSpatialFilter
  3
AutoCAD 2000
 90
    32768
280
               0
281
               0
  0
CLASS
  1
XRECORD
  2
AcDbXrecord
  3
AutoCAD 2000
 90
    32768
280
               0
281
               0
  0
CLASS
  1
SORTENTSTABLE
  2
AcDbSortentsTable
  3
AutoCAD 2000
 90
    32768
280
               0
281
               0
  0
CLASS
  1
LAYER_INDEX
  2
AcDbLayerIndex
  3
AutoCAD 2000
 90
    32768
280
               0
281
               0
  0
CLASS
  1
SPATIAL_INDEX
  2
AcDbSpatialIndex
  3
AutoCAD 2000
 90
    32768
280
               0
281
               0
  0
CLASS
  1
OBJECT_PTR
  2
CAseDLPNTableRecord
  3
"ASE-LPNTableRecord"
 90
    32769
280
               0
281
               0
  0
CLASS
  1
LAYOUT
  2
AcDbLayout
  3
AutoCAD 2000
 90
        0
280
               0
281
               0
  0
CLASS
  1
PLOTSETTINGS
  2
AcDbPlotSettings
  3
AutoCAD 2000
 90
    32768
280
               0
281
               0
  0
CLASS
  1
ACDBDICTIONARYWDFLT
  2
AcDbDictionaryWithDefault
  3
AutoCAD 2000
 90
        0
280
               0
281
               0
  0
CLASS
  1
ACDBPLACEHOLDER
  2
AcDbPlaceHolder
  3
AutoCAD 2000
 90
        0
280
               0
281
               0
  0
CLASS
  1
VBA_PROJECT
  2
AcDbVbaProject
  3
acadvba
 90
    32768
280
               0
281
               0
  0
CLASS
  1
WIPEOUT
  2
AcDbWipeout
  3
WipeOut|AutoCAD Express Tool|expresstools@autodesk.com
 90
    32895
280
               0
281
               1
  0
CLASS
  1
WIPEOUTVARIABLES
  2
AcDbWipeoutVariables
  3
WipeOut|AutoCAD Express Tool|expresstools@autodesk.com
 90
        0
280
               0
281
               0
  0
CLASS
  1
RTEXT
  2
RText
  3
RText|AutoCAD Express Tool|expresstools@autodesk.com
 90
    32768
280
               0
281
               1
  0
CLASS
  1
ARCALIGNEDTEXT
  2
AcDbArcAlignedText
  3
ATEXT|AutoCAD Express Tool|expresstools@autodesk.com
 90
    32768
280
               0
281
               1
  0
ENDSEC
  0
SECTION
  2
TABLES
  0
TABLE
  2
VPORT
  5
7
100
AcDbSymbolTable
 70
               1
  0
VPORT
  5
15
100
AcDbSymbolTableRecord
100
AcDbViewportTableRecord
  2
*ACTIVE
 70
               0
 10
0.0
 20
0.0
 11
1.0
 21
1.0
 12
250.50383284886678
 22
63.383333333333333
 13
0.0
 23
0.0
 14
1.0
 24
1.0
 15
0.0
 25
0.0
 16
0.0
 26
0.0
 36
1.0
 17
0.0
 27
0.0
 37
0.0
 40
4.2333333333333343
 41
0.688564
 42
50.0
 43
0.0
 44
0.0
 50
0.0
 51
0.0
 71
               0
 72
             100
 73
               1
 74
               1
 75
               0
 76
               0
 77
               0
 78
               0
281
               0
 65
               0
110
0.0
120
0.0
130
0.0
111
1.0
121
0.0
131
0.0
112
0.0
122
1.0
132
0.0
345
0
346
0
 79
               0
146
0.0
  0
ENDTAB
  0
TABLE
  2
LTYPE
  5
4
100
AcDbSymbolTable
 70
              13
  0
LTYPE
  5
11
100
AcDbSymbolTableRecord
100
AcDbLinetypeTableRecord
  2
ByBlock
 70
              64
  3

 72
              65
 73
               0
 40
0.0
  0
LTYPE
  5
12
100
AcDbSymbolTableRecord
100
AcDbLinetypeTableRecord
  2
ByLayer
 70
              64
  3

 72
              65
 73
               0
 40
0.0
  0
LTYPE
  5
13
100
AcDbSymbolTableRecord
100
AcDbLinetypeTableRecord
  2
Continuous
 70
              64
  3
Solid line
 72
              65
 73
               0
 40
0.0
  0
LTYPE
  5
26
100
AcDbSymbolTableRecord
100
AcDbLinetypeTableRecord
  2
STYLE_01
 70
               0
  3

 72
              65
 73
               2
 40
0.15
 49
0.1
 74
               0
 49
-0.05
 74
               0
  0
LTYPE
  5
27
100
AcDbSymbolTableRecord
100
AcDbLinetypeTableRecord
  2
STYLE_02
 70
               0
  3

 72
              65
 73
               6
 40
0.9999999999999999
 49
0.4999999999999999
 74
               0
 49
-0.1
 74
               0
 49
0.1
 74
               0
 49
-0.1
 74
               0
 49
0.1
 74
               0
 49
-0.1
 74
               0
  0
LTYPE
  5
28
100
AcDbSymbolTableRecord
100
AcDbLinetypeTableRecord
  2
STYLE_03
 70
               0
  3

 72
              65
 73
               4
 40
0.7999999999999999
 49
0.4999999999999999
 74
               0
 49
-0.1
 74
               0
 49
0.1
 74
               0
 49
-0.1
 74
               0
  0
LTYPE
  5
29
100
AcDbSymbolTableRecord
100
AcDbLinetypeTableRecord
  2
STYLE_04
 70
               0
  3

 72
              65
 73
               4
 40
1.5999999999999999
 49
0.9999999999999999
 74
               0
 49
-0.2000000000000001
 74
               0
 49
0.2
 74
               0
 49
-0.2
 74
               0
  0
LTYPE
  5
2A
100
AcDbSymbolTableRecord
100
AcDbLinetypeTableRecord
  2
STYLE_05
 70
               0
  3

 72
              65
 73
               2
 40
0.05
 49
0.0002
 74
               0
 49
-0.0498
 74
               0
  0
LTYPE
  5
2B
100
AcDbSymbolTableRecord
100
AcDbLinetypeTableRecord
  2
STYLE_06
 70
               0
  3

 72
              65
 73
               4
 40
0.416656
 49
0.25
 74
               0
 49
-0.083312
 74
               0
 49
0.027772
 74
               0
 49
-0.055572
 74
               0
  0
LTYPE
  5
2C
100
AcDbSymbolTableRecord
100
AcDbLinetypeTableRecord
  2
STYLE_07
 70
               0
  3

 72
              65
 73
               6
 40
0.75
 49
0.25
 74
               0
 49
-0.083312
 74
               0
 49
0.2500000000000001
 74
               0
 49
-0.083344
 74
               0
 49
0.027772
 74
               0
 49
-0.055572
 74
               0
  0
LTYPE
  5
2D
100
AcDbSymbolTableRecord
100
AcDbLinetypeTableRecord
  2
STYLE_08
 70
               0
  3

 72
              65
 73
               6
 40
0.5
 49
0.25
 74
               0
 49
-0.083312
 74
               0
 49
0.027772
 74
               0
 49
-0.055572
 74
               0
 49
0.027772
 74
               0
 49
-0.055572
 74
               0
  0
LTYPE
  5
2E
100
AcDbSymbolTableRecord
100
AcDbLinetypeTableRecord
  2
STYLE_09
 70
               0
  3

 72
              65
 73
               4
 40
2.0
 49
1.5
 74
               0
 49
-0.1111139999999999
 74
               0
 49
0.2777720000000001
 74
               0
 49
-0.1111139999999999
 74
               0
  0
LTYPE
  5
2F
100
AcDbSymbolTableRecord
100
AcDbLinetypeTableRecord
  2
STYLE_10
 70
               0
  3

 72
              65
 73
               6
 40
2.375
 49
1.5
 74
               0
 49
-0.1111139999999999
 74
               0
 49
0.2777720000000001
 74
               0
 49
-0.1111139999999999
 74
               0
 49
0.25
 74
               0
 49
-0.125
 74
               0
  0
ENDTAB
  0
TABLE
  2
LAYER
  5
2
100
AcDbSymbolTable
 70
               6
  0
LAYER
  5
14
100
AcDbSymbolTableRecord
100
AcDbLayerTableRecord
  2
0
 70
               0
 62
               7
  6
Continuous
290
               1
370
              15
390
1D
  0
LAYER
  5
30
100
AcDbSymbolTableRecord
100
AcDbLayerTableRecord
  2
Defpoints
 70
               0
 62
               7
  6
Continuous
290
               0
370
              -3
390
1D
  0
LAYER
  5
31
100
AcDbSymbolTableRecord
100
AcDbLayerTableRecord
  2
一般
 70
               0
 62
               7
  6
Continuous
290
               1
370
               5
390
1D
  0
LAYER
  5
32
100
AcDbSymbolTableRecord
100
AcDbLayerTableRecord
  2
寸法
 70
               0
 62
               7
  6
Continuous
290
               1
370
               5
390
1D
  0
LAYER
  5
33
100
AcDbSymbolTableRecord
100
AcDbLayerTableRecord
  2
レイヤー_1
 70
               0
 62
              19
  6
Continuous
290
               1
370
              15
390
1D
  0
LAYER
  5
34
100
AcDbSymbolTableRecord
100
AcDbLayerTableRecord
  2
FORMAT
 70
               0
 62
               7
  6
Continuous
290
               1
370
              15
390
1D
  0
ENDTAB
  0
TABLE
  2
STYLE
  5
3
100
AcDbSymbolTable
 70
               2
  0
STYLE
  5
17
100
AcDbSymbolTableRecord
100
AcDbTextStyleTableRecord
  2
Standard
 70
               0
 40
0.0
 41
1.0
 50
0.0
 71
               0
 42
0.0
  3
txt
  4
BIGFONT.SHX
  0
STYLE
  5
25
100
AcDbSymbolTableRecord
100
AcDbTextStyleTableRecord
  2
ＭＳ Ｐゴシック
 70
               0
 40
0.0
 41
1.0
 50
0.0
 71
               0
 42
0.0
  3
ＭＳ Ｐゴシック
  4

1001
ACAD
1000
ＭＳ Ｐゴシック
1071
        0
  0
ENDTAB
  0
TABLE
  2
VIEW
  5
5
100
AcDbSymbolTable
 70
               0
  0
ENDTAB
  0
TABLE
  2
UCS
  5
6
100
AcDbSymbolTable
 70
               0
  0
ENDTAB
  0
TABLE
  2
APPID
  5
8
100
AcDbSymbolTable
 70
               1
  0
APPID
  5
16
100
AcDbSymbolTableRecord
100
AcDbRegAppTableRecord
  2
ACAD
 70
               0
  0
ENDTAB
  0
TABLE
  2
DIMSTYLE
  5
9
100
AcDbSymbolTable
 70
               1
100
AcDbDimStyleTable
 71
               0
  0
DIMSTYLE
105
18
100
AcDbSymbolTableRecord
100
AcDbDimStyleTableRecord
  2
Standard
 70
               0
  3

  4

 40
1.0
 41
0.18
 42
0.0625
 43
0.38
 44
0.18
 45
0.0
 46
0.0
 47
0.0
 48
0.0
 71
               0
 72
               0
 73
               1
 74
               1
 75
               0
 76
               0
 77
               0
 78
               0
 79
               0
140
0.18
141
0.09
142
0.0
143
25.399999999999999
144
1.0
145
0.0
146
1.0
147
0.09
148
0.0
170
               0
171
               2
172
               0
173
               0
174
               0
175
               0
176
               0
177
               0
178
               0
179
               0
271
               4
272
               4
273
               2
274
               2
275
               0
276
               0
277
               2
278
              46
279
               0
280
               0
281
               0
282
               0
283
               1
284
               0
285
               0
286
               0
288
               0
340
17
341
0
342
0
343
0
344
0
371
              -2
372
              -2
  0
ENDTAB
  0
TABLE
  2
BLOCK_RECORD
  5
1
100
AcDbSymbolTable
 70
               1
  0
BLOCK_RECORD
  5
A
100
AcDbSymbolTableRecord
100
AcDbBlockTableRecord
  2
*MODEL_SPACE
340
20
  0
BLOCK_RECORD
  5
B
100
AcDbSymbolTableRecord
100
AcDbBlockTableRecord
  2
*PAPER_SPACE
340
21
  0
BLOCK_RECORD
  5
24
100
AcDbSymbolTableRecord
100
AcDbBlockTableRecord
  2
*U0
340
0
102
{BLKREFS
331
1D2
102
}
  0
ENDTAB
  0
ENDSEC
  0
SECTION
  2
BLOCKS
  0
BLOCK
  5
D
100
AcDbEntity
  8
0
100
AcDbBlockBegin
  2
*MODEL_SPACE
 70
               0
 10
0.0
 20
0.0
 30
0.0
  3
*MODEL_SPACE
  1

  0
ENDBLK
  5
E
100
AcDbEntity
  8
0
100
AcDbBlockEnd
  0
BLOCK
  5
F
100
AcDbEntity
 67
               1
  8
0
100
AcDbBlockBegin
  2
*PAPER_SPACE
 70
               0
 10
0.0
 20
0.0
 30
0.0
  3
*PAPER_SPACE
  1

  0
ENDBLK
  5
10
100
AcDbEntity
 67
               1
  8
0
100
AcDbBlockEnd
  0
BLOCK
  5
35
100
AcDbEntity
  8
一般
100
AcDbBlockBegin
  2
*U0
 70
               1
 10
0.0
 20
0.0
 30
0.0
  3
*U0
  1

  0
LINE
  5
36
100
AcDbEntity
  8
0
370
              18
  6
Continuous
 62
               7
100
AcDbLine
 10
-24.452479649099999
 20
-76.552945642699996
 30
0.0
 11
-9.3684904474999939
 21
-71.9165097315
 31
0.0
  0
LINE
  5
37
100
AcDbEntity
  8
0
370
              18
  6
Continuous
 62
               7
100
AcDbLine
 10
5.0
 20
-67.5
 30
0.0
 11
14.072032997799994
 21
-64.711487026699999
 31
0.0
  0
LINE
  5
38
100
AcDbEntity
  8
0
370
              18
  6
Continuous
 62
               7
100
AcDbLine
 10
13.366892660800005
 20
-62.417412805399991
 30
0.0
 11
5.0027827392000006
 21
-64.988328170499997
 31
0.0
  0
LINE
  5
39
100
AcDbEntity
  8
0
370
              18
  6
Continuous
 62
               7
100
AcDbLine
 10
-10.073630784499997
 20
-69.622435510299994
 30
0.0
 11
-25.157619986099988
 21
-74.258871421399988
 31
0.0
  0
LINE
  5
3A
100
AcDbEntity
  8
0
370
              18
  6
Continuous
 62
               7
100
AcDbLine
 10
-6.277321835399988
 20
85.763729206400001
 30
0.0
 11
-15.592307528499987
 21
82.900538733299982
 31
0.0
  0
LINE
  5
3B
100
AcDbEntity
  8
0
370
              18
  6
Continuous
 62
               7
100
AcDbLine
 10
4.8136661217000096
 20
83.353679164900029
 30
0.0
 11
-6.2745574856999866
 21
85.763842983500012
 31
0.0
  0
LINE
  5
3C
100
AcDbEntity
  8
0
370
              18
  6
Continuous
 62
               7
100
AcDbLine
 10
-15.915638462699988
 20
81.951290269600008
 30
0.0
 11
-16.08558732089999
 21
-71.470358363799988
 31
0.0
  0
LINE
  5
3D
100
AcDbEntity
  8
0
370
              18
  6
Continuous
 62
               7
100
AcDbLine
 10
4.994843994900009
 20
-72.154893552999994
 30
0.0
 11
5.1660591014999966
 21
82.409863252600019
 31
0.0
  0
POLYLINE
  5
3E
100
AcDbEntity
  8
0
370
              18
  6
Continuous
 62
               7
100
AcDb2dPolyline
 66
               1
 10
0.0
 20
0.0
 30
0.0
 75
               5
  0
VERTEX
  5
3F
100
AcDbEntity
  8
0
370
              18
  6
Continuous
 62
               7
100
AcDbVertex
100
AcDb2dVertex
 10
-23.88508069689999
 20
-75.605875304699993
 30
0.0
  0
VERTEX
  5
40
100
AcDbEntity
  8
0
370
              18
  6
Continuous
 62
               7
100
AcDbVertex
100
AcDb2dVertex
 10
-23.914302583999998
 20
-75.887893596299989
 30
0.0
  0
VERTEX
  5
41
100
AcDbEntity
  8
0
370
              18
  6
Continuous
 62
               7
100
AcDbVertex
100
AcDb2dVertex
 10
-23.999493358699993
 20
-76.139627066499997
 30
0.0
  0
VERTEX
  5
42
100
AcDbEntity
  8
0
370
              18
  6
Continuous
 62
               7
100
AcDbVertex
100
AcDb2dVertex
 10
-24.135300281699998
 20
-76.345258332099988
 30
0.0
  0
VERTEX
  5
43
100
AcDbEntity
  8
0
370
              18
  6
Continuous
 62
               7
100
AcDbVertex
100
AcDb2dVertex
 10
-24.313189981699992
 20
-76.491866740099994
 30
0.0
  0
VERTEX
  5
44
100
AcDbEntity
  8
0
370
              18
  6
Continuous
 62
               7
100
AcDbVertex
100
AcDb2dVertex
 10
-24.521985029499987
 20
-76.570240469199987
 30
0.0
  0
VERTEX
  5
45
100
AcDbEntity
  8
0
370
              18
  6
Continuous
 62
               7
100
AcDbVertex
100
AcDb2dVertex
 10
-24.748566104799991
 20
-76.575454831599998
 30
0.0
  0
VERTEX
  5
46
100
AcDbEntity
  8
0
370
              18
  6
Continuous
 62
               7
100
AcDbVertex
100
AcDb2dVertex
 10
-24.978696245899997
 20
-76.507182317099989
 30
0.0
  0
VERTEX
  5
47
100
AcDbEntity
  8
0
370
              18
  6
Continuous
 62
               7
100
AcDbVertex
100
AcDb2dVertex
 10
-25.197915564699997
 20
-76.369712839599998
 30
0.0
  0
VERTEX
  5
48
100
AcDbEntity
  8
0
370
              18
  6
Continuous
 62
               7
100
AcDbVertex
100
AcDb2dVertex
 10
-25.392449657099988
 20
-76.171683748199996
 30
0.0
  0
VERTEX
  5
49
100
AcDbEntity
  8
0
370
              18
  6
Continuous
 62
               7
100
AcDbVertex
100
AcDb2dVertex
 10
-25.550075302899998
 20
-75.925538342300001
 30
0.0
  0
VERTEX
  5
4A
100
AcDbEntity
  8
0
370
              18
  6
Continuous
 62
               7
100
AcDbVertex
100
AcDb2dVertex
 10
-25.660888211499994
 20
-75.646742717099997
 30
0.0
  0
VERTEX
  5
4B
100
AcDbEntity
  8
0
370
              18
  6
Continuous
 62
               7
100
AcDbVertex
100
AcDb2dVertex
 10
-25.717925676299998
 20
-75.352814562099994
 30
0.0
  0
VERTEX
  5
4C
100
AcDbEntity
  8
0
370
              18
  6
Continuous
 62
               7
100
AcDbVertex
100
AcDb2dVertex
 10
-25.717603780499999
 20
-75.062222542899988
 30
0.0
  0
VERTEX
  5
4D
100
AcDbEntity
  8
0
370
              18
  6
Continuous
 62
               7
100
AcDbVertex
100
AcDb2dVertex
 10
-25.659942749699994
 20
-74.793225357799997
 30
0.0
  0
VERTEX
  5
4E
100
AcDbEntity
  8
0
370
              18
  6
Continuous
 62
               7
100
AcDbVertex
100
AcDb2dVertex
 10
-25.548565682099991
 20
-74.562725317499996
 30
0.0
  0
VERTEX
  5
4F
100
AcDbEntity
  8
0
370
              18
  6
Continuous
 62
               7
100
AcDbVertex
100
AcDb2dVertex
 10
-25.390470732299988
 20
-74.385205724299993
 30
0.0
  0
VERTEX
  5
50
100
AcDbEntity
  8
0
370
              18
  6
Continuous
 62
               7
100
AcDbVertex
100
AcDb2dVertex
 10
-25.195591678999989
 20
-74.271820621299995
 30
0.0
  0
VERTEX
  5
51
100
AcDbEntity
  8
0
370
              18
  6
Continuous
 62
               7
100
AcDbVertex
100
AcDb2dVertex
 10
-24.976173417899986
 20
-74.229694677399991
 30
0.0
  0
VERTEX
  5
52
100
AcDbEntity
  8
0
370
              18
  6
Continuous
 62
               7
100
AcDbVertex
100
AcDb2dVertex
 10
-24.746002852599986
 20
-74.261474087499991
 30
0.0
  0
VERTEX
  5
53
100
AcDbEntity
  8
0
370
              18
  6
Continuous
 62
               7
100
AcDbVertex
100
AcDb2dVertex
 10
-24.519542411799989
 20
-74.365162858899993
 30
0.0
  0
VERTEX
  5
54
100
AcDbEntity
  8
0
370
              18
  6
Continuous
 62
               7
100
AcDbVertex
100
AcDb2dVertex
 10
-24.311021477299988
 20
-74.534245426199988
 30
0.0
  0
VERTEX
  5
55
100
AcDbEntity
  8
0
370
              18
  6
Continuous
 62
               7
100
AcDbVertex
100
AcDb2dVertex
 10
-24.133542145699991
 20
-74.758097729499994
 30
0.0
  0
VERTEX
  5
56
100
AcDbEntity
  8
0
370
              18
  6
Continuous
 62
               7
100
AcDbVertex
100
AcDb2dVertex
 10
-23.998256060999992
 20
-75.022654264399989
 30
0.0
  0
VERTEX
  5
57
100
AcDbEntity
  8
0
370
              18
  6
Continuous
 62
               7
100
AcDbVertex
100
AcDb2dVertex
 10
-23.913663868699999
 20
-75.311292181900001
 30
0.0
  0
VERTEX
  5
58
100
AcDbEntity
  8
0
370
              18
  6
Continuous
 62
               7
100
AcDbVertex
100
AcDb2dVertex
 10
-23.88508069689999
 20
-75.605875304699993
 30
0.0
  0
SEQEND
  5
59
100
AcDbEntity
  8
0
370
              18
  6
Continuous
 62
               7
  0
ARC
  5
5A
100
AcDbEntity
  8
0
370
              18
  6
Continuous
 62
               7
100
AcDbCircle
 10
13.727272057800008
 20
-63.86143517539999
 30
0.0
 40
0.9173048869488159
100
AcDbArc
 50
292.07631168789982
 51
6.0712266392002334
  0
POLYLINE
  5
5B
100
AcDbEntity
  8
0
370
              18
  6
Continuous
 62
               7
100
AcDb2dPolyline
 66
               1
 10
0.0
 20
0.0
 30
0.0
 75
               5
  0
VERTEX
  5
5C
100
AcDbEntity
  8
0
370
              18
  6
Continuous
 62
               7
100
AcDbVertex
100
AcDb2dVertex
 10
13.366892660800005
 20
-62.417412805399991
 30
0.0
  0
VERTEX
  5
5D
100
AcDbEntity
  8
0
370
              18
  6
Continuous
 62
               7
100
AcDbVertex
100
AcDb2dVertex
 10
13.548339229000021
 20
-62.388236061399994
 30
0.0
  0
VERTEX
  5
5E
100
AcDbEntity
  8
0
370
              18
  6
Continuous
 62
               7
100
AcDbVertex
100
AcDb2dVertex
 10
13.778509794300021
 20
-62.420015471499994
 30
0.0
  0
VERTEX
  5
5F
100
AcDbEntity
  8
0
370
              18
  6
Continuous
 62
               7
100
AcDbVertex
100
AcDb2dVertex
 10
14.004970235000002
 20
-62.523704242899996
 30
0.0
  0
VERTEX
  5
60
100
AcDbEntity
  8
0
370
              18
  6
Continuous
 62
               7
100
AcDbVertex
100
AcDb2dVertex
 10
14.213491169500003
 20
-62.692786810199991
 30
0.0
  0
VERTEX
  5
61
100
AcDbEntity
  8
0
370
              18
  6
Continuous
 62
               7
100
AcDbVertex
100
AcDb2dVertex
 10
14.390970501200002
 20
-62.916639113399995
 30
0.0
  0
VERTEX
  5
62
100
AcDbEntity
  8
0
370
              18
  6
Continuous
 62
               7
100
AcDbVertex
100
AcDb2dVertex
 10
14.526256585900001
 20
-63.181195648399992
 30
0.0
  0
VERTEX
  5
63
100
AcDbEntity
  8
0
370
              18
  6
Continuous
 62
               7
100
AcDbVertex
100
AcDb2dVertex
 10
14.610848778199994
 20
-63.469833565899989
 30
0.0
  0
VERTEX
  5
64
100
AcDbEntity
  8
0
370
              18
  6
Continuous
 62
               7
100
AcDbVertex
100
AcDb2dVertex
 10
14.639431949900001
 20
-63.764416688699995
 30
0.0
  0
SEQEND
  5
65
100
AcDbEntity
  8
0
370
              18
  6
Continuous
 62
               7
  0
POLYLINE
  5
66
100
AcDbEntity
  8
0
370
              18
  6
Continuous
 62
               7
100
AcDb2dPolyline
 66
               1
 10
0.0
 20
0.0
 30
0.0
 75
               5
  0
VERTEX
  5
67
100
AcDbEntity
  8
0
370
              18
  6
Continuous
 62
               7
100
AcDbVertex
100
AcDb2dVertex
 10
-24.038408907499999
 20
-75.572547504100001
 30
0.0
  0
VERTEX
  5
68
100
AcDbEntity
  8
0
370
              18
  6
Continuous
 62
               7
100
AcDbVertex
100
AcDb2dVertex
 10
-24.067126708699988
 20
-75.827009212799993
 30
0.0
  0
VERTEX
  5
69
100
AcDbEntity
  8
0
370
              18
  6
Continuous
 62
               7
100
AcDbVertex
100
AcDb2dVertex
 10
-24.150572992799994
 20
-76.050239905599994
 30
0.0
  0
VERTEX
  5
6A
100
AcDbEntity
  8
0
370
              18
  6
Continuous
 62
               7
100
AcDbVertex
100
AcDb2dVertex
 10
-24.282558739799995
 20
-76.225683342399989
 30
0.0
  0
VERTEX
  5
6B
100
AcDbEntity
  8
0
370
              18
  6
Continuous
 62
               7
100
AcDbVertex
100
AcDb2dVertex
 10
-24.453295302299992
 20
-76.3403279666
 30
0.0
  0
VERTEX
  5
6C
100
AcDbEntity
  8
0
370
              18
  6
Continuous
 62
               7
100
AcDbVertex
100
AcDb2dVertex
 10
-24.650119865499988
 20
-76.385670895699988
 30
0.0
  0
VERTEX
  5
6D
100
AcDbEntity
  8
0
370
              18
  6
Continuous
 62
               7
100
AcDbVertex
100
AcDb2dVertex
 10
-24.858434881699992
 20
-76.358349403299997
 30
0.0
  0
VERTEX
  5
6E
100
AcDbEntity
  8
0
370
              18
  6
Continuous
 62
               7
100
AcDbVertex
100
AcDb2dVertex
 10
-25.062790581799987
 20
-76.260389606199993
 30
0.0
  0
VERTEX
  5
6F
100
AcDbEntity
  8
0
370
              18
  6
Continuous
 62
               7
100
AcDbVertex
100
AcDb2dVertex
 10
-25.248030834699989
 20
-76.099056930499998
 30
0.0
  0
VERTEX
  5
70
100
AcDbEntity
  8
0
370
              18
  6
Continuous
 62
               7
100
AcDbVertex
100
AcDb2dVertex
 10
-25.400417184499986
 20
-75.8863166095
 30
0.0
  0
VERTEX
  5
71
100
AcDbEntity
  8
0
370
              18
  6
Continuous
 62
               7
100
AcDbVertex
100
AcDb2dVertex
 10
-25.508647856799996
 20
-75.63794659829999
 30
0.0
  0
VERTEX
  5
72
100
AcDbEntity
  8
0
370
              18
  6
Continuous
 62
               7
100
AcDbVertex
100
AcDb2dVertex
 10
-25.564695901499988
 20
-75.3723674445
 30
0.0
  0
VERTEX
  5
73
100
AcDbEntity
  8
0
370
              18
  6
Continuous
 62
               7
100
AcDbVertex
100
AcDb2dVertex
 10
-25.564404468599989
 20
-75.10927584769999
 30
0.0
  0
VERTEX
  5
74
100
AcDbEntity
  8
0
370
              18
  6
Continuous
 62
               7
100
AcDbVertex
100
AcDb2dVertex
 10
-25.507795172399994
 20
-74.868184173299994
 30
0.0
  0
VERTEX
  5
75
100
AcDbEntity
  8
0
370
              18
  6
Continuous
 62
               7
100
AcDbVertex
100
AcDb2dVertex
 10
-25.399066488199992
 20
-74.666972986699989
 30
0.0
  0
VERTEX
  5
76
100
AcDbEntity
  8
0
370
              18
  6
Continuous
 62
               7
100
AcDbVertex
100
AcDb2dVertex
 10
-25.246282300999994
 20
-74.520564931399988
 30
0.0
  0
VERTEX
  5
77
100
AcDbEntity
  8
0
370
              18
  6
Continuous
 62
               7
100
AcDbVertex
100
AcDb2dVertex
 10
-25.06077389219999
 20
-74.439819285499993
 30
0.0
  0
VERTEX
  5
78
100
AcDbEntity
  8
0
370
              18
  6
Continuous
 62
               7
100
AcDbVertex
100
AcDb2dVertex
 10
-24.856299604499995
 20
-74.430723969799999
 30
0.0
  0
VERTEX
  5
79
100
AcDbEntity
  8
0
370
              18
  6
Continuous
 62
               7
100
AcDbVertex
100
AcDb2dVertex
 10
-24.648024364199998
 20
-74.493953210000001
 30
0.0
  0
VERTEX
  5
7A
100
AcDbEntity
  8
0
370
              18
  6
Continuous
 62
               7
100
AcDbVertex
100
AcDb2dVertex
 10
-24.45139499119999
 20
-74.624818623699994
 30
0.0
  0
VERTEX
  5
7B
100
AcDbEntity
  8
0
370
              18
  6
Continuous
 62
               7
100
AcDbVertex
100
AcDb2dVertex
 10
-24.280994555799992
 20
-74.8136132729
 30
0.0
  0
VERTEX
  5
7C
100
AcDbEntity
  8
0
370
              18
  6
Continuous
 62
               7
100
AcDbVertex
100
AcDb2dVertex
 10
-24.149460944599994
 20
-75.046336291799989
 30
0.0
  0
VERTEX
  5
7D
100
AcDbEntity
  8
0
370
              18
  6
Continuous
 62
               7
100
AcDbVertex
100
AcDb2dVertex
 10
-24.066549271599996
 20
-75.30572678339999
 30
0.0
  0
VERTEX
  5
7E
100
AcDbEntity
  8
0
370
              18
  6
Continuous
 62
               7
100
AcDbVertex
100
AcDb2dVertex
 10
-24.038408907499999
 20
-75.572547504100001
 30
0.0
  0
SEQEND
  5
7F
100
AcDbEntity
  8
0
370
              18
  6
Continuous
 62
               7
  0
ARC
  5
80
100
AcDbEntity
  8
0
370
              18
  6
Continuous
 62
               7
100
AcDbCircle
 10
-8.7315682206999981
 20
65.943247412900007
 30
0.0
 40
1.1372523414275555
100
AcDbArc
 50
131.35768631989973
 51
183.01766698139997
  0
POLYLINE
  5
81
100
AcDbEntity
  8
0
370
              18
  6
Continuous
 62
               7
100
AcDb2dPolyline
 66
               1
 10
0.0
 20
0.0
 30
0.0
 75
               5
  0
VERTEX
  5
82
100
AcDbEntity
  8
0
370
              18
  6
Continuous
 62
               7
100
AcDbVertex
100
AcDb2dVertex
 10
-8.7391261328999974
 20
64.376727007100015
 30
0.0
  0
VERTEX
  5
83
100
AcDbEntity
  8
0
370
              18
  6
Continuous
 62
               7
100
AcDbVertex
100
AcDb2dVertex
 10
-8.801897911599994
 20
64.383275431800001
 30
0.0
  0
VERTEX
  5
84
100
AcDbEntity
  8
0
370
              18
  6
Continuous
 62
               7
100
AcDbVertex
100
AcDb2dVertex
 10
-9.0355570494999995
 20
64.451216197500003
 30
0.0
  0
VERTEX
  5
85
100
AcDbEntity
  8
0
370
              18
  6
Continuous
 62
               7
100
AcDbVertex
100
AcDb2dVertex
 10
-9.2597039275999862
 20
64.584557098900007
 30
0.0
  0
VERTEX
  5
86
100
AcDbEntity
  8
0
370
              18
  6
Continuous
 62
               7
100
AcDbVertex
100
AcDb2dVertex
 10
-9.4622547109999857
 20
64.776098455400017
 30
0.0
  0
VERTEX
  5
87
100
AcDbEntity
  8
0
370
              18
  6
Continuous
 62
               7
100
AcDbVertex
100
AcDb2dVertex
 10
-9.6322899066999952
 20
65.015518555600011
 30
0.0
  0
VERTEX
  5
88
100
AcDbEntity
  8
0
370
              18
  6
Continuous
 62
               7
100
AcDbVertex
100
AcDb2dVertex
 10
-9.760642718699998
 20
65.289916233700012
 30
0.0
  0
VERTEX
  5
89
100
AcDbEntity
  8
0
370
              18
  6
Continuous
 62
               7
100
AcDbVertex
100
AcDb2dVertex
 10
-9.8403938117999985
 20
65.584494370399995
 30
0.0
  0
VERTEX
  5
8A
100
AcDbEntity
  8
0
370
              18
  6
Continuous
 62
               7
100
AcDbVertex
100
AcDb2dVertex
 10
-9.8672435907999869
 20
65.883378039200011
 30
0.0
  0
SEQEND
  5
8B
100
AcDbEntity
  8
0
370
              18
  6
Continuous
 62
               7
  0
POLYLINE
  5
8C
100
AcDbEntity
  8
0
370
              18
  6
Continuous
 62
               7
100
AcDb2dPolyline
 66
               1
 10
0.0
 20
0.0
 30
0.0
 75
               5
  0
VERTEX
  5
8D
100
AcDbEntity
  8
0
370
              18
  6
Continuous
 62
               7
100
AcDbVertex
100
AcDb2dVertex
 10
-9.6908741618999983
 20
63.350190110900002
 30
0.0
  0
VERTEX
  5
8E
100
AcDbEntity
  8
0
370
              18
  6
Continuous
 62
               7
100
AcDbVertex
100
AcDb2dVertex
 10
-9.9616909192999969
 20
63.474403731600006
 30
0.0
  0
VERTEX
  5
8F
100
AcDbEntity
  8
0
370
              18
  6
Continuous
 62
               7
100
AcDbVertex
100
AcDb2dVertex
 10
-10.250617205699996
 20
63.673960982599993
 30
0.0
  0
VERTEX
  5
90
100
AcDbEntity
  8
0
370
              18
  6
Continuous
 62
               7
100
AcDbVertex
100
AcDb2dVertex
 10
-10.515456158899994
 20
63.931131110300015
 30
0.0
  0
VERTEX
  5
91
100
AcDbEntity
  8
0
370
              18
  6
Continuous
 62
               7
100
AcDbVertex
100
AcDb2dVertex
 10
-10.747695708799995
 20
64.237670773899993
 30
0.0
  0
VERTEX
  5
92
100
AcDbEntity
  8
0
370
              18
  6
Continuous
 62
               7
100
AcDbVertex
100
AcDb2dVertex
 10
-10.939871298899988
 20
64.5837097374
 30
0.0
  0
VERTEX
  5
93
100
AcDbEntity
  8
0
370
              18
  6
Continuous
 62
               7
100
AcDbVertex
100
AcDb2dVertex
 10
-11.085806452599996
 20
64.958137215300013
 30
0.0
  0
VERTEX
  5
94
100
AcDbEntity
  8
0
370
              18
  6
Continuous
 62
               7
100
AcDbVertex
100
AcDb2dVertex
 10
-11.180810599099999
 20
65.348921332700002
 30
0.0
  0
VERTEX
  5
95
100
AcDbEntity
  8
0
370
              18
  6
Continuous
 62
               7
100
AcDbVertex
100
AcDb2dVertex
 10
-11.221830186499986
 20
65.743499065500004
 30
0.0
  0
VERTEX
  5
96
100
AcDbEntity
  8
0
370
              18
  6
Continuous
 62
               7
100
AcDbVertex
100
AcDb2dVertex
 10
-11.207546934299998
 20
66.129177729100007
 30
0.0
  0
VERTEX
  5
97
100
AcDbEntity
  8
0
370
              18
  6
Continuous
 62
               7
100
AcDbVertex
100
AcDb2dVertex
 10
-11.138419772499986
 20
66.493570304000002
 30
0.0
  0
VERTEX
  5
98
100
AcDbEntity
  8
0
370
              18
  6
Continuous
 62
               7
100
AcDbVertex
100
AcDb2dVertex
 10
-11.016670568899997
 20
66.824972465200005
 30
0.0
  0
VERTEX
  5
99
100
AcDbEntity
  8
0
370
              18
  6
Continuous
 62
               7
100
AcDbVertex
100
AcDb2dVertex
 10
-10.847035280899988
 20
67.111592802600001
 30
0.0
  0
SEQEND
  5
9A
100
AcDbEntity
  8
0
370
              18
  6
Continuous
 62
               7
  0
POLYLINE
  5
9B
100
AcDbEntity
  8
0
370
              18
  6
Continuous
 62
               7
100
AcDb2dPolyline
 66
               1
 10
0.0
 20
0.0
 30
0.0
 75
               5
  0
VERTEX
  5
9C
100
AcDbEntity
  8
0
370
              18
  6
Continuous
 62
               7
100
AcDbVertex
100
AcDb2dVertex
 10
-10.211022686699991
 20
67.183146061100018
 30
0.0
  0
VERTEX
  5
9D
100
AcDbEntity
  8
0
370
              18
  6
Continuous
 62
               7
100
AcDbVertex
100
AcDb2dVertex
 10
-10.293435083899993
 20
67.136690335499992
 30
0.0
  0
VERTEX
  5
9E
100
AcDbEntity
  8
0
370
              18
  6
Continuous
 62
               7
100
AcDbVertex
100
AcDb2dVertex
 10
-10.510228242999986
 20
66.959822889400016
 30
0.0
  0
VERTEX
  5
9F
100
AcDbEntity
  8
0
370
              18
  6
Continuous
 62
               7
100
AcDbVertex
100
AcDb2dVertex
 10
-10.68824448769999
 20
66.725570349600019
 30
0.0
  0
VERTEX
  5
A0
100
AcDbEntity
  8
0
370
              18
  6
Continuous
 62
               7
100
AcDbVertex
100
AcDb2dVertex
 10
-10.820642797699989
 20
66.442951212499992
 30
0.0
  0
VERTEX
  5
A1
100
AcDbEntity
  8
0
370
              18
  6
Continuous
 62
               7
100
AcDbVertex
100
AcDb2dVertex
 10
-10.90233502049999
 20
66.122827916099993
 30
0.0
  0
VERTEX
  5
A2
100
AcDbEntity
  8
0
370
              18
  6
Continuous
 62
               7
100
AcDbVertex
100
AcDb2dVertex
 10
-10.930181930199993
 20
65.777500208500015
 30
0.0
  0
VERTEX
  5
A3
100
AcDbEntity
  8
0
370
              18
  6
Continuous
 62
               7
100
AcDbVertex
100
AcDb2dVertex
 10
-10.90311331129999
 20
65.420224406100004
 30
0.0
  0
VERTEX
  5
A4
100
AcDbEntity
  8
0
370
              18
  6
Continuous
 62
               7
100
AcDbVertex
100
AcDb2dVertex
 10
-10.822169464199987
 20
65.064750129700002
 30
0.0
  0
VERTEX
  5
A5
100
AcDbEntity
  8
0
370
              18
  6
Continuous
 62
               7
100
AcDbVertex
100
AcDb2dVertex
 10
-10.690460873299998
 20
64.724724060699998
 30
0.0
  0
VERTEX
  5
A6
100
AcDbEntity
  8
0
370
              18
  6
Continuous
 62
               7
100
AcDbVertex
100
AcDb2dVertex
 10
-10.513049182099991
 20
64.413214822100002
 30
0.0
  0
VERTEX
  5
A7
100
AcDbEntity
  8
0
370
              18
  6
Continuous
 62
               7
100
AcDbVertex
100
AcDb2dVertex
 10
-10.29675214209999
 20
64.142209814900013
 30
0.0
  0
VERTEX
  5
A8
100
AcDbEntity
  8
0
370
              18
  6
Continuous
 62
               7
100
AcDbVertex
100
AcDb2dVertex
 10
-10.049881968599991
 20
63.922109099099998
 30
0.0
  0
VERTEX
  5
A9
100
AcDbEntity
  8
0
370
              18
  6
Continuous
 62
               7
100
AcDbVertex
100
AcDb2dVertex
 10
-9.7819257026999935
 20
63.761367937800003
 30
0.0
  0
VERTEX
  5
AA
100
AcDbEntity
  8
0
370
              18
  6
Continuous
 62
               7
100
AcDbVertex
100
AcDb2dVertex
 10
-9.5031807684999876
 20
63.666164158599997
 30
0.0
  0
VERTEX
  5
AB
100
AcDbEntity
  8
0
370
              18
  6
Continuous
 62
               7
100
AcDbVertex
100
AcDb2dVertex
 10
-9.2243591648999939
 20
63.640173890499995
 30
0.0
  0
VERTEX
  5
AC
100
AcDbEntity
  8
0
370
              18
  6
Continuous
 62
               7
100
AcDbVertex
100
AcDb2dVertex
 10
-9.1244787865999939
 20
63.648229163500019
 30
0.0
  0
SEQEND
  5
AD
100
AcDbEntity
  8
0
370
              18
  6
Continuous
 62
               7
  0
POLYLINE
  5
AE
100
AcDbEntity
  8
0
370
              18
  6
Continuous
 62
               7
100
AcDb2dPolyline
 66
               1
 10
0.0
 20
0.0
 30
0.0
 75
               5
  0
VERTEX
  5
AF
100
AcDbEntity
  8
0
370
              18
  6
Continuous
 62
               7
100
AcDbVertex
100
AcDb2dVertex
 10
-9.624175497799996
 20
66.911318205399994
 30
0.0
  0
VERTEX
  5
B0
100
AcDbEntity
  8
0
370
              18
  6
Continuous
 62
               7
100
AcDbVertex
100
AcDb2dVertex
 10
-9.6928736789999874
 20
66.842252868200006
 30
0.0
  0
VERTEX
  5
B1
100
AcDbEntity
  8
0
370
              18
  6
Continuous
 62
               7
100
AcDbVertex
100
AcDb2dVertex
 10
-9.8436358957999914
 20
66.6255063049
 30
0.0
  0
VERTEX
  5
B2
100
AcDbEntity
  8
0
370
              18
  6
Continuous
 62
               7
100
AcDbVertex
100
AcDb2dVertex
 10
-9.9483628154999906
 20
66.363815770499997
 30
0.0
  0
VERTEX
  5
B3
100
AcDbEntity
  8
0
370
              18
  6
Continuous
 62
               7
100
AcDbVertex
100
AcDb2dVertex
 10
-10.002157524399991
 20
66.069409974899997
 30
0.0
  0
VERTEX
  5
B4
100
AcDbEntity
  8
0
370
              18
  6
Continuous
 62
               7
100
AcDbVertex
100
AcDb2dVertex
 10
-10.002504629099988
 20
65.756060487100001
 30
0.0
  0
VERTEX
  5
B5
100
AcDbEntity
  8
0
370
              18
  6
Continuous
 62
               7
100
AcDbVertex
100
AcDb2dVertex
 10
-9.9493879029999874
 20
65.438416156500011
 30
0.0
  0
VERTEX
  5
B6
100
AcDbEntity
  8
0
370
              18
  6
Continuous
 62
               7
100
AcDbVertex
100
AcDb2dVertex
 10
-9.8452910251999981
 20
65.131335162900001
 30
0.0
  0
VERTEX
  5
B7
100
AcDbEntity
  8
0
370
              18
  6
Continuous
 62
               7
100
AcDbVertex
100
AcDb2dVertex
 10
-9.6950814664999996
 20
64.849168627099999
 30
0.0
  0
VERTEX
  5
B8
100
AcDbEntity
  8
0
370
              18
  6
Continuous
 62
               7
100
AcDbVertex
100
AcDb2dVertex
 10
-9.5057828181999895
 20
64.605112127500007
 30
0.0
  0
VERTEX
  5
B9
100
AcDbEntity
  8
0
370
              18
  6
Continuous
 62
               7
100
AcDbVertex
100
AcDb2dVertex
 10
-9.2862465768999982
 20
64.410581438799994
 30
0.0
  0
VERTEX
  5
BA
100
AcDbEntity
  8
0
370
              18
  6
Continuous
 62
               7
100
AcDbVertex
100
AcDb2dVertex
 10
-9.0467378846999935
 20
64.2746732393
 30
0.0
  0
VERTEX
  5
BB
100
AcDbEntity
  8
0
370
              18
  6
Continuous
 62
               7
100
AcDbVertex
100
AcDb2dVertex
 10
-8.7984559648999863
 20
64.203738336000015
 30
0.0
  0
VERTEX
  5
BC
100
AcDbEntity
  8
0
370
              18
  6
Continuous
 62
               7
100
AcDbVertex
100
AcDb2dVertex
 10
-8.7916285964999901
 20
64.202749646299992
 30
0.0
  0
SEQEND
  5
BD
100
AcDbEntity
  8
0
370
              18
  6
Continuous
 62
               7
  0
POLYLINE
  5
BE
100
AcDbEntity
  8
0
370
              18
  6
Continuous
 62
               7
100
AcDb2dPolyline
 66
               1
 10
0.0
 20
0.0
 30
0.0
 75
               5
  0
VERTEX
  5
BF
100
AcDbEntity
  8
0
370
              18
  6
Continuous
 62
               7
100
AcDbVertex
100
AcDb2dVertex
 10
-8.7412883883999939
 20
64.368212052399997
 30
0.0
  0
VERTEX
  5
C0
100
AcDbEntity
  8
0
370
              18
  6
Continuous
 62
               7
100
AcDbVertex
100
AcDb2dVertex
 10
-8.9195396684999935
 20
64.400253039799992
 30
0.0
  0
VERTEX
  5
C1
100
AcDbEntity
  8
0
370
              18
  6
Continuous
 62
               7
100
AcDbVertex
100
AcDb2dVertex
 10
-9.1515611105999994
 20
64.50226861340002
 30
0.0
  0
VERTEX
  5
C2
100
AcDbEntity
  8
0
370
              18
  6
Continuous
 62
               7
100
AcDbVertex
100
AcDb2dVertex
 10
-9.3678164712999887
 20
64.666919638300016
 30
0.0
  0
VERTEX
  5
C3
100
AcDbEntity
  8
0
370
              18
  6
Continuous
 62
               7
100
AcDbVertex
100
AcDb2dVertex
 10
-9.5566473801999905
 20
64.885348001200015
 30
0.0
  0
VERTEX
  5
C4
100
AcDbEntity
  8
0
370
              18
  6
Continuous
 62
               7
100
AcDbVertex
100
AcDb2dVertex
 10
-9.7078739395999918
 20
65.145757029799995
 30
0.0
  0
VERTEX
  5
C5
100
AcDbEntity
  8
0
370
              18
  6
Continuous
 62
               7
100
AcDbVertex
100
AcDb2dVertex
 10
-9.8133433907999859
 20
65.434118229500001
 30
0.0
  0
VERTEX
  5
C6
100
AcDbEntity
  8
0
370
              18
  6
Continuous
 62
               7
100
AcDbVertex
100
AcDb2dVertex
 10
-9.8673700108999896
 20
65.734888935700013
 30
0.0
  0
VERTEX
  5
C7
100
AcDbEntity
  8
0
370
              18
  6
Continuous
 62
               7
100
AcDbVertex
100
AcDb2dVertex
 10
-9.8670410720999939
 20
66.031839082499999
 30
0.0
  0
VERTEX
  5
C8
100
AcDbEntity
  8
0
370
              18
  6
Continuous
 62
               7
100
AcDbVertex
100
AcDb2dVertex
 10
-9.8123742809999897
 20
66.308983919000013
 30
0.0
  0
VERTEX
  5
C9
100
AcDbEntity
  8
0
370
              18
  6
Continuous
 62
               7
100
AcDbVertex
100
AcDb2dVertex
 10
-9.7063169113999948
 20
66.551367123600016
 30
0.0
  0
VERTEX
  5
CA
100
AcDbEntity
  8
0
370
              18
  6
Continuous
 62
               7
100
AcDbVertex
100
AcDb2dVertex
 10
-9.5545863745999924
 20
66.745924645400009
 30
0.0
  0
VERTEX
  5
CB
100
AcDbEntity
  8
0
370
              18
  6
Continuous
 62
               7
100
AcDbVertex
100
AcDb2dVertex
 10
-9.4895901707999855
 20
66.802697364000011
 30
0.0
  0
SEQEND
  5
CC
100
AcDbEntity
  8
0
370
              18
  6
Continuous
 62
               7
  0
LINE
  5
CD
100
AcDbEntity
  8
0
370
              18
  6
Continuous
 62
               7
100
AcDbLine
 10
-15.375597143099995
 20
82.934975921700016
 30
0.0
 11
-4.4892956202999983
 21
80.568702388899993
 31
0.0
  0
SPLINE
  5
CE
100
AcDbEntity
  8
0
370
              18
  6
Continuous
 62
               7
100
AcDbSpline
210
0.0
220
0.0
230
1.0
 70
               8
 71
               2
 72
              15
 73
              12
 74
               0
 42
0.000001
 43
0.000001
 40
0.0
 40
0.0
 40
0.0
 40
1.0
 40
1.0
 40
2.0
 40
3.0
 40
4.0
 40
5.0
 40
6.0
 40
7.0
 40
7.0
 40
8.0
 40
8.0
 40
8.0
 10
-4.4398974073373552
 20
80.036676481904721
 30
0.0
 10
-4.4398958322515369
 20
80.038098393584121
 30
0.0
 10
-4.4398942571657187
 20
80.039520305263522
 30
0.0
 10
-4.4399239092735456
 20
80.100491926680206
 30
0.0
 10
-4.4440975642495175
 20
80.21494148479843
 30
0.0
 10
-4.4524790864180659
 20
80.344446797297451
 30
0.0
 10
-4.4628126244243731
 20
80.432551599154522
 30
0.0
 10
-4.470833152056116
 20
80.490220131905744
 30
0.0
 10
-4.4826430354924014
 20
80.548592295101685
 30
0.0
 10
-4.4889289642450905
 20
80.567629587908016
 30
0.0
 10
-4.4891123074976562
 20
80.568165339725908
 30
0.0
 10
-4.489295650750222
 20
80.568701091543801
 30
0.0
  0
LINE
  5
CF
100
AcDbEntity
  8
0
370
              18
  6
Continuous
 62
               7
100
AcDbLine
 10
-4.4398973758999887
 20
80.036671214100011
 30
0.0
 11
-15.939511741099992
 21
82.536255949300028
 31
0.0
  0
SPLINE
  5
D0
100
AcDbEntity
  8
0
370
              18
  6
Continuous
 62
               7
100
AcDbSpline
210
0.0
220
0.0
230
1.0
 70
               8
 71
               2
 72
              15
 73
              12
 74
               0
 42
0.000001
 43
0.000001
 40
0.0
 40
0.0
 40
0.0
 40
1.0
 40
1.0
 40
2.0
 40
3.0
 40
4.0
 40
5.0
 40
6.0
 40
7.0
 40
7.0
 40
8.0
 40
8.0
 40
8.0
 10
-15.375596817244997
 20
82.934974546960177
 30
0.0
 10
-15.377843035233127
 20
82.934925565617448
 30
0.0
 10
-15.380089253221257
 20
82.934876584274718
 30
0.0
 10
-15.457362796547841
 20
82.932461152918847
 30
0.0
 10
-15.601995882814634
 20
82.901220944262548
 30
0.0
 10
-15.722268662471777
 20
82.848777419045973
 30
0.0
 10
-15.826687246057901
 20
82.777407336978342
 30
0.0
 10
-15.904655188248839
 20
82.680097487074136
 30
0.0
 10
-15.938433993511183
 20
82.585928622544714
 30
0.0
 10
-15.9395079029063
 20
82.539341926527584
 30
0.0
 10
-15.939509609249292
 20
82.537801522208156
 30
0.0
 10
-15.939511315592284
 20
82.536261117888728
 30
0.0
  0
LINE
  5
D1
100
AcDbEntity
  8
0
370
              18
  6
Continuous
 62
               7
100
AcDbLine
 10
5.191230785800002
 20
82.997035868099999
 30
0.0
 11
-4.4398973758999887
 21
80.036671214100011
 31
0.0
  0
LINE
  5
D2
100
AcDbEntity
  8
0
370
              18
  6
Continuous
 62
               7
100
AcDbLine
 10
-4.4892956202999983
 20
80.568702388899993
 30
0.0
 11
4.6281723090000071
 21
83.371180908399992
 31
0.0
  0
SPLINE
  5
D3
100
AcDbEntity
  8
0
370
              18
  6
Continuous
 62
               7
100
AcDbSpline
210
0.0
220
0.0
230
1.0
 70
               8
 71
               2
 72
              16
 73
              13
 74
               0
 42
0.000001
 43
0.000001
 40
0.0
 40
0.0
 40
0.0
 40
1.0
 40
1.0
 40
2.0
 40
3.0
 40
4.0
 40
5.0
 40
6.0
 40
7.0
 40
8.0
 40
8.0
 40
9.0
 40
9.0
 40
9.0
 10
5.1912303716923134
 20
82.997041018311563
 30
0.0
 10
5.1912335246030352
 20
82.999887314356556
 30
0.0
 10
5.1912366775137571
 20
83.002733610401549
 30
0.0
 10
5.189693132791092
 20
83.043166185116775
 30
0.0
 10
5.1633183185363691
 20
83.127326044904521
 30
0.0
 10
5.0932593046389911
 20
83.219290862569778
 30
0.0
 10
5.0134033527787381
 20
83.276360669308701
 30
0.0
 10
4.9530485117149112
 20
83.308646946813496
 30
0.0
 10
4.8538383206157789
 20
83.347485463251303
 30
0.0
 10
4.7124626432447485
 20
83.371646369719997
 30
0.0
 10
4.6364729193542189
 20
83.371360530800359
 30
0.0
 10
4.6323224497046311
 20
83.371270025080292
 30
0.0
 10
4.6281719800550434
 20
83.371179519360226
 30
0.0
  0
LINE
  5
D4
100
AcDbEntity
  8
0
370
              18
  6
Continuous
 62
               7
100
AcDbLine
 10
5.1905887140000004
 20
82.417404383100006
 30
0.0
 11
-4.4405394476999902
 21
79.457039729100018
 31
0.0
  0
LINE
  5
D5
100
AcDbEntity
  8
0
370
              18
  6
Continuous
 62
               7
100
AcDbLine
 10
-4.4398973758999887
 20
80.036671214100011
 30
0.0
 11
-4.4405394476999902
 21
79.457039729100018
 31
0.0
  0
LINE
  5
D6
100
AcDbEntity
  8
0
370
              18
  6
Continuous
 62
               7
100
AcDbLine
 10
5.191230785800002
 20
82.997035868099999
 30
0.0
 11
5.1905887140000004
 21
82.417404383100006
 31
0.0
  0
LINE
  5
D7
100
AcDbEntity
  8
0
370
              18
  6
Continuous
 62
               7
100
AcDbLine
 10
-15.940153812899993
 20
81.956624464399994
 30
0.0
 11
-4.4405394476999902
 21
79.457039729100018
 31
0.0
  0
LINE
  5
D8
100
AcDbEntity
  8
0
370
              18
  6
Continuous
 62
               7
100
AcDbLine
 10
-15.939511741099992
 20
82.536255949300028
 30
0.0
 11
-15.940153812899993
 21
81.956624464399994
 31
0.0
  0
LINE
  5
D9
100
AcDbEntity
  8
0
370
              18
  6
Continuous
 62
               7
100
AcDbLine
 10
-6.2581292137999895
 20
85.737454441199986
 30
0.0
 11
-15.375597143099995
 21
82.934975921700016
 31
0.0
  0
LINE
  5
DA
100
AcDbEntity
  8
0
370
              18
  6
Continuous
 62
               7
100
AcDbLine
 10
4.6281723090000071
 20
83.371180908399992
 30
0.0
 11
-6.2581292137999895
 21
85.737454441199986
 31
0.0
  0
SPLINE
  5
DB
100
AcDbEntity
  8
0
370
              18
  6
Continuous
 62
               7
100
AcDbSpline
210
0.0
220
0.0
230
1.0
 70
               8
 71
               2
 72
              12
 73
               9
 74
               0
 42
0.000001
 43
0.000001
 40
0.0
 40
0.0
 40
0.0
 40
1.0
 40
1.0
 40
2.0
 40
3.0
 40
4.0
 40
4.0
 40
5.0
 40
5.0
 40
5.0
 10
-6.2581291864502191
 20
85.737452974643759
 30
0.0
 10
-6.2581661920443352
 20
85.737561109598516
 30
0.0
 10
-6.2582031976384513
 20
85.737669244553274
 30
0.0
 10
-6.2612448803312191
 20
85.746492634323772
 30
0.0
 10
-6.2665912411647469
 20
85.757009672666356
 30
0.0
 10
-6.2731901399354513
 20
85.764895495283326
 30
0.0
 10
-6.2772532311735603
 20
85.763749770912
 30
0.0
 10
-6.2772875137489308
 20
85.763739233317381
 30
0.0
 10
-6.2773217963243013
 20
85.763728695722762
 30
0.0
  0
LINE
  5
DC
100
AcDbEntity
  8
0
370
              18
  6
Continuous
 62
               7
100
AcDbLine
 10
-4.486538110799998
 20
79.467038112799997
 30
0.0
 11
-4.6577594555999866
 21
-75.103350208099997
 31
0.0
  0
LINE
  5
DD
100
AcDbEntity
  8
0
370
              18
  6
Continuous
 62
               7
100
AcDbLine
 10
-4.4020147627999933
 20
79.4688812407
 30
0.0
 11
-4.5732361076999979
 21
-75.101507080199994
 31
0.0
  0
ARC
  5
DE
100
AcDbEntity
  8
0
370
              18
  6
Continuous
 62
               7
100
AcDbCircle
 10
-4.6196008450999955
 20
-74.914267717399994
 30
0.0
 40
0.1928944474330456
100
AcDbArc
 50
258.59042257409874
 51
283.90798099149868
  0
LINE
  5
DF
100
AcDbEntity
  8
0
370
              18
  6
Continuous
 62
               7
100
AcDbLine
 10
5.1520640291000177
 20
82.405562871600011
 30
0.0
 11
-4.4020147627999933
 21
79.4688812407
 31
0.0
  0
LINE
  5
E0
100
AcDbEntity
  8
0
370
              18
  6
Continuous
 62
               7
100
AcDbLine
 10
-4.486538110799998
 20
79.467038112799997
 30
0.0
 11
-15.8941551498
 21
81.946626080800002
 31
0.0
  0
POLYLINE
  5
E1
100
AcDbEntity
  8
0
370
              18
  6
Continuous
 62
               7
100
AcDb2dPolyline
 66
               1
 10
0.0
 20
0.0
 30
0.0
 75
               5
  0
VERTEX
  5
E2
100
AcDbEntity
  8
0
370
              18
  6
Continuous
 62
               7
100
AcDbVertex
100
AcDb2dVertex
 10
-10.205328496199996
 20
67.181924702200007
 30
0.0
  0
VERTEX
  5
E3
100
AcDbEntity
  8
0
370
              18
  6
Continuous
 62
               7
100
AcDbVertex
100
AcDb2dVertex
 10
-9.9151916782999905
 20
67.083933737500018
 30
0.0
  0
VERTEX
  5
E4
100
AcDbEntity
  8
0
370
              18
  6
Continuous
 62
               7
100
AcDbVertex
100
AcDb2dVertex
 10
-9.6356185075999861
 20
66.919653810400007
 30
0.0
  0
VERTEX
  5
E5
100
AcDbEntity
  8
0
370
              18
  6
Continuous
 62
               7
100
AcDbVertex
100
AcDb2dVertex
 10
-9.3767135211999886
 20
66.695013477499998
 30
0.0
  0
VERTEX
  5
E6
100
AcDbEntity
  8
0
370
              18
  6
Continuous
 62
               7
100
AcDbVertex
100
AcDb2dVertex
 10
-9.1478341509999979
 20
66.418151850200019
 30
0.0
  0
VERTEX
  5
E7
100
AcDbEntity
  8
0
370
              18
  6
Continuous
 62
               7
100
AcDbVertex
100
AcDb2dVertex
 10
-8.9572527182999977
 20
66.099057146600018
 30
0.0
  0
VERTEX
  5
E8
100
AcDbEntity
  8
0
370
              18
  6
Continuous
 62
               7
100
AcDbVertex
100
AcDb2dVertex
 10
-8.8118574557999949
 20
65.749271321099997
 30
0.0
  0
VERTEX
  5
E9
100
AcDbEntity
  8
0
370
              18
  6
Continuous
 62
               7
100
AcDbVertex
100
AcDb2dVertex
 10
-8.716903177399999
 20
65.381421179699998
 30
0.0
  0
VERTEX
  5
EA
100
AcDbEntity
  8
0
370
              18
  6
Continuous
 62
               7
100
AcDbVertex
100
AcDb2dVertex
 10
-8.6758218237999927
 20
65.008820105500007
 30
0.0
  0
VERTEX
  5
EB
100
AcDbEntity
  8
0
370
              18
  6
Continuous
 62
               7
100
AcDbVertex
100
AcDb2dVertex
 10
-8.690098075599991
 20
64.64493417860001
 30
0.0
  0
VERTEX
  5
EC
100
AcDbEntity
  8
0
370
              18
  6
Continuous
 62
               7
100
AcDbVertex
100
AcDb2dVertex
 10
-8.7592161710999932
 20
64.302909849700001
 30
0.0
  0
VERTEX
  5
ED
100
AcDbEntity
  8
0
370
              18
  6
Continuous
 62
               7
100
AcDbVertex
100
AcDb2dVertex
 10
-8.8806778641999955
 20
63.995094038399998
 30
0.0
  0
VERTEX
  5
EE
100
AcDbEntity
  8
0
370
              18
  6
Continuous
 62
               7
100
AcDbVertex
100
AcDb2dVertex
 10
-9.0500932027999994
 20
63.732639175200006
 30
0.0
  0
VERTEX
  5
EF
100
AcDbEntity
  8
0
370
              18
  6
Continuous
 62
               7
100
AcDbVertex
100
AcDb2dVertex
 10
-9.2613391802999985
 20
63.525019323999999
 30
0.0
  0
VERTEX
  5
F0
100
AcDbEntity
  8
0
370
              18
  6
Continuous
 62
               7
100
AcDbVertex
100
AcDb2dVertex
 10
-9.5067806701999871
 20
63.379732630400014
 30
0.0
  0
VERTEX
  5
F1
100
AcDbEntity
  8
0
370
              18
  6
Continuous
 62
               7
100
AcDbVertex
100
AcDb2dVertex
 10
-9.777546931099991
 20
63.30202736710001
 30
0.0
  0
VERTEX
  5
F2
100
AcDbEntity
  8
0
370
              18
  6
Continuous
 62
               7
100
AcDbVertex
100
AcDb2dVertex
 10
-10.063851635799992
 20
63.294729594300009
 30
0.0
  0
VERTEX
  5
F3
100
AcDbEntity
  8
0
370
              18
  6
Continuous
 62
               7
100
AcDbVertex
100
AcDb2dVertex
 10
-10.355347050399999
 20
63.358089761499997
 30
0.0
  0
VERTEX
  5
F4
100
AcDbEntity
  8
0
370
              18
  6
Continuous
 62
               7
100
AcDbVertex
100
AcDb2dVertex
 10
-10.641497752799992
 20
63.489817863200017
 30
0.0
  0
VERTEX
  5
F5
100
AcDbEntity
  8
0
370
              18
  6
Continuous
 62
               7
100
AcDbVertex
100
AcDb2dVertex
 10
-10.911961545699995
 20
63.685166234999997
 30
0.0
  0
VERTEX
  5
F6
100
AcDbEntity
  8
0
370
              18
  6
Continuous
 62
               7
100
AcDbVertex
100
AcDb2dVertex
 10
-11.156963072699995
 20
63.937056840699995
 30
0.0
  0
VERTEX
  5
F7
100
AcDbEntity
  8
0
370
              18
  6
Continuous
 62
               7
100
AcDbVertex
100
AcDb2dVertex
 10
-11.367647487699998
 20
64.236388529700008
 30
0.0
  0
VERTEX
  5
F8
100
AcDbEntity
  8
0
370
              18
  6
Continuous
 62
               7
100
AcDbVertex
100
AcDb2dVertex
 10
-11.536399947899994
 20
64.572348385400005
 30
0.0
  0
VERTEX
  5
F9
100
AcDbEntity
  8
0
370
              18
  6
Continuous
 62
               7
100
AcDbVertex
100
AcDb2dVertex
 10
-11.657121378699998
 20
64.932805722000012
 30
0.0
  0
VERTEX
  5
FA
100
AcDbEntity
  8
0
370
              18
  6
Continuous
 62
               7
100
AcDbVertex
100
AcDb2dVertex
 10
-11.725448643299998
 20
65.304705515699993
 30
0.0
  0
VERTEX
  5
FB
100
AcDbEntity
  8
0
370
              18
  6
Continuous
 62
               7
100
AcDbVertex
100
AcDb2dVertex
 10
-11.738912045599989
 20
65.674621002599991
 30
0.0
  0
VERTEX
  5
FC
100
AcDbEntity
  8
0
370
              18
  6
Continuous
 62
               7
100
AcDbVertex
100
AcDb2dVertex
 10
-11.697025190499986
 20
66.029187900900013
 30
0.0
  0
VERTEX
  5
FD
100
AcDbEntity
  8
0
370
              18
  6
Continuous
 62
               7
100
AcDbVertex
100
AcDb2dVertex
 10
-11.601301870099988
 20
66.355591886000013
 30
0.0
  0
VERTEX
  5
FE
100
AcDbEntity
  8
0
370
              18
  6
Continuous
 62
               7
100
AcDbVertex
100
AcDb2dVertex
 10
-11.455201860799988
 20
66.642017575300002
 30
0.0
  0
VERTEX
  5
FF
100
AcDbEntity
  8
0
370
              18
  6
Continuous
 62
               7
100
AcDbVertex
100
AcDb2dVertex
 10
-11.264005413799993
 20
66.878128091000008
 30
0.0
  0
VERTEX
  5
100
100
AcDbEntity
  8
0
370
              18
  6
Continuous
 62
               7
100
AcDbVertex
100
AcDb2dVertex
 10
-11.034623010199994
 20
67.0553808011
 30
0.0
  0
VERTEX
  5
101
100
AcDbEntity
  8
0
370
              18
  6
Continuous
 62
               7
100
AcDbVertex
100
AcDb2dVertex
 10
-10.775345111699991
 20
67.167387615300015
 30
0.0
  0
VERTEX
  5
102
100
AcDbEntity
  8
0
370
              18
  6
Continuous
 62
               7
100
AcDbVertex
100
AcDb2dVertex
 10
-10.495542672399992
 20
67.210080270700018
 30
0.0
  0
VERTEX
  5
103
100
AcDbEntity
  8
0
370
              18
  6
Continuous
 62
               7
100
AcDbVertex
100
AcDb2dVertex
 10
-10.205328496199996
 20
67.181924702200007
 30
0.0
  0
SEQEND
  5
104
100
AcDbEntity
  8
0
370
              18
  6
Continuous
 62
               7
  0
LINE
  5
105
100
AcDbEntity
  8
0
370
              18
  6
Continuous
 62
               7
100
AcDbLine
 10
-8.035962044099989
 20
-51.177915755699999
 30
0.0
 11
-8.0445231109999895
 21
-58.906434883799989
 31
0.0
  0
POLYLINE
  5
106
100
AcDbEntity
  8
0
370
              18
  6
Continuous
 62
               7
100
AcDb2dPolyline
 66
               1
 10
0.0
 20
0.0
 30
0.0
 75
               5
  0
VERTEX
  5
107
100
AcDbEntity
  8
0
370
              18
  6
Continuous
 62
               7
100
AcDbVertex
100
AcDb2dVertex
 10
-12.635807504599995
 20
-50.178081923699992
 30
0.0
  0
VERTEX
  5
108
100
AcDbEntity
  8
0
370
              18
  6
Continuous
 62
               7
100
AcDbVertex
100
AcDb2dVertex
 10
-12.606989442099987
 20
-49.730857997899989
 30
0.0
  0
VERTEX
  5
109
100
AcDbEntity
  8
0
370
              18
  6
Continuous
 62
               7
100
AcDbVertex
100
AcDb2dVertex
 10
-12.522249199599997
 20
-49.306957285699994
 30
0.0
  0
VERTEX
  5
10A
100
AcDbEntity
  8
0
370
              18
  6
Continuous
 62
               7
100
AcDbVertex
100
AcDb2dVertex
 10
-12.383673550899999
 20
-48.916817570299997
 30
0.0
  0
VERTEX
  5
10B
100
AcDbEntity
  8
0
370
              18
  6
Continuous
 62
               7
100
AcDbVertex
100
AcDb2dVertex
 10
-12.194674398999993
 20
-48.570040001399988
 30
0.0
  0
VERTEX
  5
10C
100
AcDbEntity
  8
0
370
              18
  6
Continuous
 62
               7
100
AcDbVertex
100
AcDb2dVertex
 10
-11.959905689999999
 20
-48.275169572199999
 30
0.0
  0
VERTEX
  5
10D
100
AcDbEntity
  8
0
370
              18
  6
Continuous
 62
               7
100
AcDbVertex
100
AcDb2dVertex
 10
-11.685148178399999
 20
-48.039465305699991
 30
0.0
  0
VERTEX
  5
10E
100
AcDbEntity
  8
0
370
              18
  6
Continuous
 62
               7
100
AcDbVertex
100
AcDb2dVertex
 10
-11.377167407199991
 20
-47.8687309787
 30
0.0
  0
VERTEX
  5
10F
100
AcDbEntity
  8
0
370
              18
  6
Continuous
 62
               7
100
AcDbVertex
100
AcDb2dVertex
 10
-11.043546715799991
 20
-47.76716711329999
 30
0.0
  0
VERTEX
  5
110
100
AcDbEntity
  8
0
370
              18
  6
Continuous
 62
               7
100
AcDbVertex
100
AcDb2dVertex
 10
-10.692501101699989
 20
-47.737281845599995
 30
0.0
  0
VERTEX
  5
111
100
AcDbEntity
  8
0
370
              18
  6
Continuous
 62
               7
100
AcDbVertex
100
AcDb2dVertex
 10
-10.332674372499994
 20
-47.779802547199992
 30
0.0
  0
VERTEX
  5
112
100
AcDbEntity
  8
0
370
              18
  6
Continuous
 62
               7
100
AcDbVertex
100
AcDb2dVertex
 10
-9.9729266981999984
 20
-47.893690324899993
 30
0.0
  0
VERTEX
  5
113
100
AcDbEntity
  8
0
370
              18
  6
Continuous
 62
               7
100
AcDbVertex
100
AcDb2dVertex
 10
-9.622116284599997
 20
-48.076132761599993
 30
0.0
  0
VERTEX
  5
114
100
AcDbEntity
  8
0
370
              18
  6
Continuous
 62
               7
100
AcDbVertex
100
AcDb2dVertex
 10
-9.2888811666999942
 20
-48.322646061699999
 30
0.0
  0
VERTEX
  5
115
100
AcDbEntity
  8
0
370
              18
  6
Continuous
 62
               7
100
AcDbVertex
100
AcDb2dVertex
 10
-8.9814268315999897
 20
-48.627152891699993
 30
0.0
  0
VERTEX
  5
116
100
AcDbEntity
  8
0
370
              18
  6
Continuous
 62
               7
100
AcDbVertex
100
AcDb2dVertex
 10
-8.7073236639999863
 20
-48.9821588784
 30
0.0
  0
VERTEX
  5
117
100
AcDbEntity
  8
0
370
              18
  6
Continuous
 62
               7
100
AcDbVertex
100
AcDb2dVertex
 10
-8.4733210947999993
 20
-49.378922596699994
 30
0.0
  0
VERTEX
  5
118
100
AcDbEntity
  8
0
370
              18
  6
Continuous
 62
               7
100
AcDbVertex
100
AcDb2dVertex
 10
-8.2851810172999905
 20
-49.807676085099999
 30
0.0
  0
VERTEX
  5
119
100
AcDbEntity
  8
0
370
              18
  6
Continuous
 62
               7
100
AcDbVertex
100
AcDb2dVertex
 10
-8.1475362106999967
 20
-50.257855764699997
 30
0.0
  0
VERTEX
  5
11A
100
AcDbEntity
  8
0
370
              18
  6
Continuous
 62
               7
100
AcDbVertex
100
AcDb2dVertex
 10
-8.0637756694999894
 20
-50.718382225699997
 30
0.0
  0
VERTEX
  5
11B
100
AcDbEntity
  8
0
370
              18
  6
Continuous
 62
               7
100
AcDbVertex
100
AcDb2dVertex
 10
-8.035962044099989
 20
-51.177915755699999
 30
0.0
  0
SEQEND
  5
11C
100
AcDbEntity
  8
0
370
              18
  6
Continuous
 62
               7
  0
LINE
  5
11D
100
AcDbEntity
  8
0
370
              18
  6
Continuous
 62
               7
100
AcDbLine
 10
-12.644368571499996
 20
-57.906601051799996
 30
0.0
 11
-12.635807504599995
 21
-50.178081923699992
 31
0.0
  0
POLYLINE
  5
11E
100
AcDbEntity
  8
0
370
              18
  6
Continuous
 62
               7
100
AcDb2dPolyline
 66
               1
 10
0.0
 20
0.0
 30
0.0
 75
               5
  0
VERTEX
  5
11F
100
AcDbEntity
  8
0
370
              18
  6
Continuous
 62
               7
100
AcDbVertex
100
AcDb2dVertex
 10
-8.0445231109999895
 20
-58.906434883799989
 30
0.0
  0
VERTEX
  5
120
100
AcDbEntity
  8
0
370
              18
  6
Continuous
 62
               7
100
AcDbVertex
100
AcDb2dVertex
 10
-8.0733411718999974
 20
-59.353657369999993
 30
0.0
  0
VERTEX
  5
121
100
AcDbEntity
  8
0
370
              18
  6
Continuous
 62
               7
100
AcDbVertex
100
AcDb2dVertex
 10
-8.1580814143999874
 20
-59.77755808229999
 30
0.0
  0
VERTEX
  5
122
100
AcDbEntity
  8
0
370
              18
  6
Continuous
 62
               7
100
AcDbVertex
100
AcDb2dVertex
 10
-8.2966570646999855
 20
-60.167699237299999
 30
0.0
  0
VERTEX
  5
123
100
AcDbEntity
  8
0
370
              18
  6
Continuous
 62
               7
100
AcDbVertex
100
AcDb2dVertex
 10
-8.4856562149999917
 20
-60.514475366599996
 30
0.0
  0
VERTEX
  5
124
100
AcDbEntity
  8
0
370
              18
  6
Continuous
 62
               7
100
AcDbVertex
100
AcDb2dVertex
 10
-8.7204249240999872
 20
-60.809345795799999
 30
0.0
  0
VERTEX
  5
125
100
AcDbEntity
  8
0
370
              18
  6
Continuous
 62
               7
100
AcDbVertex
100
AcDb2dVertex
 10
-8.9951824356999879
 20
-61.045050062299993
 30
0.0
  0
VERTEX
  5
126
100
AcDbEntity
  8
0
370
              18
  6
Continuous
 62
               7
100
AcDbVertex
100
AcDb2dVertex
 10
-9.3031632083999938
 20
-61.215785828899996
 30
0.0
  0
VERTEX
  5
127
100
AcDbEntity
  8
0
370
              18
  6
Continuous
 62
               7
100
AcDbVertex
100
AcDb2dVertex
 10
-9.6367838965999937
 20
-61.317346815199997
 30
0.0
  0
VERTEX
  5
128
100
AcDbEntity
  8
0
370
              18
  6
Continuous
 62
               7
100
AcDbVertex
100
AcDb2dVertex
 10
-9.987829513899996
 20
-61.3472349619
 30
0.0
  0
VERTEX
  5
129
100
AcDbEntity
  8
0
370
              18
  6
Continuous
 62
               7
100
AcDbVertex
100
AcDb2dVertex
 10
-10.347656241599992
 20
-61.304712820799992
 30
0.0
  0
VERTEX
  5
12A
100
AcDbEntity
  8
0
370
              18
  6
Continuous
 62
               7
100
AcDbVertex
100
AcDb2dVertex
 10
-10.707403917399986
 20
-61.190826482599988
 30
0.0
  0
VERTEX
  5
12B
100
AcDbEntity
  8
0
370
              18
  6
Continuous
 62
               7
100
AcDbVertex
100
AcDb2dVertex
 10
-11.058214327799988
 20
-61.008381166799992
 30
0.0
  0
VERTEX
  5
12C
100
AcDbEntity
  8
0
370
              18
  6
Continuous
 62
               7
100
AcDbVertex
100
AcDb2dVertex
 10
-11.391449448899991
 20
-60.761870745799996
 30
0.0
  0
VERTEX
  5
12D
100
AcDbEntity
  8
0
370
              18
  6
Continuous
 62
               7
100
AcDbVertex
100
AcDb2dVertex
 10
-11.698903782399995
 20
-60.457362476299991
 30
0.0
  0
VERTEX
  5
12E
100
AcDbEntity
  8
0
370
              18
  6
Continuous
 62
               7
100
AcDbVertex
100
AcDb2dVertex
 10
-11.973006949999998
 20
-60.102356489499996
 30
0.0
  0
VERTEX
  5
12F
100
AcDbEntity
  8
0
370
              18
  6
Continuous
 62
               7
100
AcDbVertex
100
AcDb2dVertex
 10
-12.207009519199985
 20
-59.705592771199989
 30
0.0
  0
VERTEX
  5
130
100
AcDbEntity
  8
0
370
              18
  6
Continuous
 62
               7
100
AcDbVertex
100
AcDb2dVertex
 10
-12.395149598299994
 20
-59.276840722399996
 30
0.0
  0
VERTEX
  5
131
100
AcDbEntity
  8
0
370
              18
  6
Continuous
 62
               7
100
AcDbVertex
100
AcDb2dVertex
 10
-12.532794403299988
 20
-58.826659603300001
 30
0.0
  0
VERTEX
  5
132
100
AcDbEntity
  8
0
370
              18
  6
Continuous
 62
               7
100
AcDbVertex
100
AcDb2dVertex
 10
-12.616554944499995
 20
-58.366133142300001
 30
0.0
  0
VERTEX
  5
133
100
AcDbEntity
  8
0
370
              18
  6
Continuous
 62
               7
100
AcDbVertex
100
AcDb2dVertex
 10
-12.644368571499996
 20
-57.906601051799996
 30
0.0
  0
SEQEND
  5
134
100
AcDbEntity
  8
0
370
              18
  6
Continuous
 62
               7
  0
POLYLINE
  5
135
100
AcDbEntity
  8
0
370
              18
  6
Continuous
 62
               7
100
AcDb2dPolyline
 66
               1
 10
0.0
 20
0.0
 30
0.0
 75
               5
  0
VERTEX
  5
136
100
AcDbEntity
  8
0
370
              18
  6
Continuous
 62
               7
100
AcDbVertex
100
AcDb2dVertex
 10
-10.263115701499999
 20
15.014417348300015
 30
0.0
  0
VERTEX
  5
137
100
AcDbEntity
  8
0
370
              18
  6
Continuous
 62
               7
100
AcDbVertex
100
AcDb2dVertex
 10
-9.9729788836999944
 20
14.916426383599998
 30
0.0
  0
VERTEX
  5
138
100
AcDbEntity
  8
0
370
              18
  6
Continuous
 62
               7
100
AcDbVertex
100
AcDb2dVertex
 10
-9.6934057128999882
 20
14.752146456500014
 30
0.0
  0
VERTEX
  5
139
100
AcDbEntity
  8
0
370
              18
  6
Continuous
 62
               7
100
AcDbVertex
100
AcDb2dVertex
 10
-9.4345007200999902
 20
14.527511881799995
 30
0.0
  0
VERTEX
  5
13A
100
AcDbEntity
  8
0
370
              18
  6
Continuous
 62
               7
100
AcDbVertex
100
AcDb2dVertex
 10
-9.2056213562999858
 20
14.250644496299998
 30
0.0
  0
VERTEX
  5
13B
100
AcDbEntity
  8
0
370
              18
  6
Continuous
 62
               7
100
AcDbVertex
100
AcDb2dVertex
 10
-9.0150399235999856
 20
13.931549792699997
 30
0.0
  0
VERTEX
  5
13C
100
AcDbEntity
  8
0
370
              18
  6
Continuous
 62
               7
100
AcDbVertex
100
AcDb2dVertex
 10
-8.8696446610999971
 20
13.581763967200004
 30
0.0
  0
VERTEX
  5
13D
100
AcDbEntity
  8
0
370
              18
  6
Continuous
 62
               7
100
AcDbVertex
100
AcDb2dVertex
 10
-8.7746903762999864
 20
13.213919583999996
 30
0.0
  0
VERTEX
  5
13E
100
AcDbEntity
  8
0
370
              18
  6
Continuous
 62
               7
100
AcDbVertex
100
AcDb2dVertex
 10
-8.7336090227999961
 20
12.841318509800004
 30
0.0
  0
VERTEX
  5
13F
100
AcDbEntity
  8
0
370
              18
  6
Continuous
 62
               7
100
AcDbVertex
100
AcDb2dVertex
 10
-8.7478852808999932
 20
12.477426824800006
 30
0.0
  0
VERTEX
  5
140
100
AcDbEntity
  8
0
370
              18
  6
Continuous
 62
               7
100
AcDbVertex
100
AcDb2dVertex
 10
-8.8170033763999953
 20
12.135402495899996
 30
0.0
  0
VERTEX
  5
141
100
AcDbEntity
  8
0
370
              18
  6
Continuous
 62
               7
100
AcDbVertex
100
AcDb2dVertex
 10
-8.9384650631999989
 20
11.827592442699995
 30
0.0
  0
VERTEX
  5
142
100
AcDbEntity
  8
0
370
              18
  6
Continuous
 62
               7
100
AcDbVertex
100
AcDb2dVertex
 10
-9.1078804016999868
 20
11.565137579500004
 30
0.0
  0
VERTEX
  5
143
100
AcDbEntity
  8
0
370
              18
  6
Continuous
 62
               7
100
AcDbVertex
100
AcDb2dVertex
 10
-9.3191263855999864
 20
11.357511970199994
 30
0.0
  0
VERTEX
  5
144
100
AcDbEntity
  8
0
370
              18
  6
Continuous
 62
               7
100
AcDbVertex
100
AcDb2dVertex
 10
-9.5645678754999892
 20
11.212225276499993
 30
0.0
  0
VERTEX
  5
145
100
AcDbEntity
  8
0
370
              18
  6
Continuous
 62
               7
100
AcDbVertex
100
AcDb2dVertex
 10
-9.8353341300999944
 20
11.134525771400007
 30
0.0
  0
VERTEX
  5
146
100
AcDbEntity
  8
0
370
              18
  6
Continuous
 62
               7
100
AcDbVertex
100
AcDb2dVertex
 10
-10.121638841099994
 20
11.127222240400016
 30
0.0
  0
VERTEX
  5
147
100
AcDbEntity
  8
0
370
              18
  6
Continuous
 62
               7
100
AcDbVertex
100
AcDb2dVertex
 10
-10.413134255799989
 20
11.190582407600004
 30
0.0
  0
VERTEX
  5
148
100
AcDbEntity
  8
0
370
              18
  6
Continuous
 62
               7
100
AcDbVertex
100
AcDb2dVertex
 10
-10.699284951699994
 20
11.322316267500014
 30
0.0
  0
VERTEX
  5
149
100
AcDbEntity
  8
0
370
              18
  6
Continuous
 62
               7
100
AcDbVertex
100
AcDb2dVertex
 10
-10.969748750999997
 20
11.517658881100004
 30
0.0
  0
VERTEX
  5
14A
100
AcDbEntity
  8
0
370
              18
  6
Continuous
 62
               7
100
AcDbVertex
100
AcDb2dVertex
 10
-11.214750277999997
 20
11.769549486800003
 30
0.0
  0
VERTEX
  5
14B
100
AcDbEntity
  8
0
370
              18
  6
Continuous
 62
               7
100
AcDbVertex
100
AcDb2dVertex
 10
-11.425434686699987
 20
12.068886934000005
 30
0.0
  0
VERTEX
  5
14C
100
AcDbEntity
  8
0
370
              18
  6
Continuous
 62
               7
100
AcDbVertex
100
AcDb2dVertex
 10
-11.594187146799996
 20
12.404846789700002
 30
0.0
  0
VERTEX
  5
14D
100
AcDbEntity
  8
0
370
              18
  6
Continuous
 62
               7
100
AcDbVertex
100
AcDb2dVertex
 10
-11.714908583999986
 20
12.765298368100019
 30
0.0
  0
VERTEX
  5
14E
100
AcDbEntity
  8
0
370
              18
  6
Continuous
 62
               7
100
AcDbVertex
100
AcDb2dVertex
 10
-11.783235848699988
 20
13.137198161800001
 30
0.0
  0
VERTEX
  5
14F
100
AcDbEntity
  8
0
370
              18
  6
Continuous
 62
               7
100
AcDbVertex
100
AcDb2dVertex
 10
-11.79669924449999
 20
13.507119406900017
 30
0.0
  0
VERTEX
  5
150
100
AcDbEntity
  8
0
370
              18
  6
Continuous
 62
               7
100
AcDbVertex
100
AcDb2dVertex
 10
-11.754812389399987
 20
13.861686305299997
 30
0.0
  0
VERTEX
  5
151
100
AcDbEntity
  8
0
370
              18
  6
Continuous
 62
               7
100
AcDbVertex
100
AcDb2dVertex
 10
-11.65908907539999
 20
14.188084532099992
 30
0.0
  0
VERTEX
  5
152
100
AcDbEntity
  8
0
370
              18
  6
Continuous
 62
               7
100
AcDbVertex
100
AcDb2dVertex
 10
-11.512989066099991
 20
14.47451022140001
 30
0.0
  0
VERTEX
  5
153
100
AcDbEntity
  8
0
370
              18
  6
Continuous
 62
               7
100
AcDbVertex
100
AcDb2dVertex
 10
-11.321792619199996
 20
14.710620737100015
 30
0.0
  0
VERTEX
  5
154
100
AcDbEntity
  8
0
370
              18
  6
Continuous
 62
               7
100
AcDbVertex
100
AcDb2dVertex
 10
-11.092410209199997
 20
14.887879205399997
 30
0.0
  0
VERTEX
  5
155
100
AcDbEntity
  8
0
370
              18
  6
Continuous
 62
               7
100
AcDbVertex
100
AcDb2dVertex
 10
-10.833132316999993
 20
14.99988026150001
 30
0.0
  0
VERTEX
  5
156
100
AcDbEntity
  8
0
370
              18
  6
Continuous
 62
               7
100
AcDbVertex
100
AcDb2dVertex
 10
-10.553329877699994
 20
15.042572916799998
 30
0.0
  0
VERTEX
  5
157
100
AcDbEntity
  8
0
370
              18
  6
Continuous
 62
               7
100
AcDbVertex
100
AcDb2dVertex
 10
-10.263115701499999
 20
15.014417348300015
 30
0.0
  0
SEQEND
  5
158
100
AcDbEntity
  8
0
370
              18
  6
Continuous
 62
               7
  0
POLYLINE
  5
159
100
AcDbEntity
  8
0
370
              18
  6
Continuous
 62
               7
100
AcDb2dPolyline
 66
               1
 10
0.0
 20
0.0
 30
0.0
 75
               5
  0
VERTEX
  5
15A
100
AcDbEntity
  8
0
370
              18
  6
Continuous
 62
               7
100
AcDbVertex
100
AcDb2dVertex
 10
-10.356752374699994
 20
-69.516263944599999
 30
0.0
  0
VERTEX
  5
15B
100
AcDbEntity
  8
0
370
              18
  6
Continuous
 62
               7
100
AcDbVertex
100
AcDb2dVertex
 10
-10.109582200099993
 20
-69.603877048399994
 30
0.0
  0
VERTEX
  5
15C
100
AcDbEntity
  8
0
370
              18
  6
Continuous
 62
               7
100
AcDbVertex
100
AcDb2dVertex
 10
-9.8740444685999904
 20
-69.755151172199987
 30
0.0
  0
VERTEX
  5
15D
100
AcDbEntity
  8
0
370
              18
  6
Continuous
 62
               7
100
AcDbVertex
100
AcDb2dVertex
 10
-9.6611527028999973
 20
-69.963013448999988
 30
0.0
  0
VERTEX
  5
15E
100
AcDbEntity
  8
0
370
              18
  6
Continuous
 62
               7
100
AcDbVertex
100
AcDb2dVertex
 10
-9.4808614626999912
 20
-70.217744639299994
 30
0.0
  0
VERTEX
  5
15F
100
AcDbEntity
  8
0
370
              18
  6
Continuous
 62
               7
100
AcDbVertex
100
AcDb2dVertex
 10
-9.3416009114999952
 20
-70.507433432999989
 30
0.0
  0
VERTEX
  5
160
100
AcDbEntity
  8
0
370
              18
  6
Continuous
 62
               7
100
AcDbVertex
100
AcDb2dVertex
 10
-9.2498828415999981
 20
-70.81853437129999
 30
0.0
  0
VERTEX
  5
161
100
AcDbEntity
  8
0
370
              18
  6
Continuous
 62
               7
100
AcDbVertex
100
AcDb2dVertex
 10
-9.2099958218999944
 20
-71.136500887899999
 30
0.0
  0
VERTEX
  5
162
100
AcDbEntity
  8
0
370
              18
  6
Continuous
 62
               7
100
AcDbVertex
100
AcDb2dVertex
 10
-9.2238048422999981
 20
-71.4464649337
 30
0.0
  0
VERTEX
  5
163
100
AcDbEntity
  8
0
370
              18
  6
Continuous
 62
               7
100
AcDbVertex
100
AcDb2dVertex
 10
-9.2906643859999889
 20
-71.733933341699995
 30
0.0
  0
VERTEX
  5
164
100
AcDbEntity
  8
0
370
              18
  6
Continuous
 62
               7
100
AcDbVertex
100
AcDb2dVertex
 10
-9.4074480308999995
 20
-71.985464083499991
 30
0.0
  0
VERTEX
  5
165
100
AcDbEntity
  8
0
370
              18
  6
Continuous
 62
               7
100
AcDbVertex
100
AcDb2dVertex
 10
-9.5686951218999923
 20
-72.189296020299992
 30
0.0
  0
VERTEX
  5
166
100
AcDbEntity
  8
0
370
              18
  6
Continuous
 62
               7
100
AcDbVertex
100
AcDb2dVertex
 10
-9.7668659774999895
 20
-72.335898006499988
 30
0.0
  0
VERTEX
  5
167
100
AcDbEntity
  8
0
370
              18
  6
Continuous
 62
               7
100
AcDbVertex
100
AcDb2dVertex
 10
-9.9926943240999861
 20
-72.418415326099989
 30
0.0
  0
VERTEX
  5
168
100
AcDbEntity
  8
0
370
              18
  6
Continuous
 62
               7
100
AcDbVertex
100
AcDb2dVertex
 10
-10.235620672499991
 20
-72.432989462399988
 30
0.0
  0
VERTEX
  5
169
100
AcDbEntity
  8
0
370
              18
  6
Continuous
 62
               7
100
AcDbVertex
100
AcDb2dVertex
 10
-10.484286058099997
 20
-72.378938936599994
 30
0.0
  0
VERTEX
  5
16A
100
AcDbEntity
  8
0
370
              18
  6
Continuous
 62
               7
100
AcDbVertex
100
AcDb2dVertex
 10
-10.643084049399988
 20
-72.308287493099996
 30
0.0
  0
SEQEND
  5
16B
100
AcDbEntity
  8
0
370
              18
  6
Continuous
 62
               7
  0
ARC
  5
16C
100
AcDbEntity
  8
0
370
              18
  6
Continuous
 62
               7
100
AcDbCircle
 10
-10.540272676099988
 20
-70.386894403399992
 30
0.0
 40
0.8897623822580606
100
AcDbArc
 50
78.096869184000354
 51
155.23770152630044
  0
LINE
  5
16D
100
AcDbEntity
  8
0
370
              18
  6
Continuous
 62
               7
100
AcDbLine
 10
-4.6577594555999866
 20
-75.103350208099997
 30
0.0
 11
-13.490371837499993
 21
-73.183471646899989
 31
0.0
  0
LINE
  5
16E
100
AcDbEntity
  8
0
370
              18
  6
Continuous
 62
               7
100
AcDbLine
 10
5.1520640291000177
 20
82.405562871600011
 30
0.0
 11
4.9808426843000007
 21
-72.164825449299997
 31
0.0
  0
LINE
  5
16F
100
AcDbEntity
  8
0
370
              18
  6
Continuous
 62
               7
100
AcDbLine
 10
4.9808426843000007
 20
-72.164825449299997
 30
0.0
 11
-4.5732361076999979
 21
-75.101507080199994
 31
0.0
  0
POLYLINE
  5
170
100
AcDbEntity
  8
0
370
              18
  6
Continuous
 62
               7
100
AcDb2dPolyline
 66
               1
 10
0.0
 20
0.0
 30
0.0
 75
               5
  0
VERTEX
  5
171
100
AcDbEntity
  8
0
370
              18
  6
Continuous
 62
               7
100
AcDbVertex
100
AcDb2dVertex
 10
-10.016986092499991
 20
63.376864631300009
 30
0.0
  0
VERTEX
  5
172
100
AcDbEntity
  8
0
370
              18
  6
Continuous
 62
               7
100
AcDbVertex
100
AcDb2dVertex
 10
-9.7267719162999953
 20
63.348709062799998
 30
0.0
  0
VERTEX
  5
173
100
AcDbEntity
  8
0
370
              18
  6
Continuous
 62
               7
100
AcDbVertex
100
AcDb2dVertex
 10
-9.5249005775999933
 20
63.372090206400003
 30
0.0
  0
SEQEND
  5
174
100
AcDbEntity
  8
0
370
              18
  6
Continuous
 62
               7
  0
POLYLINE
  5
175
100
AcDbEntity
  8
0
370
              18
  6
Continuous
 62
               7
100
AcDb2dPolyline
 66
               1
 10
0.0
 20
0.0
 30
0.0
 75
               5
  0
VERTEX
  5
176
100
AcDbEntity
  8
0
370
              18
  6
Continuous
 62
               7
100
AcDbVertex
100
AcDb2dVertex
 10
-10.697413597299999
 20
67.186694785000014
 30
0.0
  0
VERTEX
  5
177
100
AcDbEntity
  8
0
370
              18
  6
Continuous
 62
               7
100
AcDbVertex
100
AcDb2dVertex
 10
-10.715533918499986
 20
67.179056703100002
 30
0.0
  0
VERTEX
  5
178
100
AcDbEntity
  8
0
370
              18
  6
Continuous
 62
               7
100
AcDbVertex
100
AcDb2dVertex
 10
-10.960975408399989
 20
67.033770009500017
 30
0.0
  0
VERTEX
  5
179
100
AcDbEntity
  8
0
370
              18
  6
Continuous
 62
               7
100
AcDbVertex
100
AcDb2dVertex
 10
-11.172221385899988
 20
66.826150158399997
 30
0.0
  0
VERTEX
  5
17A
100
AcDbEntity
  8
0
370
              18
  6
Continuous
 62
               7
100
AcDbVertex
100
AcDb2dVertex
 10
-11.341636724499992
 20
66.563695295100018
 30
0.0
  0
VERTEX
  5
17B
100
AcDbEntity
  8
0
370
              18
  6
Continuous
 62
               7
100
AcDbVertex
100
AcDb2dVertex
 10
-11.463098417599994
 20
66.255879483800015
 30
0.0
  0
VERTEX
  5
17C
100
AcDbEntity
  8
0
370
              18
  6
Continuous
 62
               7
100
AcDbVertex
100
AcDb2dVertex
 10
-11.532216513099996
 20
65.913855154900006
 30
0.0
  0
VERTEX
  5
17D
100
AcDbEntity
  8
0
370
              18
  6
Continuous
 62
               7
100
AcDbVertex
100
AcDb2dVertex
 10
-11.546492764899995
 20
65.549969228000009
 30
0.0
  0
VERTEX
  5
17E
100
AcDbEntity
  8
0
370
              18
  6
Continuous
 62
               7
100
AcDbVertex
100
AcDb2dVertex
 10
-11.505411411299988
 20
65.177368153900005
 30
0.0
  0
VERTEX
  5
17F
100
AcDbEntity
  8
0
370
              18
  6
Continuous
 62
               7
100
AcDbVertex
100
AcDb2dVertex
 10
-11.410457132899992
 20
64.809518012400019
 30
0.0
  0
VERTEX
  5
180
100
AcDbEntity
  8
0
370
              18
  6
Continuous
 62
               7
100
AcDbVertex
100
AcDb2dVertex
 10
-11.26506187039999
 20
64.459732186899998
 30
0.0
  0
VERTEX
  5
181
100
AcDbEntity
  8
0
370
              18
  6
Continuous
 62
               7
100
AcDbVertex
100
AcDb2dVertex
 10
-11.074480437699989
 20
64.140637483299997
 30
0.0
  0
VERTEX
  5
182
100
AcDbEntity
  8
0
370
              18
  6
Continuous
 62
               7
100
AcDbVertex
100
AcDb2dVertex
 10
-10.845601067499999
 20
63.863775856100006
 30
0.0
  0
VERTEX
  5
183
100
AcDbEntity
  8
0
370
              18
  6
Continuous
 62
               7
100
AcDbVertex
100
AcDb2dVertex
 10
-10.586696081099987
 20
63.639135523100009
 30
0.0
  0
VERTEX
  5
184
100
AcDbEntity
  8
0
370
              18
  6
Continuous
 62
               7
100
AcDbVertex
100
AcDb2dVertex
 10
-10.307122910299995
 20
63.474855595999998
 30
0.0
  0
VERTEX
  5
185
100
AcDbEntity
  8
0
370
              18
  6
Continuous
 62
               7
100
AcDbVertex
100
AcDb2dVertex
 10
-10.016986092499991
 20
63.376864631300009
 30
0.0
  0
SEQEND
  5
186
100
AcDbEntity
  8
0
370
              18
  6
Continuous
 62
               7
  0
POLYLINE
  5
187
100
AcDbEntity
  8
0
370
              18
  6
Continuous
 62
               7
100
AcDb2dPolyline
 66
               1
 10
0.0
 20
0.0
 30
0.0
 75
               5
  0
VERTEX
  5
188
100
AcDbEntity
  8
0
370
              18
  6
Continuous
 62
               7
100
AcDbVertex
100
AcDb2dVertex
 10
4.994843994900009
 20
-72.154893552999994
 30
0.0
  0
VERTEX
  5
189
100
AcDbEntity
  8
0
370
              18
  6
Continuous
 62
               7
100
AcDbVertex
100
AcDb2dVertex
 10
4.9944933348999996
 20
-72.156561708699996
 30
0.0
  0
VERTEX
  5
18A
100
AcDbEntity
  8
0
370
              18
  6
Continuous
 62
               7
100
AcDbVertex
100
AcDb2dVertex
 10
4.9920840935999991
 20
-72.159532806799987
 30
0.0
  0
VERTEX
  5
18B
100
AcDbEntity
  8
0
370
              18
  6
Continuous
 62
               7
100
AcDbVertex
100
AcDb2dVertex
 10
4.9874743590000037
 20
-72.162323065300001
 30
0.0
  0
VERTEX
  5
18C
100
AcDbEntity
  8
0
370
              18
  6
Continuous
 62
               7
100
AcDbVertex
100
AcDb2dVertex
 10
4.9808426843000007
 20
-72.164825449299997
 30
0.0
  0
SEQEND
  5
18D
100
AcDbEntity
  8
0
370
              18
  6
Continuous
 62
               7
  0
POLYLINE
  5
18E
100
AcDbEntity
  8
0
370
              18
  6
Continuous
 62
               7
100
AcDb2dPolyline
 66
               1
 10
0.0
 20
0.0
 30
0.0
 75
               5
  0
VERTEX
  5
18F
100
AcDbEntity
  8
0
370
              18
  6
Continuous
 62
               7
100
AcDbVertex
100
AcDb2dVertex
 10
-10.074773291399993
 20
11.209363035600006
 30
0.0
  0
VERTEX
  5
190
100
AcDbEntity
  8
0
370
              18
  6
Continuous
 62
               7
100
AcDbVertex
100
AcDb2dVertex
 10
-9.7845591151999969
 20
11.181207467099995
 30
0.0
  0
VERTEX
  5
191
100
AcDbEntity
  8
0
370
              18
  6
Continuous
 62
               7
100
AcDbVertex
100
AcDb2dVertex
 10
-9.5826877764999949
 20
11.2045886107
 30
0.0
  0
SEQEND
  5
192
100
AcDbEntity
  8
0
370
              18
  6
Continuous
 62
               7
  0
POLYLINE
  5
193
100
AcDbEntity
  8
0
370
              18
  6
Continuous
 62
               7
100
AcDb2dPolyline
 66
               1
 10
0.0
 20
0.0
 30
0.0
 75
               5
  0
VERTEX
  5
194
100
AcDbEntity
  8
0
370
              18
  6
Continuous
 62
               7
100
AcDbVertex
100
AcDb2dVertex
 10
-10.755200796299988
 20
15.019193189300012
 30
0.0
  0
VERTEX
  5
195
100
AcDbEntity
  8
0
370
              18
  6
Continuous
 62
               7
100
AcDbVertex
100
AcDb2dVertex
 10
-10.773321117499989
 20
15.0115551074
 30
0.0
  0
VERTEX
  5
196
100
AcDbEntity
  8
0
370
              18
  6
Continuous
 62
               7
100
AcDbVertex
100
AcDb2dVertex
 10
-11.01876260729999
 20
14.866268413800015
 30
0.0
  0
VERTEX
  5
197
100
AcDbEntity
  8
0
370
              18
  6
Continuous
 62
               7
100
AcDbVertex
100
AcDb2dVertex
 10
-11.23000859119999
 20
14.658642804500005
 30
0.0
  0
VERTEX
  5
198
100
AcDbEntity
  8
0
370
              18
  6
Continuous
 62
               7
100
AcDbVertex
100
AcDb2dVertex
 10
-11.399423929799994
 20
14.396187941199997
 30
0.0
  0
VERTEX
  5
199
100
AcDbEntity
  8
0
370
              18
  6
Continuous
 62
               7
100
AcDbVertex
100
AcDb2dVertex
 10
-11.520885616499996
 20
14.088377888100013
 30
0.0
  0
VERTEX
  5
19A
100
AcDbEntity
  8
0
370
              18
  6
Continuous
 62
               7
100
AcDbVertex
100
AcDb2dVertex
 10
-11.590003718399998
 20
13.746347801000013
 30
0.0
  0
VERTEX
  5
19B
100
AcDbEntity
  8
0
370
              18
  6
Continuous
 62
               7
100
AcDbVertex
100
AcDb2dVertex
 10
-11.604279970199997
 20
13.382461874100017
 30
0.0
  0
VERTEX
  5
19C
100
AcDbEntity
  8
0
370
              18
  6
Continuous
 62
               7
100
AcDbVertex
100
AcDb2dVertex
 10
-11.56319861659999
 20
13.009860800000013
 30
0.0
  0
VERTEX
  5
19D
100
AcDbEntity
  8
0
370
              18
  6
Continuous
 62
               7
100
AcDbVertex
100
AcDb2dVertex
 10
-11.468244331899996
 20
12.642016416700017
 30
0.0
  0
VERTEX
  5
19E
100
AcDbEntity
  8
0
370
              18
  6
Continuous
 62
               7
100
AcDbVertex
100
AcDb2dVertex
 10
-11.322849069399993
 20
12.292230591199996
 30
0.0
  0
VERTEX
  5
19F
100
AcDbEntity
  8
0
370
              18
  6
Continuous
 62
               7
100
AcDbVertex
100
AcDb2dVertex
 10
-11.132267636599991
 20
11.973135887599994
 30
0.0
  0
VERTEX
  5
1A0
100
AcDbEntity
  8
0
370
              18
  6
Continuous
 62
               7
100
AcDbVertex
100
AcDb2dVertex
 10
-10.903388272799987
 20
11.696268502200013
 30
0.0
  0
VERTEX
  5
1A1
100
AcDbEntity
  8
0
370
              18
  6
Continuous
 62
               7
100
AcDbVertex
100
AcDb2dVertex
 10
-10.644483279999989
 20
11.471633927400006
 30
0.0
  0
VERTEX
  5
1A2
100
AcDbEntity
  8
0
370
              18
  6
Continuous
 62
               7
100
AcDbVertex
100
AcDb2dVertex
 10
-10.364910109299998
 20
11.307354000299995
 30
0.0
  0
VERTEX
  5
1A3
100
AcDbEntity
  8
0
370
              18
  6
Continuous
 62
               7
100
AcDbVertex
100
AcDb2dVertex
 10
-10.074773291399993
 20
11.209363035600006
 30
0.0
  0
SEQEND
  5
1A4
100
AcDbEntity
  8
0
370
              18
  6
Continuous
 62
               7
  0
LINE
  5
1A5
100
AcDbEntity
  8
0
370
              18
  6
Continuous
 62
               7
100
AcDbLine
 10
-12.635807504599995
 20
-50.178081923699992
 30
0.0
 11
-12.443184558599995
 21
-50.118874512999994
 31
0.0
  0
POLYLINE
  5
1A6
100
AcDbEntity
  8
0
370
              18
  6
Continuous
 62
               7
100
AcDb2dPolyline
 66
               1
 10
0.0
 20
0.0
 30
0.0
 75
               5
  0
VERTEX
  5
1A7
100
AcDbEntity
  8
0
370
              18
  6
Continuous
 62
               7
100
AcDbVertex
100
AcDb2dVertex
 10
-11.120092152299989
 20
-47.78375164869999
 30
0.0
  0
VERTEX
  5
1A8
100
AcDbEntity
  8
0
370
              18
  6
Continuous
 62
               7
100
AcDbVertex
100
AcDb2dVertex
 10
-11.184544461299993
 20
-47.809523567900001
 30
0.0
  0
VERTEX
  5
1A9
100
AcDbEntity
  8
0
370
              18
  6
Continuous
 62
               7
100
AcDbVertex
100
AcDb2dVertex
 10
-11.492525232399998
 20
-47.980257894999994
 30
0.0
  0
VERTEX
  5
1AA
100
AcDbEntity
  8
0
370
              18
  6
Continuous
 62
               7
100
AcDbVertex
100
AcDb2dVertex
 10
-11.767282743999999
 20
-48.215962161499988
 30
0.0
  0
VERTEX
  5
1AB
100
AcDbEntity
  8
0
370
              18
  6
Continuous
 62
               7
100
AcDbVertex
100
AcDb2dVertex
 10
-12.002051453099995
 20
-48.510832590599989
 30
0.0
  0
VERTEX
  5
1AC
100
AcDbEntity
  8
0
370
              18
  6
Continuous
 62
               7
100
AcDbVertex
100
AcDb2dVertex
 10
-12.191050604999987
 20
-48.857610159499998
 30
0.0
  0
VERTEX
  5
1AD
100
AcDbEntity
  8
0
370
              18
  6
Continuous
 62
               7
100
AcDbVertex
100
AcDb2dVertex
 10
-12.329626253699999
 20
-49.247749874999997
 30
0.0
  0
VERTEX
  5
1AE
100
AcDbEntity
  8
0
370
              18
  6
Continuous
 62
               7
100
AcDbVertex
100
AcDb2dVertex
 10
-12.414366496199989
 20
-49.671650587199991
 30
0.0
  0
VERTEX
  5
1AF
100
AcDbEntity
  8
0
370
              18
  6
Continuous
 62
               7
100
AcDbVertex
100
AcDb2dVertex
 10
-12.443184558599995
 20
-50.118874512999994
 30
0.0
  0
SEQEND
  5
1B0
100
AcDbEntity
  8
0
370
              18
  6
Continuous
 62
               7
  0
LINE
  5
1B1
100
AcDbEntity
  8
0
370
              18
  6
Continuous
 62
               7
100
AcDbLine
 10
-12.644368571499996
 20
-57.906601051799996
 30
0.0
 11
-12.451745625599997
 21
-57.847393641099998
 31
0.0
  0
POLYLINE
  5
1B2
100
AcDbEntity
  8
0
370
              18
  6
Continuous
 62
               7
100
AcDb2dPolyline
 66
               1
 10
0.0
 20
0.0
 30
0.0
 75
               5
  0
VERTEX
  5
1B3
100
AcDbEntity
  8
0
370
              18
  6
Continuous
 62
               7
100
AcDbVertex
100
AcDb2dVertex
 10
-12.451745625599997
 20
-57.847393641099998
 30
0.0
  0
VERTEX
  5
1B4
100
AcDbEntity
  8
0
370
              18
  6
Continuous
 62
               7
100
AcDbVertex
100
AcDb2dVertex
 10
-12.423931998599997
 20
-58.306925731599989
 30
0.0
  0
VERTEX
  5
1B5
100
AcDbEntity
  8
0
370
              18
  6
Continuous
 62
               7
100
AcDbVertex
100
AcDb2dVertex
 10
-12.34017145739999
 20
-58.76745219259999
 30
0.0
  0
VERTEX
  5
1B6
100
AcDbEntity
  8
0
370
              18
  6
Continuous
 62
               7
100
AcDbVertex
100
AcDb2dVertex
 10
-12.202526652299994
 20
-59.217633311699998
 30
0.0
  0
VERTEX
  5
1B7
100
AcDbEntity
  8
0
370
              18
  6
Continuous
 62
               7
100
AcDbVertex
100
AcDb2dVertex
 10
-12.014386573299987
 20
-59.646385360499991
 30
0.0
  0
VERTEX
  5
1B8
100
AcDbEntity
  8
0
370
              18
  6
Continuous
 62
               7
100
AcDbVertex
100
AcDb2dVertex
 10
-11.780384003999998
 20
-60.043149078799999
 30
0.0
  0
VERTEX
  5
1B9
100
AcDbEntity
  8
0
370
              18
  6
Continuous
 62
               7
100
AcDbVertex
100
AcDb2dVertex
 10
-11.506280836399995
 20
-60.398155065599994
 30
0.0
  0
VERTEX
  5
1BA
100
AcDbEntity
  8
0
370
              18
  6
Continuous
 62
               7
100
AcDbVertex
100
AcDb2dVertex
 10
-11.198826502999992
 20
-60.702663335099999
 30
0.0
  0
VERTEX
  5
1BB
100
AcDbEntity
  8
0
370
              18
  6
Continuous
 62
               7
100
AcDbVertex
100
AcDb2dVertex
 10
-10.865591381799987
 20
-60.949173756099995
 30
0.0
  0
VERTEX
  5
1BC
100
AcDbEntity
  8
0
370
              18
  6
Continuous
 62
               7
100
AcDbVertex
100
AcDb2dVertex
 10
-10.514780971499988
 20
-61.131619071899991
 30
0.0
  0
VERTEX
  5
1BD
100
AcDbEntity
  8
0
370
              18
  6
Continuous
 62
               7
100
AcDbVertex
100
AcDb2dVertex
 10
-10.155033295599992
 20
-61.245505410099994
 30
0.0
  0
VERTEX
  5
1BE
100
AcDbEntity
  8
0
370
              18
  6
Continuous
 62
               7
100
AcDbVertex
100
AcDb2dVertex
 10
-9.7952065678999958
 20
-61.288027551199988
 30
0.0
  0
VERTEX
  5
1BF
100
AcDbEntity
  8
0
370
              18
  6
Continuous
 62
               7
100
AcDbVertex
100
AcDb2dVertex
 10
-9.4441609506999953
 20
-61.2581394045
 30
0.0
  0
VERTEX
  5
1C0
100
AcDbEntity
  8
0
370
              18
  6
Continuous
 62
               7
100
AcDbVertex
100
AcDb2dVertex
 10
-9.3676151344999994
 20
-61.241557763799989
 30
0.0
  0
SEQEND
  5
1C1
100
AcDbEntity
  8
0
370
              18
  6
Continuous
 62
               7
  0
LINE
  5
1C2
100
AcDbEntity
  8
0
370
              18
  6
Continuous
 62
               7
100
AcDbLine
 10
-12.443184558599995
 20
-50.118874512999994
 30
0.0
 11
-12.451745625599997
 21
-57.847393641099998
 31
0.0
  0
POLYLINE
  5
1C3
100
AcDbEntity
  8
0
370
              18
  6
Continuous
 62
               7
100
AcDb2dPolyline
 66
               1
 10
0.0
 20
0.0
 30
0.0
 75
               5
  0
VERTEX
  5
1C4
100
AcDbEntity
  8
0
370
              18
  6
Continuous
 62
               7
100
AcDbVertex
100
AcDb2dVertex
 10
-10.167339829099987
 20
-72.355251476899994
 30
0.0
  0
VERTEX
  5
1C5
100
AcDbEntity
  8
0
370
              18
  6
Continuous
 62
               7
100
AcDbVertex
100
AcDb2dVertex
 10
-9.9200945966999967
 20
-72.375106003699997
 30
0.0
  0
VERTEX
  5
1C6
100
AcDbEntity
  8
0
370
              18
  6
Continuous
 62
               7
100
AcDbVertex
100
AcDb2dVertex
 10
-9.8231487252999869
 20
-72.363647739699999
 30
0.0
  0
SEQEND
  5
1C7
100
AcDbEntity
  8
0
370
              18
  6
Continuous
 62
               7
  0
ARC
  5
1C8
100
AcDbEntity
  8
0
370
              18
  6
Continuous
 62
               7
100
AcDbCircle
 10
-10.287149295299997
 20
-70.3833425224
 30
0.0
 40
0.9683394656870685
100
AcDbArc
 50
115.29779547409983
 51
153.74663167450041
  0
POLYLINE
  5
1C9
100
AcDbEntity
  8
0
370
              18
  6
Continuous
 62
               7
100
AcDb2dPolyline
 66
               1
 10
0.0
 20
0.0
 30
0.0
 75
               5
  0
VERTEX
  5
1CA
100
AcDbEntity
  8
0
370
              18
  6
Continuous
 62
               7
100
AcDbVertex
100
AcDb2dVertex
 10
-10.45046110349999
 20
-72.249080082399999
 30
0.0
  0
VERTEX
  5
1CB
100
AcDbEntity
  8
0
370
              18
  6
Continuous
 62
               7
100
AcDbVertex
100
AcDb2dVertex
 10
-10.414510003999993
 20
-72.267638642999998
 30
0.0
  0
VERTEX
  5
1CC
100
AcDbEntity
  8
0
370
              18
  6
Continuous
 62
               7
100
AcDbVertex
100
AcDb2dVertex
 10
-10.167339829099987
 20
-72.355251476899994
 30
0.0
  0
SEQEND
  5
1CD
100
AcDbEntity
  8
0
370
              18
  6
Continuous
 62
               7
  0
LINE
  5
1CE
100
AcDbEntity
  8
0
370
              18
  6
Continuous
 62
               8
100
AcDbLine
 10
-15.8941551498
 20
81.946626080800002
 30
0.0
 11
-16.064091522399991
 21
-71.463751154699992
 31
0.0
  0
LINE
  5
1CF
100
AcDbEntity
  8
0
370
              18
  6
Continuous
 62
               8
100
AcDbLine
 10
-8.1941979954999908
 20
-50.083069948799988
 30
0.0
 11
-8.2051078703999991
 21
-59.931979824899997
 31
0.0
  0
LINE
  5
1D0
100
AcDbEntity
  8
0
370
              18
  6
Continuous
 62
               8
100
AcDbLine
 10
-8.1688788545999955
 20
-50.173992701499998
 30
0.0
 11
-8.1795995330999887
 21
-59.852105139299994
 31
0.0
  0
ENDBLK
  5
1D1
100
AcDbEntity
  8
一般
100
AcDbBlockEnd
  0
ENDSEC
  0
SECTION
  2
ENTITIES
  0
INSERT
  5
1D2
100
AcDbEntity
  8
一般
 62
               7
100
AcDbBlockReference
  2
*U0
 10
210.0
 20
148.5
 30
0.0
  0
MTEXT
  5
1D3
100
AcDbEntity
  8
0
 62
               7
100
AcDbMText
 10
241.0
 20
64.769750000000002
 30
0.0
 40
2.910416666666666
 41
0.0
 71
               1
 72
               1
  1
HEC-079P
  7
ＭＳ Ｐゴシック
 73
               1
 44
0.8762322015334064
  0
ENDSEC
  0
SECTION
  2
OBJECTS
  0
DICTIONARY
  5
19
100
AcDbDictionary
280
               0
281
               1
  3
ACAD_GROUP
350
1A
  3
ACAD_MLINESTYLE
350
1B
  3
ACAD_LAYOUT
350
1E
  3
ACAD_PLOTSETTINGS
350
22
  3
ACAD_PLOTSTYLENAME
350
1F
  3
ACAD_WIPEOUT_VARS
350
23
  0
DICTIONARY
  5
1A
102
{ACAD_REACTORS
330
19
102
}
100
AcDbDictionary
280
               0
281
               1
  0
DICTIONARY
  5
1B
102
{ACAD_REACTORS
330
19
102
}
100
AcDbDictionary
280
               0
281
               1
  3
Standard
350
1C
  0
MLINESTYLE
  5
1C
102
{ACAD_REACTORS
330
1B
102
}
100
AcDbMlineStyle
  2
Standard
 70
               0
  3

 62
               0
 51
90.0
 52
90.0
 71
               2
 49
0.5
 62
             256
  6
ByLayer
 49
-0.5
 62
             256
  6
ByLayer
  0
ACDBDICTIONARYWDFLT
  5
1F
102
{ACAD_REACTORS
330
19
102
}
100
AcDbDictionary
281
               1
  3
Normal
350
1D
100
AcDbDictionaryWithDefault
340
1D
  0
ACDBPLACEHOLDER
  5
1D
102
{ACAD_REACTORS
330
1F
102
}
  0
LAYOUT
  5
20
102
{ACAD_REACTORS
330
1E
102
}
100
AcDbPlotSettings
  1

  2

  4

  6

 40
0.0
 41
0.0
 42
0.0
 43
0.0
 44
0.0
 45
0.0
 46
0.0
 47
0.0
 48
0.0
 49
0.0
140
0.0
141
0.0
142
1.0
143
1.0
 70
            1024
 72
               0
 73
               0
 74
               0
  7

 75
               0
147
1.0
148
0.0
149
0.0
100
AcDbLayout
  1
Model
 70
               0
 71
               0
 10
0.0
 20
0.0
 11
0.0
 21
0.0
 12
0.0
 22
0.0
 32
0.0
 14
0.0
 24
0.0
 34
0.0
 15
0.0
 25
0.0
 35
0.0
146
0.0
 13
0.0
 23
0.0
 33
0.0
 16
0.0
 26
0.0
 36
0.0
 17
0.0
 27
0.0
 37
0.0
 76
               0
330
A
331
0
345
0
346
0
  0
LAYOUT
  5
21
102
{ACAD_REACTORS
330
1E
102
}
100
AcDbPlotSettings
  1

  2

  4

  6

 40
0.0
 41
0.0
 42
0.0
 43
0.0
 44
0.0
 45
0.0
 46
0.0
 47
0.0
 48
0.0
 49
0.0
140
0.0
141
0.0
142
1.0
143
1.0
 70
               0
 72
               0
 73
               0
 74
               0
  7

 75
               0
147
1.0
148
0.0
149
0.0
100
AcDbLayout
  1
Layout1
 70
               0
 71
               0
 10
0.0
 20
0.0
 11
0.0
 21
0.0
 12
0.0
 22
0.0
 32
0.0
 14
0.0
 24
0.0
 34
0.0
 15
0.0
 25
0.0
 35
0.0
146
0.0
 13
0.0
 23
0.0
 33
0.0
 16
0.0
 26
0.0
 36
0.0
 17
0.0
 27
0.0
 37
0.0
 76
               0
330
B
331
0
345
0
346
0
  0
DICTIONARY
  5
1E
102
{ACAD_REACTORS
330
19
102
}
100
AcDbDictionary
280
               0
281
               1
  3
Layout1
350
21
  3
Model
350
20
  0
DICTIONARY
  5
22
102
{ACAD_REACTORS
330
19
102
}
100
AcDbDictionary
280
               0
281
               1
  0
WIPEOUTVARIABLES
  5
23
100
AcDbWipeoutVariables
 70
               1
  0
ENDSEC
  0
EOF
