  0
SECTION
  2
HEADER
  9
$ACADVER
  1
AC1015
  9
$ACADMAINTVER
 70
               6
  9
$DWGCODEPAGE
  3
ANSI_932
  9
$INSBASE
 10
0.0
 20
0.0
 30
0.0
  9
$EXTMIN
 10
131.0496011762271
 20
71.4403470915464
 30
0.0
  9
$EXTMAX
 10
225.06473948596104
 20
281.57681319643922
 30
0.0
  9
$LIMMIN
 10
0.0
 20
0.0
  9
$LIMMAX
 10
0.0
 20
0.0
  9
$ORTHOMODE
 70
               0
  9
$REGENMODE
 70
               1
  9
$FILLMODE
 70
               1
  9
$QTEXTMODE
 70
               0
  9
$MIRRTEXT
 70
               1
  9
$LTSCALE
 40
12.699999999999999
  9
$ATTMODE
 70
               1
  9
$TEXTSIZE
 40
0.2
  9
$TRACEWID
 40
1.0
  9
$TEXTSTYLE
  7
Standard
  9
$CLAYER
  8
0
  9
$CELTYPE
  6
Continuous
  9
$CECOLOR
 62
             256
  9
$CELTSCALE
 40
1.0
  9
$DISPSILH
 70
               0
  9
$DIMSCALE
 40
1.0
  9
$DIMASZ
 40
0.18
  9
$DIMEXO
 40
0.0625
  9
$DIMDLI
 40
0.38
  9
$DIMRND
 40
0.0
  9
$DIMDLE
 40
0.0
  9
$DIMEXE
 40
0.18
  9
$DIMTP
 40
0.0
  9
$DIMTM
 40
0.0
  9
$DIMTXT
 40
0.18
  9
$DIMCEN
 40
0.09
  9
$DIMTSZ
 40
0.0
  9
$DIMTOL
 70
               0
  9
$DIMLIM
 70
               0
  9
$DIMTIH
 70
               1
  9
$DIMTOH
 70
               1
  9
$DIMSE1
 70
               0
  9
$DIMSE2
 70
               0
  9
$DIMTAD
 70
               0
  9
$DIMZIN
 70
               0
  9
$DIMBLK
  1

  9
$DIMASO
 70
               1
  9
$DIMSHO
 70
               1
  9
$DIMPOST
  1

  9
$DIMAPOST
  1

  9
$DIMALT
 70
               0
  9
$DIMALTD
 70
               2
  9
$DIMALTF
 40
25.399999999999999
  9
$DIMLFAC
 40
1.0
  9
$DIMTOFL
 70
               0
  9
$DIMTVP
 40
0.0
  9
$DIMTIX
 70
               0
  9
$DIMSOXD
 70
               0
  9
$DIMSAH
 70
               0
  9
$DIMBLK1
  1

  9
$DIMBLK2
  1

  9
$DIMSTYLE
  2
Standard
  9
$DIMCLRD
 70
               0
  9
$DIMCLRE
 70
               0
  9
$DIMCLRT
 70
               0
  9
$DIMTFAC
 40
1.0
  9
$DIMGAP
 40
0.09
  9
$DIMJUST
 70
               0
  9
$DIMSD1
 70
               0
  9
$DIMSD2
 70
               0
  9
$DIMTOLJ
 70
               1
  9
$DIMTZIN
 70
               0
  9
$DIMALTZ
 70
               0
  9
$DIMALTTZ
 70
               0
  9
$DIMUPT
 70
               0
  9
$DIMDEC
 70
               4
  9
$DIMTDEC
 70
               4
  9
$DIMALTU
 70
               2
  9
$DIMALTTD
 70
               2
  9
$DIMTXSTY
  7
Standard
  9
$DIMAUNIT
 70
               0
  9
$DIMADEC
 70
               0
  9
$DIMALTRND
 40
0.0
  9
$DIMAZIN
 70
               0
  9
$DIMDSEP
 70
               0
  9
$DIMATFIT
 70
               3
  9
$DIMFRAC
 70
               0
  9
$DIMLDRBLK
  1

  9
$DIMLUNIT
 70
               2
  9
$DIMLWD
 70
               0
  9
$DIMLWE
 70
               0
  9
$DIMTMOVE
 70
               0
  9
$LUNITS
 70
               2
  9
$LUPREC
 70
               4
  9
$SKETCHINC
 40
0.1
  9
$FILLETRAD
 40
0.0
  9
$AUNITS
 70
               0
  9
$AUPREC
 70
               0
  9
$MENU
  1
acad
  9
$ELEVATION
 40
0.0
  9
$PELEVATION
 40
0.0
  9
$THICKNESS
 40
0.0
  9
$LIMCHECK
 70
               0
  9
$CHAMFERA
 40
0.0
  9
$CHAMFERB
 40
0.0
  9
$CHAMFERC
 40
0.0
  9
$CHAMFERD
 40
0.0
  9
$SKPOLY
 70
               0
  9
$TDCREATE
 40
2458072.618483796
  9
$TDUCREATE
 40
0.000000000
  9
$TDUPDATE
 40
2458072.618483796
  9
$TDUUPDATE
 40
0.000000000
  9
$TDINDWG
 40
0.0000000000
  9
$TDUSRTIMER
 40
0.0000000000
  9
$USRTIMER
 70
               1
  9
$ANGBASE
 50
0.0
  9
$ANGDIR
 70
               0
  9
$PDMODE
 70
               1
  9
$PDSIZE
 40
-2.0
  9
$PLINEWID
 40
0.0
  9
$SPLFRAME
 70
               0
  9
$SPLINETYPE
 70
               6
  9
$SPLINESEGS
 70
               8
  9
$HANDSEED
  5
1F6
  9
$SURFTAB1
 70
               6
  9
$SURFTAB2
 70
               6
  9
$SURFTYPE
 70
               6
  9
$SURFU
 70
               6
  9
$SURFV
 70
               6
  9
$UCSBASE
  2

  9
$UCSNAME
  2

  9
$UCSORG
 10
0.0
 20
0.0
 30
0.0
  9
$UCSXDIR
 10
1.0
 20
0.0
 30
0.0
  9
$UCSYDIR
 10
0.0
 20
1.0
 30
0.0
  9
$UCSORTHOREF
  2

  9
$UCSORTHOVIEW
 70
               0
  9
$UCSORGTOP
 10
0.0
 20
0.0
 30
0.0
  9
$UCSORGBOTTOM
 10
0.0
 20
0.0
 30
0.0
  9
$UCSORGLEFT
 10
0.0
 20
0.0
 30
0.0
  9
$UCSORGRIGHT
 10
0.0
 20
0.0
 30
0.0
  9
$UCSORGFRONT
 10
0.0
 20
0.0
 30
0.0
  9
$UCSORGBACK
 10
0.0
 20
0.0
 30
0.0
  9
$PUCSBASE
  2

  9
$PUCSNAME
  2

  9
$PUCSORG
 10
0.0
 20
0.0
 30
0.0
  9
$PUCSXDIR
 10
1.0
 20
0.0
 30
0.0
  9
$PUCSYDIR
 10
0.0
 20
1.0
 30
0.0
  9
$PUCSORTHOREF
  2

  9
$PUCSORTHOVIEW
 70
               0
  9
$PUCSORGTOP
 10
0.0
 20
0.0
 30
0.0
  9
$PUCSORGBOTTOM
 10
0.0
 20
0.0
 30
0.0
  9
$PUCSORGLEFT
 10
0.0
 20
0.0
 30
0.0
  9
$PUCSORGRIGHT
 10
0.0
 20
0.0
 30
0.0
  9
$PUCSORGFRONT
 10
0.0
 20
0.0
 30
0.0
  9
$PUCSORGBACK
 10
0.0
 20
0.0
 30
0.0
  9
$USERI1
 70
               0
  9
$USERI2
 70
               0
  9
$USERI3
 70
               0
  9
$USERI4
 70
               0
  9
$USERI5
 70
               0
  9
$USERR1
 40
0.0
  9
$USERR2
 40
0.0
  9
$USERR3
 40
0.0
  9
$USERR4
 40
0.0
  9
$USERR5
 40
0.0
  9
$WORLDVIEW
 70
               1
  9
$SHADEDGE
 70
               3
  9
$SHADEDIF
 70
              70
  9
$TILEMODE
 70
               1
  9
$MAXACTVP
 70
              16
  9
$PINSBASE
 10
0.0
 20
0.0
 30
0.0
  9
$PLIMCHECK
 70
               0
  9
$PEXTMIN
 10
1.0000000000000000E+20
 20
1.0000000000000000E+20
 30
1.0000000000000000E+20
  9
$PEXTMAX
 10
-1.0000000000000000E+20
 20
-1.0000000000000000E+20
 30
-1.0000000000000000E+20
  9
$PLIMMIN
 10
0.0
 20
0.0
  9
$PLIMMAX
 10
12.0
 20
9.0
  9
$UNITMODE
 70
               0
  9
$VISRETAIN
 70
               0
  9
$PLINEGEN
 70
               1
  9
$PSLTSCALE
 70
               0
  9
$TREEDEPTH
 70
            3020
  9
$CMLSTYLE
  2
Standard
  9
$CMLJUST
 70
               0
  9
$CMLSCALE
 40
1.0
  9
$PROXYGRAPHICS
 70
               0
  9
$MEASUREMENT
 70
               1
  9
$CELWEIGHT
370
               0
  9
$ENDCAPS
280
               0
  9
$JOINSTYLE
280
               0
  9
$LWDISPLAY
290
               1
  9
$INSUNITS
 70
               4
  9
$HYPERLINKBASE
  1

  9
$STYLESHEET
  1

  9
$XEDIT
290
               1
  9
$CEPSNTYPE
380
               0
  9
$PSTYLEMODE
290
               1
  9
$FINGERPRINTGUID
  2

  9
$VERSIONGUID
  2

  9
$EXTNAMES
290
               1
  9
$PSVPSCALE
 40
0.0
  0
ENDSEC
  0
SECTION
  2
CLASSES
  0
CLASS
  1
LWPOLYLINE
  2
AcDbPolyline
  3
AutoCAD 2000
 90
    32768
280
               0
281
               1
  0
CLASS
  1
IMAGE
  2
AcDbRasterImage
  3
ISM
 90
    32895
280
               0
281
               1
  0
CLASS
  1
OLE2FRAME
  2
AcDbOle2Frame
  3
AutoCAD 2000
 90
    32768
280
               0
281
               1
  0
CLASS
  1
HATCH
  2
AcDbHatch
  3
AutoCAD 2000
 90
    32768
280
               0
281
               1
  0
CLASS
  1
DICTIONARYVAR
  2
AcDbDictionaryVar
  3
AutoCAD 2000
 90
    32768
280
               0
281
               0
  0
CLASS
  1
RASTERVARIABLES
  2
AcDbRasterVariables
  3
ISM
 90
    32768
280
               0
281
               0
  0
CLASS
  1
IMAGEDEF
  2
AcDbRasterImageDef
  3
ISM
 90
    32768
280
               0
281
               0
  0
CLASS
  1
IMAGEDEF_REACTOR
  2
AcDbRasterImageDefReactor
  3
ISM
 90
    32769
280
               0
281
               0
  0
CLASS
  1
IDBUFFER
  2
AcDbIdBuffer
  3
AutoCAD 2000
 90
    32768
280
               0
281
               0
  0
CLASS
  1
SPATIAL_FILTER
  2
AcDbSpatialFilter
  3
AutoCAD 2000
 90
    32768
280
               0
281
               0
  0
CLASS
  1
XRECORD
  2
AcDbXrecord
  3
AutoCAD 2000
 90
    32768
280
               0
281
               0
  0
CLASS
  1
SORTENTSTABLE
  2
AcDbSortentsTable
  3
AutoCAD 2000
 90
    32768
280
               0
281
               0
  0
CLASS
  1
LAYER_INDEX
  2
AcDbLayerIndex
  3
AutoCAD 2000
 90
    32768
280
               0
281
               0
  0
CLASS
  1
SPATIAL_INDEX
  2
AcDbSpatialIndex
  3
AutoCAD 2000
 90
    32768
280
               0
281
               0
  0
CLASS
  1
OBJECT_PTR
  2
CAseDLPNTableRecord
  3
"ASE-LPNTableRecord"
 90
    32769
280
               0
281
               0
  0
CLASS
  1
LAYOUT
  2
AcDbLayout
  3
AutoCAD 2000
 90
        0
280
               0
281
               0
  0
CLASS
  1
PLOTSETTINGS
  2
AcDbPlotSettings
  3
AutoCAD 2000
 90
    32768
280
               0
281
               0
  0
CLASS
  1
ACDBDICTIONARYWDFLT
  2
AcDbDictionaryWithDefault
  3
AutoCAD 2000
 90
        0
280
               0
281
               0
  0
CLASS
  1
ACDBPLACEHOLDER
  2
AcDbPlaceHolder
  3
AutoCAD 2000
 90
        0
280
               0
281
               0
  0
CLASS
  1
VBA_PROJECT
  2
AcDbVbaProject
  3
acadvba
 90
    32768
280
               0
281
               0
  0
CLASS
  1
WIPEOUT
  2
AcDbWipeout
  3
WipeOut|AutoCAD Express Tool|expresstools@autodesk.com
 90
    32895
280
               0
281
               1
  0
CLASS
  1
WIPEOUTVARIABLES
  2
AcDbWipeoutVariables
  3
WipeOut|AutoCAD Express Tool|expresstools@autodesk.com
 90
        0
280
               0
281
               0
  0
CLASS
  1
RTEXT
  2
RText
  3
RText|AutoCAD Express Tool|expresstools@autodesk.com
 90
    32768
280
               0
281
               1
  0
CLASS
  1
ARCALIGNEDTEXT
  2
AcDbArcAlignedText
  3
ATEXT|AutoCAD Express Tool|expresstools@autodesk.com
 90
    32768
280
               0
281
               1
  0
ENDSEC
  0
SECTION
  2
TABLES
  0
TABLE
  2
VPORT
  5
7
100
AcDbSymbolTable
 70
               1
  0
VPORT
  5
15
100
AcDbSymbolTableRecord
100
AcDbViewportTableRecord
  2
*ACTIVE
 70
               0
 10
0.0
 20
0.0
 11
1.0
 21
1.0
 12
178.05717033109408
 22
176.50858014399279
 13
0.0
 23
0.0
 14
1.0
 24
1.0
 15
0.0
 25
0.0
 16
0.0
 26
0.0
 36
1.0
 17
0.0
 27
0.0
 37
0.0
 40
210.1364661048928
 41
0.688564
 42
50.0
 43
0.0
 44
0.0
 50
0.0
 51
0.0
 71
               0
 72
             100
 73
               1
 74
               1
 75
               0
 76
               0
 77
               0
 78
               0
281
               0
 65
               0
110
0.0
120
0.0
130
0.0
111
1.0
121
0.0
131
0.0
112
0.0
122
1.0
132
0.0
345
0
346
0
 79
               0
146
0.0
  0
ENDTAB
  0
TABLE
  2
LTYPE
  5
4
100
AcDbSymbolTable
 70
              13
  0
LTYPE
  5
11
100
AcDbSymbolTableRecord
100
AcDbLinetypeTableRecord
  2
ByBlock
 70
              64
  3

 72
              65
 73
               0
 40
0.0
  0
LTYPE
  5
12
100
AcDbSymbolTableRecord
100
AcDbLinetypeTableRecord
  2
ByLayer
 70
              64
  3

 72
              65
 73
               0
 40
0.0
  0
LTYPE
  5
13
100
AcDbSymbolTableRecord
100
AcDbLinetypeTableRecord
  2
Continuous
 70
              64
  3
Solid line
 72
              65
 73
               0
 40
0.0
  0
LTYPE
  5
25
100
AcDbSymbolTableRecord
100
AcDbLinetypeTableRecord
  2
STYLE_01
 70
               0
  3

 72
              65
 73
               2
 40
0.15
 49
0.1
 74
               0
 49
-0.05
 74
               0
  0
LTYPE
  5
26
100
AcDbSymbolTableRecord
100
AcDbLinetypeTableRecord
  2
STYLE_02
 70
               0
  3

 72
              65
 73
               6
 40
0.9999999999999999
 49
0.4999999999999999
 74
               0
 49
-0.1
 74
               0
 49
0.1
 74
               0
 49
-0.1
 74
               0
 49
0.1
 74
               0
 49
-0.1
 74
               0
  0
LTYPE
  5
27
100
AcDbSymbolTableRecord
100
AcDbLinetypeTableRecord
  2
STYLE_03
 70
               0
  3

 72
              65
 73
               4
 40
0.7999999999999999
 49
0.4999999999999999
 74
               0
 49
-0.1
 74
               0
 49
0.1
 74
               0
 49
-0.1
 74
               0
  0
LTYPE
  5
28
100
AcDbSymbolTableRecord
100
AcDbLinetypeTableRecord
  2
STYLE_04
 70
               0
  3

 72
              65
 73
               4
 40
1.5999999999999999
 49
0.9999999999999999
 74
               0
 49
-0.2000000000000001
 74
               0
 49
0.2
 74
               0
 49
-0.2
 74
               0
  0
LTYPE
  5
29
100
AcDbSymbolTableRecord
100
AcDbLinetypeTableRecord
  2
STYLE_05
 70
               0
  3

 72
              65
 73
               2
 40
0.05
 49
0.0002
 74
               0
 49
-0.0498
 74
               0
  0
LTYPE
  5
2A
100
AcDbSymbolTableRecord
100
AcDbLinetypeTableRecord
  2
STYLE_06
 70
               0
  3

 72
              65
 73
               4
 40
0.416656
 49
0.25
 74
               0
 49
-0.083312
 74
               0
 49
0.027772
 74
               0
 49
-0.055572
 74
               0
  0
LTYPE
  5
2B
100
AcDbSymbolTableRecord
100
AcDbLinetypeTableRecord
  2
STYLE_07
 70
               0
  3

 72
              65
 73
               6
 40
0.75
 49
0.25
 74
               0
 49
-0.083312
 74
               0
 49
0.2500000000000001
 74
               0
 49
-0.083344
 74
               0
 49
0.027772
 74
               0
 49
-0.055572
 74
               0
  0
LTYPE
  5
2C
100
AcDbSymbolTableRecord
100
AcDbLinetypeTableRecord
  2
STYLE_08
 70
               0
  3

 72
              65
 73
               6
 40
0.5
 49
0.25
 74
               0
 49
-0.083312
 74
               0
 49
0.027772
 74
               0
 49
-0.055572
 74
               0
 49
0.027772
 74
               0
 49
-0.055572
 74
               0
  0
LTYPE
  5
2D
100
AcDbSymbolTableRecord
100
AcDbLinetypeTableRecord
  2
STYLE_09
 70
               0
  3

 72
              65
 73
               4
 40
2.0
 49
1.5
 74
               0
 49
-0.1111139999999999
 74
               0
 49
0.2777720000000001
 74
               0
 49
-0.1111139999999999
 74
               0
  0
LTYPE
  5
2E
100
AcDbSymbolTableRecord
100
AcDbLinetypeTableRecord
  2
STYLE_10
 70
               0
  3

 72
              65
 73
               6
 40
2.375
 49
1.5
 74
               0
 49
-0.1111139999999999
 74
               0
 49
0.2777720000000001
 74
               0
 49
-0.1111139999999999
 74
               0
 49
0.25
 74
               0
 49
-0.125
 74
               0
  0
ENDTAB
  0
TABLE
  2
LAYER
  5
2
100
AcDbSymbolTable
 70
               6
  0
LAYER
  5
14
100
AcDbSymbolTableRecord
100
AcDbLayerTableRecord
  2
0
 70
               0
 62
               7
  6
Continuous
290
               1
370
              15
390
1D
  0
LAYER
  5
2F
100
AcDbSymbolTableRecord
100
AcDbLayerTableRecord
  2
Defpoints
 70
               0
 62
               7
  6
Continuous
290
               0
370
              -3
390
1D
  0
LAYER
  5
30
100
AcDbSymbolTableRecord
100
AcDbLayerTableRecord
  2
一般
 70
               0
 62
               7
  6
Continuous
290
               1
370
               5
390
1D
  0
LAYER
  5
31
100
AcDbSymbolTableRecord
100
AcDbLayerTableRecord
  2
寸法
 70
               0
 62
               7
  6
Continuous
290
               1
370
               5
390
1D
  0
LAYER
  5
32
100
AcDbSymbolTableRecord
100
AcDbLayerTableRecord
  2
レイヤー_1
 70
               0
 62
              19
  6
Continuous
290
               1
370
              15
390
1D
  0
LAYER
  5
33
100
AcDbSymbolTableRecord
100
AcDbLayerTableRecord
  2
FORMAT
 70
               0
 62
               7
  6
Continuous
290
               1
370
              15
390
1D
  0
ENDTAB
  0
TABLE
  2
STYLE
  5
3
100
AcDbSymbolTable
 70
               2
  0
STYLE
  5
17
100
AcDbSymbolTableRecord
100
AcDbTextStyleTableRecord
  2
Standard
 70
               0
 40
0.0
 41
1.0
 50
0.0
 71
               0
 42
0.0
  3
txt
  4
BIGFONT.SHX
  0
STYLE
  5
24
100
AcDbSymbolTableRecord
100
AcDbTextStyleTableRecord
  2
Arial
 70
               0
 40
0.0
 41
1.0
 50
0.0
 71
               0
 42
0.0
  3
Arial
  4

1001
ACAD
1000
Arial
1071
        0
  0
ENDTAB
  0
TABLE
  2
VIEW
  5
5
100
AcDbSymbolTable
 70
               0
  0
ENDTAB
  0
TABLE
  2
UCS
  5
6
100
AcDbSymbolTable
 70
               0
  0
ENDTAB
  0
TABLE
  2
APPID
  5
8
100
AcDbSymbolTable
 70
               1
  0
APPID
  5
16
100
AcDbSymbolTableRecord
100
AcDbRegAppTableRecord
  2
ACAD
 70
               0
  0
ENDTAB
  0
TABLE
  2
DIMSTYLE
  5
9
100
AcDbSymbolTable
 70
               1
100
AcDbDimStyleTable
 71
               0
  0
DIMSTYLE
105
18
100
AcDbSymbolTableRecord
100
AcDbDimStyleTableRecord
  2
Standard
 70
               0
  3

  4

 40
1.0
 41
0.18
 42
0.0625
 43
0.38
 44
0.18
 45
0.0
 46
0.0
 47
0.0
 48
0.0
 71
               0
 72
               0
 73
               1
 74
               1
 75
               0
 76
               0
 77
               0
 78
               0
 79
               0
140
0.18
141
0.09
142
0.0
143
25.399999999999999
144
1.0
145
0.0
146
1.0
147
0.09
148
0.0
170
               0
171
               2
172
               0
173
               0
174
               0
175
               0
176
               0
177
               0
178
               0
179
               0
271
               4
272
               4
273
               2
274
               2
275
               0
276
               0
277
               2
278
              46
279
               0
280
               0
281
               0
282
               0
283
               1
284
               0
285
               0
286
               0
288
               0
340
17
341
0
342
0
343
0
344
0
371
              -2
372
              -2
  0
ENDTAB
  0
TABLE
  2
BLOCK_RECORD
  5
1
100
AcDbSymbolTable
 70
               0
  0
BLOCK_RECORD
  5
A
100
AcDbSymbolTableRecord
100
AcDbBlockTableRecord
  2
*MODEL_SPACE
340
20
  0
BLOCK_RECORD
  5
B
100
AcDbSymbolTableRecord
100
AcDbBlockTableRecord
  2
*PAPER_SPACE
340
21
  0
ENDTAB
  0
ENDSEC
  0
SECTION
  2
BLOCKS
  0
BLOCK
  5
D
100
AcDbEntity
  8
0
100
AcDbBlockBegin
  2
*MODEL_SPACE
 70
               0
 10
0.0
 20
0.0
 30
0.0
  3
*MODEL_SPACE
  1

  0
ENDBLK
  5
E
100
AcDbEntity
  8
0
100
AcDbBlockEnd
  0
BLOCK
  5
F
100
AcDbEntity
 67
               1
  8
0
100
AcDbBlockBegin
  2
*PAPER_SPACE
 70
               0
 10
0.0
 20
0.0
 30
0.0
  3
*PAPER_SPACE
  1

  0
ENDBLK
  5
10
100
AcDbEntity
 67
               1
  8
0
100
AcDbBlockEnd
  0
ENDSEC
  0
SECTION
  2
ENTITIES
  0
LINE
  5
34
100
AcDbEntity
  8
0
370
              25
  6
Continuous
 62
               7
100
AcDbLine
 10
165.52149676262709
 20
275.13813854536306
 30
0.0
 11
139.53641225812711
 21
281.57249974391306
 31
0.0
  0
LINE
  5
35
100
AcDbEntity
  8
0
370
              25
  6
Continuous
 62
               7
100
AcDbLine
 10
139.41796610902711
 20
281.54119728541309
 30
0.0
 11
132.92532302997711
 21
275.37842006936307
 31
0.0
  0
ARC
  5
36
100
AcDbEntity
  8
0
370
              25
  6
Continuous
 62
               7
100
AcDbCircle
 10
154.14499450952709
 20
254.64583939481304
 30
0.0
 40
0.4999999999999993
100
AcDbArc
 50
359.30218438599945
 51
76.09230670290026
  0
LINE
  5
37
100
AcDbEntity
  8
0
370
              25
  6
Continuous
 62
               7
100
AcDbLine
 10
154.2651733849271
 20
255.13118133066308
 30
0.0
 11
137.2618845779771
 21
259.34149289336307
 31
0.0
  0
LINE
  5
38
100
AcDbEntity
  8
0
370
              25
  6
Continuous
 62
               7
100
AcDbLine
 10
154.43098377052709
 20
237.07179099146305
 30
0.0
 11
154.64495774247709
 21
254.63975463606306
 31
0.0
  0
LINE
  5
39
100
AcDbEntity
  8
0
370
              25
  6
Continuous
 62
               7
100
AcDbLine
 10
136.79748366377709
 20
259.21879875726307
 30
0.0
 11
135.4648122144271
 21
257.95383514466306
 31
0.0
  0
LINE
  5
3A
100
AcDbEntity
  8
0
370
              25
  6
Continuous
 62
               7
100
AcDbLine
 10
152.94251792577711
 20
235.45021734016308
 30
0.0
 11
154.27524172567709
 21
236.71523064356307
 31
0.0
  0
ARC
  5
3B
100
AcDbEntity
  8
0
370
              25
  6
Continuous
 62
               7
100
AcDbCircle
 10
137.1417051558771
 20
258.85615109286306
 30
0.0
 40
0.4999999999999715
100
AcDbArc
 50
76.092306702899478
 51
133.50691301480023
  0
ARC
  5
3C
100
AcDbEntity
  8
0
370
              25
  6
Continuous
 62
               7
100
AcDbCircle
 10
153.93102057267711
 20
237.07787862981309
 30
0.0
 40
0.5000000000000158
100
AcDbArc
 50
313.50691301479918
 51
359.30218438599945
  0
SPLINE
  5
3D
100
AcDbEntity
  8
0
370
              25
  6
Continuous
 62
               7
100
AcDbSpline
210
0.0
220
0.0
230
1.0
 70
               8
 71
               2
 72
              16
 73
              13
 74
               0
 42
0.000001
 43
0.000001
 40
0.0
 40
0.0
 40
0.0
 40
1.0
 40
1.0
 40
2.0
 40
3.0
 40
4.0
 40
5.0
 40
6.0
 40
7.0
 40
8.0
 40
8.0
 40
9.0
 40
9.0
 40
9.0
 10
137.45185011107668
 20
240.29324199142752
 30
0.0
 10
137.46414660918239
 20
240.28110086531063
 30
0.0
 10
137.47644310728808
 20
240.26895973919375
 30
0.0
 10
137.74550415589519
 20
240.00007249875483
 30
0.0
 10
138.62753076933188
 20
239.19778296145847
 30
0.0
 10
140.40124960792647
 20
238.12630897220168
 30
0.0
 10
142.36404946197507
 20
237.62018024444404
 30
0.0
 10
143.97416455153962
 20
237.5991476673064
 30
0.0
 10
145.64382927739183
 20
238.02585542561411
 30
0.0
 10
146.75905037360667
 20
238.76347890871091
 30
0.0
 10
147.03164004107228
 20
239.06590109488923
 30
0.0
 10
147.03407033027335
 20
239.06853674668639
 30
0.0
 10
147.0365006194744
 20
239.07117239848355
 30
0.0
  0
SPLINE
  5
3E
100
AcDbEntity
  8
0
370
              25
  6
Continuous
 62
               7
100
AcDbSpline
210
0.0
220
0.0
230
1.0
 70
               8
 71
               2
 72
              17
 73
              14
 74
               0
 42
0.000001
 43
0.000001
 40
0.0
 40
0.0
 40
0.0
 40
1.0
 40
1.0
 40
2.0
 40
3.0
 40
4.0
 40
5.0
 40
6.0
 40
7.0
 40
8.0
 40
9.0
 40
9.0
 40
10.0
 40
10.0
 40
10.0
 10
136.9098275849536
 20
250.09816585954752
 30
0.0
 10
136.90862622722474
 20
250.09729400455012
 30
0.0
 10
136.90742486949586
 20
250.09642214955272
 30
0.0
 10
136.62511244614086
 20
249.88953166735035
 30
0.0
 10
136.10757445161858
 20
249.27389908559843
 30
0.0
 10
135.66606766600736
 20
248.56253016480144
 30
0.0
 10
135.05395121397194
 20
247.10041476069
 30
0.0
 10
135.07416768424216
 20
244.93548962436358
 30
0.0
 10
135.55132140894301
 20
243.1720150457457
 30
0.0
 10
136.28716273936266
 20
241.75786763713393
 30
0.0
 10
137.0351719211381
 20
240.74334631217999
 30
0.0
 10
137.43695934674781
 20
240.30963504095871
 30
0.0
 10
137.44440472891225
 20
240.30143851619312
 30
0.0
 10
137.45185011107668
 20
240.29324199142752
 30
0.0
  0
LINE
  5
3F
100
AcDbEntity
  8
0
370
              25
  6
Continuous
 62
               7
100
AcDbLine
 10
147.0192013099271
 20
239.03384360536307
 30
0.0
 11
147.57684928302712
 21
239.56315966071304
 31
0.0
  0
LINE
  5
40
100
AcDbEntity
  8
0
370
              25
  6
Continuous
 62
               7
100
AcDbLine
 10
137.2502181427771
 20
250.44252928936305
 30
0.0
 11
136.69257016962709
 21
249.91321323401309
 31
0.0
  0
SPLINE
  5
41
100
AcDbEntity
  8
0
370
              25
  6
Continuous
 62
               7
100
AcDbSpline
210
0.0
220
0.0
230
1.0
 70
               8
 71
               2
 72
              15
 73
              12
 74
               0
 42
0.000001
 43
0.000001
 40
0.0
 40
0.0
 40
0.0
 40
1.0
 40
1.0
 40
2.0
 40
3.0
 40
4.0
 40
5.0
 40
6.0
 40
7.0
 40
7.0
 40
8.0
 40
8.0
 40
8.0
 10
134.38804700543966
 20
256.80256529095129
 30
0.0
 10
134.38604729283833
 20
256.79999016496521
 30
0.0
 10
134.384047580237
 20
256.79741503897912
 30
0.0
 10
134.32384218728197
 20
256.72113791760313
 30
0.0
 10
134.1665988504773
 20
256.50169799146147
 30
0.0
 10
134.02655283022406
 20
256.17297616661693
 30
0.0
 10
133.93667535163704
 20
255.89815734695611
 30
0.0
 10
133.85444127396067
 20
255.54869112257848
 30
0.0
 10
133.82640496872492
 20
255.23538893606298
 30
0.0
 10
133.81883738753845
 20
255.11351479336548
 30
0.0
 10
133.8185726596657
 20
255.1094473595453
 30
0.0
 10
133.81830793179296
 20
255.10537992572512
 30
0.0
  0
LINE
  5
42
100
AcDbEntity
  8
0
370
              25
  6
Continuous
 62
               7
100
AcDbLine
 10
133.8127588340771
 20
255.15460039431309
 30
0.0
 11
133.62155740232708
 21
239.45633685631304
 31
0.0
  0
LINE
  5
43
100
AcDbEntity
  8
0
370
              25
  6
Continuous
 62
               7
100
AcDbLine
 10
135.4460566202271
 20
257.93541058951308
 30
0.0
 11
134.3662407728271
 21
256.78080266816306
 31
0.0
  0
SPLINE
  5
44
100
AcDbEntity
  8
0
370
              25
  6
Continuous
 62
               7
100
AcDbSpline
210
0.0
220
0.0
230
1.0
 70
               8
 71
               2
 72
              15
 73
              12
 74
               0
 42
0.000001
 43
0.000001
 40
0.0
 40
0.0
 40
0.0
 40
1.0
 40
1.0
 40
2.0
 40
3.0
 40
4.0
 40
5.0
 40
6.0
 40
7.0
 40
7.0
 40
8.0
 40
8.0
 40
8.0
 10
151.05444116151168
 20
234.24770367327977
 30
0.0
 10
151.055510311761
 20
234.24752052509808
 30
0.0
 10
151.05657946201032
 20
234.24733737691639
 30
0.0
 10
151.12246962897603
 20
234.23443757763562
 30
0.0
 10
151.26306112562884
 20
234.22554860419177
 30
0.0
 10
151.39180952480484
 20
234.25030043100713
 30
0.0
 10
151.51968664753252
 20
234.29098615236097
 30
0.0
 10
151.62656962563801
 20
234.35499427157743
 30
0.0
 10
151.68829686101125
 20
234.39800389452279
 30
0.0
 10
151.71896790119391
 20
234.42022688441153
 30
0.0
 10
151.71999094315572
 20
234.42096514608241
 30
0.0
 10
151.72101398511754
 20
234.42170340775328
 30
0.0
  0
LINE
  5
45
100
AcDbEntity
  8
0
370
              25
  6
Continuous
 62
               7
100
AcDbLine
 10
134.18276321857709
 20
238.42521184716304
 30
0.0
 11
151.07041502557709
 21
234.24353402721306
 31
0.0
  0
LINE
  5
46
100
AcDbEntity
  8
0
370
              25
  6
Continuous
 62
               7
100
AcDbLine
 10
151.72496016867711
 20
234.42480260626309
 30
0.0
 11
152.9229989082271
 21
235.43233330546309
 31
0.0
  0
SPLINE
  5
47
100
AcDbEntity
  8
0
370
              25
  6
Continuous
 62
               7
100
AcDbSpline
210
0.0
220
0.0
230
1.0
 70
               8
 71
               2
 72
              17
 73
              14
 74
               0
 42
0.000001
 43
0.000001
 40
0.0
 40
0.0
 40
0.0
 40
1.0
 40
1.0
 40
2.0
 40
3.0
 40
4.0
 40
5.0
 40
6.0
 40
7.0
 40
8.0
 40
9.0
 40
9.0
 40
10.0
 40
10.0
 40
10.0
 10
133.62696394399313
 20
239.42139945641634
 30
0.0
 10
133.62725596116741
 20
239.41855091066577
 30
0.0
 10
133.62754797834168
 20
239.41570236491521
 30
0.0
 10
133.63384808905903
 20
239.35294278938267
 30
0.0
 10
133.65034464470079
 20
239.20583705188568
 30
0.0
 10
133.69411798070144
 20
238.98550410902681
 30
0.0
 10
133.77337484635052
 20
238.80379689067126
 30
0.0
 10
133.84927510227681
 20
238.67369577635503
 30
0.0
 10
133.96843911739961
 20
238.53149788977623
 30
0.0
 10
134.08129770037328
 20
238.47049840121929
 30
0.0
 10
134.16174308086789
 20
238.43676727809532
 30
0.0
 10
134.21778888700192
 20
238.41771724195183
 30
0.0
 10
134.21965304712469
 20
238.41706893249022
 30
0.0
 10
134.22151720724744
 20
238.41642062302861
 30
0.0
  0
LINE
  5
48
100
AcDbEntity
  8
0
370
              25
  6
Continuous
 62
               7
100
AcDbLine
 10
142.39809300562709
 20
238.92672853561305
 30
0.0
 11
143.01635459572711
 21
238.97031123521305
 31
0.0
  0
SPLINE
  5
49
100
AcDbEntity
  8
0
370
              25
  6
Continuous
 62
               7
100
AcDbSpline
210
0.0
220
0.0
230
1.0
 70
               8
 71
               2
 72
              17
 73
              14
 74
               0
 42
0.000001
 43
0.000001
 40
0.0
 40
0.0
 40
0.0
 40
1.0
 40
1.0
 40
2.0
 40
3.0
 40
4.0
 40
5.0
 40
6.0
 40
7.0
 40
8.0
 40
9.0
 40
9.0
 40
10.0
 40
10.0
 40
10.0
 10
136.42082256950806
 20
245.93578801762465
 30
0.0
 10
136.41936665353202
 20
245.92591864303569
 30
0.0
 10
136.41791073755596
 20
245.91604926844673
 30
0.0
 10
136.30555406120354
 20
245.2656125125244
 30
0.0
 10
136.41476658245927
 20
243.81769378583181
 30
0.0
 10
136.84084424930262
 20
242.58044002153798
 30
0.0
 10
137.56269087249711
 20
241.24904425614909
 30
0.0
 10
138.9834688991869
 20
239.93181639809711
 30
0.0
 10
140.46788821327738
 20
239.2200582931419
 30
0.0
 10
141.49956792944496
 20
238.99288797811772
 30
0.0
 10
142.08951321935996
 20
238.94123265074967
 30
0.0
 10
142.37238623261274
 20
238.9280185266926
 30
0.0
 10
142.38523961913225
 20
238.92737353115677
 30
0.0
 10
142.39809300565176
 20
238.92672853562095
 30
0.0
  0
SPLINE
  5
4A
100
AcDbEntity
  8
0
370
              25
  6
Continuous
 62
               7
100
AcDbSpline
210
0.0
220
0.0
230
1.0
 70
               8
 71
               2
 72
              13
 73
              10
 74
               0
 42
0.000001
 43
0.000001
 40
0.0
 40
0.0
 40
0.0
 40
1.0
 40
1.0
 40
2.0
 40
3.0
 40
4.0
 40
5.0
 40
5.0
 40
6.0
 40
6.0
 40
6.0
 10
142.72354615149985
 20
238.94723491384059
 30
0.0
 10
142.72569211025882
 20
238.94718791881039
 30
0.0
 10
142.72783806901779
 20
238.94714092378018
 30
0.0
 10
142.79226105467956
 20
238.94555250141622
 30
0.0
 10
142.92055306809092
 20
238.94461253144095
 30
0.0
 10
143.06028163079216
 20
238.95219883136963
 30
0.0
 10
143.19964398986158
 20
238.97570472521829
 30
0.0
 10
143.27012210900105
 20
238.9910176161178
 30
0.0
 10
143.27126037289173
 20
238.99125846035338
 30
0.0
 10
143.27239863678244
 20
238.9914993045889
 30
0.0
  0
SPLINE
  5
4B
100
AcDbEntity
  8
0
370
              25
  6
Continuous
 62
               7
100
AcDbSpline
210
0.0
220
0.0
230
1.0
 70
               8
 71
               2
 72
              15
 73
              12
 74
               0
 42
0.000001
 43
0.000001
 40
0.0
 40
0.0
 40
0.0
 40
1.0
 40
1.0
 40
2.0
 40
3.0
 40
4.0
 40
5.0
 40
6.0
 40
7.0
 40
7.0
 40
8.0
 40
8.0
 40
8.0
 10
143.3993874628556
 20
239.01463339226791
 30
0.0
 10
143.40286375300417
 20
239.01517455254765
 30
0.0
 10
143.40634004315277
 20
239.01571571282739
 30
0.0
 10
143.51075893287182
 20
239.03160984649361
 30
0.0
 10
143.8654096400081
 20
239.09371893958104
 30
0.0
 10
144.34981245426451
 20
239.27349763447063
 30
0.0
 10
144.67816171808605
 20
239.43287174509612
 30
0.0
 10
144.9872874399085
 20
239.60165341024236
 30
0.0
 10
145.21014408581667
 20
239.79808290311769
 30
0.0
 10
145.25191243467896
 20
239.8362979578651
 30
0.0
 10
145.25330666836533
 20
239.83756933785807
 30
0.0
 10
145.25470090205167
 20
239.83884071785104
 30
0.0
  0
SPLINE
  5
4C
100
AcDbEntity
  8
0
370
              25
  6
Continuous
 62
               7
100
AcDbSpline
210
0.0
220
0.0
230
1.0
 70
               8
 71
               2
 72
              13
 73
              10
 74
               0
 42
0.000001
 43
0.000001
 40
0.0
 40
0.0
 40
0.0
 40
1.0
 40
1.0
 40
2.0
 40
3.0
 40
4.0
 40
5.0
 40
5.0
 40
6.0
 40
6.0
 40
6.0
 10
137.70735338046904
 20
248.40823340070074
 30
0.0
 10
137.70546169738819
 20
248.40667716631441
 30
0.0
 10
137.70357001430733
 20
248.40512093192808
 30
0.0
 10
137.61592408977089
 20
248.33413645158458
 30
0.0
 10
137.40798939199985
 20
248.14827278915413
 30
0.0
 10
137.24751848532202
 20
247.94678273300934
 30
0.0
 10
137.110072111737
 20
247.75295482348861
 30
0.0
 10
137.02088449384919
 20
247.61646228693172
 30
0.0
 10
137.01789638901741
 20
247.61192708693949
 30
0.0
 10
137.01490828418559
 20
247.60739188694725
 30
0.0
  0
LINE
  5
4D
100
AcDbEntity
  8
0
370
              25
  6
Continuous
 62
               7
100
AcDbLine
 10
138.00705693417711
 20
248.74384610131307
 30
0.0
 11
137.5383069987771
 21
248.27291451506306
 31
0.0
  0
LINE
  5
4E
100
AcDbEntity
  8
0
370
              25
  6
Continuous
 62
               7
100
AcDbLine
 10
145.4251931127271
 20
239.96388374651309
 30
0.0
 11
145.91990175922709
 21
240.40746047116306
 31
0.0
  0
LINE
  5
4F
100
AcDbEntity
  8
0
370
              25
  6
Continuous
 62
               7
100
AcDbLine
 10
161.8761181153771
 20
145.84866964981308
 30
0.0
 11
161.7418810150271
 21
145.88190910256307
 31
0.0
  0
LINE
  5
50
100
AcDbEntity
  8
0
370
              25
  6
Continuous
 62
               7
100
AcDbLine
 10
160.78044748862709
 20
141.99917228501306
 30
0.0
 11
160.91468458897711
 21
141.96593283221307
 31
0.0
  0
LINE
  5
51
100
AcDbEntity
  8
0
370
              25
  6
Continuous
 62
               7
100
AcDbLine
 10
161.38146701177709
 20
145.78048630616306
 30
0.0
 11
160.8358704120771
 21
145.38152471196307
 31
0.0
  0
LINE
  5
52
100
AcDbEntity
  8
0
370
              25
  6
Continuous
 62
               7
100
AcDbLine
 10
160.2126126042771
 20
142.86450612766305
 30
0.0
 11
160.50900352312709
 21
142.25705374591305
 31
0.0
  0
LINE
  5
53
100
AcDbEntity
  8
0
370
              25
  6
Continuous
 62
               7
100
AcDbLine
 10
161.14534223567711
 20
144.51733818266308
 30
0.0
 11
161.4698826079771
 21
144.43697631281307
 31
0.0
  0
LINE
  5
54
100
AcDbEntity
  8
0
370
              25
  6
Continuous
 62
               7
100
AcDbLine
 10
161.32092009632711
 20
143.37762616921307
 30
0.0
 11
160.99591882627709
 21
143.45810216536307
 31
0.0
  0
LINE
  5
55
100
AcDbEntity
  8
0
370
              25
  6
Continuous
 62
               7
100
AcDbLine
 10
137.74867652852708
 20
140.03143912581305
 30
0.0
 11
137.74731771642709
 21
139.91987620351307
 31
0.0
  0
LINE
  5
56
100
AcDbEntity
  8
0
370
              25
  6
Continuous
 62
               7
100
AcDbLine
 10
132.6538619747771
 20
273.45008604606306
 30
0.0
 11
131.0496011762271
 21
141.73502216621307
 31
0.0
  0
LINE
  5
57
100
AcDbEntity
  8
0
370
              25
  6
Continuous
 62
               7
100
AcDbLine
 10
164.48634588617711
 20
141.37474491586306
 30
0.0
 11
166.09094753112711
 21
273.11779340001306
 31
0.0
  0
LINE
  5
58
100
AcDbEntity
  8
0
370
              25
  6
Continuous
 62
               7
100
AcDbLine
 10
159.02849462372711
 20
269.65580836551305
 30
0.0
 11
164.82803487372709
 21
275.16069660306306
 31
0.0
  0
SPLINE
  5
59
100
AcDbEntity
  8
0
370
              25
  6
Continuous
 62
               7
100
AcDbSpline
210
0.0
220
0.0
230
1.0
 70
               8
 71
               2
 72
              16
 73
              13
 74
               0
 42
0.000001
 43
0.000001
 40
0.0
 40
0.0
 40
0.0
 40
1.0
 40
1.0
 40
2.0
 40
3.0
 40
4.0
 40
5.0
 40
6.0
 40
7.0
 40
8.0
 40
8.0
 40
9.0
 40
9.0
 40
9.0
 10
166.15836412962338
 20
274.48415304244264
 30
0.0
 10
166.15843236652387
 20
274.48975551538035
 30
0.0
 10
166.15850060342436
 20
274.49535798831806
 30
0.0
 10
166.15701926356223
 20
274.55138136635867
 30
0.0
 10
166.13168059129634
 20
274.68424784704251
 30
0.0
 10
166.03854109316822
 20
274.84652617877236
 30
0.0
 10
165.81841959648071
 20
275.04991067567721
 30
0.0
 10
165.47186352953605
 20
275.15509677602694
 30
0.0
 10
165.20838435217715
 20
275.18697250380768
 30
0.0
 10
164.96562176808357
 20
275.17942387569656
 30
0.0
 10
164.84514070109987
 20
275.16326841900269
 30
0.0
 10
164.83658754501022
 20
275.16198095980945
 30
0.0
 10
164.82803438892054
 20
275.16069350061622
 30
0.0
  0
SPLINE
  5
5A
100
AcDbEntity
  8
0
370
              25
  6
Continuous
 62
               7
100
AcDbSpline
210
0.0
220
0.0
230
1.0
 70
               8
 71
               2
 72
              16
 73
              13
 74
               0
 42
0.000001
 43
0.000001
 40
0.0
 40
0.0
 40
0.0
 40
1.0
 40
1.0
 40
2.0
 40
3.0
 40
4.0
 40
5.0
 40
6.0
 40
7.0
 40
8.0
 40
8.0
 40
9.0
 40
9.0
 40
9.0
 10
159.46658705617011
 20
268.13235905327821
 30
0.0
 10
159.46665529307072
 20
268.13796152621592
 30
0.0
 10
159.46672352997135
 20
268.14356399915363
 30
0.0
 10
159.46670009067577
 20
268.24728123695701
 30
0.0
 10
159.44941920243207
 20
268.43322326731931
 30
0.0
 10
159.41920045894076
 20
268.63065689407813
 30
0.0
 10
159.35463351803168
 20
268.91617499089267
 30
0.0
 10
159.26355724958398
 20
269.18953560612164
 30
0.0
 10
159.17820716995712
 20
269.3943910813278
 30
0.0
 10
159.08615278708467
 20
269.57036813478845
 30
0.0
 10
159.03421909424131
 20
269.64757706694115
 30
0.0
 10
159.03135667641615
 20
269.65169122180441
 30
0.0
 10
159.028494258591
 20
269.65580537666773
 30
0.0
  0
LINE
  5
5B
100
AcDbEntity
  8
0
370
              25
  6
Continuous
 62
               7
100
AcDbLine
 10
133.97101480277709
 20
275.86047842791305
 30
0.0
 11
159.02849462372711
 21
269.65580836551305
 31
0.0
  0
SPLINE
  5
5C
100
AcDbEntity
  8
0
370
              25
  6
Continuous
 62
               7
100
AcDbSpline
210
0.0
220
0.0
230
1.0
 70
               8
 71
               2
 72
              16
 73
              13
 74
               0
 42
0.000001
 43
0.000001
 40
0.0
 40
0.0
 40
0.0
 40
1.0
 40
1.0
 40
2.0
 40
3.0
 40
4.0
 40
5.0
 40
6.0
 40
7.0
 40
8.0
 40
8.0
 40
9.0
 40
9.0
 40
9.0
 10
133.97101521107055
 20
275.86047524751621
 30
0.0
 10
133.9618511152602
 20
275.859095826952
 30
0.0
 10
133.95268701944985
 20
275.85771640638785
 30
0.0
 10
133.86045200175118
 20
275.84220635939369
 30
0.0
 10
133.63616509818624
 20
275.78817838323926
 30
0.0
 10
133.34866508766876
 20
275.67342653014816
 30
0.0
 10
133.03371941172873
 20
275.48838533756981
 30
0.0
 10
132.8046333213058
 20
275.25794286512075
 30
0.0
 10
132.67705345276391
 20
275.05563888649334
 30
0.0
 10
132.62394209843353
 20
274.87736807066608
 30
0.0
 10
132.61943429861049
 20
274.7922249283356
 30
0.0
 10
132.61936118764567
 20
274.78622227875951
 30
0.0
 10
132.61928807668085
 20
274.78021962918342
 30
0.0
  0
LINE
  5
5D
100
AcDbEntity
  8
0
370
              25
  6
Continuous
 62
               7
100
AcDbLine
 10
159.45053884942709
 20
266.81476737686307
 30
0.0
 11
166.14231577327709
 21
273.16656122406306
 31
0.0
  0
LINE
  5
5E
100
AcDbEntity
  8
0
370
              25
  6
Continuous
 62
               7
100
AcDbLine
 10
159.46658684747709
 20
268.13236055986306
 30
0.0
 11
159.45053884942709
 21
266.81476737686307
 31
0.0
  0
LINE
  5
5F
100
AcDbEntity
  8
0
370
              25
  6
Continuous
 62
               7
100
AcDbLine
 10
166.15836377137711
 20
274.48415440701308
 30
0.0
 11
166.14231577327709
 21
273.16656122406306
 31
0.0
  0
LINE
  5
60
100
AcDbEntity
  8
0
370
              25
  6
Continuous
 62
               7
100
AcDbLine
 10
132.6032404699771
 20
273.46262780416305
 30
0.0
 11
159.45053884942709
 21
266.81476737686307
 31
0.0
  0
LINE
  5
61
100
AcDbEntity
  8
0
370
              25
  6
Continuous
 62
               7
100
AcDbLine
 10
132.61928846807712
 20
274.78022098716309
 30
0.0
 11
132.6032404699771
 21
273.46262780416305
 31
0.0
  0
LINE
  5
62
100
AcDbEntity
  8
0
370
              25
  6
Continuous
 62
               7
100
AcDbLine
 10
139.7705550527271
 20
281.36536666541309
 30
0.0
 11
133.97101480277709
 21
275.86047842791305
 31
0.0
  0
LINE
  5
63
100
AcDbEntity
  8
0
370
              25
  6
Continuous
 62
               7
100
AcDbLine
 10
164.82803487372709
 20
275.16069660306306
 30
0.0
 11
139.7705550527271
 21
281.36536666541309
 31
0.0
  0
SPLINE
  5
64
100
AcDbEntity
  8
0
370
              25
  6
Continuous
 62
               7
100
AcDbSpline
210
0.0
220
0.0
230
1.0
 70
               8
 71
               2
 72
              14
 73
              11
 74
               0
 42
0.000001
 43
0.000001
 40
0.0
 40
0.0
 40
0.0
 40
1.0
 40
1.0
 40
2.0
 40
3.0
 40
4.0
 40
5.0
 40
6.0
 40
6.0
 40
7.0
 40
7.0
 40
7.0
 10
139.770555341391
 20
281.36536337146777
 30
0.0
 10
139.76836098695037
 20
281.36851731842626
 30
0.0
 10
139.76616663250977
 20
281.37167126538475
 30
0.0
 10
139.73525187049952
 20
281.41493494219651
 30
0.0
 10
139.67238164816828
 20
281.48795755207243
 30
0.0
 10
139.60149898248756
 20
281.54637952861896
 30
0.0
 10
139.53452533193453
 20
281.57640761868612
 30
0.0
 10
139.45892532900612
 20
281.57681319643922
 30
0.0
 10
139.42081098658647
 20
281.54390160877955
 30
0.0
 10
139.41938850192241
 20
281.54255139501134
 30
0.0
 10
139.41796601725832
 20
281.54120118124314
 30
0.0
  0
LINE
  5
65
100
AcDbEntity
  8
0
370
              25
  6
Continuous
 62
               7
100
AcDbLine
 10
152.8119881850271
 20
253.81467876661304
 30
0.0
 11
154.15034340362709
 21
255.08503737826305
 31
0.0
  0
ARC
  5
66
100
AcDbEntity
  8
0
370
              25
  6
Continuous
 62
               7
100
AcDbCircle
 10
154.0019378688271
 20
254.51305574241309
 30
0.0
 40
0.5909206330287007
100
AcDbArc
 50
2.1327030609995075
 51
75.454845245699246
  0
LINE
  5
67
100
AcDbEntity
  8
0
370
              25
  6
Continuous
 62
               7
100
AcDbLine
 10
154.59244918037709
 20
254.53504631926307
 30
0.0
 11
153.2540939618271
 21
253.26468770756304
 31
0.0
  0
ARC
  5
68
100
AcDbEntity
  8
0
370
              25
  6
Continuous
 62
               7
100
AcDbCircle
 10
152.66358265027711
 20
253.24269713071305
 30
0.0
 40
0.5909206330286296
100
AcDbArc
 50
2.1327030609997633
 51
75.454845245700525
  0
ARC
  5
69
100
AcDbEntity
  8
0
370
              25
  6
Continuous
 62
               7
100
AcDbCircle
 10
135.70222284222712
 20
257.67477847341308
 30
0.0
 40
0.366040430412277
100
AcDbArc
 50
73.088911337902317
 51
131.61477133740129
  0
LINE
  5
6A
100
AcDbEntity
  8
0
370
              25
  6
Continuous
 62
               7
100
AcDbLine
 10
135.80869937807711
 20
258.02499032926306
 30
0.0
 11
152.8119881850271
 21
253.81467876661304
 31
0.0
  0
LINE
  5
6B
100
AcDbEntity
  8
0
370
              25
  6
Continuous
 62
               7
100
AcDbLine
 10
153.2540939618271
 20
253.26468770756304
 30
0.0
 11
153.0401199898271
 21
235.69672406296309
 31
0.0
  0
ARC
  5
6C
100
AcDbEntity
  8
0
370
              25
  6
Continuous
 62
               7
100
AcDbCircle
 10
152.69529155552709
 20
235.69098474641305
 30
0.0
 40
0.344876193550726
100
AcDbArc
 50
314.46926947750029
 51
0.9535415977000525
  0
LINE
  5
6D
100
AcDbEntity
  8
0
370
              25
  6
Continuous
 62
               7
100
AcDbLine
 10
137.14705459667709
 20
259.29534894096304
 30
0.0
 11
135.80869937807711
 21
258.02499032926306
 31
0.0
  0
LINE
  5
6E
100
AcDbEntity
  8
0
370
              25
  6
Continuous
 62
               7
100
AcDbLine
 10
154.15034340362709
 20
255.08503737826305
 30
0.0
 11
137.14705459667709
 21
259.29534894096304
 31
0.0
  0
LINE
  5
6F
100
AcDbEntity
  8
0
370
              25
  6
Continuous
 62
               7
100
AcDbLine
 10
153.0401199898271
 20
235.69672406296309
 30
0.0
 11
154.37847520842709
 21
236.96708267466306
 31
0.0
  0
LINE
  5
70
100
AcDbEntity
  8
0
370
              25
  6
Continuous
 62
               7
100
AcDbLine
 10
154.37847520842709
 20
236.96708267466306
 30
0.0
 11
154.59244918037709
 21
254.53504631926307
 31
0.0
  0
SPLINE
  5
71
100
AcDbEntity
  8
0
370
              25
  6
Continuous
 62
               7
100
AcDbSpline
210
0.0
220
0.0
230
1.0
 70
               8
 71
               2
 72
              16
 73
              13
 74
               0
 42
0.000001
 43
0.000001
 40
0.0
 40
0.0
 40
0.0
 40
1.0
 40
1.0
 40
2.0
 40
3.0
 40
4.0
 40
5.0
 40
6.0
 40
7.0
 40
8.0
 40
8.0
 40
9.0
 40
9.0
 40
9.0
 10
152.06106596167976
 20
252.14590277987787
 30
0.0
 10
152.05955458906374
 20
252.14417025159844
 30
0.0
 10
152.05804321644771
 20
252.14243772331901
 30
0.0
 10
152.01256669285698
 20
252.09108638312051
 30
0.0
 10
151.88694539362925
 20
251.93681804463444
 30
0.0
 10
151.79418233233594
 20
251.74388986034336
 30
0.0
 10
151.73656690109206
 20
251.60601148376634
 30
0.0
 10
151.67224700684051
 20
251.40883491706637
 30
0.0
 10
151.61916162092538
 20
251.17226708171916
 30
0.0
 10
151.59940266012708
 20
250.95632921811591
 30
0.0
 10
151.59351931714002
 20
250.86704384383404
 30
0.0
 10
151.59331465472786
 20
250.86406532175158
 30
0.0
 10
151.59310999231568
 20
250.86108679966912
 30
0.0
  0
SPLINE
  5
72
100
AcDbEntity
  8
0
370
              25
  6
Continuous
 62
               7
100
AcDbSpline
210
0.0
220
0.0
230
1.0
 70
               8
 71
               2
 72
              17
 73
              14
 74
               0
 42
0.000001
 43
0.000001
 40
0.0
 40
0.0
 40
0.0
 40
1.0
 40
1.0
 40
2.0
 40
3.0
 40
4.0
 40
5.0
 40
6.0
 40
7.0
 40
8.0
 40
9.0
 40
9.0
 40
10.0
 40
10.0
 40
10.0
 10
151.59310999231568
 20
250.86108679966912
 30
0.0
 10
151.59238657992037
 20
250.860589251824
 30
0.0
 10
151.59166316752504
 20
250.86009170397887
 30
0.0
 10
151.57011591513677
 20
250.84508632379658
 30
0.0
 10
151.52512792347039
 20
250.81606006153305
 30
0.0
 10
151.46276628080074
 20
250.7853504268416
 30
0.0
 10
151.3854250052639
 20
250.76279264831243
 30
0.0
 10
151.27058358622205
 20
250.74093510605735
 30
0.0
 10
151.13310365140381
 20
250.73680903940152
 30
0.0
 10
151.03948862395146
 20
250.74640744351467
 30
0.0
 10
150.96702777058587
 20
250.7585205526857
 30
0.0
 10
150.93099192918064
 20
250.76522035297791
 30
0.0
 10
150.92979005318537
 20
250.76544143332274
 30
0.0
 10
150.92858817719011
 20
250.76566251366756
 30
0.0
  0
SPLINE
  5
73
100
AcDbEntity
  8
0
370
              25
  6
Continuous
 62
               7
100
AcDbSpline
210
0.0
220
0.0
230
1.0
 70
               8
 71
               2
 72
              16
 73
              13
 74
               0
 42
0.000001
 43
0.000001
 40
0.0
 40
0.0
 40
0.0
 40
1.0
 40
1.0
 40
2.0
 40
3.0
 40
4.0
 40
5.0
 40
6.0
 40
7.0
 40
8.0
 40
8.0
 40
9.0
 40
9.0
 40
9.0
 10
151.61911178601594
 20
252.69571188493461
 30
0.0
 10
151.61753924431727
 20
252.69400305911356
 30
0.0
 10
151.61596670261858
 20
252.6922942332925
 30
0.0
 10
151.56872217062434
 20
252.64163540278639
 30
0.0
 10
151.42130053870528
 20
252.46894289882999
 30
0.0
 10
151.26509724337245
 20
252.17966730287179
 30
0.0
 10
151.14965739887373
 20
251.91008597793325
 30
0.0
 10
151.04196564125024
 20
251.5816089647027
 30
0.0
 10
150.96851401788965
 20
251.23245920145882
 30
0.0
 10
150.93871627469312
 20
250.92582488134792
 30
0.0
 10
150.92925556515561
 20
250.77568425392315
 30
0.0
 10
150.92892187117286
 20
250.77067338379535
 30
0.0
 10
150.92858817719011
 20
250.76566251366756
 30
0.0
  0
SPLINE
  5
74
100
AcDbEntity
  8
0
370
              25
  6
Continuous
 62
               7
100
AcDbSpline
210
0.0
220
0.0
230
1.0
 70
               8
 71
               2
 72
              18
 73
              15
 74
               0
 42
0.000001
 43
0.000001
 40
0.0
 40
0.0
 40
0.0
 40
1.0
 40
1.0
 40
2.0
 40
3.0
 40
4.0
 40
5.0
 40
6.0
 40
7.0
 40
8.0
 40
9.0
 40
10.0
 40
10.0
 40
11.0
 40
11.0
 40
11.0
 10
151.61911178601594
 20
252.69571188493461
 30
0.0
 10
151.62025317387875
 20
252.69528195967092
 30
0.0
 10
151.62139456174157
 20
252.69485203440718
 30
0.0
 10
151.6557011699839
 20
252.68212758770642
 30
0.0
 10
151.72349626192599
 20
252.65453557592605
 30
0.0
 10
151.8103264625654
 20
252.60728668722794
 30
0.0
 10
151.88723694493802
 20
252.53811448391895
 30
0.0
 10
151.94202472407838
 20
252.47477444919519
 30
0.0
 10
151.98854915014951
 20
252.40621776028388
 30
0.0
 10
152.0259800231957
 20
252.32988528097354
 30
0.0
 10
152.04685150055812
 20
252.25205896648271
 30
0.0
 10
152.05693672567307
 20
252.18288222422115
 30
0.0
 10
152.06080016683183
 20
252.14821348135723
 30
0.0
 10
152.06093306425581
 20
252.14705813061755
 30
0.0
 10
152.06106596167976
 20
252.14590277987787
 30
0.0
  0
SPLINE
  5
75
100
AcDbEntity
  8
0
370
              25
  6
Continuous
 62
               7
100
AcDbSpline
210
0.0
220
0.0
230
1.0
 70
               8
 71
               2
 72
              16
 73
              13
 74
               0
 42
0.000001
 43
0.000001
 40
0.0
 40
0.0
 40
0.0
 40
1.0
 40
1.0
 40
2.0
 40
3.0
 40
4.0
 40
5.0
 40
6.0
 40
7.0
 40
8.0
 40
8.0
 40
9.0
 40
9.0
 40
9.0
 10
134.0896440130748
 20
254.93527946969664
 30
0.0
 10
134.08995808805776
 20
254.94029533968907
 30
0.0
 10
134.09027216304071
 20
254.94531120968151
 30
0.0
 10
134.09889081064367
 20
255.09548819320992
 30
0.0
 10
134.1267389004137
 20
255.40263639837315
 30
0.0
 10
134.19654890625992
 20
255.75397277593555
 30
0.0
 10
134.28557823100601
 20
256.04701934697476
 30
0.0
 10
134.39347165113745
 20
256.33607636379116
 30
0.0
 10
134.55560306971543
 20
256.65423386877734
 30
0.0
 10
134.6875342714319
 20
256.82150627403433
 30
0.0
 10
134.7315917532176
 20
256.87316106303609
 30
0.0
 10
134.73305899711855
 20
256.87489575390782
 30
0.0
 10
134.73452624101949
 20
256.87663044477949
 30
0.0
  0
LINE
  5
76
100
AcDbEntity
  8
0
370
              25
  6
Continuous
 62
               7
100
AcDbLine
 10
153.04011815647709
 20
235.69657353771305
 30
0.0
 11
151.84851109362711
 21
234.69445221076307
 31
0.0
  0
SPLINE
  5
77
100
AcDbEntity
  8
0
370
              25
  6
Continuous
 62
               7
100
AcDbSpline
210
0.0
220
0.0
230
1.0
 70
               8
 71
               2
 72
              17
 73
              14
 74
               0
 42
0.000001
 43
0.000001
 40
0.0
 40
0.0
 40
0.0
 40
1.0
 40
1.0
 40
2.0
 40
3.0
 40
4.0
 40
5.0
 40
6.0
 40
7.0
 40
8.0
 40
9.0
 40
9.0
 40
10.0
 40
10.0
 40
10.0
 10
151.40194522783804
 20
235.16583376637163
 30
0.0
 10
151.40205243454704
 20
235.16372136816057
 30
0.0
 10
151.40215964125608
 20
235.1616089699495
 30
0.0
 10
151.4062361898583
 20
235.06314416578317
 30
0.0
 10
151.41980121978511
 20
234.92893919508043
 30
0.0
 10
151.44963612087
 20
234.78109157925115
 30
0.0
 10
151.51981699895191
 20
234.67495594987003
 30
0.0
 10
151.57963360877903
 20
234.62621915487335
 30
0.0
 10
151.65513560868268
 20
234.60285668292363
 30
0.0
 10
151.74021402107414
 20
234.63007929382877
 30
0.0
 10
151.81052242097329
 20
234.6702370717274
 30
0.0
 10
151.846139811283
 20
234.69295602889053
 30
0.0
 10
151.84732545244574
 20
234.69370411982891
 30
0.0
 10
151.84851109360852
 20
234.69445221076734
 30
0.0
  0
LINE
  5
78
100
AcDbEntity
  8
0
370
              25
  6
Continuous
 62
               7
100
AcDbLine
 10
151.5931099923271
 20
250.86108679966304
 30
0.0
 11
151.4019452278271
 21
235.16583376636305
 31
0.0
  0
LINE
  5
79
100
AcDbEntity
  8
0
370
              25
  6
Continuous
 62
               7
100
AcDbLine
 10
153.25409571547709
 20
253.26483168821306
 30
0.0
 11
152.06106596167712
 21
252.14590277986309
 31
0.0
  0
LINE
  5
7A
100
AcDbEntity
  8
0
370
              25
  6
Continuous
 62
               7
100
AcDbLine
 10
153.04011815647709
 20
235.69657353771305
 30
0.0
 11
153.25409571547709
 21
253.26483168821306
 31
0.0
  0
SPLINE
  5
7B
100
AcDbEntity
  8
0
370
              25
  6
Continuous
 62
               7
100
AcDbSpline
210
0.0
220
0.0
230
1.0
 70
               8
 71
               2
 72
              17
 73
              14
 74
               0
 42
0.000001
 43
0.000001
 40
0.0
 40
0.0
 40
0.0
 40
1.0
 40
1.0
 40
2.0
 40
3.0
 40
4.0
 40
5.0
 40
6.0
 40
7.0
 40
8.0
 40
9.0
 40
9.0
 40
10.0
 40
10.0
 40
10.0
 10
151.40194522783804
 20
235.16583376637163
 30
0.0
 10
151.40122181544271
 20
235.16533621852651
 30
0.0
 10
151.40049840304738
 20
235.16483867068138
 30
0.0
 10
151.37895115065911
 20
235.14983329049915
 30
0.0
 10
151.33396315899276
 20
235.12080702823556
 30
0.0
 10
151.2716015163231
 20
235.09009739354406
 30
0.0
 10
151.19426024078626
 20
235.06753961501494
 30
0.0
 10
151.07941882174438
 20
235.04568207275969
 30
0.0
 10
150.94193888692615
 20
235.04155600610397
 30
0.0
 10
150.84832385947379
 20
235.05115441021718
 30
0.0
 10
150.77586300610821
 20
235.06326751938803
 30
0.0
 10
150.73982716470297
 20
235.06996731968036
 30
0.0
 10
150.73862528870771
 20
235.07018840002519
 30
0.0
 10
150.73742341271245
 20
235.07040948037002
 30
0.0
  0
LINE
  5
7C
100
AcDbEntity
  8
0
370
              25
  6
Continuous
 62
               7
100
AcDbLine
 10
150.73742341272711
 20
235.07040948036308
 30
0.0
 11
150.92858817717709
 21
250.76566251366307
 31
0.0
  0
SPLINE
  5
7D
100
AcDbEntity
  8
0
370
              25
  6
Continuous
 62
               7
100
AcDbSpline
210
0.0
220
0.0
230
1.0
 70
               8
 71
               2
 72
              22
 73
              19
 74
               0
 42
0.000001
 43
0.000001
 40
0.0
 40
0.0
 40
0.0
 40
1.0
 40
1.0
 40
2.0
 40
3.0
 40
4.0
 40
5.0
 40
6.0
 40
7.0
 40
8.0
 40
9.0
 40
10.0
 40
11.0
 40
12.0
 40
13.0
 40
14.0
 40
14.0
 40
15.0
 40
15.0
 40
15.0
 10
141.5935124385218
 20
250.08512703378409
 30
0.0
 10
141.57376265485655
 20
250.08898362429608
 30
0.0
 10
141.55401287119128
 20
250.09284021480806
 30
0.0
 10
141.1192308191952
 20
250.18361648328562
 30
0.0
 10
140.15171032543054
 20
250.30443196726117
 30
0.0
 10
138.33197322581961
 20
250.12131025057545
 30
0.0
 10
136.84620023049308
 20
249.08954620597984
 30
0.0
 10
136.07760570477959
 20
248.10711390772883
 30
0.0
 10
135.39781767662939
 20
246.40646329822135
 30
0.0
 10
135.55178514782295
 20
244.44729718456927
 30
0.0
 10
135.94474903995791
 20
243.08581348926992
 30
0.0
 10
136.64762549455406
 20
241.7228471570902
 30
0.0
 10
137.6294118270273
 20
240.47061606889554
 30
0.0
 10
138.81208352565869
 20
239.43875257453146
 30
0.0
 10
140.01152943848462
 20
238.71886836888444
 30
0.0
 10
140.97536460925593
 20
238.36616685070305
 30
0.0
 10
141.40963058360055
 20
238.23858470248541
 30
0.0
 10
141.42935528057833
 20
238.23266691097317
 30
0.0
 10
141.4490799775561
 20
238.22674911946092
 30
0.0
  0
SPLINE
  5
7E
100
AcDbEntity
  8
0
370
              25
  6
Continuous
 62
               7
100
AcDbSpline
210
0.0
220
0.0
230
1.0
 70
               8
 71
               2
 72
              22
 73
              19
 74
               0
 42
0.000001
 43
0.000001
 40
0.0
 40
0.0
 40
0.0
 40
1.0
 40
1.0
 40
2.0
 40
3.0
 40
4.0
 40
5.0
 40
6.0
 40
7.0
 40
8.0
 40
9.0
 40
10.0
 40
11.0
 40
12.0
 40
13.0
 40
14.0
 40
14.0
 40
15.0
 40
15.0
 40
15.0
 10
141.4490799775561
 20
238.22674911946092
 30
0.0
 10
141.46882977715734
 20
238.22289233552101
 30
0.0
 10
141.48857957675858
 20
238.21903555158116
 30
0.0
 10
141.92336236852151
 20
238.12825368545384
 30
0.0
 10
142.89088169659649
 20
238.00743945250531
 30
0.0
 10
144.71062492011544
 20
238.19056127030007
 30
0.0
 10
146.1963881063985
 20
239.22233965860954
 30
0.0
 10
146.96499017283585
 20
240.20476082602937
 30
0.0
 10
147.64477341736617
 20
241.90541323612257
 30
0.0
 10
147.49080835991344
 20
243.8645796606159
 30
0.0
 10
147.09784019285365
 20
245.22606289540437
 30
0.0
 10
146.39497108264044
 20
246.5890366303164
 30
0.0
 10
145.41317721747544
 20
247.84125569866609
 30
0.0
 10
144.23051007273091
 20
248.87312379292291
 30
0.0
 10
143.03106254566626
 20
249.59300125545252
 30
0.0
 10
142.06722719416695
 20
249.94570451524015
 30
0.0
 10
141.63296179140173
 20
250.07329108196689
 30
0.0
 10
141.61323711496178
 20
250.07920905787546
 30
0.0
 10
141.5935124385218
 20
250.08512703378409
 30
0.0
  0
LINE
  5
7F
100
AcDbEntity
  8
0
370
              25
  6
Continuous
 62
               7
100
AcDbLine
 10
136.89279878497709
 20
250.09258324916306
 30
0.0
 11
136.69257016962709
 21
249.91321323401309
 31
0.0
  0
LINE
  5
80
100
AcDbEntity
  8
0
370
              25
  6
Continuous
 62
               7
100
AcDbLine
 10
134.08964401307711
 20
254.93527946971307
 30
0.0
 11
133.8984792485771
 21
239.24002643641307
 31
0.0
  0
POLYLINE
  5
81
100
AcDbEntity
  8
0
370
              25
  6
Continuous
 62
               7
100
AcDb2dPolyline
 66
               1
 10
0.0
 20
0.0
 30
0.0
 75
               5
  0
VERTEX
  5
82
100
AcDbEntity
  8
0
370
              25
  6
Continuous
 62
               7
100
AcDbVertex
100
AcDb2dVertex
 10
147.57684928302712
 20
239.56315966071304
 30
0.0
  0
VERTEX
  5
83
100
AcDbEntity
  8
0
370
              25
  6
Continuous
 62
               7
100
AcDbVertex
100
AcDb2dVertex
 10
147.7027563459271
 20
239.68729452446308
 30
0.0
  0
VERTEX
  5
84
100
AcDbEntity
  8
0
370
              25
  6
Continuous
 62
               7
100
AcDbVertex
100
AcDb2dVertex
 10
148.2716215086771
 20
240.39557344616304
 30
0.0
  0
VERTEX
  5
85
100
AcDbEntity
  8
0
370
              25
  6
Continuous
 62
               7
100
AcDbVertex
100
AcDb2dVertex
 10
148.70317802047711
 20
241.21185189456304
 30
0.0
  0
VERTEX
  5
86
100
AcDbEntity
  8
0
370
              25
  6
Continuous
 62
               7
100
AcDbVertex
100
AcDb2dVertex
 10
148.98731078207709
 20
242.11698543971306
 30
0.0
  0
VERTEX
  5
87
100
AcDbEntity
  8
0
370
              25
  6
Continuous
 62
               7
100
AcDbVertex
100
AcDb2dVertex
 10
149.11735959942709
 20
243.08975975871306
 30
0.0
  0
VERTEX
  5
88
100
AcDbEntity
  8
0
370
              25
  6
Continuous
 62
               7
100
AcDbVertex
100
AcDb2dVertex
 10
149.0902768314271
 20
244.10737674446307
 30
0.0
  0
VERTEX
  5
89
100
AcDbEntity
  8
0
370
              25
  6
Continuous
 62
               7
100
AcDbVertex
100
AcDb2dVertex
 10
148.9066965949271
 20
245.14598877176309
 30
0.0
  0
VERTEX
  5
8A
100
AcDbEntity
  8
0
370
              25
  6
Continuous
 62
               7
100
AcDbVertex
100
AcDb2dVertex
 10
148.5709216348271
 20
246.18123365771305
 30
0.0
  0
VERTEX
  5
8B
100
AcDbEntity
  8
0
370
              25
  6
Continuous
 62
               7
100
AcDbVertex
100
AcDb2dVertex
 10
148.0908232224771
 20
247.18886992976309
 30
0.0
  0
VERTEX
  5
8C
100
AcDbEntity
  8
0
370
              25
  6
Continuous
 62
               7
100
AcDbVertex
100
AcDb2dVertex
 10
147.47765380992709
 20
248.14524989621304
 30
0.0
  0
VERTEX
  5
8D
100
AcDbEntity
  8
0
370
              25
  6
Continuous
 62
               7
100
AcDbVertex
100
AcDb2dVertex
 10
146.7457859926771
 20
249.02798820061304
 30
0.0
  0
VERTEX
  5
8E
100
AcDbEntity
  8
0
370
              25
  6
Continuous
 62
               7
100
AcDbVertex
100
AcDb2dVertex
 10
145.9123736897271
 20
249.81638706346308
 30
0.0
  0
VERTEX
  5
8F
100
AcDbEntity
  8
0
370
              25
  6
Continuous
 62
               7
100
AcDbVertex
100
AcDb2dVertex
 10
144.99695140432709
 20
250.49194249981309
 30
0.0
  0
VERTEX
  5
90
100
AcDbEntity
  8
0
370
              25
  6
Continuous
 62
               7
100
AcDbVertex
100
AcDb2dVertex
 10
144.02097612922711
 20
251.03885161046304
 30
0.0
  0
VERTEX
  5
91
100
AcDbEntity
  8
0
370
              25
  6
Continuous
 62
               7
100
AcDbVertex
100
AcDb2dVertex
 10
143.0073237172771
 20
251.44428170416307
 30
0.0
  0
VERTEX
  5
92
100
AcDbEntity
  8
0
370
              25
  6
Continuous
 62
               7
100
AcDbVertex
100
AcDb2dVertex
 10
141.9797533914271
 20
251.69872608101309
 30
0.0
  0
VERTEX
  5
93
100
AcDbEntity
  8
0
370
              25
  6
Continuous
 62
               7
100
AcDbVertex
100
AcDb2dVertex
 10
140.96235039382711
 20
251.79622081391307
 30
0.0
  0
VERTEX
  5
94
100
AcDbEntity
  8
0
370
              25
  6
Continuous
 62
               7
100
AcDbVertex
100
AcDb2dVertex
 10
139.97896194897712
 20
251.73448441421306
 30
0.0
  0
VERTEX
  5
95
100
AcDbEntity
  8
0
370
              25
  6
Continuous
 62
               7
100
AcDbVertex
100
AcDb2dVertex
 10
139.05263799952709
 20
251.51497754331308
 30
0.0
  0
VERTEX
  5
96
100
AcDbEntity
  8
0
370
              25
  6
Continuous
 62
               7
100
AcDbVertex
100
AcDb2dVertex
 10
138.20509029632711
 20
251.14281376481307
 30
0.0
  0
VERTEX
  5
97
100
AcDbEntity
  8
0
370
              25
  6
Continuous
 62
               7
100
AcDbVertex
100
AcDb2dVertex
 10
137.4561852611771
 20
250.62674070576304
 30
0.0
  0
VERTEX
  5
98
100
AcDbEntity
  8
0
370
              25
  6
Continuous
 62
               7
100
AcDbVertex
100
AcDb2dVertex
 10
137.2502181427771
 20
250.44252928936305
 30
0.0
  0
SEQEND
  5
99
100
AcDbEntity
  8
0
370
              25
  6
Continuous
 62
               7
  0
LINE
  5
9A
100
AcDbEntity
  8
0
370
              25
  6
Continuous
 62
               7
100
AcDbLine
 10
151.6191117860271
 20
252.69571188491307
 30
0.0
 11
152.81214153977712
 21
253.81464079326304
 31
0.0
  0
SPLINE
  5
9B
100
AcDbEntity
  8
0
370
              25
  6
Continuous
 62
               7
100
AcDbSpline
210
0.0
220
0.0
230
1.0
 70
               8
 71
               2
 72
              16
 73
              13
 74
               0
 42
0.000001
 43
0.000001
 40
0.0
 40
0.0
 40
0.0
 40
1.0
 40
1.0
 40
2.0
 40
3.0
 40
4.0
 40
5.0
 40
6.0
 40
7.0
 40
8.0
 40
8.0
 40
9.0
 40
9.0
 40
9.0
 10
153.25409591093762
 20
253.26483342325076
 30
0.0
 10
153.25414568145951
 20
253.26891974603771
 30
0.0
 10
153.25419545198139
 20
253.27300606882466
 30
0.0
 10
153.25277955277616
 20
253.34926218091988
 30
0.0
 10
153.21533015214405
 20
253.46252602955605
 30
0.0
 10
153.17759764612768
 20
253.53745030710343
 30
0.0
 10
153.12809086269806
 20
253.60864477505771
 30
0.0
 10
153.06881186653186
 20
253.67275801329407
 30
0.0
 10
153.00263915118376
 20
253.72706885911714
 30
0.0
 10
152.89715912961859
 20
253.79112253010999
 30
0.0
 10
152.82046804804449
 20
253.81257991772839
 30
0.0
 10
152.81630491148562
 20
253.81361078312088
 30
0.0
 10
152.81214177492677
 20
253.81464164851337
 30
0.0
  0
LINE
  5
9C
100
AcDbEntity
  8
0
370
              25
  6
Continuous
 62
               7
100
AcDbLine
 10
135.8085460233271
 20
258.02502830261307
 30
0.0
 11
134.73452624102708
 21
256.87663044476307
 31
0.0
  0
LINE
  5
9D
100
AcDbEntity
  8
0
370
              25
  6
Continuous
 62
               7
100
AcDbLine
 10
152.81214153977712
 20
253.81464079326304
 30
0.0
 11
135.8085460233271
 21
258.02502830261307
 31
0.0
  0
POLYLINE
  5
9E
100
AcDbEntity
  8
0
370
              25
  6
Continuous
 62
               7
100
AcDb2dPolyline
 66
               1
 10
0.0
 20
0.0
 30
0.0
 75
               5
  0
VERTEX
  5
9F
100
AcDbEntity
  8
0
370
              25
  6
Continuous
 62
               7
100
AcDbVertex
100
AcDb2dVertex
 10
136.35564370692708
 20
245.87709793166306
 30
0.0
  0
VERTEX
  5
A0
100
AcDbEntity
  8
0
370
              25
  6
Continuous
 62
               7
100
AcDbVertex
100
AcDb2dVertex
 10
136.42044848717711
 20
246.30634789501306
 30
0.0
  0
VERTEX
  5
A1
100
AcDbEntity
  8
0
370
              25
  6
Continuous
 62
               7
100
AcDbVertex
100
AcDb2dVertex
 10
136.6650658379771
 20
247.10617404086304
 30
0.0
  0
VERTEX
  5
A2
100
AcDbEntity
  8
0
370
              25
  6
Continuous
 62
               7
100
AcDbVertex
100
AcDb2dVertex
 10
137.05723695822709
 20
247.81635799891308
 30
0.0
  0
VERTEX
  5
A3
100
AcDbEntity
  8
0
370
              25
  6
Continuous
 62
               7
100
AcDbVertex
100
AcDb2dVertex
 10
137.58504601217709
 20
248.41531293511309
 30
0.0
  0
VERTEX
  5
A4
100
AcDbEntity
  8
0
370
              25
  6
Continuous
 62
               7
100
AcDbVertex
100
AcDb2dVertex
 10
138.2324564320771
 20
248.88486179081309
 30
0.0
  0
VERTEX
  5
A5
100
AcDbEntity
  8
0
370
              25
  6
Continuous
 62
               7
100
AcDbVertex
100
AcDb2dVertex
 10
138.97979628432711
 20
249.21070788566306
 30
0.0
  0
VERTEX
  5
A6
100
AcDbEntity
  8
0
370
              25
  6
Continuous
 62
               7
100
AcDbVertex
100
AcDb2dVertex
 10
139.80435846822709
 20
249.38298211536306
 30
0.0
  0
VERTEX
  5
A7
100
AcDbEntity
  8
0
370
              25
  6
Continuous
 62
               7
100
AcDbVertex
100
AcDb2dVertex
 10
140.68108886587711
 20
249.39642702631306
 30
0.0
  0
VERTEX
  5
A8
100
AcDbEntity
  8
0
370
              25
  6
Continuous
 62
               7
100
AcDbVertex
100
AcDb2dVertex
 10
141.58334858417709
 20
249.25064131621309
 30
0.0
  0
VERTEX
  5
A9
100
AcDbEntity
  8
0
370
              25
  6
Continuous
 62
               7
100
AcDbVertex
100
AcDb2dVertex
 10
142.4837229660271
 20
248.95006330921308
 30
0.0
  0
VERTEX
  5
AA
100
AcDbEntity
  8
0
370
              25
  6
Continuous
 62
               7
100
AcDbVertex
100
AcDb2dVertex
 10
143.35485442767711
 20
248.50381724546304
 30
0.0
  0
VERTEX
  5
AB
100
AcDbEntity
  8
0
370
              25
  6
Continuous
 62
               7
100
AcDbVertex
100
AcDb2dVertex
 10
144.1702740210271
 20
247.92545485736309
 30
0.0
  0
VERTEX
  5
AC
100
AcDbEntity
  8
0
370
              25
  6
Continuous
 62
               7
100
AcDbVertex
100
AcDb2dVertex
 10
144.90520598072709
 20
247.23257234856305
 30
0.0
  0
VERTEX
  5
AD
100
AcDbEntity
  8
0
370
              25
  6
Continuous
 62
               7
100
AcDbVertex
100
AcDb2dVertex
 10
145.5373194443271
 20
246.44619101046305
 30
0.0
  0
VERTEX
  5
AE
100
AcDbEntity
  8
0
370
              25
  6
Continuous
 62
               7
100
AcDbVertex
100
AcDb2dVertex
 10
146.04740799337711
 20
245.59023448306306
 30
0.0
  0
VERTEX
  5
AF
100
AcDbEntity
  8
0
370
              25
  6
Continuous
 62
               7
100
AcDbVertex
100
AcDb2dVertex
 10
146.41997295352709
 20
244.69068850231304
 30
0.0
  0
VERTEX
  5
B0
100
AcDbEntity
  8
0
370
              25
  6
Continuous
 62
               7
100
AcDbVertex
100
AcDb2dVertex
 10
146.64369441202709
 20
243.77489347971306
 30
0.0
  0
VERTEX
  5
B1
100
AcDbEntity
  8
0
370
              25
  6
Continuous
 62
               7
100
AcDbVertex
100
AcDb2dVertex
 10
146.7117739447271
 20
242.87068504831308
 30
0.0
  0
VERTEX
  5
B2
100
AcDbEntity
  8
0
370
              25
  6
Continuous
 62
               7
100
AcDbVertex
100
AcDb2dVertex
 10
146.62214384917709
 20
242.00552171366309
 30
0.0
  0
VERTEX
  5
B3
100
AcDbEntity
  8
0
370
              25
  6
Continuous
 62
               7
100
AcDbVertex
100
AcDb2dVertex
 10
146.3775265780771
 20
241.20570211236304
 30
0.0
  0
VERTEX
  5
B4
100
AcDbEntity
  8
0
370
              25
  6
Continuous
 62
               7
100
AcDbVertex
100
AcDb2dVertex
 10
145.98535553752711
 20
240.49552469891307
 30
0.0
  0
VERTEX
  5
B5
100
AcDbEntity
  8
0
370
              25
  6
Continuous
 62
               7
100
AcDbVertex
100
AcDb2dVertex
 10
145.4575464039271
 20
239.89656321811304
 30
0.0
  0
VERTEX
  5
B6
100
AcDbEntity
  8
0
370
              25
  6
Continuous
 62
               7
100
AcDbVertex
100
AcDb2dVertex
 10
144.8101360637271
 20
239.42702090701306
 30
0.0
  0
VERTEX
  5
B7
100
AcDbEntity
  8
0
370
              25
  6
Continuous
 62
               7
100
AcDbVertex
100
AcDb2dVertex
 10
144.3024624474771
 20
239.18558772441304
 30
0.0
  0
SEQEND
  5
B8
100
AcDbEntity
  8
0
370
              25
  6
Continuous
 62
               7
  0
POLYLINE
  5
B9
100
AcDbEntity
  8
0
370
              25
  6
Continuous
 62
               7
100
AcDb2dPolyline
 66
               1
 10
0.0
 20
0.0
 30
0.0
 75
               5
  0
VERTEX
  5
BA
100
AcDbEntity
  8
0
370
              25
  6
Continuous
 62
               7
100
AcDbVertex
100
AcDb2dVertex
 10
142.9299548650271
 20
238.90574715946309
 30
0.0
  0
VERTEX
  5
BB
100
AcDbEntity
  8
0
370
              25
  6
Continuous
 62
               7
100
AcDbVertex
100
AcDb2dVertex
 10
142.3615035501771
 20
238.91544912691307
 30
0.0
  0
VERTEX
  5
BC
100
AcDbEntity
  8
0
370
              25
  6
Continuous
 62
               7
100
AcDbVertex
100
AcDb2dVertex
 10
141.6088255508771
 20
239.02630949731309
 30
0.0
  0
SEQEND
  5
BD
100
AcDbEntity
  8
0
370
              25
  6
Continuous
 62
               7
  0
LINE
  5
BE
100
AcDbEntity
  8
0
370
              25
  6
Continuous
 62
               7
100
AcDbLine
 10
145.2789091023771
 20
239.82492143151308
 30
0.0
 11
145.6764728785771
 21
240.11339801156305
 31
0.0
  0
POLYLINE
  5
BF
100
AcDbEntity
  8
0
370
              25
  6
Continuous
 62
               7
100
AcDb2dPolyline
 66
               1
 10
0.0
 20
0.0
 30
0.0
 75
               5
  0
VERTEX
  5
C0
100
AcDbEntity
  8
0
370
              25
  6
Continuous
 62
               7
100
AcDbVertex
100
AcDb2dVertex
 10
137.70070952582711
 20
248.51607268966308
 30
0.0
  0
VERTEX
  5
C1
100
AcDbEntity
  8
0
370
              25
  6
Continuous
 62
               7
100
AcDbVertex
100
AcDb2dVertex
 10
137.39182648997709
 20
248.13394834196305
 30
0.0
  0
VERTEX
  5
C2
100
AcDbEntity
  8
0
370
              25
  6
Continuous
 62
               7
100
AcDbVertex
100
AcDb2dVertex
 10
137.37994587327711
 20
248.11693467781305
 30
0.0
  0
SEQEND
  5
C3
100
AcDbEntity
  8
0
370
              25
  6
Continuous
 62
               7
  0
SPLINE
  5
C4
100
AcDbEntity
  8
0
370
              25
  6
Continuous
 62
               7
100
AcDbSpline
210
0.0
220
0.0
230
1.0
 70
               8
 71
               2
 72
              13
 73
              10
 74
               0
 42
0.000001
 43
0.000001
 40
0.0
 40
0.0
 40
0.0
 40
1.0
 40
1.0
 40
2.0
 40
3.0
 40
4.0
 40
5.0
 40
5.0
 40
6.0
 40
6.0
 40
6.0
 10
135.8085457579524
 20
258.0250292817617
 30
0.0
 10
135.80635080294766
 20
258.02557279099346
 30
0.0
 10
135.80415584794292
 20
258.02611630022523
 30
0.0
 10
135.73727852364422
 20
258.04154320830702
 30
0.0
 10
135.63947931690677
 20
258.03602631086363
 30
0.0
 10
135.57262986166444
 20
258.01949314201556
 30
0.0
 10
135.4897607105419
 20
257.98017189135356
 30
0.0
 10
135.44869937501952
 20
257.93823179489658
 30
0.0
 10
135.44737798385529
 20
257.93681888992393
 30
0.0
 10
135.44605659269106
 20
257.93540598495127
 30
0.0
  0
SPLINE
  5
C5
100
AcDbEntity
  8
0
370
              25
  6
Continuous
 62
               7
100
AcDbSpline
210
0.0
220
0.0
230
1.0
 70
               8
 71
               2
 72
              13
 73
              10
 74
               0
 42
0.000001
 43
0.000001
 40
0.0
 40
0.0
 40
0.0
 40
1.0
 40
1.0
 40
2.0
 40
3.0
 40
4.0
 40
5.0
 40
5.0
 40
6.0
 40
6.0
 40
6.0
 10
152.9229986671688
 20
235.43233131025431
 30
0.0
 10
152.92403264406499
 20
235.43320086397679
 30
0.0
 10
152.92506662096116
 20
235.43407041769927
 30
0.0
 10
152.95588750064604
 20
235.46085024427026
 30
0.0
 10
153.00414740854484
 20
235.53014035062176
 30
0.0
 10
153.02706821880153
 20
235.59629861139064
 30
0.0
 10
153.03907349415238
 20
235.6543964252337
 30
0.0
 10
153.04008165629949
 20
235.69356243968457
 30
0.0
 10
153.04009998208198
 20
235.69506704642748
 30
0.0
 10
153.04011830786445
 20
235.69657165317045
 30
0.0
  0
LINE
  5
C6
100
AcDbEntity
  8
0
370
              25
  6
Continuous
 62
               7
100
AcDbLine
 10
137.6547022554771
 20
248.38985062921307
 30
0.0
 11
137.57903157817711
 21
248.29944973821307
 31
0.0
  0
ARC
  5
C7
100
AcDbEntity
  8
0
370
              25
  6
Continuous
 62
               7
100
AcDbCircle
 10
140.29116338757711
 20
245.42121415701308
 30
0.0
 40
3.9220510325484894
100
AcDbArc
 50
147.14303977000006
 51
172.39527443610001
  0
LINE
  5
C8
100
AcDbEntity
  8
0
370
              25
  6
Continuous
 62
               7
100
AcDbLine
 10
137.68363876397711
 20
248.41093464736309
 30
0.0
 11
137.5383069987771
 21
248.27291451506306
 31
0.0
  0
POLYLINE
  5
C9
100
AcDbEntity
  8
0
370
              25
  6
Continuous
 62
               7
100
AcDb2dPolyline
 66
               1
 10
0.0
 20
0.0
 30
0.0
 75
               5
  0
VERTEX
  5
CA
100
AcDbEntity
  8
0
370
              25
  6
Continuous
 62
               7
100
AcDbVertex
100
AcDb2dVertex
 10
145.2757774315771
 20
239.83713488496306
 30
0.0
  0
VERTEX
  5
CB
100
AcDbEntity
  8
0
370
              25
  6
Continuous
 62
               7
100
AcDbVertex
100
AcDb2dVertex
 10
145.28975831347711
 20
239.84840985766306
 30
0.0
  0
VERTEX
  5
CC
100
AcDbEntity
  8
0
370
              25
  6
Continuous
 62
               7
100
AcDbVertex
100
AcDb2dVertex
 10
145.4251931127271
 20
239.96388374651309
 30
0.0
  0
SEQEND
  5
CD
100
AcDbEntity
  8
0
370
              25
  6
Continuous
 62
               7
  0
POLYLINE
  5
CE
100
AcDbEntity
  8
0
370
              25
  6
Continuous
 62
               7
100
AcDb2dPolyline
 66
               1
 10
0.0
 20
0.0
 30
0.0
 75
               5
  0
VERTEX
  5
CF
100
AcDbEntity
  8
0
370
              25
  6
Continuous
 62
               7
100
AcDbVertex
100
AcDb2dVertex
 10
160.56260342247711
 20
142.45373833631305
 30
0.0
  0
VERTEX
  5
D0
100
AcDbEntity
  8
0
370
              25
  6
Continuous
 62
               7
100
AcDbVertex
100
AcDb2dVertex
 10
160.6941963656771
 20
142.13505071431308
 30
0.0
  0
VERTEX
  5
D1
100
AcDbEntity
  8
0
370
              25
  6
Continuous
 62
               7
100
AcDbVertex
100
AcDb2dVertex
 10
160.8880943921271
 20
141.97383544171305
 30
0.0
  0
VERTEX
  5
D2
100
AcDbEntity
  8
0
370
              25
  6
Continuous
 62
               7
100
AcDbVertex
100
AcDb2dVertex
 10
161.1270688958771
 20
141.98441684111307
 30
0.0
  0
VERTEX
  5
D3
100
AcDbEntity
  8
0
370
              25
  6
Continuous
 62
               7
100
AcDbVertex
100
AcDb2dVertex
 10
161.3898859055771
 20
142.16585526031307
 30
0.0
  0
VERTEX
  5
D4
100
AcDbEntity
  8
0
370
              25
  6
Continuous
 62
               7
100
AcDbVertex
100
AcDb2dVertex
 10
161.65319297707711
 20
142.50202828441306
 30
0.0
  0
VERTEX
  5
D5
100
AcDbEntity
  8
0
370
              25
  6
Continuous
 62
               7
100
AcDbVertex
100
AcDb2dVertex
 10
161.8935941715271
 20
142.96306620256306
 30
0.0
  0
VERTEX
  5
D6
100
AcDbEntity
  8
0
370
              25
  6
Continuous
 62
               7
100
AcDbVertex
100
AcDb2dVertex
 10
162.08972872832712
 20
143.50800390351307
 30
0.0
  0
VERTEX
  5
D7
100
AcDbEntity
  8
0
370
              25
  6
Continuous
 62
               7
100
AcDbVertex
100
AcDb2dVertex
 10
162.2241692447771
 20
144.08842059616308
 30
0.0
  0
VERTEX
  5
D8
100
AcDbEntity
  8
0
370
              25
  6
Continuous
 62
               7
100
AcDbVertex
100
AcDb2dVertex
 10
162.28497009477709
 20
144.65274375201307
 30
0.0
  0
VERTEX
  5
D9
100
AcDbEntity
  8
0
370
              25
  6
Continuous
 62
               7
100
AcDbVertex
100
AcDb2dVertex
 10
162.2667288347771
 20
145.15083146846308
 30
0.0
  0
VERTEX
  5
DA
100
AcDbEntity
  8
0
370
              25
  6
Continuous
 62
               7
100
AcDbVertex
100
AcDb2dVertex
 10
162.17106631837711
 20
145.53842597961307
 30
0.0
  0
VERTEX
  5
DB
100
AcDbEntity
  8
0
370
              25
  6
Continuous
 62
               7
100
AcDbVertex
100
AcDb2dVertex
 10
162.0064826227771
 20
145.78108787066307
 30
0.0
  0
VERTEX
  5
DC
100
AcDbEntity
  8
0
370
              25
  6
Continuous
 62
               7
100
AcDbVertex
100
AcDb2dVertex
 10
161.78760159972711
 20
145.85725523851306
 30
0.0
  0
VERTEX
  5
DD
100
AcDbEntity
  8
0
370
              25
  6
Continuous
 62
               7
100
AcDbVertex
100
AcDb2dVertex
 10
161.5338719056771
 20
145.76016148316307
 30
0.0
  0
VERTEX
  5
DE
100
AcDbEntity
  8
0
370
              25
  6
Continuous
 62
               7
100
AcDbVertex
100
AcDb2dVertex
 10
161.26783848497709
 20
145.49843244946305
 30
0.0
  0
VERTEX
  5
DF
100
AcDbEntity
  8
0
370
              25
  6
Continuous
 62
               7
100
AcDbVertex
100
AcDb2dVertex
 10
161.01313958557711
 20
145.09532373586308
 30
0.0
  0
VERTEX
  5
E0
100
AcDbEntity
  8
0
370
              25
  6
Continuous
 62
               7
100
AcDbVertex
100
AcDb2dVertex
 10
160.79240629487711
 20
144.58665497971307
 30
0.0
  0
VERTEX
  5
E1
100
AcDbEntity
  8
0
370
              25
  6
Continuous
 62
               7
100
AcDbVertex
100
AcDb2dVertex
 10
160.62525182767709
 20
144.01762247841307
 30
0.0
  0
VERTEX
  5
E2
100
AcDbEntity
  8
0
370
              25
  6
Continuous
 62
               7
100
AcDbVertex
100
AcDb2dVertex
 10
160.52652850352709
 20
143.43878720816306
 30
0.0
  0
VERTEX
  5
E3
100
AcDbEntity
  8
0
370
              25
  6
Continuous
 62
               7
100
AcDbVertex
100
AcDb2dVertex
 10
160.50500827527711
 20
142.90158146386307
 30
0.0
  0
VERTEX
  5
E4
100
AcDbEntity
  8
0
370
              25
  6
Continuous
 62
               7
100
AcDbVertex
100
AcDb2dVertex
 10
160.56260342247711
 20
142.45373833631305
 30
0.0
  0
SEQEND
  5
E5
100
AcDbEntity
  8
0
370
              25
  6
Continuous
 62
               7
  0
POLYLINE
  5
E6
100
AcDbEntity
  8
0
370
              25
  6
Continuous
 62
               7
100
AcDb2dPolyline
 66
               1
 10
0.0
 20
0.0
 30
0.0
 75
               5
  0
VERTEX
  5
E7
100
AcDbEntity
  8
0
370
              25
  6
Continuous
 62
               7
100
AcDbVertex
100
AcDb2dVertex
 10
160.42836632217711
 20
142.48697778911307
 30
0.0
  0
VERTEX
  5
E8
100
AcDbEntity
  8
0
370
              25
  6
Continuous
 62
               7
100
AcDbVertex
100
AcDb2dVertex
 10
160.5599592653771
 20
142.16829016711307
 30
0.0
  0
VERTEX
  5
E9
100
AcDbEntity
  8
0
370
              25
  6
Continuous
 62
               7
100
AcDbVertex
100
AcDb2dVertex
 10
160.7538572918271
 20
142.00707489451307
 30
0.0
  0
VERTEX
  5
EA
100
AcDbEntity
  8
0
370
              25
  6
Continuous
 62
               7
100
AcDbVertex
100
AcDb2dVertex
 10
160.78044748862709
 20
141.99917228501306
 30
0.0
  0
SEQEND
  5
EB
100
AcDbEntity
  8
0
370
              25
  6
Continuous
 62
               7
  0
POLYLINE
  5
EC
100
AcDbEntity
  8
0
370
              25
  6
Continuous
 62
               7
100
AcDb2dPolyline
 66
               1
 10
0.0
 20
0.0
 30
0.0
 75
               5
  0
VERTEX
  5
ED
100
AcDbEntity
  8
0
370
              25
  6
Continuous
 62
               7
100
AcDbVertex
100
AcDb2dVertex
 10
161.7418810150271
 20
145.88190910256307
 30
0.0
  0
VERTEX
  5
EE
100
AcDbEntity
  8
0
370
              25
  6
Continuous
 62
               7
100
AcDbVertex
100
AcDb2dVertex
 10
161.65336449942711
 20
145.89049469131305
 30
0.0
  0
VERTEX
  5
EF
100
AcDbEntity
  8
0
370
              25
  6
Continuous
 62
               7
100
AcDbVertex
100
AcDb2dVertex
 10
161.3996348053771
 20
145.79340093596306
 30
0.0
  0
VERTEX
  5
F0
100
AcDbEntity
  8
0
370
              25
  6
Continuous
 62
               7
100
AcDbVertex
100
AcDb2dVertex
 10
161.13360138467709
 20
145.53167190226307
 30
0.0
  0
VERTEX
  5
F1
100
AcDbEntity
  8
0
370
              25
  6
Continuous
 62
               7
100
AcDbVertex
100
AcDb2dVertex
 10
160.87890248527711
 20
145.12856318866307
 30
0.0
  0
VERTEX
  5
F2
100
AcDbEntity
  8
0
370
              25
  6
Continuous
 62
               7
100
AcDbVertex
100
AcDb2dVertex
 10
160.65816919457711
 20
144.61989443251306
 30
0.0
  0
VERTEX
  5
F3
100
AcDbEntity
  8
0
370
              25
  6
Continuous
 62
               7
100
AcDbVertex
100
AcDb2dVertex
 10
160.4910147273271
 20
144.05086193121306
 30
0.0
  0
VERTEX
  5
F4
100
AcDbEntity
  8
0
370
              25
  6
Continuous
 62
               7
100
AcDbVertex
100
AcDb2dVertex
 10
160.39229140322709
 20
143.47202666096308
 30
0.0
  0
VERTEX
  5
F5
100
AcDbEntity
  8
0
370
              25
  6
Continuous
 62
               7
100
AcDbVertex
100
AcDb2dVertex
 10
160.37077117497711
 20
142.93482091666306
 30
0.0
  0
VERTEX
  5
F6
100
AcDbEntity
  8
0
370
              25
  6
Continuous
 62
               7
100
AcDbVertex
100
AcDb2dVertex
 10
160.42836632217711
 20
142.48697778911307
 30
0.0
  0
SEQEND
  5
F7
100
AcDbEntity
  8
0
370
              25
  6
Continuous
 62
               7
  0
LINE
  5
F8
100
AcDbEntity
  8
0
370
              25
  6
Continuous
 62
               7
100
AcDbLine
 10
161.46488141762711
 20
142.98208312421306
 30
0.0
 11
161.68696085842711
 21
143.36970005381306
 31
0.0
  0
LINE
  5
F9
100
AcDbEntity
  8
0
370
              25
  6
Continuous
 62
               7
100
AcDbLine
 10
161.68696085842711
 20
143.36970005381306
 30
0.0
 11
161.61341576417709
 21
143.66768158766308
 31
0.0
  0
ARC
  5
FA
100
AcDbEntity
  8
0
370
              25
  6
Continuous
 62
               7
100
AcDbCircle
 10
162.46062780822712
 20
143.79510439501306
 30
0.0
 40
0.8567408122922965
100
AcDbArc
 50
150.38720754820022
 51
188.55331822160008
  0
LINE
  5
FB
100
AcDbEntity
  8
0
370
              25
  6
Continuous
 62
               7
100
AcDbLine
 10
161.7157905182271
 20
144.21845086166306
 30
0.0
 11
161.90664003507712
 21
144.55155884221307
 31
0.0
  0
LINE
  5
FC
100
AcDbEntity
  8
0
370
              25
  6
Continuous
 62
               7
100
AcDbLine
 10
161.90664003507712
 20
144.55155884221307
 30
0.0
 11
161.82106029182711
 21
144.89830110361305
 31
0.0
  0
LINE
  5
FD
100
AcDbEntity
  8
0
370
              25
  6
Continuous
 62
               7
100
AcDbLine
 10
161.82106029182711
 20
144.89830110361305
 30
0.0
 11
161.63021077492709
 21
144.56519312306307
 31
0.0
  0
POLYLINE
  5
FE
100
AcDbEntity
  8
0
370
              25
  6
Continuous
 62
               7
100
AcDb2dPolyline
 66
               1
 10
0.0
 20
0.0
 30
0.0
 75
               5
  0
VERTEX
  5
FF
100
AcDbEntity
  8
0
370
              25
  6
Continuous
 62
               7
100
AcDbVertex
100
AcDb2dVertex
 10
161.39946638167712
 20
144.53453742026306
 30
0.0
  0
VERTEX
  5
100
100
AcDbEntity
  8
0
370
              25
  6
Continuous
 62
               7
100
AcDbVertex
100
AcDb2dVertex
 10
161.41518861432709
 20
144.48938891771306
 30
0.0
  0
VERTEX
  5
101
100
AcDbEntity
  8
0
370
              25
  6
Continuous
 62
               7
100
AcDbVertex
100
AcDb2dVertex
 10
161.43670743582709
 20
144.45714698226305
 30
0.0
  0
VERTEX
  5
102
100
AcDbEntity
  8
0
370
              25
  6
Continuous
 62
               7
100
AcDbVertex
100
AcDb2dVertex
 10
161.46319590227711
 20
144.43905145386307
 30
0.0
  0
VERTEX
  5
103
100
AcDbEntity
  8
0
370
              25
  6
Continuous
 62
               7
100
AcDbVertex
100
AcDb2dVertex
 10
161.4936360754771
 20
144.43579740966305
 30
0.0
  0
VERTEX
  5
104
100
AcDbEntity
  8
0
370
              25
  6
Continuous
 62
               7
100
AcDbVertex
100
AcDb2dVertex
 10
161.52685813317711
 20
144.44750921541305
 30
0.0
  0
VERTEX
  5
105
100
AcDbEntity
  8
0
370
              25
  6
Continuous
 62
               7
100
AcDbVertex
100
AcDb2dVertex
 10
161.56158540927711
 20
144.47373799496307
 30
0.0
  0
VERTEX
  5
106
100
AcDbEntity
  8
0
370
              25
  6
Continuous
 62
               7
100
AcDbVertex
100
AcDb2dVertex
 10
161.59648332047709
 20
144.51347491786305
 30
0.0
  0
VERTEX
  5
107
100
AcDbEntity
  8
0
370
              25
  6
Continuous
 62
               7
100
AcDbVertex
100
AcDb2dVertex
 10
161.63021077492709
 20
144.56519312306307
 30
0.0
  0
SEQEND
  5
108
100
AcDbEntity
  8
0
370
              25
  6
Continuous
 62
               7
  0
LINE
  5
109
100
AcDbEntity
  8
0
370
              25
  6
Continuous
 62
               7
100
AcDbLine
 10
161.39946638167712
 20
144.53453742026306
 30
0.0
 11
161.32592128172709
 21
144.83251894871307
 31
0.0
  0
LINE
  5
10A
100
AcDbEntity
  8
0
370
              25
  6
Continuous
 62
               7
100
AcDbLine
 10
161.32592128172709
 20
144.83251894871307
 30
0.0
 11
161.1038418458771
 21
144.44490242821306
 31
0.0
  0
LINE
  5
10B
100
AcDbEntity
  8
0
370
              25
  6
Continuous
 62
               7
100
AcDbLine
 10
161.1038418458771
 20
144.44490242821306
 30
0.0
 11
161.17738693517711
 21
144.14692048531307
 31
0.0
  0
ARC
  5
10C
100
AcDbEntity
  8
0
370
              25
  6
Continuous
 62
               7
100
AcDbCircle
 10
160.33017671412711
 20
144.01949764676306
 30
0.0
 40
0.8567390141949843
100
AcDbArc
 50
330.38717306459989
 51
8.5533384168000453
  0
LINE
  5
10D
100
AcDbEntity
  8
0
370
              25
  6
Continuous
 62
               7
100
AcDbLine
 10
161.07501218607709
 20
143.59615162031307
 30
0.0
 11
160.88416266422709
 21
143.26304323076306
 31
0.0
  0
LINE
  5
10E
100
AcDbEntity
  8
0
370
              25
  6
Continuous
 62
               7
100
AcDbLine
 10
160.88416266422709
 20
143.26304323076306
 30
0.0
 11
160.96974240752709
 21
142.91630096936308
 31
0.0
  0
LINE
  5
10F
100
AcDbEntity
  8
0
370
              25
  6
Continuous
 62
               7
100
AcDbLine
 10
160.96974240752709
 20
142.91630096936308
 30
0.0
 11
161.16059192437712
 21
143.24940894986307
 31
0.0
  0
POLYLINE
  5
110
100
AcDbEntity
  8
0
370
              25
  6
Continuous
 62
               7
100
AcDb2dPolyline
 66
               1
 10
0.0
 20
0.0
 30
0.0
 75
               5
  0
VERTEX
  5
111
100
AcDbEntity
  8
0
370
              25
  6
Continuous
 62
               7
100
AcDbVertex
100
AcDb2dVertex
 10
161.3913363226271
 20
143.28006506176308
 30
0.0
  0
VERTEX
  5
112
100
AcDbEntity
  8
0
370
              25
  6
Continuous
 62
               7
100
AcDbVertex
100
AcDb2dVertex
 10
161.37561408997709
 20
143.32521356426307
 30
0.0
  0
VERTEX
  5
113
100
AcDbEntity
  8
0
370
              25
  6
Continuous
 62
               7
100
AcDbVertex
100
AcDb2dVertex
 10
161.35409526352711
 20
143.35745509071307
 30
0.0
  0
VERTEX
  5
114
100
AcDbEntity
  8
0
370
              25
  6
Continuous
 62
               7
100
AcDbVertex
100
AcDb2dVertex
 10
161.3276067970771
 20
143.37555061911306
 30
0.0
  0
VERTEX
  5
115
100
AcDbEntity
  8
0
370
              25
  6
Continuous
 62
               7
100
AcDbVertex
100
AcDb2dVertex
 10
161.29716662882711
 20
143.37880507231307
 30
0.0
  0
VERTEX
  5
116
100
AcDbEntity
  8
0
370
              25
  6
Continuous
 62
               7
100
AcDbVertex
100
AcDb2dVertex
 10
161.26394456617709
 20
143.36709285756308
 30
0.0
  0
VERTEX
  5
117
100
AcDbEntity
  8
0
370
              25
  6
Continuous
 62
               7
100
AcDbVertex
100
AcDb2dVertex
 10
161.2292172950271
 20
143.34086448706307
 30
0.0
  0
VERTEX
  5
118
100
AcDbEntity
  8
0
370
              25
  6
Continuous
 62
               7
100
AcDbVertex
100
AcDb2dVertex
 10
161.19431938382709
 20
143.30112756416307
 30
0.0
  0
VERTEX
  5
119
100
AcDbEntity
  8
0
370
              25
  6
Continuous
 62
               7
100
AcDbVertex
100
AcDb2dVertex
 10
161.16059192437712
 20
143.24940894986307
 30
0.0
  0
SEQEND
  5
11A
100
AcDbEntity
  8
0
370
              25
  6
Continuous
 62
               7
  0
LINE
  5
11B
100
AcDbEntity
  8
0
370
              25
  6
Continuous
 62
               7
100
AcDbLine
 10
161.3913363226271
 20
143.28006506176308
 30
0.0
 11
161.46488141762711
 21
142.98208312421306
 31
0.0
  0
LINE
  5
11C
100
AcDbEntity
  8
0
370
              25
  6
Continuous
 62
               7
100
AcDbLine
 10
161.2012169117271
 20
144.34586828251307
 30
0.0
 11
161.28031034532711
 21
144.48391775796307
 31
0.0
  0
POLYLINE
  5
11D
100
AcDbEntity
  8
0
370
              25
  6
Continuous
 62
               7
100
AcDb2dPolyline
 66
               1
 10
0.0
 20
0.0
 30
0.0
 75
               5
  0
VERTEX
  5
11E
100
AcDbEntity
  8
0
370
              25
  6
Continuous
 62
               7
100
AcDbVertex
100
AcDb2dVertex
 10
161.15332258282712
 20
144.24442044671306
 30
0.0
  0
VERTEX
  5
11F
100
AcDbEntity
  8
0
370
              25
  6
Continuous
 62
               7
100
AcDbVertex
100
AcDb2dVertex
 10
161.16995606032711
 20
144.28415595201307
 30
0.0
  0
VERTEX
  5
120
100
AcDbEntity
  8
0
370
              25
  6
Continuous
 62
               7
100
AcDbVertex
100
AcDb2dVertex
 10
161.2012169117271
 20
144.34586828251307
 30
0.0
  0
SEQEND
  5
121
100
AcDbEntity
  8
0
370
              25
  6
Continuous
 62
               7
  0
LINE
  5
122
100
AcDbEntity
  8
0
370
              25
  6
Continuous
 62
               7
100
AcDbLine
 10
161.17238725192709
 20
143.49711747461305
 30
0.0
 11
161.12290612357711
 21
143.69759917651305
 31
0.0
  0
LINE
  5
123
100
AcDbEntity
  8
0
370
              25
  6
Continuous
 62
               7
100
AcDbLine
 10
161.1308863149271
 20
143.42468182706307
 30
0.0
 11
161.17238725192709
 21
143.49711747461305
 31
0.0
  0
LINE
  5
124
100
AcDbEntity
  8
0
370
              25
  6
Continuous
 62
               7
100
AcDbLine
 10
161.2012169117271
 20
144.34586828251307
 30
0.0
 11
161.7157905182271
 21
144.21845086166306
 31
0.0
  0
LINE
  5
125
100
AcDbEntity
  8
0
370
              25
  6
Continuous
 62
               7
100
AcDbLine
 10
161.65771356732711
 20
144.61319738741307
 30
0.0
 11
161.90664003507712
 21
144.55155884221307
 31
0.0
  0
LINE
  5
126
100
AcDbEntity
  8
0
370
              25
  6
Continuous
 62
               7
100
AcDbLine
 10
161.17238725192709
 20
143.49711747461305
 30
0.0
 11
161.68696085842711
 21
143.36970005381306
 31
0.0
  0
POLYLINE
  5
127
100
AcDbEntity
  8
0
370
              25
  6
Continuous
 62
               7
100
AcDb2dPolyline
 66
               1
 10
0.0
 20
0.0
 30
0.0
 75
               5
  0
VERTEX
  5
128
100
AcDbEntity
  8
0
370
              25
  6
Continuous
 62
               7
100
AcDbVertex
100
AcDb2dVertex
 10
137.74731771642709
 20
139.91987620351307
 30
0.0
  0
VERTEX
  5
129
100
AcDbEntity
  8
0
370
              25
  6
Continuous
 62
               7
100
AcDbVertex
100
AcDb2dVertex
 10
137.77099615757709
 20
139.56202959961306
 30
0.0
  0
VERTEX
  5
12A
100
AcDbEntity
  8
0
370
              25
  6
Continuous
 62
               7
100
AcDbVertex
100
AcDb2dVertex
 10
137.95199643482709
 20
138.92789521476305
 30
0.0
  0
VERTEX
  5
12B
100
AcDbEntity
  8
0
370
              25
  6
Continuous
 62
               7
100
AcDbVertex
100
AcDb2dVertex
 10
138.30778125097709
 20
138.30928930961306
 30
0.0
  0
VERTEX
  5
12C
100
AcDbEntity
  8
0
370
              25
  6
Continuous
 62
               7
100
AcDbVertex
100
AcDb2dVertex
 10
138.83200144007711
 20
137.71725121871307
 30
0.0
  0
VERTEX
  5
12D
100
AcDbEntity
  8
0
370
              25
  6
Continuous
 62
               7
100
AcDbVertex
100
AcDb2dVertex
 10
139.51530275747712
 20
137.16234587206307
 30
0.0
  0
VERTEX
  5
12E
100
AcDbEntity
  8
0
370
              25
  6
Continuous
 62
               7
100
AcDbVertex
100
AcDb2dVertex
 10
140.34549085582711
 20
136.65447526036306
 30
0.0
  0
VERTEX
  5
12F
100
AcDbEntity
  8
0
370
              25
  6
Continuous
 62
               7
100
AcDbVertex
100
AcDb2dVertex
 10
141.3077516203771
 20
136.20270229831306
 30
0.0
  0
VERTEX
  5
130
100
AcDbEntity
  8
0
370
              25
  6
Continuous
 62
               7
100
AcDbVertex
100
AcDb2dVertex
 10
142.38491321872709
 20
135.81508897226306
 30
0.0
  0
VERTEX
  5
131
100
AcDbEntity
  8
0
370
              25
  6
Continuous
 62
               7
100
AcDbVertex
100
AcDb2dVertex
 10
143.55775438532712
 20
135.49855287486307
 30
0.0
  0
VERTEX
  5
132
100
AcDbEntity
  8
0
370
              25
  6
Continuous
 62
               7
100
AcDbVertex
100
AcDb2dVertex
 10
144.80534472822711
 20
135.25874166716306
 30
0.0
  0
VERTEX
  5
133
100
AcDbEntity
  8
0
370
              25
  6
Continuous
 62
               7
100
AcDbVertex
100
AcDb2dVertex
 10
146.1054215639771
 20
135.09993529251307
 30
0.0
  0
VERTEX
  5
134
100
AcDbEntity
  8
0
370
              25
  6
Continuous
 62
               7
100
AcDbVertex
100
AcDb2dVertex
 10
147.43478471597709
 20
135.02496761021308
 30
0.0
  0
VERTEX
  5
135
100
AcDbEntity
  8
0
370
              25
  6
Continuous
 62
               7
100
AcDbVertex
100
AcDb2dVertex
 10
148.7697118050271
 20
135.03517627126305
 30
0.0
  0
VERTEX
  5
136
100
AcDbEntity
  8
0
370
              25
  6
Continuous
 62
               7
100
AcDbVertex
100
AcDb2dVertex
 10
150.08638138642709
 20
135.13037924266308
 30
0.0
  0
VERTEX
  5
137
100
AcDbEntity
  8
0
370
              25
  6
Continuous
 62
               7
100
AcDbVertex
100
AcDb2dVertex
 10
151.36129669797711
 20
135.30887753481306
 30
0.0
  0
VERTEX
  5
138
100
AcDbEntity
  8
0
370
              25
  6
Continuous
 62
               7
100
AcDbVertex
100
AcDb2dVertex
 10
152.57170704787711
 20
135.56748586261307
 30
0.0
  0
VERTEX
  5
139
100
AcDbEntity
  8
0
370
              25
  6
Continuous
 62
               7
100
AcDbVertex
100
AcDb2dVertex
 10
153.6960128944271
 20
135.90158947166307
 30
0.0
  0
VERTEX
  5
13A
100
AcDbEntity
  8
0
370
              25
  6
Continuous
 62
               7
100
AcDbVertex
100
AcDb2dVertex
 10
153.9946588955271
 20
136.00864971486305
 30
0.0
  0
SEQEND
  5
13B
100
AcDbEntity
  8
0
370
              25
  6
Continuous
 62
               7
  0
POLYLINE
  5
13C
100
AcDbEntity
  8
0
370
              25
  6
Continuous
 62
               7
100
AcDb2dPolyline
 66
               1
 10
0.0
 20
0.0
 30
0.0
 75
               5
  0
VERTEX
  5
13D
100
AcDbEntity
  8
0
370
              25
  6
Continuous
 62
               7
100
AcDbVertex
100
AcDb2dVertex
 10
150.34135802832711
 20
136.91327115116306
 30
0.0
  0
VERTEX
  5
13E
100
AcDbEntity
  8
0
370
              25
  6
Continuous
 62
               7
100
AcDbVertex
100
AcDb2dVertex
 10
150.10777878112711
 20
136.88717540261308
 30
0.0
  0
VERTEX
  5
13F
100
AcDbEntity
  8
0
370
              25
  6
Continuous
 62
               7
100
AcDbVertex
100
AcDb2dVertex
 10
148.79110919972709
 20
136.79197243121308
 30
0.0
  0
VERTEX
  5
140
100
AcDbEntity
  8
0
370
              25
  6
Continuous
 62
               7
100
AcDbVertex
100
AcDb2dVertex
 10
147.4561821106771
 20
136.78176377016308
 30
0.0
  0
VERTEX
  5
141
100
AcDbEntity
  8
0
370
              25
  6
Continuous
 62
               7
100
AcDbVertex
100
AcDb2dVertex
 10
146.12681895867709
 20
136.85673145241307
 30
0.0
  0
VERTEX
  5
142
100
AcDbEntity
  8
0
370
              25
  6
Continuous
 62
               7
100
AcDbVertex
100
AcDb2dVertex
 10
144.8267421229271
 20
137.01553782711306
 30
0.0
  0
VERTEX
  5
143
100
AcDbEntity
  8
0
370
              25
  6
Continuous
 62
               7
100
AcDbVertex
100
AcDb2dVertex
 10
143.5791517800271
 20
137.25534903481307
 30
0.0
  0
VERTEX
  5
144
100
AcDbEntity
  8
0
370
              25
  6
Continuous
 62
               7
100
AcDbVertex
100
AcDb2dVertex
 10
142.40631061342711
 20
137.57188513221305
 30
0.0
  0
VERTEX
  5
145
100
AcDbEntity
  8
0
370
              25
  6
Continuous
 62
               7
100
AcDbVertex
100
AcDb2dVertex
 10
141.32914901507709
 20
137.95949845826306
 30
0.0
  0
VERTEX
  5
146
100
AcDbEntity
  8
0
370
              25
  6
Continuous
 62
               7
100
AcDbVertex
100
AcDb2dVertex
 10
140.3668882505271
 20
138.41127142031306
 30
0.0
  0
VERTEX
  5
147
100
AcDbEntity
  8
0
370
              25
  6
Continuous
 62
               7
100
AcDbVertex
100
AcDb2dVertex
 10
139.5367001521771
 20
138.91914203201307
 30
0.0
  0
VERTEX
  5
148
100
AcDbEntity
  8
0
370
              25
  6
Continuous
 62
               7
100
AcDbVertex
100
AcDb2dVertex
 10
138.8533988347771
 20
139.47404737866307
 30
0.0
  0
VERTEX
  5
149
100
AcDbEntity
  8
0
370
              25
  6
Continuous
 62
               7
100
AcDbVertex
100
AcDb2dVertex
 10
138.5028121102271
 20
139.84470208371306
 30
0.0
  0
SEQEND
  5
14A
100
AcDbEntity
  8
0
370
              25
  6
Continuous
 62
               7
  0
LINE
  5
14B
100
AcDbEntity
  8
0
370
              25
  6
Continuous
 62
               7
100
AcDbLine
 10
150.6538607033271
 20
113.97913669591307
 30
0.0
 11
148.42326834342711
 21
111.86187203091306
 31
0.0
  0
LINE
  5
14C
100
AcDbEntity
  8
0
370
              25
  6
Continuous
 62
               7
100
AcDbLine
 10
148.42326834342711
 20
111.86187203091306
 30
0.0
 11
150.9305892848771
 21
135.23850280116307
 31
0.0
  0
LINE
  5
14D
100
AcDbEntity
  8
0
370
              25
  6
Continuous
 62
               7
100
AcDbLine
 10
152.9811815576771
 20
135.67756372711307
 30
0.0
 11
150.6538607033271
 21
113.97913669591307
 31
0.0
  0
LINE
  5
14E
100
AcDbEntity
  8
0
370
              25
  6
Continuous
 62
               7
100
AcDbLine
 10
142.6499058909771
 20
113.76127525731306
 30
0.0
 11
140.87022310687709
 21
136.39352664716307
 31
0.0
  0
LINE
  5
14F
100
AcDbEntity
  8
0
370
              25
  6
Continuous
 62
               7
100
AcDbLine
 10
144.18925151912711
 20
111.17748713056307
 30
0.0
 11
142.6499058909771
 21
113.76127525731306
 31
0.0
  0
LINE
  5
150
100
AcDbEntity
  8
0
370
              25
  6
Continuous
 62
               7
100
AcDbLine
 10
145.53161647977711
 20
110.84509409886306
 30
0.0
 11
144.18925151912711
 21
111.17748713056307
 31
0.0
  0
LINE
  5
151
100
AcDbEntity
  8
0
370
              25
  6
Continuous
 62
               7
100
AcDbLine
 10
147.12445562087711
 20
112.65329851941307
 30
0.0
 11
145.53161647977711
 21
110.84509409886306
 31
0.0
  0
LINE
  5
152
100
AcDbEntity
  8
0
370
              25
  6
Continuous
 62
               7
100
AcDbLine
 10
149.52984147357711
 20
135.07955282166307
 30
0.0
 11
147.12445562087711
 21
112.65329851941307
 31
0.0
  0
LINE
  5
153
100
AcDbEntity
  8
0
370
              25
  6
Continuous
 62
               7
100
AcDbLine
 10
145.5036320029771
 20
108.54747693101307
 30
0.0
 11
148.42326834342711
 21
111.86187203091306
 31
0.0
  0
LINE
  5
154
100
AcDbEntity
  8
0
370
              25
  6
Continuous
 62
               7
100
AcDbLine
 10
145.3390399448771
 20
95.033930091013062
 30
0.0
 11
145.5036320029771
 21
108.54747693101307
 31
0.0
  0
LINE
  5
155
100
AcDbEntity
  8
0
370
              25
  6
Continuous
 62
               7
100
AcDbLine
 10
143.9966749842271
 20
95.366323122713069
 30
0.0
 11
145.3390399448771
 21
95.033930091013062
 31
0.0
  0
LINE
  5
156
100
AcDbEntity
  8
0
370
              25
  6
Continuous
 62
               7
100
AcDbLine
 10
144.1612670423271
 20
108.87986996266307
 30
0.0
 11
143.9966749842271
 21
95.366323122713069
 31
0.0
  0
LINE
  5
157
100
AcDbEntity
  8
0
370
              25
  6
Continuous
 62
               7
100
AcDbLine
 10
141.3396830246771
 20
113.61589159216307
 30
0.0
 11
144.1612670423271
 21
108.87986996266307
 31
0.0
  0
LINE
  5
158
100
AcDbEntity
  8
0
370
              25
  6
Continuous
 62
               7
100
AcDbLine
 10
139.48651430922709
 20
137.18266993456308
 30
0.0
 11
141.3396830246771
 21
113.61589159216307
 31
0.0
  0
POLYLINE
  5
159
100
AcDbEntity
  8
0
370
              25
  6
Continuous
 62
               7
100
AcDb2dPolyline
 66
               1
 10
0.0
 20
0.0
 30
0.0
 75
               5
  0
VERTEX
  5
15A
100
AcDbEntity
  8
0
370
              25
  6
Continuous
 62
               7
100
AcDbVertex
100
AcDb2dVertex
 10
142.57472355022711
 20
132.51930867396305
 30
0.0
  0
VERTEX
  5
15B
100
AcDbEntity
  8
0
370
              25
  6
Continuous
 62
               7
100
AcDbVertex
100
AcDb2dVertex
 10
142.79598308862711
 20
132.04693105181306
 30
0.0
  0
VERTEX
  5
15C
100
AcDbEntity
  8
0
370
              25
  6
Continuous
 62
               7
100
AcDbVertex
100
AcDb2dVertex
 10
143.20573580912711
 20
131.60260355791306
 30
0.0
  0
VERTEX
  5
15D
100
AcDbEntity
  8
0
370
              25
  6
Continuous
 62
               7
100
AcDbVertex
100
AcDb2dVertex
 10
143.78810572287711
 20
131.20354156116306
 30
0.0
  0
VERTEX
  5
15E
100
AcDbEntity
  8
0
370
              25
  6
Continuous
 62
               7
100
AcDbVertex
100
AcDb2dVertex
 10
144.52052964872709
 20
130.86520651866306
 30
0.0
  0
VERTEX
  5
15F
100
AcDbEntity
  8
0
370
              25
  6
Continuous
 62
               7
100
AcDbVertex
100
AcDb2dVertex
 10
145.3746293352271
 20
130.60070701531305
 30
0.0
  0
VERTEX
  5
160
100
AcDbEntity
  8
0
370
              25
  6
Continuous
 62
               7
100
AcDbVertex
100
AcDb2dVertex
 10
146.31731355597711
 20
130.42029141156306
 30
0.0
  0
VERTEX
  5
161
100
AcDbEntity
  8
0
370
              25
  6
Continuous
 62
               7
100
AcDbVertex
100
AcDb2dVertex
 10
147.31205797142709
 20
130.33094937811308
 30
0.0
  0
VERTEX
  5
162
100
AcDbEntity
  8
0
370
              25
  6
Continuous
 62
               7
100
AcDbVertex
100
AcDb2dVertex
 10
148.32032126907711
 20
130.33614278406307
 30
0.0
  0
VERTEX
  5
163
100
AcDbEntity
  8
0
370
              25
  6
Continuous
 62
               7
100
AcDbVertex
100
AcDb2dVertex
 10
149.02769194557709
 20
130.39783499971307
 30
0.0
  0
SEQEND
  5
164
100
AcDbEntity
  8
0
370
              25
  6
Continuous
 62
               7
  0
SPLINE
  5
165
100
AcDbEntity
  8
0
370
              25
  6
Continuous
 62
               7
100
AcDbSpline
210
0.0
220
0.0
230
1.0
 70
               8
 71
               2
 72
              10
 73
               7
 74
               0
 42
0.000001
 43
0.000001
 40
0.0
 40
0.0
 40
0.0
 40
1.0
 40
1.0
 40
2.0
 40
2.0
 40
3.0
 40
3.0
 40
3.0
 10
142.57222613773882
 20
135.75784365012299
 30
0.0
 10
142.57191536335566
 20
135.72730113302396
 30
0.0
 10
142.57160458897249
 20
135.69675861592492
 30
0.0
 10
142.55859279936223
 20
134.27708403937515
 30
0.0
 10
142.5739981344347
 20
132.59292473627113
 30
0.0
 10
142.57436084679395
 20
132.55611660041018
 30
0.0
 10
142.5747235591532
 20
132.51930846454925
 30
0.0
  0
LINE
  5
166
100
AcDbEntity
  8
0
370
              25
  6
Continuous
 62
               7
100
AcDbLine
 10
153.1608149083271
 20
96.567599702363069
 30
0.0
 11
152.49163719517711
 21
95.932420297913069
 31
0.0
  0
LINE
  5
167
100
AcDbEntity
  8
0
370
              25
  6
Continuous
 62
               7
100
AcDbLine
 10
152.49163719517711
 20
95.932420297913069
 30
0.0
 11
155.76459460192712
 21
135.57038284026305
 31
0.0
  0
LINE
  5
168
100
AcDbEntity
  8
0
370
              25
  6
Continuous
 62
               7
100
AcDbLine
 10
156.36896690767711
 20
135.42072973696307
 30
0.0
 11
153.1608149083271
 21
96.567599702363069
 31
0.0
  0
LINE
  5
169
100
AcDbEntity
  8
0
370
              25
  6
Continuous
 62
               7
100
AcDbLine
 10
147.3021648597271
 20
75.19124183641307
 30
0.0
 11
152.49163719517711
 21
95.932420297913069
 31
0.0
  0
LINE
  5
16A
100
AcDbEntity
  8
0
370
              25
  6
Continuous
 62
               7
100
AcDbLine
 10
147.73422436282709
 20
110.66474159601307
 30
0.0
 11
147.3021648597271
 21
75.19124183641307
 31
0.0
  0
LINE
  5
16B
100
AcDbEntity
  8
0
370
              25
  6
Continuous
 62
               7
100
AcDbLine
 10
150.6538607033271
 20
113.97913669591307
 30
0.0
 11
147.73422436282709
 21
110.66474159601307
 31
0.0
  0
LINE
  5
16C
100
AcDbEntity
  8
0
370
              25
  6
Continuous
 62
               7
100
AcDbLine
 10
146.8579763636771
 20
130.35978549471307
 30
0.0
 11
147.77406676372709
 21
118.70984885876307
 31
0.0
  0
LINE
  5
16D
100
AcDbEntity
  8
0
370
              25
  6
Continuous
 62
               7
100
AcDbLine
 10
147.76394618412709
 20
118.61549111621306
 30
0.0
 11
142.6499058909771
 21
113.76127525731306
 31
0.0
  0
LINE
  5
16E
100
AcDbEntity
  8
0
370
              25
  6
Continuous
 62
               7
100
AcDbLine
 10
141.3052624536771
 20
98.702362245813063
 30
0.0
 11
145.9597998990771
 21
75.523634868113064
 31
0.0
  0
LINE
  5
16F
100
AcDbEntity
  8
0
370
              25
  6
Continuous
 62
               7
100
AcDbLine
 10
139.14158694207708
 20
137.44500832216306
 30
0.0
 11
141.3052624536771
 21
98.702362245813063
 31
0.0
  0
LINE
  5
170
100
AcDbEntity
  8
0
370
              25
  6
Continuous
 62
               7
100
AcDbLine
 10
147.73422436282709
 20
110.66474159601307
 30
0.0
 11
145.5036320029771
 21
108.54747693101307
 31
0.0
  0
LINE
  5
171
100
AcDbEntity
  8
0
370
              25
  6
Continuous
 62
               7
100
AcDbLine
 10
147.28092130342711
 20
114.11208123566307
 30
0.0
 11
144.18925151912711
 21
111.17748713056307
 31
0.0
  0
LINE
  5
172
100
AcDbEntity
  8
0
370
              25
  6
Continuous
 62
               7
100
AcDbLine
 10
147.3021648597271
 20
75.19124183641307
 30
0.0
 11
145.3390399448771
 21
95.033930091013062
 31
0.0
  0
LINE
  5
173
100
AcDbEntity
  8
0
370
              25
  6
Continuous
 62
               7
100
AcDbLine
 10
145.9597998990771
 20
75.523634868113064
 30
0.0
 11
147.3021648597271
 21
75.19124183641307
 31
0.0
  0
LINE
  5
174
100
AcDbEntity
  8
0
370
              25
  6
Continuous
 62
               7
100
AcDbLine
 10
143.9966749842271
 20
95.366323122713069
 30
0.0
 11
145.9597998990771
 21
75.523634868113064
 31
0.0
  0
LINE
  5
175
100
AcDbEntity
  8
0
370
              25
  6
Continuous
 62
               7
100
AcDbLine
 10
147.97134257287709
 20
75.82642124086307
 30
0.0
 11
147.3021648597271
 21
75.19124183641307
 31
0.0
  0
LINE
  5
176
100
AcDbEntity
  8
0
370
              25
  6
Continuous
 62
               7
100
AcDbLine
 10
147.97134257287709
 20
75.82642124086307
 30
0.0
 11
153.1608149083271
 21
96.567599702363069
 31
0.0
  0
LINE
  5
177
100
AcDbEntity
  8
0
370
              25
  6
Continuous
 62
               7
100
AcDbLine
 10
159.51745650647709
 20
266.87828520886308
 30
0.0
 11
166.07539811622709
 21
273.10304339206306
 31
0.0
  0
LINE
  5
178
100
AcDbEntity
  8
0
370
              25
  6
Continuous
 62
               7
100
AcDbLine
 10
132.73747673687711
 20
273.42938855776305
 30
0.0
 11
159.3163025825271
 21
266.84800662326307
 31
0.0
  0
LINE
  5
179
100
AcDbEntity
  8
0
370
              25
  6
Continuous
 62
               7
100
AcDbLine
 10
159.51745650647709
 20
266.87828520886308
 30
0.0
 11
157.9126519160271
 21
135.11857423576305
 31
0.0
  0
ARC
  5
17A
100
AcDbEntity
  8
0
370
              25
  6
Continuous
 62
               7
100
AcDbCircle
 10
157.77962577852711
 20
135.31900904801307
 30
0.0
 40
0.2405619820786856
100
AcDbArc
 50
253.54855884980037
 51
303.5717439563972
  0
LINE
  5
17B
100
AcDbEntity
  8
0
370
              25
  6
Continuous
 62
               7
100
AcDbLine
 10
157.71149799212711
 20
135.08829565021307
 30
0.0
 11
159.3163025825271
 21
266.84800662326307
 31
0.0
  0
LINE
  5
17C
100
AcDbEntity
  8
0
370
              25
  6
Continuous
 62
               7
100
AcDbLine
 10
131.1326721464271
 20
141.66967758466308
 30
0.0
 11
157.71149799212711
 21
135.08829565021307
 31
0.0
  0
LINE
  5
17D
100
AcDbEntity
  8
0
370
              25
  6
Continuous
 62
               7
100
AcDbLine
 10
132.73747673687711
 20
273.42938855776305
 30
0.0
 11
131.1326721464271
 21
141.66967758466308
 31
0.0
  0
LINE
  5
17E
100
AcDbEntity
  8
0
370
              25
  6
Continuous
 62
               7
100
AcDbLine
 10
164.4705935257771
 20
141.34333241896306
 30
0.0
 11
166.07539811622709
 21
273.10304339206306
 31
0.0
  0
LINE
  5
17F
100
AcDbEntity
  8
0
370
              25
  6
Continuous
 62
               7
100
AcDbLine
 10
157.9126519160271
 20
135.11857423576305
 30
0.0
 11
164.4705935257771
 21
141.34333241896306
 31
0.0
  0
POLYLINE
  5
180
100
AcDbEntity
  8
0
370
              25
  6
Continuous
 62
               7
100
AcDb2dPolyline
 66
               1
 10
0.0
 20
0.0
 30
0.0
 75
               5
  0
VERTEX
  5
181
100
AcDbEntity
  8
0
370
              25
  6
Continuous
 62
               7
100
AcDbVertex
100
AcDb2dVertex
 10
162.3095426448771
 20
144.93565507106308
 30
0.0
  0
VERTEX
  5
182
100
AcDbEntity
  8
0
370
              25
  6
Continuous
 62
               7
100
AcDbVertex
100
AcDb2dVertex
 10
162.27415929647711
 20
145.47690800091306
 30
0.0
  0
VERTEX
  5
183
100
AcDbEntity
  8
0
370
              25
  6
Continuous
 62
               7
100
AcDbVertex
100
AcDb2dVertex
 10
162.1567090907771
 20
145.89369386041307
 30
0.0
  0
VERTEX
  5
184
100
AcDbEntity
  8
0
370
              25
  6
Continuous
 62
               7
100
AcDbVertex
100
AcDb2dVertex
 10
161.96670713947711
 20
146.15224721561307
 30
0.0
  0
VERTEX
  5
185
100
AcDbEntity
  8
0
370
              25
  6
Continuous
 62
               7
100
AcDbVertex
100
AcDb2dVertex
 10
161.71954629972711
 20
146.23162046671308
 30
0.0
  0
VERTEX
  5
186
100
AcDbEntity
  8
0
370
              25
  6
Continuous
 62
               7
100
AcDbVertex
100
AcDb2dVertex
 10
161.43525008077711
 20
146.12538484661306
 30
0.0
  0
VERTEX
  5
187
100
AcDbEntity
  8
0
370
              25
  6
Continuous
 62
               7
100
AcDbVertex
100
AcDb2dVertex
 10
161.13685048472709
 20
145.84214576981307
 30
0.0
  0
VERTEX
  5
188
100
AcDbEntity
  8
0
370
              25
  6
Continuous
 62
               7
100
AcDbVertex
100
AcDb2dVertex
 10
160.84852201952711
 20
145.40484953181306
 30
0.0
  0
VERTEX
  5
189
100
AcDbEntity
  8
0
370
              25
  6
Continuous
 62
               7
100
AcDbVertex
100
AcDb2dVertex
 10
160.59362338487711
 20
144.84892448931305
 30
0.0
  0
VERTEX
  5
18A
100
AcDbEntity
  8
0
370
              25
  6
Continuous
 62
               7
100
AcDbVertex
100
AcDb2dVertex
 10
160.39280492142711
 20
144.21940677981306
 30
0.0
  0
VERTEX
  5
18B
100
AcDbEntity
  8
0
370
              25
  6
Continuous
 62
               7
100
AcDbVertex
100
AcDb2dVertex
 10
160.26233580457711
 20
143.56729741121308
 30
0.0
  0
VERTEX
  5
18C
100
AcDbEntity
  8
0
370
              25
  6
Continuous
 62
               7
100
AcDbVertex
100
AcDb2dVertex
 10
160.2127858587771
 20
142.94542631651308
 30
0.0
  0
VERTEX
  5
18D
100
AcDbEntity
  8
0
370
              25
  6
Continuous
 62
               7
100
AcDbVertex
100
AcDb2dVertex
 10
160.2481692022271
 20
142.40417297766305
 30
0.0
  0
VERTEX
  5
18E
100
AcDbEntity
  8
0
370
              25
  6
Continuous
 62
               7
100
AcDbVertex
100
AcDb2dVertex
 10
160.36561940792711
 20
141.98738711811308
 30
0.0
  0
VERTEX
  5
18F
100
AcDbEntity
  8
0
370
              25
  6
Continuous
 62
               7
100
AcDbVertex
100
AcDb2dVertex
 10
160.55562136417711
 20
141.72883417196306
 30
0.0
  0
VERTEX
  5
190
100
AcDbEntity
  8
0
370
              25
  6
Continuous
 62
               7
100
AcDbVertex
100
AcDb2dVertex
 10
160.8027821989771
 20
141.64946051186305
 30
0.0
  0
VERTEX
  5
191
100
AcDbEntity
  8
0
370
              25
  6
Continuous
 62
               7
100
AcDbVertex
100
AcDb2dVertex
 10
161.08707842292711
 20
141.75569654101307
 30
0.0
  0
VERTEX
  5
192
100
AcDbEntity
  8
0
370
              25
  6
Continuous
 62
               7
100
AcDbVertex
100
AcDb2dVertex
 10
161.3854780189271
 20
142.03893561776306
 30
0.0
  0
VERTEX
  5
193
100
AcDbEntity
  8
0
370
              25
  6
Continuous
 62
               7
100
AcDbVertex
100
AcDb2dVertex
 10
161.67380647912711
 20
142.47623144676305
 30
0.0
  0
VERTEX
  5
194
100
AcDbEntity
  8
0
370
              25
  6
Continuous
 62
               7
100
AcDbVertex
100
AcDb2dVertex
 10
161.92870511877712
 20
143.03215689826305
 30
0.0
  0
VERTEX
  5
195
100
AcDbEntity
  8
0
370
              25
  6
Continuous
 62
               7
100
AcDbVertex
100
AcDb2dVertex
 10
162.02709010402711
 20
143.31000561356308
 30
0.0
  0
SEQEND
  5
196
100
AcDbEntity
  8
0
370
              25
  6
Continuous
 62
               7
  0
POLYLINE
  5
197
100
AcDbEntity
  8
0
370
              25
  6
Continuous
 62
               7
100
AcDb2dPolyline
 66
               1
 10
0.0
 20
0.0
 30
0.0
 75
               5
  0
VERTEX
  5
198
100
AcDbEntity
  8
0
370
              25
  6
Continuous
 62
               7
100
AcDbVertex
100
AcDb2dVertex
 10
162.2328145375271
 20
144.14082127011307
 30
0.0
  0
VERTEX
  5
199
100
AcDbEntity
  8
0
370
              25
  6
Continuous
 62
               7
100
AcDbVertex
100
AcDb2dVertex
 10
162.25999269412711
 20
144.31378356736306
 30
0.0
  0
VERTEX
  5
19A
100
AcDbEntity
  8
0
370
              25
  6
Continuous
 62
               7
100
AcDbVertex
100
AcDb2dVertex
 10
162.3095426448771
 20
144.93565507106308
 30
0.0
  0
SEQEND
  5
19B
100
AcDbEntity
  8
0
370
              25
  6
Continuous
 62
               7
  0
POLYLINE
  5
19C
100
AcDbEntity
  8
0
370
              25
  6
Continuous
 62
               7
100
AcDb2dPolyline
 66
               1
 10
0.0
 20
0.0
 30
0.0
 75
               5
  0
VERTEX
  5
19D
100
AcDbEntity
  8
0
370
              25
  6
Continuous
 62
               7
100
AcDbVertex
100
AcDb2dVertex
 10
131.1326721464271
 20
141.66967758466308
 30
0.0
  0
VERTEX
  5
19E
100
AcDbEntity
  8
0
370
              25
  6
Continuous
 62
               7
100
AcDbVertex
100
AcDb2dVertex
 10
131.10776918862709
 20
141.67738273696307
 30
0.0
  0
VERTEX
  5
19F
100
AcDbEntity
  8
0
370
              25
  6
Continuous
 62
               7
100
AcDbVertex
100
AcDb2dVertex
 10
131.0863954185771
 20
141.68723281416305
 30
0.0
  0
VERTEX
  5
1A0
100
AcDbEntity
  8
0
370
              25
  6
Continuous
 62
               7
100
AcDbVertex
100
AcDb2dVertex
 10
131.0693718069771
 20
141.69884899976307
 30
0.0
  0
VERTEX
  5
1A1
100
AcDbEntity
  8
0
370
              25
  6
Continuous
 62
               7
100
AcDbVertex
100
AcDb2dVertex
 10
131.05735186487709
 20
141.71178529381308
 30
0.0
  0
VERTEX
  5
1A2
100
AcDbEntity
  8
0
370
              25
  6
Continuous
 62
               7
100
AcDbVertex
100
AcDb2dVertex
 10
131.05079828192709
 20
141.72554424276308
 30
0.0
  0
VERTEX
  5
1A3
100
AcDbEntity
  8
0
370
              25
  6
Continuous
 62
               7
100
AcDbVertex
100
AcDb2dVertex
 10
131.0496011762271
 20
141.73502216621307
 30
0.0
  0
SEQEND
  5
1A4
100
AcDbEntity
  8
0
370
              25
  6
Continuous
 62
               7
  0
ARC
  5
1A5
100
AcDbEntity
  8
0
370
              25
  6
Continuous
 62
               7
100
AcDbCircle
 10
164.4431657447771
 20
141.37674247241307
 30
0.0
 40
0.0432263211800646
100
AcDbArc
 50
309.38407676299482
 51
357.35132824590403
  0
LINE
  5
1A6
100
AcDbEntity
  8
0
370
              25
  6
Continuous
 62
               7
100
AcDbLine
 10
160.93397308387711
 20
145.55267000311306
 30
0.0
 11
160.99550906607709
 21
145.49825849261308
 31
0.0
  0
LINE
  5
1A7
100
AcDbEntity
  8
0
370
              25
  6
Continuous
 62
               7
100
AcDbLine
 10
160.28832410287711
 20
142.68275605471308
 30
0.0
 11
160.21951957792712
 21
142.66735893156306
 31
0.0
  0
ARC
  5
1A8
100
AcDbEntity
  8
0
370
              25
  6
Continuous
 62
               8
100
AcDbCircle
 10
154.24923797957709
 20
255.00488672706308
 30
0.0
 40
0.1272959702470369
100
AcDbArc
 50
82.808624404997374
 51
140.97642306290041
  0
ARC
  5
1A9
100
AcDbEntity
  8
0
370
              25
  6
Continuous
 62
               8
100
AcDbCircle
 10
154.50100144442709
 20
254.64642505046305
 30
0.0
 40
0.1441107566515975
100
AcDbArc
 50
309.38777698590138
 51
357.34701833619789
  0
ARC
  5
1AA
100
AcDbEntity
  8
0
370
              25
  6
Continuous
 62
               8
100
AcDbCircle
 10
137.24594917262709
 20
259.21519828976307
 30
0.0
 40
0.1272959702470651
100
AcDbArc
 50
82.808624404998966
 51
140.97642306289848
  0
ARC
  5
1AB
100
AcDbEntity
  8
0
370
              25
  6
Continuous
 62
               8
100
AcDbCircle
 10
154.2870274724271
 20
237.07846140586304
 30
0.0
 40
0.1441107566515885
100
AcDbArc
 50
309.38777698589701
 51
357.34701833619789
  0
ARC
  5
1AC
100
AcDbEntity
  8
0
370
              25
  6
Continuous
 62
               8
100
AcDbCircle
 10
137.0416176794771
 20
258.94038960521306
 30
0.0
 40
0.3702878253027448
100
AcDbArc
 50
73.456504695401662
 51
131.24717797980119
  0
ARC
  5
1AD
100
AcDbEntity
  8
0
370
              25
  6
Continuous
 62
               8
100
AcDbCircle
 10
154.03364677407711
 20
236.96134335806306
 30
0.0
 40
0.3448761935507662
100
AcDbArc
 50
314.46926947750035
 51
0.9535415977000525
  0
POLYLINE
  5
1AE
100
AcDbEntity
  8
0
370
              25
  6
Continuous
 62
               8
100
AcDb2dPolyline
 66
               1
 10
0.0
 20
0.0
 30
0.0
 75
               5
  0
VERTEX
  5
1AF
100
AcDbEntity
  8
0
370
              25
  6
Continuous
 62
               8
100
AcDbVertex
100
AcDb2dVertex
 10
147.04458336362711
 20
239.05811544376309
 30
0.0
  0
VERTEX
  5
1B0
100
AcDbEntity
  8
0
370
              25
  6
Continuous
 62
               8
100
AcDbVertex
100
AcDb2dVertex
 10
147.1179678868271
 20
239.13041351936306
 30
0.0
  0
VERTEX
  5
1B1
100
AcDbEntity
  8
0
370
              25
  6
Continuous
 62
               8
100
AcDbVertex
100
AcDb2dVertex
 10
147.69241791177711
 20
239.83369915916307
 30
0.0
  0
VERTEX
  5
1B2
100
AcDbEntity
  8
0
370
              25
  6
Continuous
 62
               8
100
AcDbVertex
100
AcDb2dVertex
 10
148.1300646993771
 20
240.64574535881309
 30
0.0
  0
VERTEX
  5
1B3
100
AcDbEntity
  8
0
370
              25
  6
Continuous
 62
               8
100
AcDbVertex
100
AcDb2dVertex
 10
148.42065009767711
 20
241.54750218936306
 30
0.0
  0
VERTEX
  5
1B4
100
AcDbEntity
  8
0
370
              25
  6
Continuous
 62
               8
100
AcDbVertex
100
AcDb2dVertex
 10
148.55736294202711
 20
242.51785178981305
 30
0.0
  0
VERTEX
  5
1B5
100
AcDbEntity
  8
0
370
              25
  6
Continuous
 62
               8
100
AcDbVertex
100
AcDb2dVertex
 10
148.53699848612709
 20
243.53403495501306
 30
0.0
  0
VERTEX
  5
1B6
100
AcDbEntity
  8
0
370
              25
  6
Continuous
 62
               8
100
AcDbVertex
100
AcDb2dVertex
 10
148.36003499167711
 20
244.57224265221305
 30
0.0
  0
VERTEX
  5
1B7
100
AcDbEntity
  8
0
370
              25
  6
Continuous
 62
               8
100
AcDbVertex
100
AcDb2dVertex
 10
148.0306195260271
 20
245.60813155406305
 30
0.0
  0
VERTEX
  5
1B8
100
AcDbEntity
  8
0
370
              25
  6
Continuous
 62
               8
100
AcDbVertex
100
AcDb2dVertex
 10
147.55647337592711
 20
246.61743168366309
 30
0.0
  0
VERTEX
  5
1B9
100
AcDbEntity
  8
0
370
              25
  6
Continuous
 62
               8
100
AcDbVertex
100
AcDb2dVertex
 10
146.94871041982711
 20
247.57647714816306
 30
0.0
  0
VERTEX
  5
1BA
100
AcDbEntity
  8
0
370
              25
  6
Continuous
 62
               8
100
AcDbVertex
100
AcDb2dVertex
 10
146.22157596737711
 20
248.46279595156307
 30
0.0
  0
VERTEX
  5
1BB
100
AcDbEntity
  8
0
370
              25
  6
Continuous
 62
               8
100
AcDbVertex
100
AcDb2dVertex
 10
145.39211352922709
 20
249.25559949571306
 30
0.0
  0
VERTEX
  5
1BC
100
AcDbEntity
  8
0
370
              25
  6
Continuous
 62
               8
100
AcDbVertex
100
AcDb2dVertex
 10
144.47976476432711
 20
249.93632801396308
 30
0.0
  0
VERTEX
  5
1BD
100
AcDbEntity
  8
0
370
              25
  6
Continuous
 62
               8
100
AcDbVertex
100
AcDb2dVertex
 10
143.5059144725771
 20
250.48899955376305
 30
0.0
  0
VERTEX
  5
1BE
100
AcDbEntity
  8
0
370
              25
  6
Continuous
 62
               8
100
AcDbVertex
100
AcDb2dVertex
 10
142.49338909977709
 20
250.90068862896305
 30
0.0
  0
VERTEX
  5
1BF
100
AcDbEntity
  8
0
370
              25
  6
Continuous
 62
               8
100
AcDbVertex
100
AcDb2dVertex
 10
141.4659210532771
 20
251.16172450746308
 30
0.0
  0
VERTEX
  5
1C0
100
AcDbEntity
  8
0
370
              25
  6
Continuous
 62
               8
100
AcDbVertex
100
AcDb2dVertex
 10
140.44759340172709
 20
251.26598625696306
 30
0.0
  0
VERTEX
  5
1C1
100
AcDbEntity
  8
0
370
              25
  6
Continuous
 62
               8
100
AcDbVertex
100
AcDb2dVertex
 10
139.46227516402709
 20
251.21105570576304
 30
0.0
  0
VERTEX
  5
1C2
100
AcDbEntity
  8
0
370
              25
  6
Continuous
 62
               8
100
AcDbVertex
100
AcDb2dVertex
 10
138.5330608252271
 20
250.99818555641309
 30
0.0
  0
VERTEX
  5
1C3
100
AcDbEntity
  8
0
370
              25
  6
Continuous
 62
               8
100
AcDbVertex
100
AcDb2dVertex
 10
137.6817308767771
 20
250.63239357941308
 30
0.0
  0
VERTEX
  5
1C4
100
AcDbEntity
  8
0
370
              25
  6
Continuous
 62
               8
100
AcDbVertex
100
AcDb2dVertex
 10
136.9282396317771
 20
250.12224809486304
 30
0.0
  0
VERTEX
  5
1C5
100
AcDbEntity
  8
0
370
              25
  6
Continuous
 62
               8
100
AcDbVertex
100
AcDb2dVertex
 10
136.89279878497709
 20
250.09258324916306
 30
0.0
  0
SEQEND
  5
1C6
100
AcDbEntity
  8
0
370
              25
  6
Continuous
 62
               8
  0
SPLINE
  5
1C7
100
AcDbEntity
  8
0
370
              25
  6
Continuous
 62
               8
100
AcDbSpline
210
0.0
220
0.0
230
1.0
 70
               8
 71
               2
 72
              16
 73
              13
 74
               0
 42
0.000001
 43
0.000001
 40
0.0
 40
0.0
 40
0.0
 40
1.0
 40
1.0
 40
2.0
 40
3.0
 40
4.0
 40
5.0
 40
6.0
 40
7.0
 40
8.0
 40
8.0
 40
9.0
 40
9.0
 40
9.0
 10
134.39292485920186
 20
256.79818946015479
 30
0.0
 10
134.39303171517915
 20
256.79832817330396
 30
0.0
 10
134.39313857115644
 20
256.79846688645318
 30
0.0
 10
134.39886821291381
 20
256.80599709439059
 30
0.0
 10
134.4287929338914
 20
256.8422333660809
 30
0.0
 10
134.48869592727044
 20
256.87013130509746
 30
0.0
 10
134.54337848326441
 20
256.88269338256606
 30
0.0
 10
134.60026891977674
 20
256.8866797856324
 30
0.0
 10
134.65801285514777
 20
256.88443959048215
 30
0.0
 10
134.70898778179668
 20
256.87946229217937
 30
0.0
 10
134.7327023768716
 20
256.87683062314443
 30
0.0
 10
134.73361430894556
 20
256.87673053396196
 30
0.0
 10
134.73452624101949
 20
256.87663044477949
 30
0.0
  0
SPLINE
  5
1C8
100
AcDbEntity
  8
0
370
              25
  6
Continuous
 62
               8
100
AcDbSpline
210
0.0
220
0.0
230
1.0
 70
               8
 71
               2
 72
              16
 73
              13
 74
               0
 42
0.000001
 43
0.000001
 40
0.0
 40
0.0
 40
0.0
 40
1.0
 40
1.0
 40
2.0
 40
3.0
 40
4.0
 40
5.0
 40
6.0
 40
7.0
 40
8.0
 40
8.0
 40
9.0
 40
9.0
 40
9.0
 10
133.8273515334707
 20
255.1170847443596
 30
0.0
 10
133.82739391411835
 20
255.11686031646673
 30
0.0
 10
133.82743629476596
 20
255.1166358885738
 30
0.0
 10
133.82974687678842
 20
255.10270145953308
 30
0.0
 10
133.83984919967037
 20
255.06903145595987
 30
0.0
 10
133.86308242016327
 20
255.04309642899449
 30
0.0
 10
133.88541637509775
 20
255.02325994481123
 30
0.0
 10
133.92360914231216
 20
254.99913167756097
 30
0.0
 10
133.96783599391341
 20
254.97809394117462
 30
0.0
 10
134.03780982077345
 20
254.9517320803738
 30
0.0
 10
134.08803596461723
 20
254.93580064521586
 30
0.0
 10
134.08883998884602
 20
254.93554005745628
 30
0.0
 10
134.0896440130748
 20
254.9352794696967
 30
0.0
  0
SPLINE
  5
1C9
100
AcDbEntity
  8
0
370
              25
  6
Continuous
 62
               8
100
AcDbSpline
210
0.0
220
0.0
230
1.0
 70
               8
 71
               2
 72
              16
 73
              13
 74
               0
 42
0.000001
 43
0.000001
 40
0.0
 40
0.0
 40
0.0
 40
1.0
 40
1.0
 40
2.0
 40
3.0
 40
4.0
 40
5.0
 40
6.0
 40
7.0
 40
8.0
 40
8.0
 40
9.0
 40
9.0
 40
9.0
 10
133.89847924859714
 20
239.24002643639921
 30
0.0
 10
133.89763571055084
 20
239.24029731372713
 30
0.0
 10
133.89679217250455
 20
239.24056819105505
 30
0.0
 10
133.86115415659003
 20
239.25183200379638
 30
0.0
 10
133.8022941000113
 20
239.27234601683483
 30
0.0
 10
133.7293354451725
 20
239.3030913473649
 30
0.0
 10
133.67737041000714
 20
239.34312572161315
 30
0.0
 10
133.64430547006043
 20
239.38085461426169
 30
0.0
 10
133.63185689142176
 20
239.41893725288298
 30
0.0
 10
133.62721642484314
 20
239.44441977090202
 30
0.0
 10
133.62542721499346
 20
239.45721113512496
 30
0.0
 10
133.6253657202991
 20
239.45763733868475
 30
0.0
 10
133.62530422560471
 20
239.45806354224453
 30
0.0
  0
SPLINE
  5
1CA
100
AcDbEntity
  8
0
370
              25
  6
Continuous
 62
               8
100
AcDbSpline
210
0.0
220
0.0
230
1.0
 70
               8
 71
               2
 72
              15
 73
              12
 74
               0
 42
0.000001
 43
0.000001
 40
0.0
 40
0.0
 40
0.0
 40
1.0
 40
1.0
 40
2.0
 40
3.0
 40
4.0
 40
5.0
 40
6.0
 40
7.0
 40
7.0
 40
8.0
 40
8.0
 40
8.0
 10
151.84851109360852
 20
234.69445221076734
 30
0.0
 10
151.84840104103012
 20
234.69359137639987
 30
0.0
 10
151.84829098845174
 20
234.69273054203245
 30
0.0
 10
151.84508832235969
 20
234.6668374861726
 30
0.0
 10
151.83744484480016
 20
234.61590289163206
 30
0.0
 10
151.82784991872958
 20
234.57754863641657
 30
0.0
 10
151.80894543483814
 20
234.52211786686786
 30
0.0
 10
151.76641952928009
 20
234.47025843009993
 30
0.0
 10
151.73575243730451
 20
234.43948995583577
 30
0.0
 10
151.71990671517597
 20
234.42445796068688
 30
0.0
 10
151.71938031105057
 20
234.42395566546432
 30
0.0
 10
151.71885390692518
 20
234.42345337024176
 30
0.0
  0
SPLINE
  5
1CB
100
AcDbEntity
  8
0
370
              25
  6
Continuous
 62
               8
100
AcDbSpline
210
0.0
220
0.0
230
1.0
 70
               8
 71
               2
 72
              17
 73
              14
 74
               0
 42
0.000001
 43
0.000001
 40
0.0
 40
0.0
 40
0.0
 40
1.0
 40
1.0
 40
2.0
 40
3.0
 40
4.0
 40
5.0
 40
6.0
 40
7.0
 40
8.0
 40
9.0
 40
9.0
 40
10.0
 40
10.0
 40
10.0
 10
151.07689553064679
 20
234.25264621371974
 30
0.0
 10
151.07577101868597
 20
234.25301127472633
 30
0.0
 10
151.07464650672514
 20
234.25337633573292
 30
0.0
 10
151.04078223444148
 20
234.26392200915149
 30
0.0
 10
150.97466101874289
 20
234.29002989320236
 30
0.0
 10
150.91254177794062
 20
234.33532476350246
 30
0.0
 10
150.84741369638391
 20
234.42059253241814
 30
0.0
 10
150.79020110026667
 20
234.57037425552562
 30
0.0
 10
150.75822788810498
 20
234.75292592443941
 30
0.0
 10
150.74652835095276
 20
234.90293178420256
 30
0.0
 10
150.74063891514263
 20
235.00559887542715
 30
0.0
 10
150.73774802655919
 20
235.06393265719805
 30
0.0
 10
150.73758571963583
 20
235.06717106878403
 30
0.0
 10
150.73742341271245
 20
235.07040948037002
 30
0.0
  0
SPLINE
  5
1CC
100
AcDbEntity
  8
0
370
              25
  6
Continuous
 62
               8
100
AcDbSpline
210
0.0
220
0.0
230
1.0
 70
               8
 71
               2
 72
              16
 73
              13
 74
               0
 42
0.000001
 43
0.000001
 40
0.0
 40
0.0
 40
0.0
 40
1.0
 40
1.0
 40
2.0
 40
3.0
 40
4.0
 40
5.0
 40
6.0
 40
7.0
 40
8.0
 40
8.0
 40
9.0
 40
9.0
 40
9.0
 10
133.89847924859714
 20
239.24002643639921
 30
0.0
 10
133.89862816556928
 20
239.23679528725444
 30
0.0
 10
133.89877708254141
 20
239.23356413810967
 30
0.0
 10
133.90345608300785
 20
239.12309896616233
 30
0.0
 10
133.91730171947469
 20
238.92289647239136
 30
0.0
 10
133.94719189617592
 20
238.74060588167868
 30
0.0
 10
134.00020475975546
 20
238.59110903107501
 30
0.0
 10
134.06012529578655
 20
238.50889275372742
 30
0.0
 10
134.11421671657783
 20
238.46862961898785
 30
0.0
 10
134.1694209404497
 20
238.445674909442
 30
0.0
 10
134.19764108820465
 20
238.43630024730811
 30
0.0
 10
134.19857960571841
 20
238.43598040916532
 30
0.0
 10
134.19951812323214
 20
238.43566057102254
 30
0.0
  0
ARC
  5
1CD
100
AcDbEntity
  8
0
370
              25
  6
Continuous
 62
               8
100
AcDbCircle
 10
140.2731156974771
 20
245.21927802206307
 30
0.0
 40
4.0204552536553022
100
AcDbArc
 50
73.826427266800067
 51
144.58521245879996
  0
POLYLINE
  5
1CE
100
AcDbEntity
  8
0
370
              25
  6
Continuous
 62
               8
100
AcDb2dPolyline
 66
               1
 10
0.0
 20
0.0
 30
0.0
 75
               5
  0
VERTEX
  5
1CF
100
AcDbEntity
  8
0
370
              25
  6
Continuous
 62
               8
100
AcDbVertex
100
AcDb2dVertex
 10
143.0253714192271
 20
238.95123593716306
 30
0.0
  0
VERTEX
  5
1D0
100
AcDbEntity
  8
0
370
              25
  6
Continuous
 62
               8
100
AcDbVertex
100
AcDb2dVertex
 10
143.67364915422709
 20
239.05903390886306
 30
0.0
  0
VERTEX
  5
1D1
100
AcDbEntity
  8
0
370
              25
  6
Continuous
 62
               8
100
AcDbVertex
100
AcDb2dVertex
 10
144.45131570392709
 20
239.34138501751306
 30
0.0
  0
VERTEX
  5
1D2
100
AcDbEntity
  8
0
370
              25
  6
Continuous
 62
               8
100
AcDbVertex
100
AcDb2dVertex
 10
145.13199836082711
 20
239.77581422251308
 30
0.0
  0
VERTEX
  5
1D3
100
AcDbEntity
  8
0
370
              25
  6
Continuous
 62
               8
100
AcDbVertex
100
AcDb2dVertex
 10
145.69381920742711
 20
240.34836102571307
 30
0.0
  0
VERTEX
  5
1D4
100
AcDbEntity
  8
0
370
              25
  6
Continuous
 62
               8
100
AcDbVertex
100
AcDb2dVertex
 10
146.11872100882709
 20
241.04061351781309
 30
0.0
  0
VERTEX
  5
1D5
100
AcDbEntity
  8
0
370
              25
  6
Continuous
 62
               8
100
AcDbVertex
100
AcDb2dVertex
 10
146.39304745197711
 20
241.83033272571305
 30
0.0
  0
VERTEX
  5
1D6
100
AcDbEntity
  8
0
370
              25
  6
Continuous
 62
               8
100
AcDbVertex
100
AcDb2dVertex
 10
146.5079803995271
 20
242.69212549406308
 30
0.0
  0
VERTEX
  5
1D7
100
AcDbEntity
  8
0
370
              25
  6
Continuous
 62
               8
100
AcDbVertex
100
AcDb2dVertex
 10
146.4598270009771
 20
243.59829895961309
 30
0.0
  0
VERTEX
  5
1D8
100
AcDbEntity
  8
0
370
              25
  6
Continuous
 62
               8
100
AcDbVertex
100
AcDb2dVertex
 10
146.25013437787709
 20
244.51973146421307
 30
0.0
  0
VERTEX
  5
1D9
100
AcDbEntity
  8
0
370
              25
  6
Continuous
 62
               8
100
AcDbVertex
100
AcDb2dVertex
 10
145.8856419451771
 20
245.42679680041306
 30
0.0
  0
VERTEX
  5
1DA
100
AcDbEntity
  8
0
370
              25
  6
Continuous
 62
               8
100
AcDbVertex
100
AcDb2dVertex
 10
145.37806561552711
 20
246.29034977866309
 30
0.0
  0
VERTEX
  5
1DB
100
AcDbEntity
  8
0
370
              25
  6
Continuous
 62
               8
100
AcDbVertex
100
AcDb2dVertex
 10
144.7437185417771
 20
247.08264067736309
 30
0.0
  0
VERTEX
  5
1DC
100
AcDbEntity
  8
0
370
              25
  6
Continuous
 62
               8
100
AcDbVertex
100
AcDb2dVertex
 10
144.00298950532709
 20
247.77819273461307
 30
0.0
  0
VERTEX
  5
1DD
100
AcDbEntity
  8
0
370
              25
  6
Continuous
 62
               8
100
AcDbVertex
100
AcDb2dVertex
 10
143.17968600847709
 20
248.35464749886307
 30
0.0
  0
VERTEX
  5
1DE
100
AcDbEntity
  8
0
370
              25
  6
Continuous
 62
               8
100
AcDbVertex
100
AcDb2dVertex
 10
142.3002698179271
 20
248.79349239506308
 30
0.0
  0
VERTEX
  5
1DF
100
AcDbEntity
  8
0
370
              25
  6
Continuous
 62
               8
100
AcDbVertex
100
AcDb2dVertex
 10
141.39300606172711
 20
249.08061276781308
 30
0.0
  0
SEQEND
  5
1E0
100
AcDbEntity
  8
0
370
              25
  6
Continuous
 62
               8
  0
ARC
  5
1E1
100
AcDbEntity
  8
0
370
              25
  6
Continuous
 62
               8
100
AcDbCircle
 10
140.39044895837711
 20
245.19301847721306
 30
0.0
 40
4.2049739483804975
100
AcDbArc
 50
74.505108761900146
 51
130.06949477559996
  0
POLYLINE
  5
1E2
100
AcDbEntity
  8
0
370
              25
  6
Continuous
 62
               8
100
AcDb2dPolyline
 66
               1
 10
0.0
 20
0.0
 30
0.0
 75
               5
  0
VERTEX
  5
1E3
100
AcDbEntity
  8
0
370
              25
  6
Continuous
 62
               8
100
AcDbVertex
100
AcDb2dVertex
 10
145.4251931127271
 20
239.96388374651309
 30
0.0
  0
VERTEX
  5
1E4
100
AcDbEntity
  8
0
370
              25
  6
Continuous
 62
               8
100
AcDbVertex
100
AcDb2dVertex
 10
145.8571311287271
 20
240.42661227596307
 30
0.0
  0
VERTEX
  5
1E5
100
AcDbEntity
  8
0
370
              25
  6
Continuous
 62
               8
100
AcDbVertex
100
AcDb2dVertex
 10
146.28623173727709
 20
241.12570881031309
 30
0.0
  0
VERTEX
  5
1E6
100
AcDbEntity
  8
0
370
              25
  6
Continuous
 62
               8
100
AcDbVertex
100
AcDb2dVertex
 10
146.56326887282711
 20
241.92322476761308
 30
0.0
  0
VERTEX
  5
1E7
100
AcDbEntity
  8
0
370
              25
  6
Continuous
 62
               8
100
AcDbVertex
100
AcDb2dVertex
 10
146.67933802407711
 20
242.79353893626308
 30
0.0
  0
VERTEX
  5
1E8
100
AcDbEntity
  8
0
370
              25
  6
Continuous
 62
               8
100
AcDbVertex
100
AcDb2dVertex
 10
146.63070842262709
 20
243.70865931941307
 30
0.0
  0
VERTEX
  5
1E9
100
AcDbEntity
  8
0
370
              25
  6
Continuous
 62
               8
100
AcDbVertex
100
AcDb2dVertex
 10
146.41894366727709
 20
244.63920417066305
 30
0.0
  0
VERTEX
  5
1EA
100
AcDbEntity
  8
0
370
              25
  6
Continuous
 62
               8
100
AcDbVertex
100
AcDb2dVertex
 10
146.05084959582709
 20
245.55523544101305
 30
0.0
  0
VERTEX
  5
1EB
100
AcDbEntity
  8
0
370
              25
  6
Continuous
 62
               8
100
AcDbVertex
100
AcDb2dVertex
 10
145.5382572822771
 20
246.42731685236305
 30
0.0
  0
VERTEX
  5
1EC
100
AcDbEntity
  8
0
370
              25
  6
Continuous
 62
               8
100
AcDbVertex
100
AcDb2dVertex
 10
144.89764177577709
 20
247.22743540816305
 30
0.0
  0
VERTEX
  5
1ED
100
AcDbEntity
  8
0
370
              25
  6
Continuous
 62
               8
100
AcDbVertex
100
AcDb2dVertex
 10
144.14959287687711
 20
247.92985451261308
 30
0.0
  0
VERTEX
  5
1EE
100
AcDbEntity
  8
0
370
              25
  6
Continuous
 62
               8
100
AcDbVertex
100
AcDb2dVertex
 10
143.3181535550271
 20
248.51201299341307
 30
0.0
  0
VERTEX
  5
1EF
100
AcDbEntity
  8
0
370
              25
  6
Continuous
 62
               8
100
AcDbVertex
100
AcDb2dVertex
 10
142.43004724867711
 20
248.95520219491306
 30
0.0
  0
VERTEX
  5
1F0
100
AcDbEntity
  8
0
370
              25
  6
Continuous
 62
               8
100
AcDbVertex
100
AcDb2dVertex
 10
141.51381806422711
 20
249.24515960981307
 30
0.0
  0
SEQEND
  5
1F1
100
AcDbEntity
  8
0
370
              25
  6
Continuous
 62
               8
  0
LINE
  5
1F2
100
AcDbEntity
  8
0
370
              25
  6
Continuous
 62
               8
100
AcDbLine
 10
161.1855456411771
 20
144.58750793541307
 30
0.0
 11
161.39946638167712
 21
144.53453742026306
 31
0.0
  0
LINE
  5
1F3
100
AcDbEntity
  8
0
370
              25
  6
Continuous
 62
               8
100
AcDbLine
 10
161.16059192437712
 20
143.24940894986307
 30
0.0
 11
160.91166545662711
 21
143.31104749506306
 31
0.0
  0
LINE
  5
1F4
100
AcDbEntity
  8
0
370
              25
  6
Continuous
 62
               8
100
AcDbLine
 10
161.61341576417709
 20
143.66768158766308
 30
0.0
 11
161.1513620001771
 21
143.78209417731307
 31
0.0
  0
MTEXT
  5
1F5
100
AcDbEntity
  8
0
 62
               7
100
AcDbMText
 10
204.78707298078322
 20
75.530364452657508
 30
0.0
 40
3.0316840277777768
 41
0.0
 71
               1
 72
               1
  1
HEC-081P
  7
Arial
 73
               1
 44
0.9673603504928806
  0
ENDSEC
  0
SECTION
  2
OBJECTS
  0
DICTIONARY
  5
19
100
AcDbDictionary
280
               0
281
               1
  3
ACAD_GROUP
350
1A
  3
ACAD_MLINESTYLE
350
1B
  3
ACAD_LAYOUT
350
1E
  3
ACAD_PLOTSETTINGS
350
22
  3
ACAD_PLOTSTYLENAME
350
1F
  3
ACAD_WIPEOUT_VARS
350
23
  0
DICTIONARY
  5
1A
102
{ACAD_REACTORS
330
19
102
}
100
AcDbDictionary
280
               0
281
               1
  0
DICTIONARY
  5
1B
102
{ACAD_REACTORS
330
19
102
}
100
AcDbDictionary
280
               0
281
               1
  3
Standard
350
1C
  0
MLINESTYLE
  5
1C
102
{ACAD_REACTORS
330
1B
102
}
100
AcDbMlineStyle
  2
Standard
 70
               0
  3

 62
               0
 51
90.0
 52
90.0
 71
               2
 49
0.5
 62
             256
  6
ByLayer
 49
-0.5
 62
             256
  6
ByLayer
  0
ACDBDICTIONARYWDFLT
  5
1F
102
{ACAD_REACTORS
330
19
102
}
100
AcDbDictionary
281
               1
  3
Normal
350
1D
100
AcDbDictionaryWithDefault
340
1D
  0
ACDBPLACEHOLDER
  5
1D
102
{ACAD_REACTORS
330
1F
102
}
  0
LAYOUT
  5
20
102
{ACAD_REACTORS
330
1E
102
}
100
AcDbPlotSettings
  1

  2

  4

  6

 40
0.0
 41
0.0
 42
0.0
 43
0.0
 44
0.0
 45
0.0
 46
0.0
 47
0.0
 48
0.0
 49
0.0
140
0.0
141
0.0
142
1.0
143
1.0
 70
            1024
 72
               0
 73
               0
 74
               0
  7

 75
               0
147
1.0
148
0.0
149
0.0
100
AcDbLayout
  1
Model
 70
               0
 71
               0
 10
0.0
 20
0.0
 11
0.0
 21
0.0
 12
0.0
 22
0.0
 32
0.0
 14
0.0
 24
0.0
 34
0.0
 15
0.0
 25
0.0
 35
0.0
146
0.0
 13
0.0
 23
0.0
 33
0.0
 16
0.0
 26
0.0
 36
0.0
 17
0.0
 27
0.0
 37
0.0
 76
               0
330
A
331
0
345
0
346
0
  0
LAYOUT
  5
21
102
{ACAD_REACTORS
330
1E
102
}
100
AcDbPlotSettings
  1

  2

  4

  6

 40
0.0
 41
0.0
 42
0.0
 43
0.0
 44
0.0
 45
0.0
 46
0.0
 47
0.0
 48
0.0
 49
0.0
140
0.0
141
0.0
142
1.0
143
1.0
 70
               0
 72
               0
 73
               0
 74
               0
  7

 75
               0
147
1.0
148
0.0
149
0.0
100
AcDbLayout
  1
Layout1
 70
               0
 71
               0
 10
0.0
 20
0.0
 11
0.0
 21
0.0
 12
0.0
 22
0.0
 32
0.0
 14
0.0
 24
0.0
 34
0.0
 15
0.0
 25
0.0
 35
0.0
146
0.0
 13
0.0
 23
0.0
 33
0.0
 16
0.0
 26
0.0
 36
0.0
 17
0.0
 27
0.0
 37
0.0
 76
               0
330
B
331
0
345
0
346
0
  0
DICTIONARY
  5
1E
102
{ACAD_REACTORS
330
19
102
}
100
AcDbDictionary
280
               0
281
               1
  3
Layout1
350
21
  3
Model
350
20
  0
DICTIONARY
  5
22
102
{ACAD_REACTORS
330
19
102
}
100
AcDbDictionary
280
               0
281
               1
  0
WIPEOUTVARIABLES
  5
23
100
AcDbWipeoutVariables
 70
               1
  0
ENDSEC
  0
EOF
