  0
SECTION
  2
HEADER
  9
$ACADVER
  1
AC1015
  9
$ACADMAINTVER
 70
               6
  9
$DWGCODEPAGE
  3
ANSI_932
  9
$INSBASE
 10
0.0
 20
0.0
 30
0.0
  9
$EXTMIN
 10
180.42354775420696
 20
110.24833333333333
 30
0.0
  9
$EXTMAX
 10
263.6609998385112
 20
205.31337042054372
 30
0.0
  9
$LIMMIN
 10
0.0
 20
0.0
  9
$LIMMAX
 10
0.0
 20
0.0
  9
$ORTHOMODE
 70
               0
  9
$REGENMODE
 70
               1
  9
$FILLMODE
 70
               1
  9
$QTEXTMODE
 70
               0
  9
$MIRRTEXT
 70
               1
  9
$LTSCALE
 40
12.699999999999999
  9
$ATTMODE
 70
               1
  9
$TEXTSIZE
 40
0.2
  9
$TRACEWID
 40
1.0
  9
$TEXTSTYLE
  7
Standard
  9
$CLAYER
  8
0
  9
$CELTYPE
  6
Continuous
  9
$CECOLOR
 62
             256
  9
$CELTSCALE
 40
1.0
  9
$DISPSILH
 70
               0
  9
$DIMSCALE
 40
1.0
  9
$DIMASZ
 40
0.18
  9
$DIMEXO
 40
0.0625
  9
$DIMDLI
 40
0.38
  9
$DIMRND
 40
0.0
  9
$DIMDLE
 40
0.0
  9
$DIMEXE
 40
0.18
  9
$DIMTP
 40
0.0
  9
$DIMTM
 40
0.0
  9
$DIMTXT
 40
0.18
  9
$DIMCEN
 40
0.09
  9
$DIMTSZ
 40
0.0
  9
$DIMTOL
 70
               0
  9
$DIMLIM
 70
               0
  9
$DIMTIH
 70
               1
  9
$DIMTOH
 70
               1
  9
$DIMSE1
 70
               0
  9
$DIMSE2
 70
               0
  9
$DIMTAD
 70
               0
  9
$DIMZIN
 70
               0
  9
$DIMBLK
  1

  9
$DIMASO
 70
               1
  9
$DIMSHO
 70
               1
  9
$DIMPOST
  1

  9
$DIMAPOST
  1

  9
$DIMALT
 70
               0
  9
$DIMALTD
 70
               2
  9
$DIMALTF
 40
25.399999999999999
  9
$DIMLFAC
 40
1.0
  9
$DIMTOFL
 70
               0
  9
$DIMTVP
 40
0.0
  9
$DIMTIX
 70
               0
  9
$DIMSOXD
 70
               0
  9
$DIMSAH
 70
               0
  9
$DIMBLK1
  1

  9
$DIMBLK2
  1

  9
$DIMSTYLE
  2
Standard
  9
$DIMCLRD
 70
               0
  9
$DIMCLRE
 70
               0
  9
$DIMCLRT
 70
               0
  9
$DIMTFAC
 40
1.0
  9
$DIMGAP
 40
0.09
  9
$DIMJUST
 70
               0
  9
$DIMSD1
 70
               0
  9
$DIMSD2
 70
               0
  9
$DIMTOLJ
 70
               1
  9
$DIMTZIN
 70
               0
  9
$DIMALTZ
 70
               0
  9
$DIMALTTZ
 70
               0
  9
$DIMUPT
 70
               0
  9
$DIMDEC
 70
               4
  9
$DIMTDEC
 70
               4
  9
$DIMALTU
 70
               2
  9
$DIMALTTD
 70
               2
  9
$DIMTXSTY
  7
Standard
  9
$DIMAUNIT
 70
               0
  9
$DIMADEC
 70
               0
  9
$DIMALTRND
 40
0.0
  9
$DIMAZIN
 70
               0
  9
$DIMDSEP
 70
               0
  9
$DIMATFIT
 70
               3
  9
$DIMFRAC
 70
               0
  9
$DIMLDRBLK
  1

  9
$DIMLUNIT
 70
               2
  9
$DIMLWD
 70
               0
  9
$DIMLWE
 70
               0
  9
$DIMTMOVE
 70
               0
  9
$LUNITS
 70
               2
  9
$LUPREC
 70
               4
  9
$SKETCHINC
 40
0.1
  9
$FILLETRAD
 40
0.0
  9
$AUNITS
 70
               0
  9
$AUPREC
 70
               0
  9
$MENU
  1
acad
  9
$ELEVATION
 40
0.0
  9
$PELEVATION
 40
0.0
  9
$THICKNESS
 40
0.0
  9
$LIMCHECK
 70
               0
  9
$CHAMFERA
 40
0.0
  9
$CHAMFERB
 40
0.0
  9
$CHAMFERC
 40
0.0
  9
$CHAMFERD
 40
0.0
  9
$SKPOLY
 70
               0
  9
$TDCREATE
 40
2458072.644629630
  9
$TDUCREATE
 40
0.000000000
  9
$TDUPDATE
 40
2458072.644629630
  9
$TDUUPDATE
 40
0.000000000
  9
$TDINDWG
 40
0.0000000000
  9
$TDUSRTIMER
 40
0.0000000000
  9
$USRTIMER
 70
               1
  9
$ANGBASE
 50
0.0
  9
$ANGDIR
 70
               0
  9
$PDMODE
 70
               1
  9
$PDSIZE
 40
-2.0
  9
$PLINEWID
 40
0.0
  9
$SPLFRAME
 70
               0
  9
$SPLINETYPE
 70
               6
  9
$SPLINESEGS
 70
               8
  9
$HANDSEED
  5
3F5
  9
$SURFTAB1
 70
               6
  9
$SURFTAB2
 70
               6
  9
$SURFTYPE
 70
               6
  9
$SURFU
 70
               6
  9
$SURFV
 70
               6
  9
$UCSBASE
  2

  9
$UCSNAME
  2

  9
$UCSORG
 10
0.0
 20
0.0
 30
0.0
  9
$UCSXDIR
 10
1.0
 20
0.0
 30
0.0
  9
$UCSYDIR
 10
0.0
 20
1.0
 30
0.0
  9
$UCSORTHOREF
  2

  9
$UCSORTHOVIEW
 70
               0
  9
$UCSORGTOP
 10
0.0
 20
0.0
 30
0.0
  9
$UCSORGBOTTOM
 10
0.0
 20
0.0
 30
0.0
  9
$UCSORGLEFT
 10
0.0
 20
0.0
 30
0.0
  9
$UCSORGRIGHT
 10
0.0
 20
0.0
 30
0.0
  9
$UCSORGFRONT
 10
0.0
 20
0.0
 30
0.0
  9
$UCSORGBACK
 10
0.0
 20
0.0
 30
0.0
  9
$PUCSBASE
  2

  9
$PUCSNAME
  2

  9
$PUCSORG
 10
0.0
 20
0.0
 30
0.0
  9
$PUCSXDIR
 10
1.0
 20
0.0
 30
0.0
  9
$PUCSYDIR
 10
0.0
 20
1.0
 30
0.0
  9
$PUCSORTHOREF
  2

  9
$PUCSORTHOVIEW
 70
               0
  9
$PUCSORGTOP
 10
0.0
 20
0.0
 30
0.0
  9
$PUCSORGBOTTOM
 10
0.0
 20
0.0
 30
0.0
  9
$PUCSORGLEFT
 10
0.0
 20
0.0
 30
0.0
  9
$PUCSORGRIGHT
 10
0.0
 20
0.0
 30
0.0
  9
$PUCSORGFRONT
 10
0.0
 20
0.0
 30
0.0
  9
$PUCSORGBACK
 10
0.0
 20
0.0
 30
0.0
  9
$USERI1
 70
               0
  9
$USERI2
 70
               0
  9
$USERI3
 70
               0
  9
$USERI4
 70
               0
  9
$USERI5
 70
               0
  9
$USERR1
 40
0.0
  9
$USERR2
 40
0.0
  9
$USERR3
 40
0.0
  9
$USERR4
 40
0.0
  9
$USERR5
 40
0.0
  9
$WORLDVIEW
 70
               1
  9
$SHADEDGE
 70
               3
  9
$SHADEDIF
 70
              70
  9
$TILEMODE
 70
               1
  9
$MAXACTVP
 70
              16
  9
$PINSBASE
 10
0.0
 20
0.0
 30
0.0
  9
$PLIMCHECK
 70
               0
  9
$PEXTMIN
 10
1.0000000000000000E+20
 20
1.0000000000000000E+20
 30
1.0000000000000000E+20
  9
$PEXTMAX
 10
-1.0000000000000000E+20
 20
-1.0000000000000000E+20
 30
-1.0000000000000000E+20
  9
$PLIMMIN
 10
0.0
 20
0.0
  9
$PLIMMAX
 10
12.0
 20
9.0
  9
$UNITMODE
 70
               0
  9
$VISRETAIN
 70
               0
  9
$PLINEGEN
 70
               1
  9
$PSLTSCALE
 70
               0
  9
$TREEDEPTH
 70
            3020
  9
$CMLSTYLE
  2
Standard
  9
$CMLJUST
 70
               0
  9
$CMLSCALE
 40
1.0
  9
$PROXYGRAPHICS
 70
               0
  9
$MEASUREMENT
 70
               1
  9
$CELWEIGHT
370
               0
  9
$ENDCAPS
280
               0
  9
$JOINSTYLE
280
               0
  9
$LWDISPLAY
290
               1
  9
$INSUNITS
 70
               4
  9
$HYPERLINKBASE
  1

  9
$STYLESHEET
  1

  9
$XEDIT
290
               1
  9
$CEPSNTYPE
380
               0
  9
$PSTYLEMODE
290
               1
  9
$FINGERPRINTGUID
  2

  9
$VERSIONGUID
  2

  9
$EXTNAMES
290
               1
  9
$PSVPSCALE
 40
0.0
  0
ENDSEC
  0
SECTION
  2
CLASSES
  0
CLASS
  1
LWPOLYLINE
  2
AcDbPolyline
  3
AutoCAD 2000
 90
    32768
280
               0
281
               1
  0
CLASS
  1
IMAGE
  2
AcDbRasterImage
  3
ISM
 90
    32895
280
               0
281
               1
  0
CLASS
  1
OLE2FRAME
  2
AcDbOle2Frame
  3
AutoCAD 2000
 90
    32768
280
               0
281
               1
  0
CLASS
  1
HATCH
  2
AcDbHatch
  3
AutoCAD 2000
 90
    32768
280
               0
281
               1
  0
CLASS
  1
DICTIONARYVAR
  2
AcDbDictionaryVar
  3
AutoCAD 2000
 90
    32768
280
               0
281
               0
  0
CLASS
  1
RASTERVARIABLES
  2
AcDbRasterVariables
  3
ISM
 90
    32768
280
               0
281
               0
  0
CLASS
  1
IMAGEDEF
  2
AcDbRasterImageDef
  3
ISM
 90
    32768
280
               0
281
               0
  0
CLASS
  1
IMAGEDEF_REACTOR
  2
AcDbRasterImageDefReactor
  3
ISM
 90
    32769
280
               0
281
               0
  0
CLASS
  1
IDBUFFER
  2
AcDbIdBuffer
  3
AutoCAD 2000
 90
    32768
280
               0
281
               0
  0
CLASS
  1
SPATIAL_FILTER
  2
AcDbSpatialFilter
  3
AutoCAD 2000
 90
    32768
280
               0
281
               0
  0
CLASS
  1
XRECORD
  2
AcDbXrecord
  3
AutoCAD 2000
 90
    32768
280
               0
281
               0
  0
CLASS
  1
SORTENTSTABLE
  2
AcDbSortentsTable
  3
AutoCAD 2000
 90
    32768
280
               0
281
               0
  0
CLASS
  1
LAYER_INDEX
  2
AcDbLayerIndex
  3
AutoCAD 2000
 90
    32768
280
               0
281
               0
  0
CLASS
  1
SPATIAL_INDEX
  2
AcDbSpatialIndex
  3
AutoCAD 2000
 90
    32768
280
               0
281
               0
  0
CLASS
  1
OBJECT_PTR
  2
CAseDLPNTableRecord
  3
"ASE-LPNTableRecord"
 90
    32769
280
               0
281
               0
  0
CLASS
  1
LAYOUT
  2
AcDbLayout
  3
AutoCAD 2000
 90
        0
280
               0
281
               0
  0
CLASS
  1
PLOTSETTINGS
  2
AcDbPlotSettings
  3
AutoCAD 2000
 90
    32768
280
               0
281
               0
  0
CLASS
  1
ACDBDICTIONARYWDFLT
  2
AcDbDictionaryWithDefault
  3
AutoCAD 2000
 90
        0
280
               0
281
               0
  0
CLASS
  1
ACDBPLACEHOLDER
  2
AcDbPlaceHolder
  3
AutoCAD 2000
 90
        0
280
               0
281
               0
  0
CLASS
  1
VBA_PROJECT
  2
AcDbVbaProject
  3
acadvba
 90
    32768
280
               0
281
               0
  0
CLASS
  1
WIPEOUT
  2
AcDbWipeout
  3
WipeOut|AutoCAD Express Tool|expresstools@autodesk.com
 90
    32895
280
               0
281
               1
  0
CLASS
  1
WIPEOUTVARIABLES
  2
AcDbWipeoutVariables
  3
WipeOut|AutoCAD Express Tool|expresstools@autodesk.com
 90
        0
280
               0
281
               0
  0
CLASS
  1
RTEXT
  2
RText
  3
RText|AutoCAD Express Tool|expresstools@autodesk.com
 90
    32768
280
               0
281
               1
  0
CLASS
  1
ARCALIGNEDTEXT
  2
AcDbArcAlignedText
  3
ATEXT|AutoCAD Express Tool|expresstools@autodesk.com
 90
    32768
280
               0
281
               1
  0
ENDSEC
  0
SECTION
  2
TABLES
  0
TABLE
  2
VPORT
  5
7
100
AcDbSymbolTable
 70
               1
  0
VPORT
  5
15
100
AcDbSymbolTableRecord
100
AcDbViewportTableRecord
  2
*ACTIVE
 70
               0
 10
0.0
 20
0.0
 11
1.0
 21
1.0
 12
222.0422737963591
 22
157.78085187693853
 13
0.0
 23
0.0
 14
1.0
 24
1.0
 15
0.0
 25
0.0
 16
0.0
 26
0.0
 36
1.0
 17
0.0
 27
0.0
 37
0.0
 40
95.065037087210385
 41
0.688564
 42
50.0
 43
0.0
 44
0.0
 50
0.0
 51
0.0
 71
               0
 72
             100
 73
               1
 74
               1
 75
               0
 76
               0
 77
               0
 78
               0
281
               0
 65
               0
110
0.0
120
0.0
130
0.0
111
1.0
121
0.0
131
0.0
112
0.0
122
1.0
132
0.0
345
0
346
0
 79
               0
146
0.0
  0
ENDTAB
  0
TABLE
  2
LTYPE
  5
4
100
AcDbSymbolTable
 70
              13
  0
LTYPE
  5
11
100
AcDbSymbolTableRecord
100
AcDbLinetypeTableRecord
  2
ByBlock
 70
              64
  3

 72
              65
 73
               0
 40
0.0
  0
LTYPE
  5
12
100
AcDbSymbolTableRecord
100
AcDbLinetypeTableRecord
  2
ByLayer
 70
              64
  3

 72
              65
 73
               0
 40
0.0
  0
LTYPE
  5
13
100
AcDbSymbolTableRecord
100
AcDbLinetypeTableRecord
  2
Continuous
 70
              64
  3
Solid line
 72
              65
 73
               0
 40
0.0
  0
LTYPE
  5
25
100
AcDbSymbolTableRecord
100
AcDbLinetypeTableRecord
  2
STYLE_01
 70
               0
  3

 72
              65
 73
               2
 40
0.15
 49
0.1
 74
               0
 49
-0.05
 74
               0
  0
LTYPE
  5
26
100
AcDbSymbolTableRecord
100
AcDbLinetypeTableRecord
  2
STYLE_02
 70
               0
  3

 72
              65
 73
               6
 40
0.9999999999999999
 49
0.4999999999999999
 74
               0
 49
-0.1
 74
               0
 49
0.1
 74
               0
 49
-0.1
 74
               0
 49
0.1
 74
               0
 49
-0.1
 74
               0
  0
LTYPE
  5
27
100
AcDbSymbolTableRecord
100
AcDbLinetypeTableRecord
  2
STYLE_03
 70
               0
  3

 72
              65
 73
               4
 40
0.7999999999999999
 49
0.4999999999999999
 74
               0
 49
-0.1
 74
               0
 49
0.1
 74
               0
 49
-0.1
 74
               0
  0
LTYPE
  5
28
100
AcDbSymbolTableRecord
100
AcDbLinetypeTableRecord
  2
STYLE_04
 70
               0
  3

 72
              65
 73
               4
 40
1.5999999999999999
 49
0.9999999999999999
 74
               0
 49
-0.2000000000000001
 74
               0
 49
0.2
 74
               0
 49
-0.2
 74
               0
  0
LTYPE
  5
29
100
AcDbSymbolTableRecord
100
AcDbLinetypeTableRecord
  2
STYLE_05
 70
               0
  3

 72
              65
 73
               2
 40
0.05
 49
0.0002
 74
               0
 49
-0.0498
 74
               0
  0
LTYPE
  5
2A
100
AcDbSymbolTableRecord
100
AcDbLinetypeTableRecord
  2
STYLE_06
 70
               0
  3

 72
              65
 73
               4
 40
0.416656
 49
0.25
 74
               0
 49
-0.083312
 74
               0
 49
0.027772
 74
               0
 49
-0.055572
 74
               0
  0
LTYPE
  5
2B
100
AcDbSymbolTableRecord
100
AcDbLinetypeTableRecord
  2
STYLE_07
 70
               0
  3

 72
              65
 73
               6
 40
0.75
 49
0.25
 74
               0
 49
-0.083312
 74
               0
 49
0.2500000000000001
 74
               0
 49
-0.083344
 74
               0
 49
0.027772
 74
               0
 49
-0.055572
 74
               0
  0
LTYPE
  5
2C
100
AcDbSymbolTableRecord
100
AcDbLinetypeTableRecord
  2
STYLE_08
 70
               0
  3

 72
              65
 73
               6
 40
0.5
 49
0.25
 74
               0
 49
-0.083312
 74
               0
 49
0.027772
 74
               0
 49
-0.055572
 74
               0
 49
0.027772
 74
               0
 49
-0.055572
 74
               0
  0
LTYPE
  5
2D
100
AcDbSymbolTableRecord
100
AcDbLinetypeTableRecord
  2
STYLE_09
 70
               0
  3

 72
              65
 73
               4
 40
2.0
 49
1.5
 74
               0
 49
-0.1111139999999999
 74
               0
 49
0.2777720000000001
 74
               0
 49
-0.1111139999999999
 74
               0
  0
LTYPE
  5
2E
100
AcDbSymbolTableRecord
100
AcDbLinetypeTableRecord
  2
STYLE_10
 70
               0
  3

 72
              65
 73
               6
 40
2.375
 49
1.5
 74
               0
 49
-0.1111139999999999
 74
               0
 49
0.2777720000000001
 74
               0
 49
-0.1111139999999999
 74
               0
 49
0.25
 74
               0
 49
-0.125
 74
               0
  0
ENDTAB
  0
TABLE
  2
LAYER
  5
2
100
AcDbSymbolTable
 70
               6
  0
LAYER
  5
14
100
AcDbSymbolTableRecord
100
AcDbLayerTableRecord
  2
0
 70
               0
 62
               7
  6
Continuous
290
               1
370
              15
390
1D
  0
LAYER
  5
2F
100
AcDbSymbolTableRecord
100
AcDbLayerTableRecord
  2
Defpoints
 70
               0
 62
               7
  6
Continuous
290
               0
370
              -3
390
1D
  0
LAYER
  5
30
100
AcDbSymbolTableRecord
100
AcDbLayerTableRecord
  2
一般
 70
               0
 62
               7
  6
Continuous
290
               1
370
               5
390
1D
  0
LAYER
  5
31
100
AcDbSymbolTableRecord
100
AcDbLayerTableRecord
  2
寸法
 70
               0
 62
               7
  6
Continuous
290
               1
370
               5
390
1D
  0
LAYER
  5
32
100
AcDbSymbolTableRecord
100
AcDbLayerTableRecord
  2
レイヤー_1
 70
               0
 62
              19
  6
Continuous
290
               1
370
              15
390
1D
  0
LAYER
  5
33
100
AcDbSymbolTableRecord
100
AcDbLayerTableRecord
  2
FORMAT
 70
               0
 62
               7
  6
Continuous
290
               1
370
              15
390
1D
  0
ENDTAB
  0
TABLE
  2
STYLE
  5
3
100
AcDbSymbolTable
 70
               2
  0
STYLE
  5
17
100
AcDbSymbolTableRecord
100
AcDbTextStyleTableRecord
  2
Standard
 70
               0
 40
0.0
 41
1.0
 50
0.0
 71
               0
 42
0.0
  3
txt
  4
BIGFONT.SHX
  0
STYLE
  5
24
100
AcDbSymbolTableRecord
100
AcDbTextStyleTableRecord
  2
Arial
 70
               0
 40
0.0
 41
1.0
 50
0.0
 71
               0
 42
0.0
  3
Arial
  4

1001
ACAD
1000
Arial
1071
        0
  0
ENDTAB
  0
TABLE
  2
VIEW
  5
5
100
AcDbSymbolTable
 70
               0
  0
ENDTAB
  0
TABLE
  2
UCS
  5
6
100
AcDbSymbolTable
 70
               0
  0
ENDTAB
  0
TABLE
  2
APPID
  5
8
100
AcDbSymbolTable
 70
               1
  0
APPID
  5
16
100
AcDbSymbolTableRecord
100
AcDbRegAppTableRecord
  2
ACAD
 70
               0
  0
ENDTAB
  0
TABLE
  2
DIMSTYLE
  5
9
100
AcDbSymbolTable
 70
               1
100
AcDbDimStyleTable
 71
               0
  0
DIMSTYLE
105
18
100
AcDbSymbolTableRecord
100
AcDbDimStyleTableRecord
  2
Standard
 70
               0
  3

  4

 40
1.0
 41
0.18
 42
0.0625
 43
0.38
 44
0.18
 45
0.0
 46
0.0
 47
0.0
 48
0.0
 71
               0
 72
               0
 73
               1
 74
               1
 75
               0
 76
               0
 77
               0
 78
               0
 79
               0
140
0.18
141
0.09
142
0.0
143
25.399999999999999
144
1.0
145
0.0
146
1.0
147
0.09
148
0.0
170
               0
171
               2
172
               0
173
               0
174
               0
175
               0
176
               0
177
               0
178
               0
179
               0
271
               4
272
               4
273
               2
274
               2
275
               0
276
               0
277
               2
278
              46
279
               0
280
               0
281
               0
282
               0
283
               1
284
               0
285
               0
286
               0
288
               0
340
17
341
0
342
0
343
0
344
0
371
              -2
372
              -2
  0
ENDTAB
  0
TABLE
  2
BLOCK_RECORD
  5
1
100
AcDbSymbolTable
 70
               0
  0
BLOCK_RECORD
  5
A
100
AcDbSymbolTableRecord
100
AcDbBlockTableRecord
  2
*MODEL_SPACE
340
20
  0
BLOCK_RECORD
  5
B
100
AcDbSymbolTableRecord
100
AcDbBlockTableRecord
  2
*PAPER_SPACE
340
21
  0
ENDTAB
  0
ENDSEC
  0
SECTION
  2
BLOCKS
  0
BLOCK
  5
D
100
AcDbEntity
  8
0
100
AcDbBlockBegin
  2
*MODEL_SPACE
 70
               0
 10
0.0
 20
0.0
 30
0.0
  3
*MODEL_SPACE
  1

  0
ENDBLK
  5
E
100
AcDbEntity
  8
0
100
AcDbBlockEnd
  0
BLOCK
  5
F
100
AcDbEntity
 67
               1
  8
0
100
AcDbBlockBegin
  2
*PAPER_SPACE
 70
               0
 10
0.0
 20
0.0
 30
0.0
  3
*PAPER_SPACE
  1

  0
ENDBLK
  5
10
100
AcDbEntity
 67
               1
  8
0
100
AcDbBlockEnd
  0
ENDSEC
  0
SECTION
  2
ENTITIES
  0
LINE
  5
34
100
AcDbEntity
  8
0
370
              25
  6
Continuous
 62
               7
100
AcDbLine
 10
216.7247282159
 20
198.40650775110001
 30
0.0
 11
207.50840291329999
 21
204.2970219771
 31
0.0
  0
LINE
  5
35
100
AcDbEntity
  8
0
370
              25
  6
Continuous
 62
               7
100
AcDbLine
 10
198.9924177131
 20
202.72269013260001
 30
0.0
 11
192.49119073279999
 21
193.92650586440001
 31
0.0
  0
SPLINE
  5
36
100
AcDbEntity
  8
0
370
              25
  6
Continuous
 62
               7
100
AcDbSpline
210
0.0
220
0.0
230
1.0
 70
               8
 71
               2
 72
              14
 73
              11
 74
               0
 42
0.000001
 43
0.000001
 40
0.0
 40
0.0
 40
0.0
 40
1.0
 40
1.0
 40
2.0
 40
3.0
 40
4.0
 40
5.0
 40
6.0
 40
6.0
 40
7.0
 40
7.0
 40
7.0
 10
185.8619545808229
 20
184.95030503084001
 30
0.0
 10
185.85663943255514
 20
184.94315206305865
 30
0.0
 10
185.85132428428741
 20
184.93599909527728
 30
0.0
 10
183.90243586406652
 20
182.31455903017968
 30
0.0
 10
181.89419991682351
 20
177.57115123489899
 30
0.0
 10
180.42354775420696
 20
172.09582351381124
 30
0.0
 10
180.51227168807793
 20
166.42454680866896
 30
0.0
 10
180.85768469739756
 20
164.17711014144311
 30
0.0
 10
180.93011680216932
 20
163.81844617936221
 30
0.0
 10
180.9304185756842
 20
163.81695039509634
 30
0.0
 10
180.93072034919911
 20
163.8154546108305
 30
0.0
  0
SPLINE
  5
37
100
AcDbEntity
  8
0
370
              25
  6
Continuous
 62
               7
100
AcDbSpline
210
0.0
220
0.0
230
1.0
 70
               8
 71
               2
 72
              13
 73
              10
 74
               0
 42
0.000001
 43
0.000001
 40
0.0
 40
0.0
 40
0.0
 40
1.0
 40
1.0
 40
2.0
 40
3.0
 40
4.0
 40
5.0
 40
5.0
 40
6.0
 40
6.0
 40
6.0
 10
238.28387998531281
 20
174.41849737666641
 30
0.0
 10
238.28257972151118
 20
174.42576920015392
 30
0.0
 10
238.28127945770953
 20
174.43304102364144
 30
0.0
 10
238.0204106279073
 20
175.88267373477794
 30
0.0
 10
236.45453283524307
 20
181.08582109255406
 30
0.0
 10
232.24512692127013
 20
187.45470559636507
 30
0.0
 10
227.92557007136935
 20
191.23981965360798
 30
0.0
 10
226.14960626031854
 20
192.38136233153537
 30
0.0
 10
226.13841947962587
 20
192.38862902210408
 30
0.0
 10
226.1272326989332
 20
192.3958957126728
 30
0.0
  0
LINE
  5
38
100
AcDbEntity
  8
0
370
              25
  6
Continuous
 62
               7
100
AcDbLine
 10
222.86574592170001
 20
194.48154297709999
 30
0.0
 11
218.2591150074
 21
197.42582109700001
 31
0.0
  0
LINE
  5
39
100
AcDbEntity
  8
0
370
              25
  6
Continuous
 62
               7
100
AcDbLine
 10
191.40882911040001
 20
192.46206656620001
 30
0.0
 11
188.15929611269999
 21
188.06543634240001
 31
0.0
  0
LINE
  5
3A
100
AcDbEntity
  8
0
370
              25
  6
Continuous
 62
               7
100
AcDbLine
 10
226.12975922379999
 20
192.395384323
 30
0.0
 11
224.40013271340001
 21
193.50085632310001
 31
0.0
  0
LINE
  5
3B
100
AcDbEntity
  8
0
370
              25
  6
Continuous
 62
               7
100
AcDbLine
 10
187.0769344901
 20
186.60099704429999
 30
0.0
 11
185.85685011090001
 21
184.95021834440001
 31
0.0
  0
SPLINE
  5
3C
100
AcDbEntity
  8
0
370
              25
  6
Continuous
 62
               7
100
AcDbSpline
210
0.0
220
0.0
230
1.0
 70
               8
 71
               2
 72
              17
 73
              14
 74
               0
 42
0.000001
 43
0.000001
 40
0.0
 40
0.0
 40
0.0
 40
1.0
 40
1.0
 40
2.0
 40
3.0
 40
4.0
 40
5.0
 40
6.0
 40
7.0
 40
8.0
 40
9.0
 40
9.0
 40
10.0
 40
10.0
 40
10.0
 10
207.50111149740729
 20
204.30107675301289
 30
0.0
 10
207.50094902400062
 20
204.30118774102294
 30
0.0
 10
207.50078655059394
 20
204.30129872903302
 30
0.0
 10
207.18451946715012
 20
204.50473255882989
 30
0.0
 10
206.08259075005535
 20
205.03408854561405
 30
0.0
 10
204.58077269977497
 20
205.31337042054372
 30
0.0
 10
203.37129448110835
 20
205.27639380580962
 30
0.0
 10
202.11080583444496
 20
205.02528519731405
 30
0.0
 10
200.80093492959216
 20
204.41718632592239
 30
0.0
 10
199.68351948578982
 20
203.56208782522629
 30
0.0
 10
199.10168041977516
 20
202.87667456440499
 30
0.0
 10
198.99886016886646
 20
202.72930757688042
 30
0.0
 10
198.99855663158152
 20
202.72887181692496
 30
0.0
 10
198.99825309429659
 20
202.72843605696951
 30
0.0
  0
LINE
  5
3D
100
AcDbEntity
  8
0
370
              25
  6
Continuous
 62
               7
100
AcDbLine
 10
180.92917079239999
 20
163.8155968012
 30
0.0
 11
181.76079264399999
 21
159.34882366869999
 31
0.0
  0
LINE
  5
3E
100
AcDbEntity
  8
0
370
              25
  6
Continuous
 62
               7
100
AcDbLine
 10
239.10803172990001
 20
169.9504842593
 30
0.0
 11
238.2877408727
 21
174.41935212819999
 31
0.0
  0
LINE
  5
3F
100
AcDbEntity
  8
0
370
              25
  6
Continuous
 62
               7
100
AcDbLine
 10
191.39731615490001
 20
148.7796375776
 30
0.0
 11
192.81701843580001
 21
141.15419099670001
 31
0.0
  0
LINE
  5
40
100
AcDbEntity
  8
0
370
              25
  6
Continuous
 62
               7
100
AcDbLine
 10
235.28744286919999
 20
149.00560690009999
 30
0.0
 11
233.88708428219999
 21
156.63462950810001
 31
0.0
  0
LINE
  5
41
100
AcDbEntity
  8
0
370
              25
  6
Continuous
 62
               7
100
AcDbLine
 10
195.52807796120001
 20
136.25264688710001
 30
0.0
 11
198.43453780089999
 21
133.38030444770001
 31
0.0
  0
LINE
  5
42
100
AcDbEntity
  8
0
370
              25
  6
Continuous
 62
               7
100
AcDbLine
 10
232.82050231189999
 20
139.7371636554
 30
0.0
 11
234.50795260250001
 21
143.45877236749999
 31
0.0
  0
POLYLINE
  5
43
100
AcDbEntity
  8
0
370
              25
  6
Continuous
 62
               7
100
AcDb2dPolyline
 66
               1
 10
0.0
 20
0.0
 30
0.0
 75
               5
  0
VERTEX
  5
44
100
AcDbEntity
  8
0
370
              25
  6
Continuous
 62
               7
100
AcDbVertex
100
AcDb2dVertex
 10
194.82882472
 20
183.63403025490001
 30
0.0
  0
VERTEX
  5
45
100
AcDbEntity
  8
0
370
              25
  6
Continuous
 62
               7
100
AcDbVertex
100
AcDb2dVertex
 10
195.32807070370001
 20
183.3672531652
 30
0.0
  0
VERTEX
  5
46
100
AcDbEntity
  8
0
370
              25
  6
Continuous
 62
               7
100
AcDbVertex
100
AcDb2dVertex
 10
195.85151954139999
 20
183.1189774636
 30
0.0
  0
VERTEX
  5
47
100
AcDbEntity
  8
0
370
              25
  6
Continuous
 62
               7
100
AcDbVertex
100
AcDb2dVertex
 10
196.39792967029999
 20
182.8897920327
 30
0.0
  0
VERTEX
  5
48
100
AcDbEntity
  8
0
370
              25
  6
Continuous
 62
               7
100
AcDbVertex
100
AcDb2dVertex
 10
196.96600506589999
 20
182.68024047509999
 30
0.0
  0
VERTEX
  5
49
100
AcDbEntity
  8
0
370
              25
  6
Continuous
 62
               7
100
AcDbVertex
100
AcDb2dVertex
 10
197.5543983163
 20
182.4908198238
 30
0.0
  0
VERTEX
  5
4A
100
AcDbEntity
  8
0
370
              25
  6
Continuous
 62
               7
100
AcDbVertex
100
AcDb2dVertex
 10
198.16171381749999
 20
182.3219793637
 30
0.0
  0
VERTEX
  5
4B
100
AcDbEntity
  8
0
370
              25
  6
Continuous
 62
               7
100
AcDbVertex
100
AcDb2dVertex
 10
198.78651108439999
 20
182.1741195658
 30
0.0
  0
VERTEX
  5
4C
100
AcDbEntity
  8
0
370
              25
  6
Continuous
 62
               7
100
AcDbVertex
100
AcDb2dVertex
 10
199.4273081668
 20
182.0475911371
 30
0.0
  0
VERTEX
  5
4D
100
AcDbEntity
  8
0
370
              25
  6
Continuous
 62
               7
100
AcDbVertex
100
AcDb2dVertex
 10
200.0825851649
 20
181.9426941891
 30
0.0
  0
VERTEX
  5
4E
100
AcDbEntity
  8
0
370
              25
  6
Continuous
 62
               7
100
AcDbVertex
100
AcDb2dVertex
 10
200.75078783390001
 20
181.85967752580001
 30
0.0
  0
VERTEX
  5
4F
100
AcDbEntity
  8
0
370
              25
  6
Continuous
 62
               7
100
AcDbVertex
100
AcDb2dVertex
 10
201.43033127109999
 20
181.79873805349999
 30
0.0
  0
VERTEX
  5
50
100
AcDbEntity
  8
0
370
              25
  6
Continuous
 62
               7
100
AcDbVertex
100
AcDb2dVertex
 10
202.1196036744
 20
181.76002031389999
 30
0.0
  0
VERTEX
  5
51
100
AcDbEntity
  8
0
370
              25
  6
Continuous
 62
               7
100
AcDbVertex
100
AcDb2dVertex
 10
202.81697016589999
 20
181.74361614119999
 30
0.0
  0
VERTEX
  5
52
100
AcDbEntity
  8
0
370
              25
  6
Continuous
 62
               7
100
AcDbVertex
100
AcDb2dVertex
 10
203.52077666930001
 20
181.74956444430001
 30
0.0
  0
VERTEX
  5
53
100
AcDbEntity
  8
0
370
              25
  6
Continuous
 62
               7
100
AcDbVertex
100
AcDb2dVertex
 10
204.2293538333
 20
181.77785111450001
 30
0.0
  0
VERTEX
  5
54
100
AcDbEntity
  8
0
370
              25
  6
Continuous
 62
               7
100
AcDbVertex
100
AcDb2dVertex
 10
204.9410209911
 20
181.82840905890001
 30
0.0
  0
VERTEX
  5
55
100
AcDbEntity
  8
0
370
              25
  6
Continuous
 62
               7
100
AcDbVertex
100
AcDb2dVertex
 10
205.65409014700001
 20
181.90111835979999
 30
0.0
  0
VERTEX
  5
56
100
AcDbEntity
  8
0
370
              25
  6
Continuous
 62
               7
100
AcDbVertex
100
AcDb2dVertex
 10
206.36686997960001
 20
181.99580655849999
 30
0.0
  0
VERTEX
  5
57
100
AcDbEntity
  8
0
370
              25
  6
Continuous
 62
               7
100
AcDbVertex
100
AcDb2dVertex
 10
207.07766985390001
 20
182.11224906519999
 30
0.0
  0
VERTEX
  5
58
100
AcDbEntity
  8
0
370
              25
  6
Continuous
 62
               7
100
AcDbVertex
100
AcDb2dVertex
 10
207.78480383120001
 20
182.2501696912
 30
0.0
  0
VERTEX
  5
59
100
AcDbEntity
  8
0
370
              25
  6
Continuous
 62
               7
100
AcDbVertex
100
AcDb2dVertex
 10
208.48659466780001
 20
182.40924130389999
 30
0.0
  0
VERTEX
  5
5A
100
AcDbEntity
  8
0
370
              25
  6
Continuous
 62
               7
100
AcDbVertex
100
AcDb2dVertex
 10
209.18137779329999
 20
182.58908660309999
 30
0.0
  0
VERTEX
  5
5B
100
AcDbEntity
  8
0
370
              25
  6
Continuous
 62
               7
100
AcDbVertex
100
AcDb2dVertex
 10
209.86750525900001
 20
182.78927901559999
 30
0.0
  0
VERTEX
  5
5C
100
AcDbEntity
  8
0
370
              25
  6
Continuous
 62
               7
100
AcDbVertex
100
AcDb2dVertex
 10
210.54334964629999
 20
183.009343707
 30
0.0
  0
VERTEX
  5
5D
100
AcDbEntity
  8
0
370
              25
  6
Continuous
 62
               7
100
AcDbVertex
100
AcDb2dVertex
 10
211.20730792699999
 20
183.24875870829999
 30
0.0
  0
VERTEX
  5
5E
100
AcDbEntity
  8
0
370
              25
  6
Continuous
 62
               7
100
AcDbVertex
100
AcDb2dVertex
 10
211.85780526529999
 20
183.5069561535
 30
0.0
  0
VERTEX
  5
5F
100
AcDbEntity
  8
0
370
              25
  6
Continuous
 62
               7
100
AcDbVertex
100
AcDb2dVertex
 10
212.49329875359999
 20
183.7833236269
 30
0.0
  0
VERTEX
  5
60
100
AcDbEntity
  8
0
370
              25
  6
Continuous
 62
               7
100
AcDbVertex
100
AcDb2dVertex
 10
213.1122810713
 20
184.0772056152
 30
0.0
  0
VERTEX
  5
61
100
AcDbEntity
  8
0
370
              25
  6
Continuous
 62
               7
100
AcDbVertex
100
AcDb2dVertex
 10
213.713284061
 20
184.38790506289999
 30
0.0
  0
VERTEX
  5
62
100
AcDbEntity
  8
0
370
              25
  6
Continuous
 62
               7
100
AcDbVertex
100
AcDb2dVertex
 10
214.29488220979999
 20
184.71468502530001
 30
0.0
  0
VERTEX
  5
63
100
AcDbEntity
  8
0
370
              25
  6
Continuous
 62
               7
100
AcDbVertex
100
AcDb2dVertex
 10
214.85569603120001
 20
185.0567704163
 30
0.0
  0
VERTEX
  5
64
100
AcDbEntity
  8
0
370
              25
  6
Continuous
 62
               7
100
AcDbVertex
100
AcDb2dVertex
 10
215.39439533679999
 20
185.41334984720001
 30
0.0
  0
VERTEX
  5
65
100
AcDbEntity
  8
0
370
              25
  6
Continuous
 62
               7
100
AcDbVertex
100
AcDb2dVertex
 10
215.9097023914
 20
185.78357755100001
 30
0.0
  0
VERTEX
  5
66
100
AcDbEntity
  8
0
370
              25
  6
Continuous
 62
               7
100
AcDbVertex
100
AcDb2dVertex
 10
216.40039494359999
 20
186.16657538839999
 30
0.0
  0
VERTEX
  5
67
100
AcDbEntity
  8
0
370
              25
  6
Continuous
 62
               7
100
AcDbVertex
100
AcDb2dVertex
 10
216.86530912469999
 20
186.56143493100001
 30
0.0
  0
VERTEX
  5
68
100
AcDbEntity
  8
0
370
              25
  6
Continuous
 62
               7
100
AcDbVertex
100
AcDb2dVertex
 10
217.30334220989999
 20
186.96721961559999
 30
0.0
  0
VERTEX
  5
69
100
AcDbEntity
  8
0
370
              25
  6
Continuous
 62
               7
100
AcDbVertex
100
AcDb2dVertex
 10
217.7134552329
 20
187.3829669655
 30
0.0
  0
VERTEX
  5
6A
100
AcDbEntity
  8
0
370
              25
  6
Continuous
 62
               7
100
AcDbVertex
100
AcDb2dVertex
 10
218.094675451
 20
187.80769087420001
 30
0.0
  0
VERTEX
  5
6B
100
AcDbEntity
  8
0
370
              25
  6
Continuous
 62
               7
100
AcDbVertex
100
AcDb2dVertex
 10
218.44609865199999
 20
188.24038394339999
 30
0.0
  0
VERTEX
  5
6C
100
AcDbEntity
  8
0
370
              25
  6
Continuous
 62
               7
100
AcDbVertex
100
AcDb2dVertex
 10
218.7668912988
 20
188.6800198729
 30
0.0
  0
VERTEX
  5
6D
100
AcDbEntity
  8
0
370
              25
  6
Continuous
 62
               7
100
AcDbVertex
100
AcDb2dVertex
 10
219.0562925067
 20
189.12555589499999
 30
0.0
  0
VERTEX
  5
6E
100
AcDbEntity
  8
0
370
              25
  6
Continuous
 62
               7
100
AcDbVertex
100
AcDb2dVertex
 10
219.3136158481
 20
189.57593524730001
 30
0.0
  0
VERTEX
  5
6F
100
AcDbEntity
  8
0
370
              25
  6
Continuous
 62
               7
100
AcDbVertex
100
AcDb2dVertex
 10
219.53825098039999
 20
190.0300896798
 30
0.0
  0
VERTEX
  5
70
100
AcDbEntity
  8
0
370
              25
  6
Continuous
 62
               7
100
AcDbVertex
100
AcDb2dVertex
 10
219.7296650939
 20
190.48694198839999
 30
0.0
  0
VERTEX
  5
71
100
AcDbEntity
  8
0
370
              25
  6
Continuous
 62
               7
100
AcDbVertex
100
AcDb2dVertex
 10
219.8874041755
 20
190.94540856980001
 30
0.0
  0
VERTEX
  5
72
100
AcDbEntity
  8
0
370
              25
  6
Continuous
 62
               7
100
AcDbVertex
100
AcDb2dVertex
 10
220.0110940854
 20
191.40440199209999
 30
0.0
  0
VERTEX
  5
73
100
AcDbEntity
  8
0
370
              25
  6
Continuous
 62
               7
100
AcDbVertex
100
AcDb2dVertex
 10
220.10044144490001
 20
191.8628335734
 30
0.0
  0
VERTEX
  5
74
100
AcDbEntity
  8
0
370
              25
  6
Continuous
 62
               7
100
AcDbVertex
100
AcDb2dVertex
 10
220.15523433199999
 20
192.31961596479999
 30
0.0
  0
VERTEX
  5
75
100
AcDbEntity
  8
0
370
              25
  6
Continuous
 62
               7
100
AcDbVertex
100
AcDb2dVertex
 10
220.17534278389999
 20
192.7736657289
 30
0.0
  0
VERTEX
  5
76
100
AcDbEntity
  8
0
370
              25
  6
Continuous
 62
               7
100
AcDbVertex
100
AcDb2dVertex
 10
220.16071910560001
 20
193.22390590969999
 30
0.0
  0
VERTEX
  5
77
100
AcDbEntity
  8
0
370
              25
  6
Continuous
 62
               7
100
AcDbVertex
100
AcDb2dVertex
 10
220.1113979829
 20
193.66926858740001
 30
0.0
  0
VERTEX
  5
78
100
AcDbEntity
  8
0
370
              25
  6
Continuous
 62
               7
100
AcDbVertex
100
AcDb2dVertex
 10
220.02749639999999
 20
194.10869741089999
 30
0.0
  0
VERTEX
  5
79
100
AcDbEntity
  8
0
370
              25
  6
Continuous
 62
               7
100
AcDbVertex
100
AcDb2dVertex
 10
219.90921336220001
 20
194.5411501035
 30
0.0
  0
VERTEX
  5
7A
100
AcDbEntity
  8
0
370
              25
  6
Continuous
 62
               7
100
AcDbVertex
100
AcDb2dVertex
 10
219.75682942380001
 20
194.9656009352
 30
0.0
  0
VERTEX
  5
7B
100
AcDbEntity
  8
0
370
              25
  6
Continuous
 62
               7
100
AcDbVertex
100
AcDb2dVertex
 10
219.57070602269999
 20
195.3810431556
 30
0.0
  0
VERTEX
  5
7C
100
AcDbEntity
  8
0
370
              25
  6
Continuous
 62
               7
100
AcDbVertex
100
AcDb2dVertex
 10
219.351284623
 20
195.7864913816
 30
0.0
  0
VERTEX
  5
7D
100
AcDbEntity
  8
0
370
              25
  6
Continuous
 62
               7
100
AcDbVertex
100
AcDb2dVertex
 10
219.09908566799999
 20
196.18098393490001
 30
0.0
  0
VERTEX
  5
7E
100
AcDbEntity
  8
0
370
              25
  6
Continuous
 62
               7
100
AcDbVertex
100
AcDb2dVertex
 10
218.81470734589999
 20
196.5635851225
 30
0.0
  0
VERTEX
  5
7F
100
AcDbEntity
  8
0
370
              25
  6
Continuous
 62
               7
100
AcDbVertex
100
AcDb2dVertex
 10
218.49882417040001
 20
196.93338745689999
 30
0.0
  0
VERTEX
  5
80
100
AcDbEntity
  8
0
370
              25
  6
Continuous
 62
               7
100
AcDbVertex
100
AcDb2dVertex
 10
218.1521853818
 20
197.28951380780001
 30
0.0
  0
VERTEX
  5
81
100
AcDbEntity
  8
0
370
              25
  6
Continuous
 62
               7
100
AcDbVertex
100
AcDb2dVertex
 10
217.77561316879999
 20
197.6311194827
 30
0.0
  0
VERTEX
  5
82
100
AcDbEntity
  8
0
370
              25
  6
Continuous
 62
               7
100
AcDbVertex
100
AcDb2dVertex
 10
217.37000071910001
 20
197.9573942307
 30
0.0
  0
VERTEX
  5
83
100
AcDbEntity
  8
0
370
              25
  6
Continuous
 62
               7
100
AcDbVertex
100
AcDb2dVertex
 10
216.93631010070001
 20
198.26756416430001
 30
0.0
  0
VERTEX
  5
84
100
AcDbEntity
  8
0
370
              25
  6
Continuous
 62
               7
100
AcDbVertex
100
AcDb2dVertex
 10
216.7247282159
 20
198.40650775110001
 30
0.0
  0
SEQEND
  5
85
100
AcDbEntity
  8
0
370
              25
  6
Continuous
 62
               7
  0
POLYLINE
  5
86
100
AcDbEntity
  8
0
370
              25
  6
Continuous
 62
               7
100
AcDb2dPolyline
 66
               1
 10
0.0
 20
0.0
 30
0.0
 75
               5
  0
VERTEX
  5
87
100
AcDbEntity
  8
0
370
              25
  6
Continuous
 62
               7
100
AcDbVertex
100
AcDb2dVertex
 10
192.49119073279999
 20
193.92650586440001
 30
0.0
  0
VERTEX
  5
88
100
AcDbEntity
  8
0
370
              25
  6
Continuous
 62
               7
100
AcDbVertex
100
AcDb2dVertex
 10
192.4538470725
 20
193.87565548289999
 30
0.0
  0
VERTEX
  5
89
100
AcDbEntity
  8
0
370
              25
  6
Continuous
 62
               7
100
AcDbVertex
100
AcDb2dVertex
 10
192.14865964789999
 20
193.4329382281
 30
0.0
  0
VERTEX
  5
8A
100
AcDbEntity
  8
0
370
              25
  6
Continuous
 62
               7
100
AcDbVertex
100
AcDb2dVertex
 10
191.87521628900001
 20
192.9848476686
 30
0.0
  0
VERTEX
  5
8B
100
AcDbEntity
  8
0
370
              25
  6
Continuous
 62
               7
100
AcDbVertex
100
AcDb2dVertex
 10
191.63416557330001
 20
192.5324466257
 30
0.0
  0
VERTEX
  5
8C
100
AcDbEntity
  8
0
370
              25
  6
Continuous
 62
               7
100
AcDbVertex
100
AcDb2dVertex
 10
191.42607924660001
 20
192.07680814459999
 30
0.0
  0
VERTEX
  5
8D
100
AcDbEntity
  8
0
370
              25
  6
Continuous
 62
               7
100
AcDbVertex
100
AcDb2dVertex
 10
191.25145086649999
 20
191.61901294949999
 30
0.0
  0
VERTEX
  5
8E
100
AcDbEntity
  8
0
370
              25
  6
Continuous
 62
               7
100
AcDbVertex
100
AcDb2dVertex
 10
191.11069463230001
 20
191.16014688000001
 30
0.0
  0
VERTEX
  5
8F
100
AcDbEntity
  8
0
370
              25
  6
Continuous
 62
               7
100
AcDbVertex
100
AcDb2dVertex
 10
191.00414440220001
 20
190.7012983157
 30
0.0
  0
VERTEX
  5
90
100
AcDbEntity
  8
0
370
              25
  6
Continuous
 62
               7
100
AcDbVertex
100
AcDb2dVertex
 10
190.9320529016
 20
190.24355559489999
 30
0.0
  0
VERTEX
  5
91
100
AcDbEntity
  8
0
370
              25
  6
Continuous
 62
               7
100
AcDbVertex
100
AcDb2dVertex
 10
190.89459112360001
 20
189.7880044325
 30
0.0
  0
VERTEX
  5
92
100
AcDbEntity
  8
0
370
              25
  6
Continuous
 62
               7
100
AcDbVertex
100
AcDb2dVertex
 10
190.89184792329999
 20
189.3357253456
 30
0.0
  0
VERTEX
  5
93
100
AcDbEntity
  8
0
370
              25
  6
Continuous
 62
               7
100
AcDbVertex
100
AcDb2dVertex
 10
190.92382980740001
 20
188.8877910903
 30
0.0
  0
VERTEX
  5
94
100
AcDbEntity
  8
0
370
              25
  6
Continuous
 62
               7
100
AcDbVertex
100
AcDb2dVertex
 10
190.9904609184
 20
188.4452641172
 30
0.0
  0
VERTEX
  5
95
100
AcDbEntity
  8
0
370
              25
  6
Continuous
 62
               7
100
AcDbVertex
100
AcDb2dVertex
 10
191.09158321449999
 20
188.00919405120001
 30
0.0
  0
VERTEX
  5
96
100
AcDbEntity
  8
0
370
              25
  6
Continuous
 62
               7
100
AcDbVertex
100
AcDb2dVertex
 10
191.22695684499999
 20
187.58061520250001
 30
0.0
  0
VERTEX
  5
97
100
AcDbEntity
  8
0
370
              25
  6
Continuous
 62
               7
100
AcDbVertex
100
AcDb2dVertex
 10
191.39626071839999
 20
187.16054411269999
 30
0.0
  0
VERTEX
  5
98
100
AcDbEntity
  8
0
370
              25
  6
Continuous
 62
               7
100
AcDbVertex
100
AcDb2dVertex
 10
191.59909326479999
 20
186.74997714400001
 30
0.0
  0
VERTEX
  5
99
100
AcDbEntity
  8
0
370
              25
  6
Continuous
 62
               7
100
AcDbVertex
100
AcDb2dVertex
 10
191.83497338769999
 20
186.3498881159
 30
0.0
  0
VERTEX
  5
9A
100
AcDbEntity
  8
0
370
              25
  6
Continuous
 62
               7
100
AcDbVertex
100
AcDb2dVertex
 10
192.10334160549999
 20
185.96122599540001
 30
0.0
  0
VERTEX
  5
9B
100
AcDbEntity
  8
0
370
              25
  6
Continuous
 62
               7
100
AcDbVertex
100
AcDb2dVertex
 10
192.4035613785
 20
185.58491264610001
 30
0.0
  0
VERTEX
  5
9C
100
AcDbEntity
  8
0
370
              25
  6
Continuous
 62
               7
100
AcDbVertex
100
AcDb2dVertex
 10
192.7349206186
 20
185.2218406417
 30
0.0
  0
VERTEX
  5
9D
100
AcDbEntity
  8
0
370
              25
  6
Continuous
 62
               7
100
AcDbVertex
100
AcDb2dVertex
 10
193.09663337820001
 20
184.8728711489
 30
0.0
  0
VERTEX
  5
9E
100
AcDbEntity
  8
0
370
              25
  6
Continuous
 62
               7
100
AcDbVertex
100
AcDb2dVertex
 10
193.48784171459999
 20
184.53883188469999
 30
0.0
  0
VERTEX
  5
9F
100
AcDbEntity
  8
0
370
              25
  6
Continuous
 62
               7
100
AcDbVertex
100
AcDb2dVertex
 10
193.90761772490001
 20
184.22051515339999
 30
0.0
  0
VERTEX
  5
A0
100
AcDbEntity
  8
0
370
              25
  6
Continuous
 62
               7
100
AcDbVertex
100
AcDb2dVertex
 10
194.3549657467
 20
183.91867596700001
 30
0.0
  0
VERTEX
  5
A1
100
AcDbEntity
  8
0
370
              25
  6
Continuous
 62
               7
100
AcDbVertex
100
AcDb2dVertex
 10
194.82882472
 20
183.63403025490001
 30
0.0
  0
SEQEND
  5
A2
100
AcDbEntity
  8
0
370
              25
  6
Continuous
 62
               7
  0
POLYLINE
  5
A3
100
AcDbEntity
  8
0
370
              25
  6
Continuous
 62
               7
100
AcDb2dPolyline
 66
               1
 10
0.0
 20
0.0
 30
0.0
 75
               5
  0
VERTEX
  5
A4
100
AcDbEntity
  8
0
370
              25
  6
Continuous
 62
               7
100
AcDbVertex
100
AcDb2dVertex
 10
191.50717616150001
 20
173.3249021387
 30
0.0
  0
VERTEX
  5
A5
100
AcDbEntity
  8
0
370
              25
  6
Continuous
 62
               7
100
AcDbVertex
100
AcDb2dVertex
 10
192.10370490490001
 20
173.0030787826
 30
0.0
  0
VERTEX
  5
A6
100
AcDbEntity
  8
0
370
              25
  6
Continuous
 62
               7
100
AcDbVertex
100
AcDb2dVertex
 10
192.7247541964
 20
172.69974865930001
 30
0.0
  0
VERTEX
  5
A7
100
AcDbEntity
  8
0
370
              25
  6
Continuous
 62
               7
100
AcDbVertex
100
AcDb2dVertex
 10
193.36929036070001
 20
172.41541663180001
 30
0.0
  0
VERTEX
  5
A8
100
AcDbEntity
  8
0
370
              25
  6
Continuous
 62
               7
100
AcDbVertex
100
AcDb2dVertex
 10
194.03624063090001
 20
172.1505559428
 30
0.0
  0
VERTEX
  5
A9
100
AcDbEntity
  8
0
370
              25
  6
Continuous
 62
               7
100
AcDbVertex
100
AcDb2dVertex
 10
194.72449493409999
 20
171.9056074266
 30
0.0
  0
VERTEX
  5
AA
100
AcDbEntity
  8
0
370
              25
  6
Continuous
 62
               7
100
AcDbVertex
100
AcDb2dVertex
 10
195.432907739
 20
171.6809787759
 30
0.0
  0
VERTEX
  5
AB
100
AcDbEntity
  8
0
370
              25
  6
Continuous
 62
               7
100
AcDbVertex
100
AcDb2dVertex
 10
196.16029996239999
 20
171.47704386300001
 30
0.0
  0
VERTEX
  5
AC
100
AcDbEntity
  8
0
370
              25
  6
Continuous
 62
               7
100
AcDbVertex
100
AcDb2dVertex
 10
196.9054609316
 20
171.2941421173
 30
0.0
  0
VERTEX
  5
AD
100
AcDbEntity
  8
0
370
              25
  6
Continuous
 62
               7
100
AcDbVertex
100
AcDb2dVertex
 10
197.66715039990001
 20
171.13257796080001
 30
0.0
  0
VERTEX
  5
AE
100
AcDbEntity
  8
0
370
              25
  6
Continuous
 62
               7
100
AcDbVertex
100
AcDb2dVertex
 10
198.44410061030001
 20
170.9926203011
 30
0.0
  0
VERTEX
  5
AF
100
AcDbEntity
  8
0
370
              25
  6
Continuous
 62
               7
100
AcDbVertex
100
AcDb2dVertex
 10
199.2350184057
 20
170.87450208390001
 30
0.0
  0
VERTEX
  5
B0
100
AcDbEntity
  8
0
370
              25
  6
Continuous
 62
               7
100
AcDbVertex
100
AcDb2dVertex
 10
200.0385873816
 20
170.77841990530001
 30
0.0
  0
VERTEX
  5
B1
100
AcDbEntity
  8
0
370
              25
  6
Continuous
 62
               7
100
AcDbVertex
100
AcDb2dVertex
 10
200.85347007679999
 20
170.70453368450001
 30
0.0
  0
VERTEX
  5
B2
100
AcDbEntity
  8
0
370
              25
  6
Continuous
 62
               7
100
AcDbVertex
100
AcDb2dVertex
 10
201.67831019939999
 20
170.65296639799999
 30
0.0
  0
VERTEX
  5
B3
100
AcDbEntity
  8
0
370
              25
  6
Continuous
 62
               7
100
AcDbVertex
100
AcDb2dVertex
 10
202.5117348844
 20
170.62380387440001
 30
0.0
  0
VERTEX
  5
B4
100
AcDbEntity
  8
0
370
              25
  6
Continuous
 62
               7
100
AcDbVertex
100
AcDb2dVertex
 10
203.3523569786
 20
170.6170946519
 30
0.0
  0
VERTEX
  5
B5
100
AcDbEntity
  8
0
370
              25
  6
Continuous
 62
               7
100
AcDbVertex
100
AcDb2dVertex
 10
204.19877734970001
 20
170.6328498972
 30
0.0
  0
VERTEX
  5
B6
100
AcDbEntity
  8
0
370
              25
  6
Continuous
 62
               7
100
AcDbVertex
100
AcDb2dVertex
 10
205.04958721439999
 20
170.67104338729999
 30
0.0
  0
VERTEX
  5
B7
100
AcDbEntity
  8
0
370
              25
  6
Continuous
 62
               7
100
AcDbVertex
100
AcDb2dVertex
 10
205.90337048360001
 20
170.73161155290001
 30
0.0
  0
VERTEX
  5
B8
100
AcDbEntity
  8
0
370
              25
  6
Continuous
 62
               7
100
AcDbVertex
100
AcDb2dVertex
 10
206.7587061193
 20
170.8144535843
 30
0.0
  0
VERTEX
  5
B9
100
AcDbEntity
  8
0
370
              25
  6
Continuous
 62
               7
100
AcDbVertex
100
AcDb2dVertex
 10
207.61417049990001
 20
170.91943159920001
 30
0.0
  0
VERTEX
  5
BA
100
AcDbEntity
  8
0
370
              25
  6
Continuous
 62
               7
100
AcDbVertex
100
AcDb2dVertex
 10
208.4683397892
 20
171.04637087180001
 30
0.0
  0
VERTEX
  5
BB
100
AcDbEntity
  8
0
370
              25
  6
Continuous
 62
               7
100
AcDbVertex
100
AcDb2dVertex
 10
209.3197923068
 20
171.1950601245
 30
0.0
  0
VERTEX
  5
BC
100
AcDbEntity
  8
0
370
              25
  6
Continuous
 62
               7
100
AcDbVertex
100
AcDb2dVertex
 10
210.16711089399999
 20
171.3652518785
 30
0.0
  0
VERTEX
  5
BD
100
AcDbEntity
  8
0
370
              25
  6
Continuous
 62
               7
100
AcDbVertex
100
AcDb2dVertex
 10
211.0088852726
 20
171.55666286650001
 30
0.0
  0
VERTEX
  5
BE
100
AcDbEntity
  8
0
370
              25
  6
Continuous
 62
               7
100
AcDbVertex
100
AcDb2dVertex
 10
211.8437143923
 20
171.76897450390001
 30
0.0
  0
VERTEX
  5
BF
100
AcDbEntity
  8
0
370
              25
  6
Continuous
 62
               7
100
AcDbVertex
100
AcDb2dVertex
 10
212.67020876230001
 20
172.00183341869999
 30
0.0
  0
VERTEX
  5
C0
100
AcDbEntity
  8
0
370
              25
  6
Continuous
 62
               7
100
AcDbVertex
100
AcDb2dVertex
 10
213.4869927643
 20
172.25485204040001
 30
0.0
  0
VERTEX
  5
C1
100
AcDbEntity
  8
0
370
              25
  6
Continuous
 62
               7
100
AcDbVertex
100
AcDb2dVertex
 10
214.29270694210001
 20
172.5276092444
 30
0.0
  0
VERTEX
  5
C2
100
AcDbEntity
  8
0
370
              25
  6
Continuous
 62
               7
100
AcDbVertex
100
AcDb2dVertex
 10
215.08601026380001
 20
172.81965105329999
 30
0.0
  0
VERTEX
  5
C3
100
AcDbEntity
  8
0
370
              25
  6
Continuous
 62
               7
100
AcDbVertex
100
AcDb2dVertex
 10
215.8655823544
 20
173.13049139239999
 30
0.0
  0
VERTEX
  5
C4
100
AcDbEntity
  8
0
370
              25
  6
Continuous
 62
               7
100
AcDbVertex
100
AcDb2dVertex
 10
216.630125693
 20
173.4596128984
 30
0.0
  0
VERTEX
  5
C5
100
AcDbEntity
  8
0
370
              25
  6
Continuous
 62
               7
100
AcDbVertex
100
AcDb2dVertex
 10
217.3783677728
 20
173.80646778120001
 30
0.0
  0
VERTEX
  5
C6
100
AcDbEntity
  8
0
370
              25
  6
Continuous
 62
               7
100
AcDbVertex
100
AcDb2dVertex
 10
218.10906321850001
 20
174.1704787351
 30
0.0
  0
VERTEX
  5
C7
100
AcDbEntity
  8
0
370
              25
  6
Continuous
 62
               7
100
AcDbVertex
100
AcDb2dVertex
 10
218.82099585989999
 20
174.55103989969999
 30
0.0
  0
VERTEX
  5
C8
100
AcDbEntity
  8
0
370
              25
  6
Continuous
 62
               7
100
AcDbVertex
100
AcDb2dVertex
 10
219.5129807552
 20
174.94751786859999
 30
0.0
  0
VERTEX
  5
C9
100
AcDbEntity
  8
0
370
              25
  6
Continuous
 62
               7
100
AcDbVertex
100
AcDb2dVertex
 10
220.18386616379999
 20
175.35925274319999
 30
0.0
  0
VERTEX
  5
CA
100
AcDbEntity
  8
0
370
              25
  6
Continuous
 62
               7
100
AcDbVertex
100
AcDb2dVertex
 10
220.83253546329999
 20
175.78555923159999
 30
0.0
  0
VERTEX
  5
CB
100
AcDbEntity
  8
0
370
              25
  6
Continuous
 62
               7
100
AcDbVertex
100
AcDb2dVertex
 10
221.45790900759999
 20
176.22572778860001
 30
0.0
  0
VERTEX
  5
CC
100
AcDbEntity
  8
0
370
              25
  6
Continuous
 62
               7
100
AcDbVertex
100
AcDb2dVertex
 10
222.05894592409999
 20
176.67902579720001
 30
0.0
  0
VERTEX
  5
CD
100
AcDbEntity
  8
0
370
              25
  6
Continuous
 62
               7
100
AcDbVertex
100
AcDb2dVertex
 10
222.63464584619999
 20
177.14469878739999
 30
0.0
  0
VERTEX
  5
CE
100
AcDbEntity
  8
0
370
              25
  6
Continuous
 62
               7
100
AcDbVertex
100
AcDb2dVertex
 10
223.18405057819999
 20
177.62197169269999
 30
0.0
  0
VERTEX
  5
CF
100
AcDbEntity
  8
0
370
              25
  6
Continuous
 62
               7
100
AcDbVertex
100
AcDb2dVertex
 10
223.70624569020001
 20
178.1100501393
 30
0.0
  0
VERTEX
  5
D0
100
AcDbEntity
  8
0
370
              25
  6
Continuous
 62
               7
100
AcDbVertex
100
AcDb2dVertex
 10
224.2003620399
 20
178.6081217688
 30
0.0
  0
VERTEX
  5
D1
100
AcDbEntity
  8
0
370
              25
  6
Continuous
 62
               7
100
AcDbVertex
100
AcDb2dVertex
 10
224.66557721940001
 20
179.11535759020001
 30
0.0
  0
VERTEX
  5
D2
100
AcDbEntity
  8
0
370
              25
  6
Continuous
 62
               7
100
AcDbVertex
100
AcDb2dVertex
 10
225.101116924
 20
179.6309133595
 30
0.0
  0
VERTEX
  5
D3
100
AcDbEntity
  8
0
370
              25
  6
Continuous
 62
               7
100
AcDbVertex
100
AcDb2dVertex
 10
225.50625624080001
 20
180.15393098499999
 30
0.0
  0
VERTEX
  5
D4
100
AcDbEntity
  8
0
370
              25
  6
Continuous
 62
               7
100
AcDbVertex
100
AcDb2dVertex
 10
225.88032085539999
 20
180.68353995539999
 30
0.0
  0
VERTEX
  5
D5
100
AcDbEntity
  8
0
370
              25
  6
Continuous
 62
               7
100
AcDbVertex
100
AcDb2dVertex
 10
226.22268817419999
 20
181.218858789
 30
0.0
  0
VERTEX
  5
D6
100
AcDbEntity
  8
0
370
              25
  6
Continuous
 62
               7
100
AcDbVertex
100
AcDb2dVertex
 10
226.53278836050001
 20
181.75899650029999
 30
0.0
  0
VERTEX
  5
D7
100
AcDbEntity
  8
0
370
              25
  6
Continuous
 62
               7
100
AcDbVertex
100
AcDb2dVertex
 10
226.8101052833
 20
182.30305408340001
 30
0.0
  0
VERTEX
  5
D8
100
AcDbEntity
  8
0
370
              25
  6
Continuous
 62
               7
100
AcDbVertex
100
AcDb2dVertex
 10
227.05417737569999
 20
182.85012600819999
 30
0.0
  0
VERTEX
  5
D9
100
AcDbEntity
  8
0
370
              25
  6
Continuous
 62
               7
100
AcDbVertex
100
AcDb2dVertex
 10
227.264598404
 20
183.3993017274
 30
0.0
  0
VERTEX
  5
DA
100
AcDbEntity
  8
0
370
              25
  6
Continuous
 62
               7
100
AcDbVertex
100
AcDb2dVertex
 10
227.4410181431
 20
183.94966719230001
 30
0.0
  0
VERTEX
  5
DB
100
AcDbEntity
  8
0
370
              25
  6
Continuous
 62
               7
100
AcDbVertex
100
AcDb2dVertex
 10
227.5831429598
 20
184.5003063739
 30
0.0
  0
VERTEX
  5
DC
100
AcDbEntity
  8
0
370
              25
  6
Continuous
 62
               7
100
AcDbVertex
100
AcDb2dVertex
 10
227.69073630130001
 20
185.05030278749999
 30
0.0
  0
VERTEX
  5
DD
100
AcDbEntity
  8
0
370
              25
  6
Continuous
 62
               7
100
AcDbVertex
100
AcDb2dVertex
 10
227.76361908909999
 20
185.59874101849999
 30
0.0
  0
VERTEX
  5
DE
100
AcDbEntity
  8
0
370
              25
  6
Continuous
 62
               7
100
AcDbVertex
100
AcDb2dVertex
 10
227.80167001699999
 20
186.1447082455
 30
0.0
  0
VERTEX
  5
DF
100
AcDbEntity
  8
0
370
              25
  6
Continuous
 62
               7
100
AcDbVertex
100
AcDb2dVertex
 10
227.80482575299999
 20
186.6872957599
 30
0.0
  0
VERTEX
  5
E0
100
AcDbEntity
  8
0
370
              25
  6
Continuous
 62
               7
100
AcDbVertex
100
AcDb2dVertex
 10
227.77308104470001
 20
187.2256004784
 30
0.0
  0
VERTEX
  5
E1
100
AcDbEntity
  8
0
370
              25
  6
Continuous
 62
               7
100
AcDbVertex
100
AcDb2dVertex
 10
227.7064887281
 20
187.75872644590001
 30
0.0
  0
VERTEX
  5
E2
100
AcDbEntity
  8
0
370
              25
  6
Continuous
 62
               7
100
AcDbVertex
100
AcDb2dVertex
 10
227.6051596394
 20
188.28578632689999
 30
0.0
  0
VERTEX
  5
E3
100
AcDbEntity
  8
0
370
              25
  6
Continuous
 62
               7
100
AcDbVertex
100
AcDb2dVertex
 10
227.469262431
 20
188.80590288210001
 30
0.0
  0
VERTEX
  5
E4
100
AcDbEntity
  8
0
370
              25
  6
Continuous
 62
               7
100
AcDbVertex
100
AcDb2dVertex
 10
227.29902329020001
 20
189.31821042889999
 30
0.0
  0
VERTEX
  5
E5
100
AcDbEntity
  8
0
370
              25
  6
Continuous
 62
               7
100
AcDbVertex
100
AcDb2dVertex
 10
227.09472556349999
 20
189.821856282
 30
0.0
  0
VERTEX
  5
E6
100
AcDbEntity
  8
0
370
              25
  6
Continuous
 62
               7
100
AcDbVertex
100
AcDb2dVertex
 10
226.85670928409999
 20
190.31600217260001
 30
0.0
  0
VERTEX
  5
E7
100
AcDbEntity
  8
0
370
              25
  6
Continuous
 62
               7
100
AcDbVertex
100
AcDb2dVertex
 10
226.5853706067
 20
190.79982564349999
 30
0.0
  0
VERTEX
  5
E8
100
AcDbEntity
  8
0
370
              25
  6
Continuous
 62
               7
100
AcDbVertex
100
AcDb2dVertex
 10
226.28116114779999
 20
191.27252141829999
 30
0.0
  0
VERTEX
  5
E9
100
AcDbEntity
  8
0
370
              25
  6
Continuous
 62
               7
100
AcDbVertex
100
AcDb2dVertex
 10
225.94458723389999
 20
191.7333027416
 30
0.0
  0
VERTEX
  5
EA
100
AcDbEntity
  8
0
370
              25
  6
Continuous
 62
               7
100
AcDbVertex
100
AcDb2dVertex
 10
225.57620905909999
 20
192.1814026884
 30
0.0
  0
VERTEX
  5
EB
100
AcDbEntity
  8
0
370
              25
  6
Continuous
 62
               7
100
AcDbVertex
100
AcDb2dVertex
 10
225.17663975260001
 20
192.6160754405
 30
0.0
  0
VERTEX
  5
EC
100
AcDbEntity
  8
0
370
              25
  6
Continuous
 62
               7
100
AcDbVertex
100
AcDb2dVertex
 10
224.74654435790001
 20
193.03659752799999
 30
0.0
  0
VERTEX
  5
ED
100
AcDbEntity
  8
0
370
              25
  6
Continuous
 62
               7
100
AcDbVertex
100
AcDb2dVertex
 10
224.28663872659999
 20
193.44226903340001
 30
0.0
  0
VERTEX
  5
EE
100
AcDbEntity
  8
0
370
              25
  6
Continuous
 62
               7
100
AcDbVertex
100
AcDb2dVertex
 10
223.79768832600001
 20
193.83241475649999
 30
0.0
  0
VERTEX
  5
EF
100
AcDbEntity
  8
0
370
              25
  6
Continuous
 62
               7
100
AcDbVertex
100
AcDb2dVertex
 10
223.2805069659
 20
194.20638533819999
 30
0.0
  0
VERTEX
  5
F0
100
AcDbEntity
  8
0
370
              25
  6
Continuous
 62
               7
100
AcDbVertex
100
AcDb2dVertex
 10
222.86574592170001
 20
194.48154297709999
 30
0.0
  0
SEQEND
  5
F1
100
AcDbEntity
  8
0
370
              25
  6
Continuous
 62
               7
  0
POLYLINE
  5
F2
100
AcDbEntity
  8
0
370
              25
  6
Continuous
 62
               7
100
AcDb2dPolyline
 66
               1
 10
0.0
 20
0.0
 30
0.0
 75
               5
  0
VERTEX
  5
F3
100
AcDbEntity
  8
0
370
              25
  6
Continuous
 62
               7
100
AcDbVertex
100
AcDb2dVertex
 10
188.15929611269999
 20
188.06543634240001
 30
0.0
  0
VERTEX
  5
F4
100
AcDbEntity
  8
0
370
              25
  6
Continuous
 62
               7
100
AcDbVertex
100
AcDb2dVertex
 10
187.7917954175
 20
187.5447014703
 30
0.0
  0
VERTEX
  5
F5
100
AcDbEntity
  8
0
370
              25
  6
Continuous
 62
               7
100
AcDbVertex
100
AcDb2dVertex
 10
187.4494280987
 20
187.00938263680001
 30
0.0
  0
VERTEX
  5
F6
100
AcDbEntity
  8
0
370
              25
  6
Continuous
 62
               7
100
AcDbVertex
100
AcDb2dVertex
 10
187.13932791240001
 20
186.46924492549999
 30
0.0
  0
VERTEX
  5
F7
100
AcDbEntity
  8
0
370
              25
  6
Continuous
 62
               7
100
AcDbVertex
100
AcDb2dVertex
 10
186.8620109897
 20
185.92518734230001
 30
0.0
  0
VERTEX
  5
F8
100
AcDbEntity
  8
0
370
              25
  6
Continuous
 62
               7
100
AcDbVertex
100
AcDb2dVertex
 10
186.61793889719999
 20
185.3781154175
 30
0.0
  0
VERTEX
  5
F9
100
AcDbEntity
  8
0
370
              25
  6
Continuous
 62
               7
100
AcDbVertex
100
AcDb2dVertex
 10
186.40751786889999
 20
184.82893969829999
 30
0.0
  0
VERTEX
  5
FA
100
AcDbEntity
  8
0
370
              25
  6
Continuous
 62
               7
100
AcDbVertex
100
AcDb2dVertex
 10
186.23109812979999
 20
184.27857423340001
 30
0.0
  0
VERTEX
  5
FB
100
AcDbEntity
  8
0
370
              25
  6
Continuous
 62
               7
100
AcDbVertex
100
AcDb2dVertex
 10
186.08897331310001
 20
183.72793505179999
 30
0.0
  0
VERTEX
  5
FC
100
AcDbEntity
  8
0
370
              25
  6
Continuous
 62
               7
100
AcDbVertex
100
AcDb2dVertex
 10
185.98137997169999
 20
183.1779386382
 30
0.0
  0
VERTEX
  5
FD
100
AcDbEntity
  8
0
370
              25
  6
Continuous
 62
               7
100
AcDbVertex
100
AcDb2dVertex
 10
185.90849718390001
 20
182.6295004072
 30
0.0
  0
VERTEX
  5
FE
100
AcDbEntity
  8
0
370
              25
  6
Continuous
 62
               7
100
AcDbVertex
100
AcDb2dVertex
 10
185.87044625589999
 20
182.08353318019999
 30
0.0
  0
VERTEX
  5
FF
100
AcDbEntity
  8
0
370
              25
  6
Continuous
 62
               7
100
AcDbVertex
100
AcDb2dVertex
 10
185.8672905199
 20
181.5409456658
 30
0.0
  0
VERTEX
  5
100
100
AcDbEntity
  8
0
370
              25
  6
Continuous
 62
               7
100
AcDbVertex
100
AcDb2dVertex
 10
185.89903522820001
 20
181.00264094729999
 30
0.0
  0
VERTEX
  5
101
100
AcDbEntity
  8
0
370
              25
  6
Continuous
 62
               7
100
AcDbVertex
100
AcDb2dVertex
 10
185.96562754479999
 20
180.46951497980001
 30
0.0
  0
VERTEX
  5
102
100
AcDbEntity
  8
0
370
              25
  6
Continuous
 62
               7
100
AcDbVertex
100
AcDb2dVertex
 10
186.06695663350001
 20
179.94245509890001
 30
0.0
  0
VERTEX
  5
103
100
AcDbEntity
  8
0
370
              25
  6
Continuous
 62
               7
100
AcDbVertex
100
AcDb2dVertex
 10
186.202853842
 20
179.42233854360001
 30
0.0
  0
VERTEX
  5
104
100
AcDbEntity
  8
0
370
              25
  6
Continuous
 62
               7
100
AcDbVertex
100
AcDb2dVertex
 10
186.3730929827
 20
178.9100309968
 30
0.0
  0
VERTEX
  5
105
100
AcDbEntity
  8
0
370
              25
  6
Continuous
 62
               7
100
AcDbVertex
100
AcDb2dVertex
 10
186.57739070950001
 20
178.40638514369999
 30
0.0
  0
VERTEX
  5
106
100
AcDbEntity
  8
0
370
              25
  6
Continuous
 62
               7
100
AcDbVertex
100
AcDb2dVertex
 10
186.81540698879999
 20
177.9122392532
 30
0.0
  0
VERTEX
  5
107
100
AcDbEntity
  8
0
370
              25
  6
Continuous
 62
               7
100
AcDbVertex
100
AcDb2dVertex
 10
187.08674566619999
 20
177.42841578229999
 30
0.0
  0
VERTEX
  5
108
100
AcDbEntity
  8
0
370
              25
  6
Continuous
 62
               7
100
AcDbVertex
100
AcDb2dVertex
 10
187.39095512520001
 20
176.9557200074
 30
0.0
  0
VERTEX
  5
109
100
AcDbEntity
  8
0
370
              25
  6
Continuous
 62
               7
100
AcDbVertex
100
AcDb2dVertex
 10
187.72752903910001
 20
176.49493868409999
 30
0.0
  0
VERTEX
  5
10A
100
AcDbEntity
  8
0
370
              25
  6
Continuous
 62
               7
100
AcDbVertex
100
AcDb2dVertex
 10
188.09590721379999
 20
176.04683873729999
 30
0.0
  0
VERTEX
  5
10B
100
AcDbEntity
  8
0
370
              25
  6
Continuous
 62
               7
100
AcDbVertex
100
AcDb2dVertex
 10
188.49547652039999
 20
175.61216598519999
 30
0.0
  0
VERTEX
  5
10C
100
AcDbEntity
  8
0
370
              25
  6
Continuous
 62
               7
100
AcDbVertex
100
AcDb2dVertex
 10
188.92557191500001
 20
175.1916438977
 30
0.0
  0
VERTEX
  5
10D
100
AcDbEntity
  8
0
370
              25
  6
Continuous
 62
               7
100
AcDbVertex
100
AcDb2dVertex
 10
189.38547754640001
 20
174.7859723924
 30
0.0
  0
VERTEX
  5
10E
100
AcDbEntity
  8
0
370
              25
  6
Continuous
 62
               7
100
AcDbVertex
100
AcDb2dVertex
 10
189.8744279469
 20
174.39582666929999
 30
0.0
  0
VERTEX
  5
10F
100
AcDbEntity
  8
0
370
              25
  6
Continuous
 62
               7
100
AcDbVertex
100
AcDb2dVertex
 10
190.39160930700001
 20
174.0218560875
 30
0.0
  0
VERTEX
  5
110
100
AcDbEntity
  8
0
370
              25
  6
Continuous
 62
               7
100
AcDbVertex
100
AcDb2dVertex
 10
190.93616082930001
 20
173.66468308430001
 30
0.0
  0
VERTEX
  5
111
100
AcDbEntity
  8
0
370
              25
  6
Continuous
 62
               7
100
AcDbVertex
100
AcDb2dVertex
 10
191.50717616150001
 20
173.3249021387
 30
0.0
  0
SEQEND
  5
112
100
AcDbEntity
  8
0
370
              25
  6
Continuous
 62
               7
  0
POLYLINE
  5
113
100
AcDbEntity
  8
0
370
              25
  6
Continuous
 62
               7
100
AcDb2dPolyline
 66
               1
 10
0.0
 20
0.0
 30
0.0
 75
               5
  0
VERTEX
  5
114
100
AcDbEntity
  8
0
370
              25
  6
Continuous
 62
               7
100
AcDbVertex
100
AcDb2dVertex
 10
193.9988818802
 20
181.0582047531
 30
0.0
  0
VERTEX
  5
115
100
AcDbEntity
  8
0
370
              25
  6
Continuous
 62
               7
100
AcDbVertex
100
AcDb2dVertex
 10
194.52687264869999
 20
180.77532772800001
 30
0.0
  0
VERTEX
  5
116
100
AcDbEntity
  8
0
370
              25
  6
Continuous
 62
               7
100
AcDbVertex
100
AcDb2dVertex
 10
195.07940392719999
 20
180.51114102419999
 30
0.0
  0
VERTEX
  5
117
100
AcDbEntity
  8
0
370
              25
  6
Continuous
 62
               7
100
AcDbVertex
100
AcDb2dVertex
 10
195.65527905580001
 20
180.26621681130001
 30
0.0
  0
VERTEX
  5
118
100
AcDbEntity
  8
0
370
              25
  6
Continuous
 62
               7
100
AcDbVertex
100
AcDb2dVertex
 10
196.25325081739999
 20
180.04108554039999
 30
0.0
  0
VERTEX
  5
119
100
AcDbEntity
  8
0
370
              25
  6
Continuous
 62
               7
100
AcDbVertex
100
AcDb2dVertex
 10
196.87202413829999
 20
179.8362347959
 30
0.0
  0
VERTEX
  5
11A
100
AcDbEntity
  8
0
370
              25
  6
Continuous
 62
               7
100
AcDbVertex
100
AcDb2dVertex
 10
197.51025889319999
 20
179.6521082388
 30
0.0
  0
VERTEX
  5
11B
100
AcDbEntity
  8
0
370
              25
  6
Continuous
 62
               7
100
AcDbVertex
100
AcDb2dVertex
 10
198.16657280769999
 20
179.48910464619999
 30
0.0
  0
VERTEX
  5
11C
100
AcDbEntity
  8
0
370
              25
  6
Continuous
 62
               7
100
AcDbVertex
100
AcDb2dVertex
 10
198.8395444521
 20
179.34757704770001
 30
0.0
  0
VERTEX
  5
11D
100
AcDbEntity
  8
0
370
              25
  6
Continuous
 62
               7
100
AcDbVertex
100
AcDb2dVertex
 10
199.5277163197
 20
179.22783196040001
 30
0.0
  0
VERTEX
  5
11E
100
AcDbEntity
  8
0
370
              25
  6
Continuous
 62
               7
100
AcDbVertex
100
AcDb2dVertex
 10
200.22959798330001
 20
179.1301287256
 30
0.0
  0
VERTEX
  5
11F
100
AcDbEntity
  8
0
370
              25
  6
Continuous
 62
               7
100
AcDbVertex
100
AcDb2dVertex
 10
200.94366932369999
 20
179.05467894680001
 30
0.0
  0
VERTEX
  5
120
100
AcDbEntity
  8
0
370
              25
  6
Continuous
 62
               7
100
AcDbVertex
100
AcDb2dVertex
 10
201.66838382130001
 20
179.0016460313
 30
0.0
  0
VERTEX
  5
121
100
AcDbEntity
  8
0
370
              25
  6
Continuous
 62
               7
100
AcDbVertex
100
AcDb2dVertex
 10
202.40217190589999
 20
178.97114483670001
 30
0.0
  0
VERTEX
  5
122
100
AcDbEntity
  8
0
370
              25
  6
Continuous
 62
               7
100
AcDbVertex
100
AcDb2dVertex
 10
203.14344435589999
 20
178.96324142169999
 30
0.0
  0
VERTEX
  5
123
100
AcDbEntity
  8
0
370
              25
  6
Continuous
 62
               7
100
AcDbVertex
100
AcDb2dVertex
 10
203.89059574020001
 20
178.97795290339999
 30
0.0
  0
VERTEX
  5
124
100
AcDbEntity
  8
0
370
              25
  6
Continuous
 62
               7
100
AcDbVertex
100
AcDb2dVertex
 10
204.64200789540001
 20
179.01524741989999
 30
0.0
  0
VERTEX
  5
125
100
AcDbEntity
  8
0
370
              25
  6
Continuous
 62
               7
100
AcDbVertex
100
AcDb2dVertex
 10
205.39605342990001
 20
179.07504419969999
 30
0.0
  0
VERTEX
  5
126
100
AcDbEntity
  8
0
370
              25
  6
Continuous
 62
               7
100
AcDbVertex
100
AcDb2dVertex
 10
206.15109924910001
 20
179.15721373630001
 30
0.0
  0
VERTEX
  5
127
100
AcDbEntity
  8
0
370
              25
  6
Continuous
 62
               7
100
AcDbVertex
100
AcDb2dVertex
 10
206.9055100919
 20
179.2615780687
 30
0.0
  0
VERTEX
  5
128
100
AcDbEntity
  8
0
370
              25
  6
Continuous
 62
               7
100
AcDbVertex
100
AcDb2dVertex
 10
207.65765207230001
 20
179.387911167
 30
0.0
  0
VERTEX
  5
129
100
AcDbEntity
  8
0
370
              25
  6
Continuous
 62
               7
100
AcDbVertex
100
AcDb2dVertex
 10
208.40589621839999
 20
179.5359394219
 30
0.0
  0
VERTEX
  5
12A
100
AcDbEntity
  8
0
370
              25
  6
Continuous
 62
               7
100
AcDbVertex
100
AcDb2dVertex
 10
209.1486219999
 20
179.7053422372
 30
0.0
  0
VERTEX
  5
12B
100
AcDbEntity
  8
0
370
              25
  6
Continuous
 62
               7
100
AcDbVertex
100
AcDb2dVertex
 10
209.88422083820001
 20
179.895752724
 30
0.0
  0
VERTEX
  5
12C
100
AcDbEntity
  8
0
370
              25
  6
Continuous
 62
               7
100
AcDbVertex
100
AcDb2dVertex
 10
210.61109959000001
 20
180.10675849559999
 30
0.0
  0
VERTEX
  5
12D
100
AcDbEntity
  8
0
370
              25
  6
Continuous
 62
               7
100
AcDbVertex
100
AcDb2dVertex
 10
211.32768399770001
 20
180.3379025605
 30
0.0
  0
VERTEX
  5
12E
100
AcDbEntity
  8
0
370
              25
  6
Continuous
 62
               7
100
AcDbVertex
100
AcDb2dVertex
 10
212.03242209909999
 20
180.58868431229999
 30
0.0
  0
VERTEX
  5
12F
100
AcDbEntity
  8
0
370
              25
  6
Continuous
 62
               7
100
AcDbVertex
100
AcDb2dVertex
 10
212.72378758849999
 20
180.8585606133
 30
0.0
  0
VERTEX
  5
130
100
AcDbEntity
  8
0
370
              25
  6
Continuous
 62
               7
100
AcDbVertex
100
AcDb2dVertex
 10
213.40028312210001
 20
181.1469469717
 30
0.0
  0
VERTEX
  5
131
100
AcDbEntity
  8
0
370
              25
  6
Continuous
 62
               7
100
AcDbVertex
100
AcDb2dVertex
 10
214.0604435612
 20
181.45321880669999
 30
0.0
  0
VERTEX
  5
132
100
AcDbEntity
  8
0
370
              25
  6
Continuous
 62
               7
100
AcDbVertex
100
AcDb2dVertex
 10
214.7028391453
 20
181.77671280199999
 30
0.0
  0
VERTEX
  5
133
100
AcDbEntity
  8
0
370
              25
  6
Continuous
 62
               7
100
AcDbVertex
100
AcDb2dVertex
 10
215.32607858860001
 20
182.11672834129999
 30
0.0
  0
VERTEX
  5
134
100
AcDbEntity
  8
0
370
              25
  6
Continuous
 62
               7
100
AcDbVertex
100
AcDb2dVertex
 10
215.9288120933
 20
182.47252902689999
 30
0.0
  0
VERTEX
  5
135
100
AcDbEntity
  8
0
370
              25
  6
Continuous
 62
               7
100
AcDbVertex
100
AcDb2dVertex
 10
216.5097342729
 20
182.8433442736
 30
0.0
  0
VERTEX
  5
136
100
AcDbEntity
  8
0
370
              25
  6
Continuous
 62
               7
100
AcDbVertex
100
AcDb2dVertex
 10
217.06758697910001
 20
183.22837097830001
 30
0.0
  0
VERTEX
  5
137
100
AcDbEntity
  8
0
370
              25
  6
Continuous
 62
               7
100
AcDbVertex
100
AcDb2dVertex
 10
217.60116202739999
 20
183.62677525870001
 30
0.0
  0
VERTEX
  5
138
100
AcDbEntity
  8
0
370
              25
  6
Continuous
 62
               7
100
AcDbVertex
100
AcDb2dVertex
 10
218.10930381290001
 20
184.03769425999999
 30
0.0
  0
VERTEX
  5
139
100
AcDbEntity
  8
0
370
              25
  6
Continuous
 62
               7
100
AcDbVertex
100
AcDb2dVertex
 10
218.59091181380001
 20
184.4602380231
 30
0.0
  0
VERTEX
  5
13A
100
AcDbEntity
  8
0
370
              25
  6
Continuous
 62
               7
100
AcDbVertex
100
AcDb2dVertex
 10
219.04494297420001
 20
184.89349141229999
 30
0.0
  0
VERTEX
  5
13B
100
AcDbEntity
  8
0
370
              25
  6
Continuous
 62
               7
100
AcDbVertex
100
AcDb2dVertex
 10
219.4704139639
 20
185.33651609719999
 30
0.0
  0
VERTEX
  5
13C
100
AcDbEntity
  8
0
370
              25
  6
Continuous
 62
               7
100
AcDbVertex
100
AcDb2dVertex
 10
219.86640330739999
 20
185.78835258500001
 30
0.0
  0
VERTEX
  5
13D
100
AcDbEntity
  8
0
370
              25
  6
Continuous
 62
               7
100
AcDbVertex
100
AcDb2dVertex
 10
220.23205337990001
 20
186.24802229849999
 30
0.0
  0
VERTEX
  5
13E
100
AcDbEntity
  8
0
370
              25
  6
Continuous
 62
               7
100
AcDbVertex
100
AcDb2dVertex
 10
220.5665722649
 20
186.71452969539999
 30
0.0
  0
VERTEX
  5
13F
100
AcDbEntity
  8
0
370
              25
  6
Continuous
 62
               7
100
AcDbVertex
100
AcDb2dVertex
 10
220.86923546880001
 20
187.1868644246
 30
0.0
  0
VERTEX
  5
140
100
AcDbEntity
  8
0
370
              25
  6
Continuous
 62
               7
100
AcDbVertex
100
AcDb2dVertex
 10
221.13938749069999
 20
187.66400351440001
 30
0.0
  0
VERTEX
  5
141
100
AcDbEntity
  8
0
370
              25
  6
Continuous
 62
               7
100
AcDbVertex
100
AcDb2dVertex
 10
221.37644324140001
 20
188.14491358750001
 30
0.0
  0
VERTEX
  5
142
100
AcDbEntity
  8
0
370
              25
  6
Continuous
 62
               7
100
AcDbVertex
100
AcDb2dVertex
 10
221.5798893109
 20
188.6285531
 30
0.0
  0
VERTEX
  5
143
100
AcDbEntity
  8
0
370
              25
  6
Continuous
 62
               7
100
AcDbVertex
100
AcDb2dVertex
 10
221.74928508030001
 20
189.11387459619999
 30
0.0
  0
VERTEX
  5
144
100
AcDbEntity
  8
0
370
              25
  6
Continuous
 62
               7
100
AcDbVertex
100
AcDb2dVertex
 10
221.88426367610001
 20
189.59982697800001
 30
0.0
  0
VERTEX
  5
145
100
AcDbEntity
  8
0
370
              25
  6
Continuous
 62
               7
100
AcDbVertex
100
AcDb2dVertex
 10
221.98453276480001
 20
190.08535778070001
 30
0.0
  0
VERTEX
  5
146
100
AcDbEntity
  8
0
370
              25
  6
Continuous
 62
               7
100
AcDbVertex
100
AcDb2dVertex
 10
222.0498751858
 20
190.56941545270001
 30
0.0
  0
VERTEX
  5
147
100
AcDbEntity
  8
0
370
              25
  6
Continuous
 62
               7
100
AcDbVertex
100
AcDb2dVertex
 10
222.08014942189999
 20
191.05095163280001
 30
0.0
  0
VERTEX
  5
148
100
AcDbEntity
  8
0
370
              25
  6
Continuous
 62
               7
100
AcDbVertex
100
AcDb2dVertex
 10
222.07528990599999
 20
191.528923421
 30
0.0
  0
VERTEX
  5
149
100
AcDbEntity
  8
0
370
              25
  6
Continuous
 62
               7
100
AcDbVertex
100
AcDb2dVertex
 10
222.03530716270001
 20
192.00229563670001
 30
0.0
  0
VERTEX
  5
14A
100
AcDbEntity
  8
0
370
              25
  6
Continuous
 62
               7
100
AcDbVertex
100
AcDb2dVertex
 10
221.9602877856
 20
192.4700430611
 30
0.0
  0
VERTEX
  5
14B
100
AcDbEntity
  8
0
370
              25
  6
Continuous
 62
               7
100
AcDbVertex
100
AcDb2dVertex
 10
221.85039425010001
 20
192.93115265750001
 30
0.0
  0
VERTEX
  5
14C
100
AcDbEntity
  8
0
370
              25
  6
Continuous
 62
               7
100
AcDbVertex
100
AcDb2dVertex
 10
221.705864561
 20
193.38462576520001
 30
0.0
  0
VERTEX
  5
14D
100
AcDbEntity
  8
0
370
              25
  6
Continuous
 62
               7
100
AcDbVertex
100
AcDb2dVertex
 10
221.5270117375
 20
193.8294802623
 30
0.0
  0
VERTEX
  5
14E
100
AcDbEntity
  8
0
370
              25
  6
Continuous
 62
               7
100
AcDbVertex
100
AcDb2dVertex
 10
221.31422313499999
 20
194.26475269319999
 30
0.0
  0
VERTEX
  5
14F
100
AcDbEntity
  8
0
370
              25
  6
Continuous
 62
               7
100
AcDbVertex
100
AcDb2dVertex
 10
221.06795960630001
 20
194.68950035469999
 30
0.0
  0
VERTEX
  5
150
100
AcDbEntity
  8
0
370
              25
  6
Continuous
 62
               7
100
AcDbVertex
100
AcDb2dVertex
 10
220.78875450320001
 20
195.1028033378
 30
0.0
  0
VERTEX
  5
151
100
AcDbEntity
  8
0
370
              25
  6
Continuous
 62
               7
100
AcDbVertex
100
AcDb2dVertex
 10
220.4772125218
 20
195.50376652040001
 30
0.0
  0
VERTEX
  5
152
100
AcDbEntity
  8
0
370
              25
  6
Continuous
 62
               7
100
AcDbVertex
100
AcDb2dVertex
 10
220.13400839280001
 20
195.89152150550001
 30
0.0
  0
VERTEX
  5
153
100
AcDbEntity
  8
0
370
              25
  6
Continuous
 62
               7
100
AcDbVertex
100
AcDb2dVertex
 10
219.75988541980001
 20
196.26522850219999
 30
0.0
  0
VERTEX
  5
154
100
AcDbEntity
  8
0
370
              25
  6
Continuous
 62
               7
100
AcDbVertex
100
AcDb2dVertex
 10
219.35565386990001
 20
196.6240781443
 30
0.0
  0
VERTEX
  5
155
100
AcDbEntity
  8
0
370
              25
  6
Continuous
 62
               7
100
AcDbVertex
100
AcDb2dVertex
 10
218.92218921860001
 20
196.96729324340001
 30
0.0
  0
VERTEX
  5
156
100
AcDbEntity
  8
0
370
              25
  6
Continuous
 62
               7
100
AcDbVertex
100
AcDb2dVertex
 10
218.46043025380001
 20
197.29413047200001
 30
0.0
  0
VERTEX
  5
157
100
AcDbEntity
  8
0
370
              25
  6
Continuous
 62
               7
100
AcDbVertex
100
AcDb2dVertex
 10
217.9713770427
 20
197.60388197340001
 30
0.0
  0
VERTEX
  5
158
100
AcDbEntity
  8
0
370
              25
  6
Continuous
 62
               7
100
AcDbVertex
100
AcDb2dVertex
 10
217.4560887655
 20
197.8958768949
 30
0.0
  0
VERTEX
  5
159
100
AcDbEntity
  8
0
370
              25
  6
Continuous
 62
               7
100
AcDbVertex
100
AcDb2dVertex
 10
217.43710015280001
 20
197.9060296987
 30
0.0
  0
SEQEND
  5
15A
100
AcDbEntity
  8
0
370
              25
  6
Continuous
 62
               7
  0
POLYLINE
  5
15B
100
AcDbEntity
  8
0
370
              25
  6
Continuous
 62
               7
100
AcDb2dPolyline
 66
               1
 10
0.0
 20
0.0
 30
0.0
 75
               5
  0
VERTEX
  5
15C
100
AcDbEntity
  8
0
370
              25
  6
Continuous
 62
               7
100
AcDbVertex
100
AcDb2dVertex
 10
192.00483138050001
 20
193.20442094000001
 30
0.0
  0
VERTEX
  5
15D
100
AcDbEntity
  8
0
370
              25
  6
Continuous
 62
               7
100
AcDbVertex
100
AcDb2dVertex
 10
191.6627539134
 20
192.7930740649
 30
0.0
  0
VERTEX
  5
15E
100
AcDbEntity
  8
0
370
              25
  6
Continuous
 62
               7
100
AcDbVertex
100
AcDb2dVertex
 10
191.31257462049999
 20
192.32986009039999
 30
0.0
  0
VERTEX
  5
15F
100
AcDbEntity
  8
0
370
              25
  6
Continuous
 62
               7
100
AcDbVertex
100
AcDb2dVertex
 10
190.9938972914
 20
191.86031189299999
 30
0.0
  0
VERTEX
  5
160
100
AcDbEntity
  8
0
370
              25
  6
Continuous
 62
               7
100
AcDbVertex
100
AcDb2dVertex
 10
190.70741211009999
 20
191.38544640949999
 30
0.0
  0
VERTEX
  5
161
100
AcDbEntity
  8
0
370
              25
  6
Continuous
 62
               7
100
AcDbVertex
100
AcDb2dVertex
 10
190.4537395397
 20
190.90629209279999
 30
0.0
  0
VERTEX
  5
162
100
AcDbEntity
  8
0
370
              25
  6
Continuous
 62
               7
100
AcDbVertex
100
AcDb2dVertex
 10
190.23342897859999
 20
190.42388668449999
 30
0.0
  0
VERTEX
  5
163
100
AcDbEntity
  8
0
370
              25
  6
Continuous
 62
               7
100
AcDbVertex
100
AcDb2dVertex
 10
190.0469575704
 20
189.93927496719999
 30
0.0
  0
VERTEX
  5
164
100
AcDbEntity
  8
0
370
              25
  6
Continuous
 62
               7
100
AcDbVertex
100
AcDb2dVertex
 10
189.89472917059999
 20
189.4535065021
 30
0.0
  0
VERTEX
  5
165
100
AcDbEntity
  8
0
370
              25
  6
Continuous
 62
               7
100
AcDbVertex
100
AcDb2dVertex
 10
189.77707347200001
 20
188.96763335540001
 30
0.0
  0
VERTEX
  5
166
100
AcDbEntity
  8
0
370
              25
  6
Continuous
 62
               7
100
AcDbVertex
100
AcDb2dVertex
 10
189.6942452907
 20
188.48270782020001
 30
0.0
  0
VERTEX
  5
167
100
AcDbEntity
  8
0
370
              25
  6
Continuous
 62
               7
100
AcDbVertex
100
AcDb2dVertex
 10
189.64642401410001
 20
187.99978013719999
 30
0.0
  0
VERTEX
  5
168
100
AcDbEntity
  8
0
370
              25
  6
Continuous
 62
               7
100
AcDbVertex
100
AcDb2dVertex
 10
189.63371321240001
 20
187.51989622030001
 30
0.0
  0
VERTEX
  5
169
100
AcDbEntity
  8
0
370
              25
  6
Continuous
 62
               7
100
AcDbVertex
100
AcDb2dVertex
 10
189.6561404144
 20
187.0440953911
 30
0.0
  0
VERTEX
  5
16A
100
AcDbEntity
  8
0
370
              25
  6
Continuous
 62
               7
100
AcDbVertex
100
AcDb2dVertex
 10
189.71365704780001
 20
186.5734081283
 30
0.0
  0
VERTEX
  5
16B
100
AcDbEntity
  8
0
370
              25
  6
Continuous
 62
               7
100
AcDbVertex
100
AcDb2dVertex
 10
189.80613854430001
 20
186.10885383580001
 30
0.0
  0
VERTEX
  5
16C
100
AcDbEntity
  8
0
370
              25
  6
Continuous
 62
               7
100
AcDbVertex
100
AcDb2dVertex
 10
189.9333846095
 20
185.65143863450001
 30
0.0
  0
VERTEX
  5
16D
100
AcDbEntity
  8
0
370
              25
  6
Continuous
 62
               7
100
AcDbVertex
100
AcDb2dVertex
 10
190.095119657
 20
185.20215318410001
 30
0.0
  0
VERTEX
  5
16E
100
AcDbEntity
  8
0
370
              25
  6
Continuous
 62
               7
100
AcDbVertex
100
AcDb2dVertex
 10
190.2909934045
 20
184.76197053670001
 30
0.0
  0
VERTEX
  5
16F
100
AcDbEntity
  8
0
370
              25
  6
Continuous
 62
               7
100
AcDbVertex
100
AcDb2dVertex
 10
190.52058163320001
 20
184.33184403000001
 30
0.0
  0
VERTEX
  5
170
100
AcDbEntity
  8
0
370
              25
  6
Continuous
 62
               7
100
AcDbVertex
100
AcDb2dVertex
 10
190.78338710599999
 20
183.9127052222
 30
0.0
  0
VERTEX
  5
171
100
AcDbEntity
  8
0
370
              25
  6
Continuous
 62
               7
100
AcDbVertex
100
AcDb2dVertex
 10
191.0788406449
 20
183.5054618746
 30
0.0
  0
VERTEX
  5
172
100
AcDbEntity
  8
0
370
              25
  6
Continuous
 62
               7
100
AcDbVertex
100
AcDb2dVertex
 10
191.40630236320001
 20
183.1109959856
 30
0.0
  0
VERTEX
  5
173
100
AcDbEntity
  8
0
370
              25
  6
Continuous
 62
               7
100
AcDbVertex
100
AcDb2dVertex
 10
191.7650630519
 20
182.73016188049999
 30
0.0
  0
VERTEX
  5
174
100
AcDbEntity
  8
0
370
              25
  6
Continuous
 62
               7
100
AcDbVertex
100
AcDb2dVertex
 10
192.15434571500001
 20
182.3637843612
 30
0.0
  0
VERTEX
  5
175
100
AcDbEntity
  8
0
370
              25
  6
Continuous
 62
               7
100
AcDbVertex
100
AcDb2dVertex
 10
192.5733072532
 20
182.01265691980001
 30
0.0
  0
VERTEX
  5
176
100
AcDbEntity
  8
0
370
              25
  6
Continuous
 62
               7
100
AcDbVertex
100
AcDb2dVertex
 10
193.02104028880001
 20
181.6775400201
 30
0.0
  0
VERTEX
  5
177
100
AcDbEntity
  8
0
370
              25
  6
Continuous
 62
               7
100
AcDbVertex
100
AcDb2dVertex
 10
193.49657513209999
 20
181.35915945069999
 30
0.0
  0
VERTEX
  5
178
100
AcDbEntity
  8
0
370
              25
  6
Continuous
 62
               7
100
AcDbVertex
100
AcDb2dVertex
 10
193.9988818802
 20
181.0582047531
 30
0.0
  0
SEQEND
  5
179
100
AcDbEntity
  8
0
370
              25
  6
Continuous
 62
               7
  0
POLYLINE
  5
17A
100
AcDbEntity
  8
0
370
              25
  6
Continuous
 62
               7
100
AcDb2dPolyline
 66
               1
 10
0.0
 20
0.0
 30
0.0
 75
               5
  0
VERTEX
  5
17B
100
AcDbEntity
  8
0
370
              25
  6
Continuous
 62
               7
100
AcDbVertex
100
AcDb2dVertex
 10
190.67723332150001
 20
170.74907663670001
 30
0.0
  0
VERTEX
  5
17C
100
AcDbEntity
  8
0
370
              25
  6
Continuous
 62
               7
100
AcDbVertex
100
AcDb2dVertex
 10
191.29419918459999
 20
170.41561176990001
 30
0.0
  0
VERTEX
  5
17D
100
AcDbEntity
  8
0
370
              25
  6
Continuous
 62
               7
100
AcDbVertex
100
AcDb2dVertex
 10
191.9356318319
 20
170.10055158719999
 30
0.0
  0
VERTEX
  5
17E
100
AcDbEntity
  8
0
370
              25
  6
Continuous
 62
               7
100
AcDbVertex
100
AcDb2dVertex
 10
192.60054222100001
 20
169.80438188860001
 30
0.0
  0
VERTEX
  5
17F
100
AcDbEntity
  8
0
370
              25
  6
Continuous
 62
               7
100
AcDbVertex
100
AcDb2dVertex
 10
193.28790510799999
 20
169.52755934620001
 30
0.0
  0
VERTEX
  5
180
100
AcDbEntity
  8
0
370
              25
  6
Continuous
 62
               7
100
AcDbVertex
100
AcDb2dVertex
 10
193.99666062930001
 20
169.27051080050001
 30
0.0
  0
VERTEX
  5
181
100
AcDbEntity
  8
0
370
              25
  6
Continuous
 62
               7
100
AcDbVertex
100
AcDb2dVertex
 10
194.72571593519999
 20
169.0336326016
 30
0.0
  0
VERTEX
  5
182
100
AcDbEntity
  8
0
370
              25
  6
Continuous
 62
               7
100
AcDbVertex
100
AcDb2dVertex
 10
195.47394687529999
 20
168.8172899985
 30
0.0
  0
VERTEX
  5
183
100
AcDbEntity
  8
0
370
              25
  6
Continuous
 62
               7
100
AcDbVertex
100
AcDb2dVertex
 10
196.24019973169999
 20
168.62181657580001
 30
0.0
  0
VERTEX
  5
184
100
AcDbEntity
  8
0
370
              25
  6
Continuous
 62
               7
100
AcDbVertex
100
AcDb2dVertex
 10
197.02329299799999
 20
168.44751373950001
 30
0.0
  0
VERTEX
  5
185
100
AcDbEntity
  8
0
370
              25
  6
Continuous
 62
               7
100
AcDbVertex
100
AcDb2dVertex
 10
197.82201920130001
 20
168.29465025170001
 30
0.0
  0
VERTEX
  5
186
100
AcDbEntity
  8
0
370
              25
  6
Continuous
 62
               7
100
AcDbVertex
100
AcDb2dVertex
 10
198.6351467634
 20
168.16346181700001
 30
0.0
  0
VERTEX
  5
187
100
AcDbEntity
  8
0
370
              25
  6
Continuous
 62
               7
100
AcDbVertex
100
AcDb2dVertex
 10
199.46142190079999
 20
168.0541507184
 30
0.0
  0
VERTEX
  5
188
100
AcDbEntity
  8
0
370
              25
  6
Continuous
 62
               7
100
AcDbVertex
100
AcDb2dVertex
 10
200.2995705571
 20
167.96688550580001
 30
0.0
  0
VERTEX
  5
189
100
AcDbEntity
  8
0
370
              25
  6
Continuous
 62
               7
100
AcDbVertex
100
AcDb2dVertex
 10
201.14830036769999
 20
167.90180073560001
 30
0.0
  0
VERTEX
  5
18A
100
AcDbEntity
  8
0
370
              25
  6
Continuous
 62
               7
100
AcDbVertex
100
AcDb2dVertex
 10
202.0063026528
 20
167.85899676400001
 30
0.0
  0
VERTEX
  5
18B
100
AcDbEntity
  8
0
370
              25
  6
Continuous
 62
               7
100
AcDbVertex
100
AcDb2dVertex
 10
202.872254435
 20
167.83853959149999
 30
0.0
  0
VERTEX
  5
18C
100
AcDbEntity
  8
0
370
              25
  6
Continuous
 62
               7
100
AcDbVertex
100
AcDb2dVertex
 10
203.74482047960001
 20
167.84046076160001
 30
0.0
  0
VERTEX
  5
18D
100
AcDbEntity
  8
0
370
              25
  6
Continuous
 62
               7
100
AcDbVertex
100
AcDb2dVertex
 10
204.62265535290001
 20
167.86475731210001
 30
0.0
  0
VERTEX
  5
18E
100
AcDbEntity
  8
0
370
              25
  6
Continuous
 62
               7
100
AcDbVertex
100
AcDb2dVertex
 10
205.50440549699999
 20
167.91139177939999
 30
0.0
  0
VERTEX
  5
18F
100
AcDbEntity
  8
0
370
              25
  6
Continuous
 62
               7
100
AcDbVertex
100
AcDb2dVertex
 10
206.38871131740001
 20
167.98029225639999
 30
0.0
  0
VERTEX
  5
190
100
AcDbEntity
  8
0
370
              25
  6
Continuous
 62
               7
100
AcDbVertex
100
AcDb2dVertex
 10
207.27420927840001
 20
168.0713525038
 30
0.0
  0
VERTEX
  5
191
100
AcDbEntity
  8
0
370
              25
  6
Continuous
 62
               7
100
AcDbVertex
100
AcDb2dVertex
 10
208.15953400629999
 20
168.18443211319999
 30
0.0
  0
VERTEX
  5
192
100
AcDbEntity
  8
0
370
              25
  6
Continuous
 62
               7
100
AcDbVertex
100
AcDb2dVertex
 10
209.0433203947
 20
168.31935672399999
 30
0.0
  0
VERTEX
  5
193
100
AcDbEntity
  8
0
370
              25
  6
Continuous
 62
               7
100
AcDbVertex
100
AcDb2dVertex
 10
209.92420570889999
 20
168.47591829230001
 30
0.0
  0
VERTEX
  5
194
100
AcDbEntity
  8
0
370
              25
  6
Continuous
 62
               7
100
AcDbVertex
100
AcDb2dVertex
 10
210.80083168780001
 20
168.65387541140001
 30
0.0
  0
VERTEX
  5
195
100
AcDbEntity
  8
0
370
              25
  6
Continuous
 62
               7
100
AcDbVertex
100
AcDb2dVertex
 10
211.67184663739999
 20
168.85295368440001
 30
0.0
  0
VERTEX
  5
196
100
AcDbEntity
  8
0
370
              25
  6
Continuous
 62
               7
100
AcDbVertex
100
AcDb2dVertex
 10
212.53590751600001
 20
169.07284614709999
 30
0.0
  0
VERTEX
  5
197
100
AcDbEntity
  8
0
370
              25
  6
Continuous
 62
               7
100
AcDbVertex
100
AcDb2dVertex
 10
213.39168200419999
 20
169.31321374109999
 30
0.0
  0
VERTEX
  5
198
100
AcDbEntity
  8
0
370
              25
  6
Continuous
 62
               7
100
AcDbVertex
100
AcDb2dVertex
 10
214.23785055990001
 20
169.57368583709999
 30
0.0
  0
VERTEX
  5
199
100
AcDbEntity
  8
0
370
              25
  6
Continuous
 62
               7
100
AcDbVertex
100
AcDb2dVertex
 10
215.07310845239999
 20
169.853860806
 30
0.0
  0
VERTEX
  5
19A
100
AcDbEntity
  8
0
370
              25
  6
Continuous
 62
               7
100
AcDbVertex
100
AcDb2dVertex
 10
215.89616777469999
 20
170.15330663829999
 30
0.0
  0
VERTEX
  5
19B
100
AcDbEntity
  8
0
370
              25
  6
Continuous
 62
               7
100
AcDbVertex
100
AcDb2dVertex
 10
216.7057594289
 20
170.4715616101
 30
0.0
  0
VERTEX
  5
19C
100
AcDbEntity
  8
0
370
              25
  6
Continuous
 62
               7
100
AcDbVertex
100
AcDb2dVertex
 10
217.50063508330001
 20
170.80813499550001
 30
0.0
  0
VERTEX
  5
19D
100
AcDbEntity
  8
0
370
              25
  6
Continuous
 62
               7
100
AcDbVertex
100
AcDb2dVertex
 10
218.27956909740001
 20
171.16250782270001
 30
0.0
  0
VERTEX
  5
19E
100
AcDbEntity
  8
0
370
              25
  6
Continuous
 62
               7
100
AcDbVertex
100
AcDb2dVertex
 10
219.0413604112
 20
171.53413367440001
 30
0.0
  0
VERTEX
  5
19F
100
AcDbEntity
  8
0
370
              25
  6
Continuous
 62
               7
100
AcDbVertex
100
AcDb2dVertex
 10
219.78483439799999
 20
171.92243953049999
 30
0.0
  0
VERTEX
  5
1A0
100
AcDbEntity
  8
0
370
              25
  6
Continuous
 62
               7
100
AcDbVertex
100
AcDb2dVertex
 10
220.50884467450001
 20
172.3268266515
 30
0.0
  0
VERTEX
  5
1A1
100
AcDbEntity
  8
0
370
              25
  6
Continuous
 62
               7
100
AcDbVertex
100
AcDb2dVertex
 10
221.21227486949999
 20
172.74667150190001
 30
0.0
  0
VERTEX
  5
1A2
100
AcDbEntity
  8
0
370
              25
  6
Continuous
 62
               7
100
AcDbVertex
100
AcDb2dVertex
 10
221.8940403446
 20
173.1813267112
 30
0.0
  0
VERTEX
  5
1A3
100
AcDbEntity
  8
0
370
              25
  6
Continuous
 62
               7
100
AcDbVertex
100
AcDb2dVertex
 10
222.5530898669
 20
173.63012207259999
 30
0.0
  0
VERTEX
  5
1A4
100
AcDbEntity
  8
0
370
              25
  6
Continuous
 62
               7
100
AcDbVertex
100
AcDb2dVertex
 10
223.1884072297
 20
174.09236557630001
 30
0.0
  0
VERTEX
  5
1A5
100
AcDbEntity
  8
0
370
              25
  6
Continuous
 62
               7
100
AcDbVertex
100
AcDb2dVertex
 10
223.79901281970001
 20
174.56734447619999
 30
0.0
  0
VERTEX
  5
1A6
100
AcDbEntity
  8
0
370
              25
  6
Continuous
 62
               7
100
AcDbVertex
100
AcDb2dVertex
 10
224.3839651273
 20
175.0543263893
 30
0.0
  0
VERTEX
  5
1A7
100
AcDbEntity
  8
0
370
              25
  6
Continuous
 62
               7
100
AcDbVertex
100
AcDb2dVertex
 10
224.94236219859999
 20
175.55256042479999
 30
0.0
  0
VERTEX
  5
1A8
100
AcDbEntity
  8
0
370
              25
  6
Continuous
 62
               7
100
AcDbVertex
100
AcDb2dVertex
 10
225.47334302569999
 20
176.06127834189999
 30
0.0
  0
VERTEX
  5
1A9
100
AcDbEntity
  8
0
370
              25
  6
Continuous
 62
               7
100
AcDbVertex
100
AcDb2dVertex
 10
225.97608887460001
 20
176.57969573459999
 30
0.0
  0
VERTEX
  5
1AA
100
AcDbEntity
  8
0
370
              25
  6
Continuous
 62
               7
100
AcDbVertex
100
AcDb2dVertex
 10
226.44982454769999
 20
177.1070132406
 30
0.0
  0
VERTEX
  5
1AB
100
AcDbEntity
  8
0
370
              25
  6
Continuous
 62
               7
100
AcDbVertex
100
AcDb2dVertex
 10
226.89381957890001
 20
177.64241777469999
 30
0.0
  0
VERTEX
  5
1AC
100
AcDbEntity
  8
0
370
              25
  6
Continuous
 62
               7
100
AcDbVertex
100
AcDb2dVertex
 10
227.30738936
 20
178.18508378179999
 30
0.0
  0
VERTEX
  5
1AD
100
AcDbEntity
  8
0
370
              25
  6
Continuous
 62
               7
100
AcDbVertex
100
AcDb2dVertex
 10
227.6898961965
 20
178.73417451040001
 30
0.0
  0
VERTEX
  5
1AE
100
AcDbEntity
  8
0
370
              25
  6
Continuous
 62
               7
100
AcDbVertex
100
AcDb2dVertex
 10
228.0407502905
 20
179.28884330220001
 30
0.0
  0
VERTEX
  5
1AF
100
AcDbEntity
  8
0
370
              25
  6
Continuous
 62
               7
100
AcDbVertex
100
AcDb2dVertex
 10
228.35941065040001
 20
179.84823489839999
 30
0.0
  0
VERTEX
  5
1B0
100
AcDbEntity
  8
0
370
              25
  6
Continuous
 62
               7
100
AcDbVertex
100
AcDb2dVertex
 10
228.64538592509999
 20
180.41148675740001
 30
0.0
  0
VERTEX
  5
1B1
100
AcDbEntity
  8
0
370
              25
  6
Continuous
 62
               7
100
AcDbVertex
100
AcDb2dVertex
 10
228.89823516140001
 20
180.9777303859
 30
0.0
  0
VERTEX
  5
1B2
100
AcDbEntity
  8
0
370
              25
  6
Continuous
 62
               7
100
AcDbVertex
100
AcDb2dVertex
 10
229.11756848409999
 20
181.54609267710001
 30
0.0
  0
VERTEX
  5
1B3
100
AcDbEntity
  8
0
370
              25
  6
Continuous
 62
               7
100
AcDbVertex
100
AcDb2dVertex
 10
229.3030476971
 20
182.11569725769999
 30
0.0
  0
VERTEX
  5
1B4
100
AcDbEntity
  8
0
370
              25
  6
Continuous
 62
               7
100
AcDbVertex
100
AcDb2dVertex
 10
229.4543868049
 20
182.6856658385
 30
0.0
  0
VERTEX
  5
1B5
100
AcDbEntity
  8
0
370
              25
  6
Continuous
 62
               7
100
AcDbVertex
100
AcDb2dVertex
 10
229.57135245360001
 20
183.25511956950001
 30
0.0
  0
VERTEX
  5
1B6
100
AcDbEntity
  8
0
370
              25
  6
Continuous
 62
               7
100
AcDbVertex
100
AcDb2dVertex
 10
229.6537642907
 20
183.82318039419999
 30
0.0
  0
VERTEX
  5
1B7
100
AcDbEntity
  8
0
370
              25
  6
Continuous
 62
               7
100
AcDbVertex
100
AcDb2dVertex
 10
229.70149524300001
 20
184.38897240399999
 30
0.0
  0
VERTEX
  5
1B8
100
AcDbEntity
  8
0
370
              25
  6
Continuous
 62
               7
100
AcDbVertex
100
AcDb2dVertex
 10
229.71447171290001
 20
184.9516231886
 30
0.0
  0
VERTEX
  5
1B9
100
AcDbEntity
  8
0
370
              25
  6
Continuous
 62
               7
100
AcDbVertex
100
AcDb2dVertex
 10
229.69267369159999
 20
185.51026518130001
 30
0.0
  0
VERTEX
  5
1BA
100
AcDbEntity
  8
0
370
              25
  6
Continuous
 62
               7
100
AcDbVertex
100
AcDb2dVertex
 10
229.63613479
 20
186.06403699660001
 30
0.0
  0
VERTEX
  5
1BB
100
AcDbEntity
  8
0
370
              25
  6
Continuous
 62
               7
100
AcDbVertex
100
AcDb2dVertex
 10
229.54494218720001
 20
186.61208475859999
 30
0.0
  0
VERTEX
  5
1BC
100
AcDbEntity
  8
0
370
              25
  6
Continuous
 62
               7
100
AcDbVertex
100
AcDb2dVertex
 10
229.41923649540001
 20
187.15356341730001
 30
0.0
  0
VERTEX
  5
1BD
100
AcDbEntity
  8
0
370
              25
  6
Continuous
 62
               7
100
AcDbVertex
100
AcDb2dVertex
 10
229.25921154369999
 20
187.6876380519
 30
0.0
  0
VERTEX
  5
1BE
100
AcDbEntity
  8
0
370
              25
  6
Continuous
 62
               7
100
AcDbVertex
100
AcDb2dVertex
 10
229.06511407900001
 20
188.213485158
 30
0.0
  0
VERTEX
  5
1BF
100
AcDbEntity
  8
0
370
              25
  6
Continuous
 62
               7
100
AcDbVertex
100
AcDb2dVertex
 10
228.83724338549999
 20
188.73029391739999
 30
0.0
  0
VERTEX
  5
1C0
100
AcDbEntity
  8
0
370
              25
  6
Continuous
 62
               7
100
AcDbVertex
100
AcDb2dVertex
 10
228.57595082329999
 20
189.23726744850001
 30
0.0
  0
VERTEX
  5
1C1
100
AcDbEntity
  8
0
370
              25
  6
Continuous
 62
               7
100
AcDbVertex
100
AcDb2dVertex
 10
228.28163928660001
 20
189.73362403499999
 30
0.0
  0
VERTEX
  5
1C2
100
AcDbEntity
  8
0
370
              25
  6
Continuous
 62
               7
100
AcDbVertex
100
AcDb2dVertex
 10
227.9547625825
 20
190.21859833080001
 30
0.0
  0
VERTEX
  5
1C3
100
AcDbEntity
  8
0
370
              25
  6
Continuous
 62
               7
100
AcDbVertex
100
AcDb2dVertex
 10
227.59582473110001
 20
190.69144254080001
 30
0.0
  0
VERTEX
  5
1C4
100
AcDbEntity
  8
0
370
              25
  6
Continuous
 62
               7
100
AcDbVertex
100
AcDb2dVertex
 10
227.20537918860001
 20
191.1514275735
 30
0.0
  0
VERTEX
  5
1C5
100
AcDbEntity
  8
0
370
              25
  6
Continuous
 62
               7
100
AcDbVertex
100
AcDb2dVertex
 10
226.78402799369999
 20
191.59784416529999
 30
0.0
  0
VERTEX
  5
1C6
100
AcDbEntity
  8
0
370
              25
  6
Continuous
 62
               7
100
AcDbVertex
100
AcDb2dVertex
 10
226.3324208395
 20
192.03000397420001
 30
0.0
  0
VERTEX
  5
1C7
100
AcDbEntity
  8
0
370
              25
  6
Continuous
 62
               7
100
AcDbVertex
100
AcDb2dVertex
 10
225.85125407140001
 20
192.4472406411
 30
0.0
  0
VERTEX
  5
1C8
100
AcDbEntity
  8
0
370
              25
  6
Continuous
 62
               7
100
AcDbVertex
100
AcDb2dVertex
 10
225.34126961359999
 20
192.84891081730001
 30
0.0
  0
VERTEX
  5
1C9
100
AcDbEntity
  8
0
370
              25
  6
Continuous
 62
               7
100
AcDbVertex
100
AcDb2dVertex
 10
224.80325382539999
 20
193.23439515640001
 30
0.0
  0
VERTEX
  5
1CA
100
AcDbEntity
  8
0
370
              25
  6
Continuous
 62
               7
100
AcDbVertex
100
AcDb2dVertex
 10
224.2380362879
 20
193.60309926970001
 30
0.0
  0
VERTEX
  5
1CB
100
AcDbEntity
  8
0
370
              25
  6
Continuous
 62
               7
100
AcDbVertex
100
AcDb2dVertex
 10
223.64648852580001
 20
193.95445464190001
 30
0.0
  0
VERTEX
  5
1CC
100
AcDbEntity
  8
0
370
              25
  6
Continuous
 62
               7
100
AcDbVertex
100
AcDb2dVertex
 10
223.59410120160001
 20
193.98401973200001
 30
0.0
  0
SEQEND
  5
1CD
100
AcDbEntity
  8
0
370
              25
  6
Continuous
 62
               7
  0
POLYLINE
  5
1CE
100
AcDbEntity
  8
0
370
              25
  6
Continuous
 62
               7
100
AcDb2dPolyline
 66
               1
 10
0.0
 20
0.0
 30
0.0
 75
               5
  0
VERTEX
  5
1CF
100
AcDbEntity
  8
0
370
              25
  6
Continuous
 62
               7
100
AcDbVertex
100
AcDb2dVertex
 10
187.6569534171
 20
187.340396613
 30
0.0
  0
VERTEX
  5
1D0
100
AcDbEntity
  8
0
370
              25
  6
Continuous
 62
               7
100
AcDbVertex
100
AcDb2dVertex
 10
187.42990226840001
 20
187.06111350399999
 30
0.0
  0
VERTEX
  5
1D1
100
AcDbEntity
  8
0
370
              25
  6
Continuous
 62
               7
100
AcDbVertex
100
AcDb2dVertex
 10
187.0163324872
 20
186.51844749680001
 30
0.0
  0
VERTEX
  5
1D2
100
AcDbEntity
  8
0
370
              25
  6
Continuous
 62
               7
100
AcDbVertex
100
AcDb2dVertex
 10
186.6338256507
 20
185.96935676819999
 30
0.0
  0
VERTEX
  5
1D3
100
AcDbEntity
  8
0
370
              25
  6
Continuous
 62
               7
100
AcDbVertex
100
AcDb2dVertex
 10
186.28297155670001
 20
185.41468797639999
 30
0.0
  0
VERTEX
  5
1D4
100
AcDbEntity
  8
0
370
              25
  6
Continuous
 62
               7
100
AcDbVertex
100
AcDb2dVertex
 10
185.9643111968
 20
184.85529638029999
 30
0.0
  0
VERTEX
  5
1D5
100
AcDbEntity
  8
0
370
              25
  6
Continuous
 62
               7
100
AcDbVertex
100
AcDb2dVertex
 10
185.67833592209999
 20
184.29204452120001
 30
0.0
  0
VERTEX
  5
1D6
100
AcDbEntity
  8
0
370
              25
  6
Continuous
 62
               7
100
AcDbVertex
100
AcDb2dVertex
 10
185.42548668590001
 20
183.72580089269999
 30
0.0
  0
VERTEX
  5
1D7
100
AcDbEntity
  8
0
370
              25
  6
Continuous
 62
               7
100
AcDbVertex
100
AcDb2dVertex
 10
185.2061533632
 20
183.15743860149999
 30
0.0
  0
VERTEX
  5
1D8
100
AcDbEntity
  8
0
370
              25
  6
Continuous
 62
               7
100
AcDbVertex
100
AcDb2dVertex
 10
185.02067415019999
 20
182.58783402099999
 30
0.0
  0
VERTEX
  5
1D9
100
AcDbEntity
  8
0
370
              25
  6
Continuous
 62
               7
100
AcDbVertex
100
AcDb2dVertex
 10
184.86933504230001
 20
182.0178654401
 30
0.0
  0
VERTEX
  5
1DA
100
AcDbEntity
  8
0
370
              25
  6
Continuous
 62
               7
100
AcDbVertex
100
AcDb2dVertex
 10
184.75236939359999
 20
181.44841170909999
 30
0.0
  0
VERTEX
  5
1DB
100
AcDbEntity
  8
0
370
              25
  6
Continuous
 62
               7
100
AcDbVertex
100
AcDb2dVertex
 10
184.6699575566
 20
180.8803508844
 30
0.0
  0
VERTEX
  5
1DC
100
AcDbEntity
  8
0
370
              25
  6
Continuous
 62
               7
100
AcDbVertex
100
AcDb2dVertex
 10
184.62222660430001
 20
180.3145588747
 30
0.0
  0
VERTEX
  5
1DD
100
AcDbEntity
  8
0
370
              25
  6
Continuous
 62
               7
100
AcDbVertex
100
AcDb2dVertex
 10
184.60925013440001
 20
179.75190809
 30
0.0
  0
VERTEX
  5
1DE
100
AcDbEntity
  8
0
370
              25
  6
Continuous
 62
               7
100
AcDbVertex
100
AcDb2dVertex
 10
184.6310481557
 20
179.19326609730001
 30
0.0
  0
VERTEX
  5
1DF
100
AcDbEntity
  8
0
370
              25
  6
Continuous
 62
               7
100
AcDbVertex
100
AcDb2dVertex
 10
184.68758705720001
 20
178.63949428199999
 30
0.0
  0
VERTEX
  5
1E0
100
AcDbEntity
  8
0
370
              25
  6
Continuous
 62
               7
100
AcDbVertex
100
AcDb2dVertex
 10
184.77877966010001
 20
178.09144652000001
 30
0.0
  0
VERTEX
  5
1E1
100
AcDbEntity
  8
0
370
              25
  6
Continuous
 62
               7
100
AcDbVertex
100
AcDb2dVertex
 10
184.90448535190001
 20
177.54996786129999
 30
0.0
  0
VERTEX
  5
1E2
100
AcDbEntity
  8
0
370
              25
  6
Continuous
 62
               7
100
AcDbVertex
100
AcDb2dVertex
 10
185.0645103036
 20
177.0158932267
 30
0.0
  0
VERTEX
  5
1E3
100
AcDbEntity
  8
0
370
              25
  6
Continuous
 62
               7
100
AcDbVertex
100
AcDb2dVertex
 10
185.25860776830001
 20
176.49004612069999
 30
0.0
  0
VERTEX
  5
1E4
100
AcDbEntity
  8
0
370
              25
  6
Continuous
 62
               7
100
AcDbVertex
100
AcDb2dVertex
 10
185.4864784618
 20
175.97323736120001
 30
0.0
  0
VERTEX
  5
1E5
100
AcDbEntity
  8
0
370
              25
  6
Continuous
 62
               7
100
AcDbVertex
100
AcDb2dVertex
 10
185.74777102389999
 20
175.46626383009999
 30
0.0
  0
VERTEX
  5
1E6
100
AcDbEntity
  8
0
370
              25
  6
Continuous
 62
               7
100
AcDbVertex
100
AcDb2dVertex
 10
186.04208256059999
 20
174.96990724369999
 30
0.0
  0
VERTEX
  5
1E7
100
AcDbEntity
  8
0
370
              25
  6
Continuous
 62
               7
100
AcDbVertex
100
AcDb2dVertex
 10
186.36895926470001
 20
174.48493294779999
 30
0.0
  0
VERTEX
  5
1E8
100
AcDbEntity
  8
0
370
              25
  6
Continuous
 62
               7
100
AcDbVertex
100
AcDb2dVertex
 10
186.7278971161
 20
174.01208873780001
 30
0.0
  0
VERTEX
  5
1E9
100
AcDbEntity
  8
0
370
              25
  6
Continuous
 62
               7
100
AcDbVertex
100
AcDb2dVertex
 10
187.1183426586
 20
173.5521037051
 30
0.0
  0
VERTEX
  5
1EA
100
AcDbEntity
  8
0
370
              25
  6
Continuous
 62
               7
100
AcDbVertex
100
AcDb2dVertex
 10
187.53969385350001
 20
173.10568711330001
 30
0.0
  0
VERTEX
  5
1EB
100
AcDbEntity
  8
0
370
              25
  6
Continuous
 62
               7
100
AcDbVertex
100
AcDb2dVertex
 10
187.99130100779999
 20
172.67352730440001
 30
0.0
  0
VERTEX
  5
1EC
100
AcDbEntity
  8
0
370
              25
  6
Continuous
 62
               7
100
AcDbVertex
100
AcDb2dVertex
 10
188.47246777589999
 20
172.2562906375
 30
0.0
  0
VERTEX
  5
1ED
100
AcDbEntity
  8
0
370
              25
  6
Continuous
 62
               7
100
AcDbVertex
100
AcDb2dVertex
 10
188.98245223359999
 20
171.85462046129999
 30
0.0
  0
VERTEX
  5
1EE
100
AcDbEntity
  8
0
370
              25
  6
Continuous
 62
               7
100
AcDbVertex
100
AcDb2dVertex
 10
189.5204680219
 20
171.46913612220001
 30
0.0
  0
VERTEX
  5
1EF
100
AcDbEntity
  8
0
370
              25
  6
Continuous
 62
               7
100
AcDbVertex
100
AcDb2dVertex
 10
190.0856855593
 20
171.100432009
 30
0.0
  0
VERTEX
  5
1F0
100
AcDbEntity
  8
0
370
              25
  6
Continuous
 62
               7
100
AcDbVertex
100
AcDb2dVertex
 10
190.67723332150001
 20
170.74907663670001
 30
0.0
  0
SEQEND
  5
1F1
100
AcDbEntity
  8
0
370
              25
  6
Continuous
 62
               7
  0
POLYLINE
  5
1F2
100
AcDbEntity
  8
0
370
              25
  6
Continuous
 62
               7
100
AcDb2dPolyline
 66
               1
 10
0.0
 20
0.0
 30
0.0
 75
               5
  0
VERTEX
  5
1F3
100
AcDbEntity
  8
0
370
              25
  6
Continuous
 62
               7
100
AcDbVertex
100
AcDb2dVertex
 10
189.33573662110001
 20
149.81521282739999
 30
0.0
  0
VERTEX
  5
1F4
100
AcDbEntity
  8
0
370
              25
  6
Continuous
 62
               7
100
AcDbVertex
100
AcDb2dVertex
 10
190.03205881580001
 20
149.4367803042
 30
0.0
  0
VERTEX
  5
1F5
100
AcDbEntity
  8
0
370
              25
  6
Continuous
 62
               7
100
AcDbVertex
100
AcDb2dVertex
 10
190.7529611349
 20
149.07669499830001
 30
0.0
  0
VERTEX
  5
1F6
100
AcDbEntity
  8
0
370
              25
  6
Continuous
 62
               7
100
AcDbVertex
100
AcDb2dVertex
 10
191.49757494720001
 20
148.73539078460001
 30
0.0
  0
VERTEX
  5
1F7
100
AcDbEntity
  8
0
370
              25
  6
Continuous
 62
               7
100
AcDbVertex
100
AcDb2dVertex
 10
192.2650030511
 20
148.41327890810001
 30
0.0
  0
VERTEX
  5
1F8
100
AcDbEntity
  8
0
370
              25
  6
Continuous
 62
               7
100
AcDbVertex
100
AcDb2dVertex
 10
193.0543207556
 20
148.11074748839999
 30
0.0
  0
VERTEX
  5
1F9
100
AcDbEntity
  8
0
370
              25
  6
Continuous
 62
               7
100
AcDbVertex
100
AcDb2dVertex
 10
193.86457699420001
 20
147.8281610523
 30
0.0
  0
VERTEX
  5
1FA
100
AcDbEntity
  8
0
370
              25
  6
Continuous
 62
               7
100
AcDbVertex
100
AcDb2dVertex
 10
194.6947954712
 20
147.5658600946
 30
0.0
  0
VERTEX
  5
1FB
100
AcDbEntity
  8
0
370
              25
  6
Continuous
 62
               7
100
AcDbVertex
100
AcDb2dVertex
 10
195.5439758382
 20
147.32416066740001
 30
0.0
  0
VERTEX
  5
1FC
100
AcDbEntity
  8
0
370
              25
  6
Continuous
 62
               7
100
AcDbVertex
100
AcDb2dVertex
 10
196.41109489889999
 20
147.10335399979999
 30
0.0
  0
VERTEX
  5
1FD
100
AcDbEntity
  8
0
370
              25
  6
Continuous
 62
               7
100
AcDbVertex
100
AcDb2dVertex
 10
197.29510784230001
 20
146.9037061464
 30
0.0
  0
VERTEX
  5
1FE
100
AcDbEntity
  8
0
370
              25
  6
Continuous
 62
               7
100
AcDbVertex
100
AcDb2dVertex
 10
198.19494950180001
 20
146.72545766760001
 30
0.0
  0
VERTEX
  5
1FF
100
AcDbEntity
  8
0
370
              25
  6
Continuous
 62
               7
100
AcDbVertex
100
AcDb2dVertex
 10
199.1095356381
 20
146.56882333870001
 30
0.0
  0
VERTEX
  5
200
100
AcDbEntity
  8
0
370
              25
  6
Continuous
 62
               7
100
AcDbVertex
100
AcDb2dVertex
 10
200.03776424629999
 20
146.43399189199999
 30
0.0
  0
VERTEX
  5
201
100
AcDbEntity
  8
0
370
              25
  6
Continuous
 62
               7
100
AcDbVertex
100
AcDb2dVertex
 10
200.9785168832
 20
146.32112578889999
 30
0.0
  0
VERTEX
  5
202
100
AcDbEntity
  8
0
370
              25
  6
Continuous
 62
               7
100
AcDbVertex
100
AcDb2dVertex
 10
201.93066001509999
 20
146.23036102419999
 30
0.0
  0
VERTEX
  5
203
100
AcDbEntity
  8
0
370
              25
  6
Continuous
 62
               7
100
AcDbVertex
100
AcDb2dVertex
 10
202.89304638359999
 20
146.16180696239999
 30
0.0
  0
VERTEX
  5
204
100
AcDbEntity
  8
0
370
              25
  6
Continuous
 62
               7
100
AcDbVertex
100
AcDb2dVertex
 10
203.86451638829999
 20
146.1155462058
 30
0.0
  0
VERTEX
  5
205
100
AcDbEntity
  8
0
370
              25
  6
Continuous
 62
               7
100
AcDbVertex
100
AcDb2dVertex
 10
204.84389948340001
 20
146.09163449499999
 30
0.0
  0
VERTEX
  5
206
100
AcDbEntity
  8
0
370
              25
  6
Continuous
 62
               7
100
AcDbVertex
100
AcDb2dVertex
 10
205.8300155885
 20
146.09010064169999
 30
0.0
  0
VERTEX
  5
207
100
AcDbEntity
  8
0
370
              25
  6
Continuous
 62
               7
100
AcDbVertex
100
AcDb2dVertex
 10
206.8216765105
 20
146.11094649419999
 30
0.0
  0
VERTEX
  5
208
100
AcDbEntity
  8
0
370
              25
  6
Continuous
 62
               7
100
AcDbVertex
100
AcDb2dVertex
 10
207.81768737530001
 20
146.1541469348
 30
0.0
  0
VERTEX
  5
209
100
AcDbEntity
  8
0
370
              25
  6
Continuous
 62
               7
100
AcDbVertex
100
AcDb2dVertex
 10
208.8168480674
 20
146.21964991030001
 30
0.0
  0
VERTEX
  5
20A
100
AcDbEntity
  8
0
370
              25
  6
Continuous
 62
               7
100
AcDbVertex
100
AcDb2dVertex
 10
209.81795467590001
 20
146.3073764948
 30
0.0
  0
VERTEX
  5
20B
100
AcDbEntity
  8
0
370
              25
  6
Continuous
 62
               7
100
AcDbVertex
100
AcDb2dVertex
 10
210.8198009454
 20
146.41722098450001
 30
0.0
  0
VERTEX
  5
20C
100
AcDbEntity
  8
0
370
              25
  6
Continuous
 62
               7
100
AcDbVertex
100
AcDb2dVertex
 10
211.82117972910001
 20
146.54905102539999
 30
0.0
  0
VERTEX
  5
20D
100
AcDbEntity
  8
0
370
              25
  6
Continuous
 62
               7
100
AcDbVertex
100
AcDb2dVertex
 10
212.82088444359999
 20
146.70270777260001
 30
0.0
  0
VERTEX
  5
20E
100
AcDbEntity
  8
0
370
              25
  6
Continuous
 62
               7
100
AcDbVertex
100
AcDb2dVertex
 10
213.81771052260001
 20
146.87800608160001
 30
0.0
  0
VERTEX
  5
20F
100
AcDbEntity
  8
0
370
              25
  6
Continuous
 62
               7
100
AcDbVertex
100
AcDb2dVertex
 10
214.81045686830001
 20
147.0747347317
 30
0.0
  0
VERTEX
  5
210
100
AcDbEntity
  8
0
370
              25
  6
Continuous
 62
               7
100
AcDbVertex
100
AcDb2dVertex
 10
215.7979272986
 20
147.29265668010001
 30
0.0
  0
VERTEX
  5
211
100
AcDbEntity
  8
0
370
              25
  6
Continuous
 62
               7
100
AcDbVertex
100
AcDb2dVertex
 10
216.77893198870001
 20
147.5315093479
 30
0.0
  0
VERTEX
  5
212
100
AcDbEntity
  8
0
370
              25
  6
Continuous
 62
               7
100
AcDbVertex
100
AcDb2dVertex
 10
217.75228890419999
 20
147.79100493620001
 30
0.0
  0
VERTEX
  5
213
100
AcDbEntity
  8
0
370
              25
  6
Continuous
 62
               7
100
AcDbVertex
100
AcDb2dVertex
 10
218.71682522590001
 20
148.07083077300001
 30
0.0
  0
VERTEX
  5
214
100
AcDbEntity
  8
0
370
              25
  6
Continuous
 62
               7
100
AcDbVertex
100
AcDb2dVertex
 10
219.6713787626
 20
148.37064968999999
 30
0.0
  0
VERTEX
  5
215
100
AcDbEntity
  8
0
370
              25
  6
Continuous
 62
               7
100
AcDbVertex
100
AcDb2dVertex
 10
220.6147993518
 20
148.69010042880001
 30
0.0
  0
VERTEX
  5
216
100
AcDbEntity
  8
0
370
              25
  6
Continuous
 62
               7
100
AcDbVertex
100
AcDb2dVertex
 10
221.545950245
 20
149.0287980761
 30
0.0
  0
VERTEX
  5
217
100
AcDbEntity
  8
0
370
              25
  6
Continuous
 62
               7
100
AcDbVertex
100
AcDb2dVertex
 10
222.46370947790001
 20
149.3863345275
 30
0.0
  0
VERTEX
  5
218
100
AcDbEntity
  8
0
370
              25
  6
Continuous
 62
               7
100
AcDbVertex
100
AcDb2dVertex
 10
223.36697122230001
 20
149.7622789797
 30
0.0
  0
VERTEX
  5
219
100
AcDbEntity
  8
0
370
              25
  6
Continuous
 62
               7
100
AcDbVertex
100
AcDb2dVertex
 10
224.25464711789999
 20
150.1561784486
 30
0.0
  0
VERTEX
  5
21A
100
AcDbEntity
  8
0
370
              25
  6
Continuous
 62
               7
100
AcDbVertex
100
AcDb2dVertex
 10
225.12566758450001
 20
150.56755831620001
 30
0.0
  0
VERTEX
  5
21B
100
AcDbEntity
  8
0
370
              25
  6
Continuous
 62
               7
100
AcDbVertex
100
AcDb2dVertex
 10
225.97898311029999
 20
150.99592290179999
 30
0.0
  0
VERTEX
  5
21C
100
AcDbEntity
  8
0
370
              25
  6
Continuous
 62
               7
100
AcDbVertex
100
AcDb2dVertex
 10
226.81356551659999
 20
151.4407560594
 30
0.0
  0
VERTEX
  5
21D
100
AcDbEntity
  8
0
370
              25
  6
Continuous
 62
               7
100
AcDbVertex
100
AcDb2dVertex
 10
227.6284091965
 20
151.90152179969999
 30
0.0
  0
VERTEX
  5
21E
100
AcDbEntity
  8
0
370
              25
  6
Continuous
 62
               7
100
AcDbVertex
100
AcDb2dVertex
 10
228.4225323268
 20
152.37766493589999
 30
0.0
  0
VERTEX
  5
21F
100
AcDbEntity
  8
0
370
              25
  6
Continuous
 62
               7
100
AcDbVertex
100
AcDb2dVertex
 10
229.19497805110001
 20
152.8686117526
 30
0.0
  0
VERTEX
  5
220
100
AcDbEntity
  8
0
370
              25
  6
Continuous
 62
               7
100
AcDbVertex
100
AcDb2dVertex
 10
229.94481563240001
 20
153.373770697
 30
0.0
  0
VERTEX
  5
221
100
AcDbEntity
  8
0
370
              25
  6
Continuous
 62
               7
100
AcDbVertex
100
AcDb2dVertex
 10
230.67114157489999
 20
153.8925330921
 30
0.0
  0
VERTEX
  5
222
100
AcDbEntity
  8
0
370
              25
  6
Continuous
 62
               7
100
AcDbVertex
100
AcDb2dVertex
 10
231.37308071230001
 20
154.42427386950001
 30
0.0
  0
VERTEX
  5
223
100
AcDbEntity
  8
0
370
              25
  6
Continuous
 62
               7
100
AcDbVertex
100
AcDb2dVertex
 10
232.04978726260001
 20
154.968352323
 30
0.0
  0
VERTEX
  5
224
100
AcDbEntity
  8
0
370
              25
  6
Continuous
 62
               7
100
AcDbVertex
100
AcDb2dVertex
 10
232.7004458472
 20
155.52411288050001
 30
0.0
  0
VERTEX
  5
225
100
AcDbEntity
  8
0
370
              25
  6
Continuous
 62
               7
100
AcDbVertex
100
AcDb2dVertex
 10
233.32427247320001
 20
156.09088589379999
 30
0.0
  0
VERTEX
  5
226
100
AcDbEntity
  8
0
370
              25
  6
Continuous
 62
               7
100
AcDbVertex
100
AcDb2dVertex
 10
233.920515478
 20
156.66798844549999
 30
0.0
  0
VERTEX
  5
227
100
AcDbEntity
  8
0
370
              25
  6
Continuous
 62
               7
100
AcDbVertex
100
AcDb2dVertex
 10
234.48845643530001
 20
157.25472517200001
 30
0.0
  0
VERTEX
  5
228
100
AcDbEntity
  8
0
370
              25
  6
Continuous
 62
               7
100
AcDbVertex
100
AcDb2dVertex
 10
235.0274110204
 20
157.85038910130001
 30
0.0
  0
VERTEX
  5
229
100
AcDbEntity
  8
0
370
              25
  6
Continuous
 62
               7
100
AcDbVertex
100
AcDb2dVertex
 10
235.53672983519999
 20
158.45426250470001
 30
0.0
  0
VERTEX
  5
22A
100
AcDbEntity
  8
0
370
              25
  6
Continuous
 62
               7
100
AcDbVertex
100
AcDb2dVertex
 10
236.01579918990001
 20
159.0656177617
 30
0.0
  0
VERTEX
  5
22B
100
AcDbEntity
  8
0
370
              25
  6
Continuous
 62
               7
100
AcDbVertex
100
AcDb2dVertex
 10
236.46404184350001
 20
159.68371823699999
 30
0.0
  0
VERTEX
  5
22C
100
AcDbEntity
  8
0
370
              25
  6
Continuous
 62
               7
100
AcDbVertex
100
AcDb2dVertex
 10
236.8809176984
 20
160.3078191676
 30
0.0
  0
VERTEX
  5
22D
100
AcDbEntity
  8
0
370
              25
  6
Continuous
 62
               7
100
AcDbVertex
100
AcDb2dVertex
 10
237.2659244516
 20
160.9371685605
 30
0.0
  0
VERTEX
  5
22E
100
AcDbEntity
  8
0
370
              25
  6
Continuous
 62
               7
100
AcDbVertex
100
AcDb2dVertex
 10
237.6185982001
 20
161.57100809869999
 30
0.0
  0
VERTEX
  5
22F
100
AcDbEntity
  8
0
370
              25
  6
Continuous
 62
               7
100
AcDbVertex
100
AcDb2dVertex
 10
237.93851399939999
 20
162.2085740549
 30
0.0
  0
VERTEX
  5
230
100
AcDbEntity
  8
0
370
              25
  6
Continuous
 62
               7
100
AcDbVertex
100
AcDb2dVertex
 10
238.2252863759
 20
162.8490982118
 30
0.0
  0
VERTEX
  5
231
100
AcDbEntity
  8
0
370
              25
  6
Continuous
 62
               7
100
AcDbVertex
100
AcDb2dVertex
 10
238.47856979119999
 20
163.49180878769999
 30
0.0
  0
VERTEX
  5
232
100
AcDbEntity
  8
0
370
              25
  6
Continuous
 62
               7
100
AcDbVertex
100
AcDb2dVertex
 10
238.69805905859999
 20
164.13593136630001
 30
0.0
  0
VERTEX
  5
233
100
AcDbEntity
  8
0
370
              25
  6
Continuous
 62
               7
100
AcDbVertex
100
AcDb2dVertex
 10
238.8834897106
 20
164.7806898302
 30
0.0
  0
VERTEX
  5
234
100
AcDbEntity
  8
0
370
              25
  6
Continuous
 62
               7
100
AcDbVertex
100
AcDb2dVertex
 10
239.03463831760001
 20
165.42530729559999
 30
0.0
  0
VERTEX
  5
235
100
AcDbEntity
  8
0
370
              25
  6
Continuous
 62
               7
100
AcDbVertex
100
AcDb2dVertex
 10
239.15132275740001
 20
166.0690070487
 30
0.0
  0
VERTEX
  5
236
100
AcDbEntity
  8
0
370
              25
  6
Continuous
 62
               7
100
AcDbVertex
100
AcDb2dVertex
 10
239.23340243440001
 20
166.71101348139999
 30
0.0
  0
VERTEX
  5
237
100
AcDbEntity
  8
0
370
              25
  6
Continuous
 62
               7
100
AcDbVertex
100
AcDb2dVertex
 10
239.28077844879999
 20
167.350553026
 30
0.0
  0
VERTEX
  5
238
100
AcDbEntity
  8
0
370
              25
  6
Continuous
 62
               7
100
AcDbVertex
100
AcDb2dVertex
 10
239.29339371629999
 20
167.9868550871
 30
0.0
  0
VERTEX
  5
239
100
AcDbEntity
  8
0
370
              25
  6
Continuous
 62
               7
100
AcDbVertex
100
AcDb2dVertex
 10
239.27123303650001
 20
168.61915297030001
 30
0.0
  0
VERTEX
  5
23A
100
AcDbEntity
  8
0
370
              25
  6
Continuous
 62
               7
100
AcDbVertex
100
AcDb2dVertex
 10
239.21432311129999
 20
169.2466848059
 30
0.0
  0
VERTEX
  5
23B
100
AcDbEntity
  8
0
370
              25
  6
Continuous
 62
               7
100
AcDbVertex
100
AcDb2dVertex
 10
239.12273251260001
 20
169.86869446700001
 30
0.0
  0
VERTEX
  5
23C
100
AcDbEntity
  8
0
370
              25
  6
Continuous
 62
               7
100
AcDbVertex
100
AcDb2dVertex
 10
239.10803172990001
 20
169.9504842593
 30
0.0
  0
SEQEND
  5
23D
100
AcDbEntity
  8
0
370
              25
  6
Continuous
 62
               7
  0
POLYLINE
  5
23E
100
AcDbEntity
  8
0
370
              25
  6
Continuous
 62
               7
100
AcDb2dPolyline
 66
               1
 10
0.0
 20
0.0
 30
0.0
 75
               5
  0
VERTEX
  5
23F
100
AcDbEntity
  8
0
370
              25
  6
Continuous
 62
               7
100
AcDbVertex
100
AcDb2dVertex
 10
181.76079264399999
 20
159.34882366869999
 30
0.0
  0
VERTEX
  5
240
100
AcDbEntity
  8
0
370
              25
  6
Continuous
 62
               7
100
AcDbVertex
100
AcDb2dVertex
 10
181.79967692689999
 20
159.14994817159999
 30
0.0
  0
VERTEX
  5
241
100
AcDbEntity
  8
0
370
              25
  6
Continuous
 62
               7
100
AcDbVertex
100
AcDb2dVertex
 10
181.9430685879
 20
158.53762470820001
 30
0.0
  0
VERTEX
  5
242
100
AcDbEntity
  8
0
370
              25
  6
Continuous
 62
               7
100
AcDbVertex
100
AcDb2dVertex
 10
182.1207869765
 20
157.9326826535
 30
0.0
  0
VERTEX
  5
243
100
AcDbEntity
  8
0
370
              25
  6
Continuous
 62
               7
100
AcDbVertex
100
AcDb2dVertex
 10
182.3326179558
 20
157.33585091559999
 30
0.0
  0
VERTEX
  5
244
100
AcDbEntity
  8
0
370
              25
  6
Continuous
 62
               7
100
AcDbVertex
100
AcDb2dVertex
 10
182.5783062861
 20
156.74784863030001
 30
0.0
  0
VERTEX
  5
245
100
AcDbEntity
  8
0
370
              25
  6
Continuous
 62
               7
100
AcDbVertex
100
AcDb2dVertex
 10
182.85755593210001
 20
156.16938429449999
 30
0.0
  0
VERTEX
  5
246
100
AcDbEntity
  8
0
370
              25
  6
Continuous
 62
               7
100
AcDbVertex
100
AcDb2dVertex
 10
183.17003041960001
 20
155.6011549127
 30
0.0
  0
VERTEX
  5
247
100
AcDbEntity
  8
0
370
              25
  6
Continuous
 62
               7
100
AcDbVertex
100
AcDb2dVertex
 10
183.51535324119999
 20
155.04384515699999
 30
0.0
  0
VERTEX
  5
248
100
AcDbEntity
  8
0
370
              25
  6
Continuous
 62
               7
100
AcDbVertex
100
AcDb2dVertex
 10
183.89310830989999
 20
154.4981265422
 30
0.0
  0
VERTEX
  5
249
100
AcDbEntity
  8
0
370
              25
  6
Continuous
 62
               7
100
AcDbVertex
100
AcDb2dVertex
 10
184.3028404602
 20
153.96465661689999
 30
0.0
  0
VERTEX
  5
24A
100
AcDbEntity
  8
0
370
              25
  6
Continuous
 62
               7
100
AcDbVertex
100
AcDb2dVertex
 10
184.7440559968
 20
153.44407817059999
 30
0.0
  0
VERTEX
  5
24B
100
AcDbEntity
  8
0
370
              25
  6
Continuous
 62
               7
100
AcDbVertex
100
AcDb2dVertex
 10
185.21622328929999
 20
152.93701845999999
 30
0.0
  0
VERTEX
  5
24C
100
AcDbEntity
  8
0
370
              25
  6
Continuous
 62
               7
100
AcDbVertex
100
AcDb2dVertex
 10
185.71877341289999
 20
152.4440884524
 30
0.0
  0
VERTEX
  5
24D
100
AcDbEntity
  8
0
370
              25
  6
Continuous
 62
               7
100
AcDbVertex
100
AcDb2dVertex
 10
186.25110083390001
 20
151.9658820901
 30
0.0
  0
VERTEX
  5
24E
100
AcDbEntity
  8
0
370
              25
  6
Continuous
 62
               7
100
AcDbVertex
100
AcDb2dVertex
 10
186.8125641391
 20
151.50297557459999
 30
0.0
  0
VERTEX
  5
24F
100
AcDbEntity
  8
0
370
              25
  6
Continuous
 62
               7
100
AcDbVertex
100
AcDb2dVertex
 10
187.4024868091
 20
151.05592667209999
 30
0.0
  0
VERTEX
  5
250
100
AcDbEntity
  8
0
370
              25
  6
Continuous
 62
               7
100
AcDbVertex
100
AcDb2dVertex
 10
188.02015803290001
 20
150.62527404170001
 30
0.0
  0
VERTEX
  5
251
100
AcDbEntity
  8
0
370
              25
  6
Continuous
 62
               7
100
AcDbVertex
100
AcDb2dVertex
 10
188.66483356480001
 20
150.21153658630001
 30
0.0
  0
VERTEX
  5
252
100
AcDbEntity
  8
0
370
              25
  6
Continuous
 62
               7
100
AcDbVertex
100
AcDb2dVertex
 10
189.33573662110001
 20
149.81521282739999
 30
0.0
  0
SEQEND
  5
253
100
AcDbEntity
  8
0
370
              25
  6
Continuous
 62
               7
  0
POLYLINE
  5
254
100
AcDbEntity
  8
0
370
              25
  6
Continuous
 62
               7
100
AcDb2dPolyline
 66
               1
 10
0.0
 20
0.0
 30
0.0
 75
               5
  0
VERTEX
  5
255
100
AcDbEntity
  8
0
370
              25
  6
Continuous
 62
               7
100
AcDbVertex
100
AcDb2dVertex
 10
198.42689767140001
 20
134.0937552151
 30
0.0
  0
VERTEX
  5
256
100
AcDbEntity
  8
0
370
              25
  6
Continuous
 62
               7
100
AcDbVertex
100
AcDb2dVertex
 10
199.0269331197
 20
133.76983536200001
 30
0.0
  0
VERTEX
  5
257
100
AcDbEntity
  8
0
370
              25
  6
Continuous
 62
               7
100
AcDbVertex
100
AcDb2dVertex
 10
199.65133654280001
 20
133.46427731119999
 30
0.0
  0
VERTEX
  5
258
100
AcDbEntity
  8
0
370
              25
  6
Continuous
 62
               7
100
AcDbVertex
100
AcDb2dVertex
 10
200.29909515599999
 20
133.17757667890001
 30
0.0
  0
VERTEX
  5
259
100
AcDbEntity
  8
0
370
              25
  6
Continuous
 62
               7
100
AcDbVertex
100
AcDb2dVertex
 10
200.9691582925
 20
132.9101984946
 30
0.0
  0
VERTEX
  5
25A
100
AcDbEntity
  8
0
370
              25
  6
Continuous
 62
               7
100
AcDbVertex
100
AcDb2dVertex
 10
201.6604391075
 20
132.6625764467
 30
0.0
  0
VERTEX
  5
25B
100
AcDbEntity
  8
0
370
              25
  6
Continuous
 62
               7
100
AcDbVertex
100
AcDb2dVertex
 10
202.37181634090001
 20
132.4351121791
 30
0.0
  0
VERTEX
  5
25C
100
AcDbEntity
  8
0
370
              25
  6
Continuous
 62
               7
100
AcDbVertex
100
AcDb2dVertex
 10
203.1021361363
 20
132.2281746397
 30
0.0
  0
VERTEX
  5
25D
100
AcDbEntity
  8
0
370
              25
  6
Continuous
 62
               7
100
AcDbVertex
100
AcDb2dVertex
 10
203.85021391219999
 20
132.04209948190001
 30
0.0
  0
VERTEX
  5
25E
100
AcDbEntity
  8
0
370
              25
  6
Continuous
 62
               7
100
AcDbVertex
100
AcDb2dVertex
 10
204.61483628389999
 20
131.87718852020001
 30
0.0
  0
VERTEX
  5
25F
100
AcDbEntity
  8
0
370
              25
  6
Continuous
 62
               7
100
AcDbVertex
100
AcDb2dVertex
 10
205.39476303090001
 20
131.7337092409
 30
0.0
  0
VERTEX
  5
260
100
AcDbEntity
  8
0
370
              25
  6
Continuous
 62
               7
100
AcDbVertex
100
AcDb2dVertex
 10
206.18872910939999
 20
131.61189436789999
 30
0.0
  0
VERTEX
  5
261
100
AcDbEntity
  8
0
370
              25
  6
Continuous
 62
               7
100
AcDbVertex
100
AcDb2dVertex
 10
206.99544670329999
 20
131.51194148530001
 30
0.0
  0
VERTEX
  5
262
100
AcDbEntity
  8
0
370
              25
  6
Continuous
 62
               7
100
AcDbVertex
100
AcDb2dVertex
 10
207.81360731390001
 20
131.43401271709999
 30
0.0
  0
VERTEX
  5
263
100
AcDbEntity
  8
0
370
              25
  6
Continuous
 62
               7
100
AcDbVertex
100
AcDb2dVertex
 10
208.64188388159999
 20
131.37823446409999
 30
0.0
  0
VERTEX
  5
264
100
AcDbEntity
  8
0
370
              25
  6
Continuous
 62
               7
100
AcDbVertex
100
AcDb2dVertex
 10
209.47893293870001
 20
131.3446971987
 30
0.0
  0
VERTEX
  5
265
100
AcDbEntity
  8
0
370
              25
  6
Continuous
 62
               7
100
AcDbVertex
100
AcDb2dVertex
 10
210.32339678869999
 20
131.3334553185
 30
0.0
  0
VERTEX
  5
266
100
AcDbEntity
  8
0
370
              25
  6
Continuous
 62
               7
100
AcDbVertex
100
AcDb2dVertex
 10
211.17390570809999
 20
131.34452705800001
 30
0.0
  0
VERTEX
  5
267
100
AcDbEntity
  8
0
370
              25
  6
Continuous
 62
               7
100
AcDbVertex
100
AcDb2dVertex
 10
212.0290801683
 20
131.37789445870001
 30
0.0
  0
VERTEX
  5
268
100
AcDbEntity
  8
0
370
              25
  6
Continuous
 62
               7
100
AcDbVertex
100
AcDb2dVertex
 10
212.88753307330001
 20
131.43350339849999
 30
0.0
  0
VERTEX
  5
269
100
AcDbEntity
  8
0
370
              25
  6
Continuous
 62
               7
100
AcDbVertex
100
AcDb2dVertex
 10
213.74787200919999
 20
131.51126367960001
 30
0.0
  0
VERTEX
  5
26A
100
AcDbEntity
  8
0
370
              25
  6
Continuous
 62
               7
100
AcDbVertex
100
AcDb2dVertex
 10
214.6087015032
 20
131.61104917450001
 30
0.0
  0
VERTEX
  5
26B
100
AcDbEntity
  8
0
370
              25
  6
Continuous
 62
               7
100
AcDbVertex
100
AcDb2dVertex
 10
215.4686252866
 20
131.73269803069999
 30
0.0
  0
VERTEX
  5
26C
100
AcDbEntity
  8
0
370
              25
  6
Continuous
 62
               7
100
AcDbVertex
100
AcDb2dVertex
 10
216.3262485601
 20
131.87601293340001
 30
0.0
  0
VERTEX
  5
26D
100
AcDbEntity
  8
0
370
              25
  6
Continuous
 62
               7
100
AcDbVertex
100
AcDb2dVertex
 10
217.18018025539999
 20
132.04076142529999
 30
0.0
  0
VERTEX
  5
26E
100
AcDbEntity
  8
0
370
              25
  6
Continuous
 62
               7
100
AcDbVertex
100
AcDb2dVertex
 10
218.02903529220001
 20
132.2266762836
 30
0.0
  0
VERTEX
  5
26F
100
AcDbEntity
  8
0
370
              25
  6
Continuous
 62
               7
100
AcDbVertex
100
AcDb2dVertex
 10
218.87143682460001
 20
132.43345595400001
 30
0.0
  0
VERTEX
  5
270
100
AcDbEntity
  8
0
370
              25
  6
Continuous
 62
               7
100
AcDbVertex
100
AcDb2dVertex
 10
219.70601847430001
 20
132.66076503880001
 30
0.0
  0
VERTEX
  5
271
100
AcDbEntity
  8
0
370
              25
  6
Continuous
 62
               7
100
AcDbVertex
100
AcDb2dVertex
 10
220.53142654659999
 20
132.9082348421
 30
0.0
  0
VERTEX
  5
272
100
AcDbEntity
  8
0
370
              25
  6
Continuous
 62
               7
100
AcDbVertex
100
AcDb2dVertex
 10
221.3463222268
 20
133.17546396680001
 30
0.0
  0
VERTEX
  5
273
100
AcDbEntity
  8
0
370
              25
  6
Continuous
 62
               7
100
AcDbVertex
100
AcDb2dVertex
 10
222.1493837509
 20
133.4620189664
 30
0.0
  0
VERTEX
  5
274
100
AcDbEntity
  8
0
370
              25
  6
Continuous
 62
               7
100
AcDbVertex
100
AcDb2dVertex
 10
222.9393085504
 20
133.76743504749999
 30
0.0
  0
VERTEX
  5
275
100
AcDbEntity
  8
0
370
              25
  6
Continuous
 62
               7
100
AcDbVertex
100
AcDb2dVertex
 10
223.71481536429999
 20
134.09121682419999
 30
0.0
  0
VERTEX
  5
276
100
AcDbEntity
  8
0
370
              25
  6
Continuous
 62
               7
100
AcDbVertex
100
AcDb2dVertex
 10
224.47464631759999
 20
134.43283912129999
 30
0.0
  0
VERTEX
  5
277
100
AcDbEntity
  8
0
370
              25
  6
Continuous
 62
               7
100
AcDbVertex
100
AcDb2dVertex
 10
225.21756896190001
 20
134.79174782620001
 30
0.0
  0
VERTEX
  5
278
100
AcDbEntity
  8
0
370
              25
  6
Continuous
 62
               7
100
AcDbVertex
100
AcDb2dVertex
 10
225.9423782739
 20
135.1673607875
 30
0.0
  0
VERTEX
  5
279
100
AcDbEntity
  8
0
370
              25
  6
Continuous
 62
               7
100
AcDbVertex
100
AcDb2dVertex
 10
226.64789861009999
 20
135.5590687598
 30
0.0
  0
VERTEX
  5
27A
100
AcDbEntity
  8
0
370
              25
  6
Continuous
 62
               7
100
AcDbVertex
100
AcDb2dVertex
 10
227.33298561410001
 20
135.9662363912
 30
0.0
  0
VERTEX
  5
27B
100
AcDbEntity
  8
0
370
              25
  6
Continuous
 62
               7
100
AcDbVertex
100
AcDb2dVertex
 10
227.99652807230001
 20
136.38820325430001
 30
0.0
  0
VERTEX
  5
27C
100
AcDbEntity
  8
0
370
              25
  6
Continuous
 62
               7
100
AcDbVertex
100
AcDb2dVertex
 10
228.63744971630001
 20
136.82428491749999
 30
0.0
  0
VERTEX
  5
27D
100
AcDbEntity
  8
0
370
              25
  6
Continuous
 62
               7
100
AcDbVertex
100
AcDb2dVertex
 10
229.2547109688
 20
137.27377405460001
 30
0.0
  0
VERTEX
  5
27E
100
AcDbEntity
  8
0
370
              25
  6
Continuous
 62
               7
100
AcDbVertex
100
AcDb2dVertex
 10
229.84731062989999
 20
137.73594159250001
 30
0.0
  0
VERTEX
  5
27F
100
AcDbEntity
  8
0
370
              25
  6
Continuous
 62
               7
100
AcDbVertex
100
AcDb2dVertex
 10
230.41428750079999
 20
138.21003789389999
 30
0.0
  0
VERTEX
  5
280
100
AcDbEntity
  8
0
370
              25
  6
Continuous
 62
               7
100
AcDbVertex
100
AcDb2dVertex
 10
230.95472194289999
 20
138.6952939729
 30
0.0
  0
VERTEX
  5
281
100
AcDbEntity
  8
0
370
              25
  6
Continuous
 62
               7
100
AcDbVertex
100
AcDb2dVertex
 10
231.46773736950001
 20
139.1909227422
 30
0.0
  0
VERTEX
  5
282
100
AcDbEntity
  8
0
370
              25
  6
Continuous
 62
               7
100
AcDbVertex
100
AcDb2dVertex
 10
231.95250166779999
 20
139.69612029020001
 30
0.0
  0
VERTEX
  5
283
100
AcDbEntity
  8
0
370
              25
  6
Continuous
 62
               7
100
AcDbVertex
100
AcDb2dVertex
 10
232.4082285483
 20
140.21006718469999
 30
0.0
  0
VERTEX
  5
284
100
AcDbEntity
  8
0
370
              25
  6
Continuous
 62
               7
100
AcDbVertex
100
AcDb2dVertex
 10
232.8341788203
 20
140.73192980190001
 30
0.0
  0
VERTEX
  5
285
100
AcDbEntity
  8
0
370
              25
  6
Continuous
 62
               7
100
AcDbVertex
100
AcDb2dVertex
 10
233.22966159090001
 20
141.2608616787
 30
0.0
  0
VERTEX
  5
286
100
AcDbEntity
  8
0
370
              25
  6
Continuous
 62
               7
100
AcDbVertex
100
AcDb2dVertex
 10
233.59403538570001
 20
141.79600488560001
 30
0.0
  0
VERTEX
  5
287
100
AcDbEntity
  8
0
370
              25
  6
Continuous
 62
               7
100
AcDbVertex
100
AcDb2dVertex
 10
233.92670918889999
 20
142.33649141859999
 30
0.0
  0
VERTEX
  5
288
100
AcDbEntity
  8
0
370
              25
  6
Continuous
 62
               7
100
AcDbVertex
100
AcDb2dVertex
 10
234.22714340249999
 20
142.88144460629999
 30
0.0
  0
VERTEX
  5
289
100
AcDbEntity
  8
0
370
              25
  6
Continuous
 62
               7
100
AcDbVertex
100
AcDb2dVertex
 10
234.49485072109999
 20
143.42998053279999
 30
0.0
  0
VERTEX
  5
28A
100
AcDbEntity
  8
0
370
              25
  6
Continuous
 62
               7
100
AcDbVertex
100
AcDb2dVertex
 10
234.7293969225
 20
143.9812094708
 30
0.0
  0
VERTEX
  5
28B
100
AcDbEntity
  8
0
370
              25
  6
Continuous
 62
               7
100
AcDbVertex
100
AcDb2dVertex
 10
234.93040157179999
 20
144.5342373249
 30
0.0
  0
VERTEX
  5
28C
100
AcDbEntity
  8
0
370
              25
  6
Continuous
 62
               7
100
AcDbVertex
100
AcDb2dVertex
 10
235.0975386387
 20
145.0881670819
 30
0.0
  0
VERTEX
  5
28D
100
AcDbEntity
  8
0
370
              25
  6
Continuous
 62
               7
100
AcDbVertex
100
AcDb2dVertex
 10
235.2305370263
 20
145.64210026570001
 30
0.0
  0
VERTEX
  5
28E
100
AcDbEntity
  8
0
370
              25
  6
Continuous
 62
               7
100
AcDbVertex
100
AcDb2dVertex
 10
235.32918101089999
 20
146.19513839480001
 30
0.0
  0
VERTEX
  5
28F
100
AcDbEntity
  8
0
370
              25
  6
Continuous
 62
               7
100
AcDbVertex
100
AcDb2dVertex
 10
235.39331059130001
 20
146.74638443910001
 30
0.0
  0
VERTEX
  5
290
100
AcDbEntity
  8
0
370
              25
  6
Continuous
 62
               7
100
AcDbVertex
100
AcDb2dVertex
 10
235.4228217493
 20
147.29494427559999
 30
0.0
  0
VERTEX
  5
291
100
AcDbEntity
  8
0
370
              25
  6
Continuous
 62
               7
100
AcDbVertex
100
AcDb2dVertex
 10
235.41766661759999
 20
147.8399281383
 30
0.0
  0
VERTEX
  5
292
100
AcDbEntity
  8
0
370
              25
  6
Continuous
 62
               7
100
AcDbVertex
100
AcDb2dVertex
 10
235.37785355790001
 20
148.38045206129999
 30
0.0
  0
VERTEX
  5
293
100
AcDbEntity
  8
0
370
              25
  6
Continuous
 62
               7
100
AcDbVertex
100
AcDb2dVertex
 10
235.3034471471
 20
148.9156393129
 30
0.0
  0
VERTEX
  5
294
100
AcDbEntity
  8
0
370
              25
  6
Continuous
 62
               7
100
AcDbVertex
100
AcDb2dVertex
 10
235.28744286919999
 20
149.00560690009999
 30
0.0
  0
SEQEND
  5
295
100
AcDbEntity
  8
0
370
              25
  6
Continuous
 62
               7
  0
POLYLINE
  5
296
100
AcDbEntity
  8
0
370
              25
  6
Continuous
 62
               7
100
AcDb2dPolyline
 66
               1
 10
0.0
 20
0.0
 30
0.0
 75
               5
  0
VERTEX
  5
297
100
AcDbEntity
  8
0
370
              25
  6
Continuous
 62
               7
100
AcDbVertex
100
AcDb2dVertex
 10
192.81701843580001
 20
141.15419099670001
 30
0.0
  0
VERTEX
  5
298
100
AcDbEntity
  8
0
370
              25
  6
Continuous
 62
               7
100
AcDbVertex
100
AcDb2dVertex
 10
192.9060550632
 20
140.73593777069999
 30
0.0
  0
VERTEX
  5
299
100
AcDbEntity
  8
0
370
              25
  6
Continuous
 62
               7
100
AcDbVertex
100
AcDb2dVertex
 10
193.04923019899999
 20
140.21401802490001
 30
0.0
  0
VERTEX
  5
29A
100
AcDbEntity
  8
0
370
              25
  6
Continuous
 62
               7
100
AcDbVertex
100
AcDb2dVertex
 10
193.22646916560001
 20
139.70000759359999
 30
0.0
  0
VERTEX
  5
29B
100
AcDbEntity
  8
0
370
              25
  6
Continuous
 62
               7
100
AcDbVertex
100
AcDb2dVertex
 10
193.43748448069999
 20
139.1947402035
 30
0.0
  0
VERTEX
  5
29C
100
AcDbEntity
  8
0
370
              25
  6
Continuous
 62
               7
100
AcDbVertex
100
AcDb2dVertex
 10
193.68193387669999
 20
138.69903540019999
 30
0.0
  0
VERTEX
  5
29D
100
AcDbEntity
  8
0
370
              25
  6
Continuous
 62
               7
100
AcDbVertex
100
AcDb2dVertex
 10
193.9594208558
 20
138.2136972186
 30
0.0
  0
VERTEX
  5
29E
100
AcDbEntity
  8
0
370
              25
  6
Continuous
 62
               7
100
AcDbVertex
100
AcDb2dVertex
 10
194.26949533320001
 20
137.7395128791
 30
0.0
  0
VERTEX
  5
29F
100
AcDbEntity
  8
0
370
              25
  6
Continuous
 62
               7
100
AcDbVertex
100
AcDb2dVertex
 10
194.6116543668
 20
137.27725151050001
 30
0.0
  0
VERTEX
  5
2A0
100
AcDbEntity
  8
0
370
              25
  6
Continuous
 62
               7
100
AcDbVertex
100
AcDb2dVertex
 10
194.98534297340001
 20
136.82766290230001
 30
0.0
  0
VERTEX
  5
2A1
100
AcDbEntity
  8
0
370
              25
  6
Continuous
 62
               7
100
AcDbVertex
100
AcDb2dVertex
 10
195.3899550289
 20
136.39147628890001
 30
0.0
  0
VERTEX
  5
2A2
100
AcDbEntity
  8
0
370
              25
  6
Continuous
 62
               7
100
AcDbVertex
100
AcDb2dVertex
 10
195.8248342508
 20
135.9693991666
 30
0.0
  0
VERTEX
  5
2A3
100
AcDbEntity
  8
0
370
              25
  6
Continuous
 62
               7
100
AcDbVertex
100
AcDb2dVertex
 10
196.28927526370001
 20
135.56211614599999
 30
0.0
  0
VERTEX
  5
2A4
100
AcDbEntity
  8
0
370
              25
  6
Continuous
 62
               7
100
AcDbVertex
100
AcDb2dVertex
 10
196.7825247424
 20
135.1702878417
 30
0.0
  0
VERTEX
  5
2A5
100
AcDbEntity
  8
0
370
              25
  6
Continuous
 62
               7
100
AcDbVertex
100
AcDb2dVertex
 10
197.30378263439999
 20
134.7945498007
 30
0.0
  0
VERTEX
  5
2A6
100
AcDbEntity
  8
0
370
              25
  6
Continuous
 62
               7
100
AcDbVertex
100
AcDb2dVertex
 10
197.85220345760001
 20
134.4355114713
 30
0.0
  0
VERTEX
  5
2A7
100
AcDbEntity
  8
0
370
              25
  6
Continuous
 62
               7
100
AcDbVertex
100
AcDb2dVertex
 10
198.42689767140001
 20
134.0937552151
 30
0.0
  0
SEQEND
  5
2A8
100
AcDbEntity
  8
0
370
              25
  6
Continuous
 62
               7
  0
POLYLINE
  5
2A9
100
AcDbEntity
  8
0
370
              25
  6
Continuous
 62
               7
100
AcDb2dPolyline
 66
               1
 10
0.0
 20
0.0
 30
0.0
 75
               5
  0
VERTEX
  5
2AA
100
AcDbEntity
  8
0
370
              25
  6
Continuous
 62
               7
100
AcDbVertex
100
AcDb2dVertex
 10
200.991721799
 20
131.4758454647
 30
0.0
  0
VERTEX
  5
2AB
100
AcDbEntity
  8
0
370
              25
  6
Continuous
 62
               7
100
AcDbVertex
100
AcDb2dVertex
 10
201.5580923359
 20
131.17111670099999
 30
0.0
  0
VERTEX
  5
2AC
100
AcDbEntity
  8
0
370
              25
  6
Continuous
 62
               7
100
AcDbVertex
100
AcDb2dVertex
 10
202.14893543869999
 20
130.88491540460001
 30
0.0
  0
VERTEX
  5
2AD
100
AcDbEntity
  8
0
370
              25
  6
Continuous
 62
               7
100
AcDbVertex
100
AcDb2dVertex
 10
202.76315700200001
 20
130.6177715545
 30
0.0
  0
VERTEX
  5
2AE
100
AcDbEntity
  8
0
370
              25
  6
Continuous
 62
               7
100
AcDbVertex
100
AcDb2dVertex
 10
203.3996196288
 20
130.37017983960001
 30
0.0
  0
VERTEX
  5
2AF
100
AcDbEntity
  8
0
370
              25
  6
Continuous
 62
               7
100
AcDbVertex
100
AcDb2dVertex
 10
204.0571447369
 20
130.1425987428
 30
0.0
  0
VERTEX
  5
2B0
100
AcDbEntity
  8
0
370
              25
  6
Continuous
 62
               7
100
AcDbVertex
100
AcDb2dVertex
 10
204.734514741
 20
129.9354496917
 30
0.0
  0
VERTEX
  5
2B1
100
AcDbEntity
  8
0
370
              25
  6
Continuous
 62
               7
100
AcDbVertex
100
AcDb2dVertex
 10
205.43047530800001
 20
129.7491162789
 30
0.0
  0
VERTEX
  5
2B2
100
AcDbEntity
  8
0
370
              25
  6
Continuous
 62
               7
100
AcDbVertex
100
AcDb2dVertex
 10
206.143737679
 20
129.58394355089999
 30
0.0
  0
VERTEX
  5
2B3
100
AcDbEntity
  8
0
370
              25
  6
Continuous
 62
               7
100
AcDbVertex
100
AcDb2dVertex
 10
206.87298105630001
 20
129.44023736950001
 30
0.0
  0
VERTEX
  5
2B4
100
AcDbEntity
  8
0
370
              25
  6
Continuous
 62
               7
100
AcDbVertex
100
AcDb2dVertex
 10
207.6168550491
 20
129.31826384550001
 30
0.0
  0
VERTEX
  5
2B5
100
AcDbEntity
  8
0
370
              25
  6
Continuous
 62
               7
100
AcDbVertex
100
AcDb2dVertex
 10
208.3739821739
 20
129.21824884590001
 30
0.0
  0
VERTEX
  5
2B6
100
AcDbEntity
  8
0
370
              25
  6
Continuous
 62
               7
100
AcDbVertex
100
AcDb2dVertex
 10
209.14296040569999
 20
129.14037757529999
 30
0.0
  0
VERTEX
  5
2B7
100
AcDbEntity
  8
0
370
              25
  6
Continuous
 62
               7
100
AcDbVertex
100
AcDb2dVertex
 10
209.92236577380001
 20
129.0847942334
 30
0.0
  0
VERTEX
  5
2B8
100
AcDbEntity
  8
0
370
              25
  6
Continuous
 62
               7
100
AcDbVertex
100
AcDb2dVertex
 10
210.71075499880001
 20
129.05160174790001
 30
0.0
  0
VERTEX
  5
2B9
100
AcDbEntity
  8
0
370
              25
  6
Continuous
 62
               7
100
AcDbVertex
100
AcDb2dVertex
 10
211.50666816539999
 20
129.04086158339999
 30
0.0
  0
VERTEX
  5
2BA
100
AcDbEntity
  8
0
370
              25
  6
Continuous
 62
               7
100
AcDbVertex
100
AcDb2dVertex
 10
212.30863142570001
 20
129.05259362839999
 30
0.0
  0
VERTEX
  5
2BB
100
AcDbEntity
  8
0
370
              25
  6
Continuous
 62
               7
100
AcDbVertex
100
AcDb2dVertex
 10
213.11515972820001
 20
129.08677615779999
 30
0.0
  0
VERTEX
  5
2BC
100
AcDbEntity
  8
0
370
              25
  6
Continuous
 62
               7
100
AcDbVertex
100
AcDb2dVertex
 10
213.9247595683
 20
129.14334587339999
 30
0.0
  0
VERTEX
  5
2BD
100
AcDbEntity
  8
0
370
              25
  6
Continuous
 62
               7
100
AcDbVertex
100
AcDb2dVertex
 10
214.7359317534
 20
129.22219802110001
 30
0.0
  0
VERTEX
  5
2BE
100
AcDbEntity
  8
0
370
              25
  6
Continuous
 62
               7
100
AcDbVertex
100
AcDb2dVertex
 10
215.5471741794
 20
129.323186585
 30
0.0
  0
VERTEX
  5
2BF
100
AcDbEntity
  8
0
370
              25
  6
Continuous
 62
               7
100
AcDbVertex
100
AcDb2dVertex
 10
216.35698461199999
 20
129.44612455730001
 30
0.0
  0
VERTEX
  5
2C0
100
AcDbEntity
  8
0
370
              25
  6
Continuous
 62
               7
100
AcDbVertex
100
AcDb2dVertex
 10
217.16386346869999
 20
129.59078428539999
 30
0.0
  0
VERTEX
  5
2C1
100
AcDbEntity
  8
0
370
              25
  6
Continuous
 62
               7
100
AcDbVertex
100
AcDb2dVertex
 10
217.96631659569999
 20
129.75689789259999
 30
0.0
  0
VERTEX
  5
2C2
100
AcDbEntity
  8
0
370
              25
  6
Continuous
 62
               7
100
AcDbVertex
100
AcDb2dVertex
 10
218.7628580345
 20
129.94415777489999
 30
0.0
  0
VERTEX
  5
2C3
100
AcDbEntity
  8
0
370
              25
  6
Continuous
 62
               7
100
AcDbVertex
100
AcDb2dVertex
 10
219.5520127737
 20
130.15221717
 30
0.0
  0
VERTEX
  5
2C4
100
AcDbEntity
  8
0
370
              25
  6
Continuous
 62
               7
100
AcDbVertex
100
AcDb2dVertex
 10
220.3323194804
 20
130.38069079990001
 30
0.0
  0
VERTEX
  5
2C5
100
AcDbEntity
  8
0
370
              25
  6
Continuous
 62
               7
100
AcDbVertex
100
AcDb2dVertex
 10
221.1023332062
 20
130.6291555839
 30
0.0
  0
VERTEX
  5
2C6
100
AcDbEntity
  8
0
370
              25
  6
Continuous
 62
               7
100
AcDbVertex
100
AcDb2dVertex
 10
221.86062806289999
 20
130.8971514225
 30
0.0
  0
VERTEX
  5
2C7
100
AcDbEntity
  8
0
370
              25
  6
Continuous
 62
               7
100
AcDbVertex
100
AcDb2dVertex
 10
222.6057998631
 20
131.1841820491
 30
0.0
  0
VERTEX
  5
2C8
100
AcDbEntity
  8
0
370
              25
  6
Continuous
 62
               7
100
AcDbVertex
100
AcDb2dVertex
 10
223.33646872
 20
131.48971594899999
 30
0.0
  0
VERTEX
  5
2C9
100
AcDbEntity
  8
0
370
              25
  6
Continuous
 62
               7
100
AcDbVertex
100
AcDb2dVertex
 10
224.0512816033
 20
131.8131873438
 30
0.0
  0
VERTEX
  5
2CA
100
AcDbEntity
  8
0
370
              25
  6
Continuous
 62
               7
100
AcDbVertex
100
AcDb2dVertex
 10
224.7489148439
 20
132.15399723900001
 30
0.0
  0
VERTEX
  5
2CB
100
AcDbEntity
  8
0
370
              25
  6
Continuous
 62
               7
100
AcDbVertex
100
AcDb2dVertex
 10
225.42807658570001
 20
132.511514533
 30
0.0
  0
VERTEX
  5
2CC
100
AcDbEntity
  8
0
370
              25
  6
Continuous
 62
               7
100
AcDbVertex
100
AcDb2dVertex
 10
226.0875091776
 20
132.88507718610001
 30
0.0
  0
VERTEX
  5
2CD
100
AcDbEntity
  8
0
370
              25
  6
Continuous
 62
               7
100
AcDbVertex
100
AcDb2dVertex
 10
226.72599150209999
 20
133.2739934464
 30
0.0
  0
VERTEX
  5
2CE
100
AcDbEntity
  8
0
370
              25
  6
Continuous
 62
               7
100
AcDbVertex
100
AcDb2dVertex
 10
227.342341237
 20
133.67754313029999
 30
0.0
  0
VERTEX
  5
2CF
100
AcDbEntity
  8
0
370
              25
  6
Continuous
 62
               7
100
AcDbVertex
100
AcDb2dVertex
 10
227.9354170444
 20
134.09497895690001
 30
0.0
  0
VERTEX
  5
2D0
100
AcDbEntity
  8
0
370
              25
  6
Continuous
 62
               7
100
AcDbVertex
100
AcDb2dVertex
 10
228.50412068450001
 20
134.525527931
 30
0.0
  0
VERTEX
  5
2D1
100
AcDbEntity
  8
0
370
              25
  6
Continuous
 62
               7
100
AcDbVertex
100
AcDb2dVertex
 10
229.04739904909999
 20
134.96839277500001
 30
0.0
  0
VERTEX
  5
2D2
100
AcDbEntity
  8
0
370
              25
  6
Continuous
 62
               7
100
AcDbVertex
100
AcDb2dVertex
 10
229.56424611169999
 20
135.4227534053
 30
0.0
  0
VERTEX
  5
2D3
100
AcDbEntity
  8
0
370
              25
  6
Continuous
 62
               7
100
AcDbVertex
100
AcDb2dVertex
 10
230.05370479039999
 20
135.8877684505
 30
0.0
  0
VERTEX
  5
2D4
100
AcDbEntity
  8
0
370
              25
  6
Continuous
 62
               7
100
AcDbVertex
100
AcDb2dVertex
 10
230.51486872059999
 20
136.3625768098
 30
0.0
  0
VERTEX
  5
2D5
100
AcDbEntity
  8
0
370
              25
  6
Continuous
 62
               7
100
AcDbVertex
100
AcDb2dVertex
 10
230.94688393280001
 20
136.84629924750001
 30
0.0
  0
VERTEX
  5
2D6
100
AcDbEntity
  8
0
370
              25
  6
Continuous
 62
               7
100
AcDbVertex
100
AcDb2dVertex
 10
231.34895043419999
 20
137.33804002080001
 30
0.0
  0
VERTEX
  5
2D7
100
AcDbEntity
  8
0
370
              25
  6
Continuous
 62
               7
100
AcDbVertex
100
AcDb2dVertex
 10
231.72032369030001
 20
137.8368885392
 30
0.0
  0
VERTEX
  5
2D8
100
AcDbEntity
  8
0
370
              25
  6
Continuous
 62
               7
100
AcDbVertex
100
AcDb2dVertex
 10
232.06031600329999
 20
138.34192105
 30
0.0
  0
VERTEX
  5
2D9
100
AcDbEntity
  8
0
370
              25
  6
Continuous
 62
               7
100
AcDbVertex
100
AcDb2dVertex
 10
232.36829778570001
 20
138.8522023493
 30
0.0
  0
VERTEX
  5
2DA
100
AcDbEntity
  8
0
370
              25
  6
Continuous
 62
               7
100
AcDbVertex
100
AcDb2dVertex
 10
232.643698726
 20
139.36678751349999
 30
0.0
  0
VERTEX
  5
2DB
100
AcDbEntity
  8
0
370
              25
  6
Continuous
 62
               7
100
AcDbVertex
100
AcDb2dVertex
 10
232.82050231189999
 20
139.7371636554
 30
0.0
  0
SEQEND
  5
2DC
100
AcDbEntity
  8
0
370
              25
  6
Continuous
 62
               7
  0
ARC
  5
2DD
100
AcDbEntity
  8
0
370
              25
  6
Continuous
 62
               7
100
AcDbCircle
 10
206.84812568769999
 20
142.00848465479999
 30
0.0
 40
12.051305108459829
100
AcDbArc
 50
225.72143831630004
 51
240.92487481320001
  0
POLYLINE
  5
2DE
100
AcDbEntity
  8
0
370
              25
  6
Continuous
 62
               8
100
AcDb2dPolyline
 66
               1
 10
0.0
 20
0.0
 30
0.0
 75
               5
  0
VERTEX
  5
2DF
100
AcDbEntity
  8
0
370
              25
  6
Continuous
 62
               8
100
AcDbVertex
100
AcDb2dVertex
 10
199.81389317669999
 20
199.10577823829999
 30
0.0
  0
VERTEX
  5
2E0
100
AcDbEntity
  8
0
370
              25
  6
Continuous
 62
               8
100
AcDbVertex
100
AcDb2dVertex
 10
200.11674169930001
 20
198.95048695919999
 30
0.0
  0
VERTEX
  5
2E1
100
AcDbEntity
  8
0
370
              25
  6
Continuous
 62
               8
100
AcDbVertex
100
AcDb2dVertex
 10
200.44321478750001
 20
198.8143407007
 30
0.0
  0
VERTEX
  5
2E2
100
AcDbEntity
  8
0
370
              25
  6
Continuous
 62
               8
100
AcDbVertex
100
AcDb2dVertex
 10
200.79108229900001
 20
198.69826947999999
 30
0.0
  0
VERTEX
  5
2E3
100
AcDbEntity
  8
0
370
              25
  6
Continuous
 62
               8
100
AcDbVertex
100
AcDb2dVertex
 10
201.15796794600001
 20
198.603066181
 30
0.0
  0
VERTEX
  5
2E4
100
AcDbEntity
  8
0
370
              25
  6
Continuous
 62
               8
100
AcDbVertex
100
AcDb2dVertex
 10
201.54136552750001
 20
198.52938113900001
 30
0.0
  0
VERTEX
  5
2E5
100
AcDbEntity
  8
0
370
              25
  6
Continuous
 62
               8
100
AcDbVertex
100
AcDb2dVertex
 10
201.93865604929999
 20
198.47771769740001
 30
0.0
  0
VERTEX
  5
2E6
100
AcDbEntity
  8
0
370
              25
  6
Continuous
 62
               8
100
AcDbVertex
100
AcDb2dVertex
 10
202.34712561410001
 20
198.4484287699
 30
0.0
  0
VERTEX
  5
2E7
100
AcDbEntity
  8
0
370
              25
  6
Continuous
 62
               8
100
AcDbVertex
100
AcDb2dVertex
 10
202.76398396089999
 20
198.44171442960001
 30
0.0
  0
VERTEX
  5
2E8
100
AcDbEntity
  8
0
370
              25
  6
Continuous
 62
               8
100
AcDbVertex
100
AcDb2dVertex
 10
203.18638352420001
 20
198.45762054229999
 30
0.0
  0
VERTEX
  5
2E9
100
AcDbEntity
  8
0
370
              25
  6
Continuous
 62
               8
100
AcDbVertex
100
AcDb2dVertex
 10
203.6114388869
 20
198.4960384531
 30
0.0
  0
VERTEX
  5
2EA
100
AcDbEntity
  8
0
370
              25
  6
Continuous
 62
               8
100
AcDbVertex
100
AcDb2dVertex
 10
204.03624648970001
 20
198.55670572860001
 30
0.0
  0
VERTEX
  5
2EB
100
AcDbEntity
  8
0
370
              25
  6
Continuous
 62
               8
100
AcDbVertex
100
AcDb2dVertex
 10
204.45790446609999
 20
198.63920795000001
 30
0.0
  0
VERTEX
  5
2EC
100
AcDbEntity
  8
0
370
              25
  6
Continuous
 62
               8
100
AcDbVertex
100
AcDb2dVertex
 10
204.8735324644
 20
198.7429815433
 30
0.0
  0
VERTEX
  5
2ED
100
AcDbEntity
  8
0
370
              25
  6
Continuous
 62
               8
100
AcDbVertex
100
AcDb2dVertex
 10
205.28029132399999
 20
198.86731762970001
 30
0.0
  0
VERTEX
  5
2EE
100
AcDbEntity
  8
0
370
              25
  6
Continuous
 62
               8
100
AcDbVertex
100
AcDb2dVertex
 10
205.6754024695
 20
199.01136686769999
 30
0.0
  0
VERTEX
  5
2EF
100
AcDbEntity
  8
0
370
              25
  6
Continuous
 62
               8
100
AcDbVertex
100
AcDb2dVertex
 10
206.056166891
 20
199.17414525480001
 30
0.0
  0
VERTEX
  5
2F0
100
AcDbEntity
  8
0
370
              25
  6
Continuous
 62
               8
100
AcDbVertex
100
AcDb2dVertex
 10
206.41998358149999
 20
199.35454084969999
 30
0.0
  0
VERTEX
  5
2F1
100
AcDbEntity
  8
0
370
              25
  6
Continuous
 62
               8
100
AcDbVertex
100
AcDb2dVertex
 10
206.76436730419999
 20
199.55132136750001
 30
0.0
  0
VERTEX
  5
2F2
100
AcDbEntity
  8
0
370
              25
  6
Continuous
 62
               8
100
AcDbVertex
100
AcDb2dVertex
 10
207.08696556890001
 20
199.7631425978
 30
0.0
  0
VERTEX
  5
2F3
100
AcDbEntity
  8
0
370
              25
  6
Continuous
 62
               8
100
AcDbVertex
100
AcDb2dVertex
 10
207.38557470239999
 20
199.98855758670001
 30
0.0
  0
VERTEX
  5
2F4
100
AcDbEntity
  8
0
370
              25
  6
Continuous
 62
               8
100
AcDbVertex
100
AcDb2dVertex
 10
207.65815490150001
 20
200.2260265214
 30
0.0
  0
VERTEX
  5
2F5
100
AcDbEntity
  8
0
370
              25
  6
Continuous
 62
               8
100
AcDbVertex
100
AcDb2dVertex
 10
207.9028441671
 20
200.47392724810001
 30
0.0
  0
VERTEX
  5
2F6
100
AcDbEntity
  8
0
370
              25
  6
Continuous
 62
               8
100
AcDbVertex
100
AcDb2dVertex
 10
208.1179710234
 20
200.73056635360001
 30
0.0
  0
VERTEX
  5
2F7
100
AcDbEntity
  8
0
370
              25
  6
Continuous
 62
               8
100
AcDbVertex
100
AcDb2dVertex
 10
208.3020659359
 20
200.9941907326
 30
0.0
  0
VERTEX
  5
2F8
100
AcDbEntity
  8
0
370
              25
  6
Continuous
 62
               8
100
AcDbVertex
100
AcDb2dVertex
 10
208.45387134949999
 20
201.2629995632
 30
0.0
  0
VERTEX
  5
2F9
100
AcDbEntity
  8
0
370
              25
  6
Continuous
 62
               8
100
AcDbVertex
100
AcDb2dVertex
 10
208.5723502795
 20
201.53515660849999
 30
0.0
  0
VERTEX
  5
2FA
100
AcDbEntity
  8
0
370
              25
  6
Continuous
 62
               8
100
AcDbVertex
100
AcDb2dVertex
 10
208.6566933945
 20
201.80880276010001
 30
0.0
  0
VERTEX
  5
2FB
100
AcDbEntity
  8
0
370
              25
  6
Continuous
 62
               8
100
AcDbVertex
100
AcDb2dVertex
 10
208.70632454560001
 20
202.0820687371
 30
0.0
  0
VERTEX
  5
2FC
100
AcDbEntity
  8
0
370
              25
  6
Continuous
 62
               8
100
AcDbVertex
100
AcDb2dVertex
 10
208.72090470160001
 20
202.3530878558
 30
0.0
  0
VERTEX
  5
2FD
100
AcDbEntity
  8
0
370
              25
  6
Continuous
 62
               8
100
AcDbVertex
100
AcDb2dVertex
 10
208.70033426539999
 20
202.620008781
 30
0.0
  0
VERTEX
  5
2FE
100
AcDbEntity
  8
0
370
              25
  6
Continuous
 62
               8
100
AcDbVertex
100
AcDb2dVertex
 10
208.64475375390001
 20
202.88100817200001
 30
0.0
  0
VERTEX
  5
2FF
100
AcDbEntity
  8
0
370
              25
  6
Continuous
 62
               8
100
AcDbVertex
100
AcDb2dVertex
 10
208.55454283829999
 20
203.13430313820001
 30
0.0
  0
VERTEX
  5
300
100
AcDbEntity
  8
0
370
              25
  6
Continuous
 62
               8
100
AcDbVertex
100
AcDb2dVertex
 10
208.4303177507
 20
203.37816341839999
 30
0.0
  0
VERTEX
  5
301
100
AcDbEntity
  8
0
370
              25
  6
Continuous
 62
               8
100
AcDbVertex
100
AcDb2dVertex
 10
208.27292707429999
 20
203.61092319939999
 30
0.0
  0
VERTEX
  5
302
100
AcDbEntity
  8
0
370
              25
  6
Continuous
 62
               8
100
AcDbVertex
100
AcDb2dVertex
 10
208.08344594709999
 20
203.83099249590001
 30
0.0
  0
VERTEX
  5
303
100
AcDbEntity
  8
0
370
              25
  6
Continuous
 62
               8
100
AcDbVertex
100
AcDb2dVertex
 10
207.8631687173
 20
204.03686801160001
 30
0.0
  0
VERTEX
  5
304
100
AcDbEntity
  8
0
370
              25
  6
Continuous
 62
               8
100
AcDbVertex
100
AcDb2dVertex
 10
207.61360010179999
 20
204.22714340780001
 30
0.0
  0
VERTEX
  5
305
100
AcDbEntity
  8
0
370
              25
  6
Continuous
 62
               8
100
AcDbVertex
100
AcDb2dVertex
 10
207.50840291329999
 20
204.2970219771
 30
0.0
  0
SEQEND
  5
306
100
AcDbEntity
  8
0
370
              25
  6
Continuous
 62
               8
  0
POLYLINE
  5
307
100
AcDbEntity
  8
0
370
              25
  6
Continuous
 62
               8
100
AcDb2dPolyline
 66
               1
 10
0.0
 20
0.0
 30
0.0
 75
               5
  0
VERTEX
  5
308
100
AcDbEntity
  8
0
370
              25
  6
Continuous
 62
               8
100
AcDbVertex
100
AcDb2dVertex
 10
198.9924177131
 20
202.72269013260001
 30
0.0
  0
VERTEX
  5
309
100
AcDbEntity
  8
0
370
              25
  6
Continuous
 62
               8
100
AcDbVertex
100
AcDb2dVertex
 10
198.84827214800001
 20
202.51210641649999
 30
0.0
  0
VERTEX
  5
30A
100
AcDbEntity
  8
0
370
              25
  6
Continuous
 62
               8
100
AcDbVertex
100
AcDb2dVertex
 10
198.69646673439999
 20
202.2432975859
 30
0.0
  0
VERTEX
  5
30B
100
AcDbEntity
  8
0
370
              25
  6
Continuous
 62
               8
100
AcDbVertex
100
AcDb2dVertex
 10
198.57798780440001
 20
201.9711405406
 30
0.0
  0
VERTEX
  5
30C
100
AcDbEntity
  8
0
370
              25
  6
Continuous
 62
               8
100
AcDbVertex
100
AcDb2dVertex
 10
198.49364468940001
 20
201.69749438900001
 30
0.0
  0
VERTEX
  5
30D
100
AcDbEntity
  8
0
370
              25
  6
Continuous
 62
               8
100
AcDbVertex
100
AcDb2dVertex
 10
198.4440135383
 20
201.42422841199999
 30
0.0
  0
VERTEX
  5
30E
100
AcDbEntity
  8
0
370
              25
  6
Continuous
 62
               8
100
AcDbVertex
100
AcDb2dVertex
 10
198.42943338219999
 20
201.15320929329999
 30
0.0
  0
VERTEX
  5
30F
100
AcDbEntity
  8
0
370
              25
  6
Continuous
 62
               8
100
AcDbVertex
100
AcDb2dVertex
 10
198.45000381840001
 20
200.8862883681
 30
0.0
  0
VERTEX
  5
310
100
AcDbEntity
  8
0
370
              25
  6
Continuous
 62
               8
100
AcDbVertex
100
AcDb2dVertex
 10
198.50558432989999
 20
200.6252889772
 30
0.0
  0
VERTEX
  5
311
100
AcDbEntity
  8
0
370
              25
  6
Continuous
 62
               8
100
AcDbVertex
100
AcDb2dVertex
 10
198.5957952455
 20
200.37199401090001
 30
0.0
  0
VERTEX
  5
312
100
AcDbEntity
  8
0
370
              25
  6
Continuous
 62
               8
100
AcDbVertex
100
AcDb2dVertex
 10
198.72002033320001
 20
200.1281337307
 30
0.0
  0
VERTEX
  5
313
100
AcDbEntity
  8
0
370
              25
  6
Continuous
 62
               8
100
AcDbVertex
100
AcDb2dVertex
 10
198.87741100950001
 20
199.8953739497
 30
0.0
  0
VERTEX
  5
314
100
AcDbEntity
  8
0
370
              25
  6
Continuous
 62
               8
100
AcDbVertex
100
AcDb2dVertex
 10
199.06689213670001
 20
199.67530465319999
 30
0.0
  0
VERTEX
  5
315
100
AcDbEntity
  8
0
370
              25
  6
Continuous
 62
               8
100
AcDbVertex
100
AcDb2dVertex
 10
199.2871693665
 20
199.46942913749999
 30
0.0
  0
VERTEX
  5
316
100
AcDbEntity
  8
0
370
              25
  6
Continuous
 62
               8
100
AcDbVertex
100
AcDb2dVertex
 10
199.53673798209999
 20
199.27915374130001
 30
0.0
  0
VERTEX
  5
317
100
AcDbEntity
  8
0
370
              25
  6
Continuous
 62
               8
100
AcDbVertex
100
AcDb2dVertex
 10
199.81389317669999
 20
199.10577823829999
 30
0.0
  0
SEQEND
  5
318
100
AcDbEntity
  8
0
370
              25
  6
Continuous
 62
               8
  0
POLYLINE
  5
319
100
AcDbEntity
  8
0
370
              25
  6
Continuous
 62
               8
100
AcDb2dPolyline
 66
               1
 10
0.0
 20
0.0
 30
0.0
 75
               5
  0
VERTEX
  5
31A
100
AcDbEntity
  8
0
370
              25
  6
Continuous
 62
               8
100
AcDbVertex
100
AcDb2dVertex
 10
188.50561147019999
 20
154.28010225470001
 30
0.0
  0
VERTEX
  5
31B
100
AcDbEntity
  8
0
370
              25
  6
Continuous
 62
               8
100
AcDbVertex
100
AcDb2dVertex
 10
189.20207124820001
 20
153.9015949585
 30
0.0
  0
VERTEX
  5
31C
100
AcDbEntity
  8
0
370
              25
  6
Continuous
 62
               8
100
AcDbVertex
100
AcDb2dVertex
 10
189.92311600720001
 20
153.541438505
 30
0.0
  0
VERTEX
  5
31D
100
AcDbEntity
  8
0
370
              25
  6
Continuous
 62
               8
100
AcDbVertex
100
AcDb2dVertex
 10
190.66787694460001
 20
153.20006685449999
 30
0.0
  0
VERTEX
  5
31E
100
AcDbEntity
  8
0
370
              25
  6
Continuous
 62
               8
100
AcDbVertex
100
AcDb2dVertex
 10
191.4354566813
 20
152.87789133320001
 30
0.0
  0
VERTEX
  5
31F
100
AcDbEntity
  8
0
370
              25
  6
Continuous
 62
               8
100
AcDbVertex
100
AcDb2dVertex
 10
192.22493034370001
 20
152.57530013760001
 30
0.0
  0
VERTEX
  5
320
100
AcDbEntity
  8
0
370
              25
  6
Continuous
 62
               8
100
AcDbVertex
100
AcDb2dVertex
 10
193.0353466773
 20
152.2926578666
 30
0.0
  0
VERTEX
  5
321
100
AcDbEntity
  8
0
370
              25
  6
Continuous
 62
               8
100
AcDbVertex
100
AcDb2dVertex
 10
193.86572919369999
 20
152.0303050819
 30
0.0
  0
VERTEX
  5
322
100
AcDbEntity
  8
0
370
              25
  6
Continuous
 62
               8
100
AcDbVertex
100
AcDb2dVertex
 10
194.7150773466
 20
151.7885578984
 30
0.0
  0
VERTEX
  5
323
100
AcDbEntity
  8
0
370
              25
  6
Continuous
 62
               8
100
AcDbVertex
100
AcDb2dVertex
 10
195.58236773760001
 20
151.56770760250001
 30
0.0
  0
VERTEX
  5
324
100
AcDbEntity
  8
0
370
              25
  6
Continuous
 62
               8
100
AcDbVertex
100
AcDb2dVertex
 10
196.46655534929999
 20
151.36802030160001
 30
0.0
  0
VERTEX
  5
325
100
AcDbEntity
  8
0
370
              25
  6
Continuous
 62
               8
100
AcDbVertex
100
AcDb2dVertex
 10
197.36657480459999
 20
151.18973660340001
 30
0.0
  0
VERTEX
  5
326
100
AcDbEntity
  8
0
370
              25
  6
Continuous
 62
               8
100
AcDbVertex
100
AcDb2dVertex
 10
198.28134165009999
 20
151.03307132579999
 30
0.0
  0
VERTEX
  5
327
100
AcDbEntity
  8
0
370
              25
  6
Continuous
 62
               8
100
AcDbVertex
100
AcDb2dVertex
 10
199.20975366299999
 20
150.89821323839999
 30
0.0
  0
VERTEX
  5
328
100
AcDbEntity
  8
0
370
              25
  6
Continuous
 62
               8
100
AcDbVertex
100
AcDb2dVertex
 10
200.15069217909999
 20
150.78532483449999
 30
0.0
  0
VERTEX
  5
329
100
AcDbEntity
  8
0
370
              25
  6
Continuous
 62
               8
100
AcDbVertex
100
AcDb2dVertex
 10
201.10302344089999
 20
150.694542136
 30
0.0
  0
VERTEX
  5
32A
100
AcDbEntity
  8
0
370
              25
  6
Continuous
 62
               8
100
AcDbVertex
100
AcDb2dVertex
 10
202.06559996319999
 20
150.6259745289
 30
0.0
  0
VERTEX
  5
32B
100
AcDbEntity
  8
0
370
              25
  6
Continuous
 62
               8
100
AcDbVertex
100
AcDb2dVertex
 10
203.0372619165
 20
150.57970463180001
 30
0.0
  0
VERTEX
  5
32C
100
AcDbEntity
  8
0
370
              25
  6
Continuous
 62
               8
100
AcDbVertex
100
AcDb2dVertex
 10
204.0168385236
 20
150.55578819639999
 30
0.0
  0
VERTEX
  5
32D
100
AcDbEntity
  8
0
370
              25
  6
Continuous
 62
               8
100
AcDbVertex
100
AcDb2dVertex
 10
205.0031494712
 20
150.55425404010001
 30
0.0
  0
VERTEX
  5
32E
100
AcDbEntity
  8
0
370
              25
  6
Continuous
 62
               8
100
AcDbVertex
100
AcDb2dVertex
 10
205.9950063313
 20
150.57510401139999
 30
0.0
  0
VERTEX
  5
32F
100
AcDbEntity
  8
0
370
              25
  6
Continuous
 62
               8
100
AcDbVertex
100
AcDb2dVertex
 10
206.99121399360001
 20
150.61831298780001
 30
0.0
  0
VERTEX
  5
330
100
AcDbEntity
  8
0
370
              25
  6
Continuous
 62
               8
100
AcDbVertex
100
AcDb2dVertex
 10
207.99057210550001
 20
150.68382890570001
 30
0.0
  0
VERTEX
  5
331
100
AcDbEntity
  8
0
370
              25
  6
Continuous
 62
               8
100
AcDbVertex
100
AcDb2dVertex
 10
208.99187651840001
 20
150.77157282370001
 30
0.0
  0
VERTEX
  5
332
100
AcDbEntity
  8
0
370
              25
  6
Continuous
 62
               8
100
AcDbVertex
100
AcDb2dVertex
 10
209.99392073839999
 20
150.88143901710001
 30
0.0
  0
VERTEX
  5
333
100
AcDbEntity
  8
0
370
              25
  6
Continuous
 62
               8
100
AcDbVertex
100
AcDb2dVertex
 10
210.99549738019999
 20
151.01329510580001
 30
0.0
  0
VERTEX
  5
334
100
AcDbEntity
  8
0
370
              25
  6
Continuous
 62
               8
100
AcDbVertex
100
AcDb2dVertex
 10
211.9953996221
 20
151.1669822133
 30
0.0
  0
VERTEX
  5
335
100
AcDbEntity
  8
0
370
              25
  6
Continuous
 62
               8
100
AcDbVertex
100
AcDb2dVertex
 10
212.99242265960001
 20
151.34231515880001
 30
0.0
  0
VERTEX
  5
336
100
AcDbEntity
  8
0
370
              25
  6
Continuous
 62
               8
100
AcDbVertex
100
AcDb2dVertex
 10
213.9853651578
 20
151.53908267969999
 30
0.0
  0
VERTEX
  5
337
100
AcDbEntity
  8
0
370
              25
  6
Continuous
 62
               8
100
AcDbVertex
100
AcDb2dVertex
 10
214.97303069809999
 20
151.75704768630001
 30
0.0
  0
VERTEX
  5
338
100
AcDbEntity
  8
0
370
              25
  6
Continuous
 62
               8
100
AcDbVertex
100
AcDb2dVertex
 10
215.9542292207
 20
151.995947548
 30
0.0
  0
VERTEX
  5
339
100
AcDbEntity
  8
0
370
              25
  6
Continuous
 62
               8
100
AcDbVertex
100
AcDb2dVertex
 10
216.9277784576
 20
152.25549440890001
 30
0.0
  0
VERTEX
  5
33A
100
AcDbEntity
  8
0
370
              25
  6
Continuous
 62
               8
100
AcDbVertex
100
AcDb2dVertex
 10
217.89250535790001
 20
152.53537553530001
 30
0.0
  0
VERTEX
  5
33B
100
AcDbEntity
  8
0
370
              25
  6
Continuous
 62
               8
100
AcDbVertex
100
AcDb2dVertex
 10
218.84724750079999
 20
152.8352536923
 30
0.0
  0
VERTEX
  5
33C
100
AcDbEntity
  8
0
370
              25
  6
Continuous
 62
               8
100
AcDbVertex
100
AcDb2dVertex
 10
219.7908544963
 20
153.15476754989999
 30
0.0
  0
VERTEX
  5
33D
100
AcDbEntity
  8
0
370
              25
  6
Continuous
 62
               8
100
AcDbVertex
100
AcDb2dVertex
 10
220.7221893716
 20
153.49353211900001
 30
0.0
  0
VERTEX
  5
33E
100
AcDbEntity
  8
0
370
              25
  6
Continuous
 62
               8
100
AcDbVertex
100
AcDb2dVertex
 10
221.64012994070001
 20
153.85113921460001
 30
0.0
  0
VERTEX
  5
33F
100
AcDbEntity
  8
0
370
              25
  6
Continuous
 62
               8
100
AcDbVertex
100
AcDb2dVertex
 10
222.5435701566
 20
154.2271579479
 30
0.0
  0
VERTEX
  5
340
100
AcDbEntity
  8
0
370
              25
  6
Continuous
 62
               8
100
AcDbVertex
100
AcDb2dVertex
 10
223.43142144430001
 20
154.62113524579999
 30
0.0
  0
VERTEX
  5
341
100
AcDbEntity
  8
0
370
              25
  6
Continuous
 62
               8
100
AcDbVertex
100
AcDb2dVertex
 10
224.3026140122
 20
155.03259639620001
 30
0.0
  0
VERTEX
  5
342
100
AcDbEntity
  8
0
370
              25
  6
Continuous
 62
               8
100
AcDbVertex
100
AcDb2dVertex
 10
225.15609814090001
 20
155.46104562049999
 30
0.0
  0
VERTEX
  5
343
100
AcDbEntity
  8
0
370
              25
  6
Continuous
 62
               8
100
AcDbVertex
100
AcDb2dVertex
 10
225.99084544869999
 20
155.90596667080001
 30
0.0
  0
VERTEX
  5
344
100
AcDbEntity
  8
0
370
              25
  6
Continuous
 62
               8
100
AcDbVertex
100
AcDb2dVertex
 10
226.8058501301
 20
156.3668234518
 30
0.0
  0
VERTEX
  5
345
100
AcDbEntity
  8
0
370
              25
  6
Continuous
 62
               8
100
AcDbVertex
100
AcDb2dVertex
 10
227.60013016779999
 20
156.84306066709999
 30
0.0
  0
VERTEX
  5
346
100
AcDbEntity
  8
0
370
              25
  6
Continuous
 62
               8
100
AcDbVertex
100
AcDb2dVertex
 10
228.37272851629999
 20
157.3341044878
 30
0.0
  0
VERTEX
  5
347
100
AcDbEntity
  8
0
370
              25
  6
Continuous
 62
               8
100
AcDbVertex
100
AcDb2dVertex
 10
229.1227142548
 20
157.8393632444
 30
0.0
  0
VERTEX
  5
348
100
AcDbEntity
  8
0
370
              25
  6
Continuous
 62
               8
100
AcDbVertex
100
AcDb2dVertex
 10
229.8491837089
 20
158.3582281395
 30
0.0
  0
VERTEX
  5
349
100
AcDbEntity
  8
0
370
              25
  6
Continuous
 62
               8
100
AcDbVertex
100
AcDb2dVertex
 10
230.5512615394
 20
158.89007398129999
 30
0.0
  0
VERTEX
  5
34A
100
AcDbEntity
  8
0
370
              25
  6
Continuous
 62
               8
100
AcDbVertex
100
AcDb2dVertex
 10
231.22810179730001
 20
159.43425993700001
 30
0.0
  0
VERTEX
  5
34B
100
AcDbEntity
  8
0
370
              25
  6
Continuous
 62
               8
100
AcDbVertex
100
AcDb2dVertex
 10
231.8788889427
 20
159.9901303048
 30
0.0
  0
VERTEX
  5
34C
100
AcDbEntity
  8
0
370
              25
  6
Continuous
 62
               8
100
AcDbVertex
100
AcDb2dVertex
 10
232.50283882790001
 20
160.55701530429999
 30
0.0
  0
VERTEX
  5
34D
100
AcDbEntity
  8
0
370
              25
  6
Continuous
 62
               8
100
AcDbVertex
100
AcDb2dVertex
 10
233.0991996418
 20
161.13423188319999
 30
0.0
  0
VERTEX
  5
34E
100
AcDbEntity
  8
0
370
              25
  6
Continuous
 62
               8
100
AcDbVertex
100
AcDb2dVertex
 10
233.66725281609999
 20
161.72108454049999
 30
0.0
  0
VERTEX
  5
34F
100
AcDbEntity
  8
0
370
              25
  6
Continuous
 62
               8
100
AcDbVertex
100
AcDb2dVertex
 10
234.20631389100001
 20
162.3168661645
 30
0.0
  0
VERTEX
  5
350
100
AcDbEntity
  8
0
370
              25
  6
Continuous
 62
               8
100
AcDbVertex
100
AcDb2dVertex
 10
234.71573333980001
 20
162.92085888459999
 30
0.0
  0
VERTEX
  5
351
100
AcDbEntity
  8
0
370
              25
  6
Continuous
 62
               8
100
AcDbVertex
100
AcDb2dVertex
 10
235.19489735179999
 20
163.53233493670001
 30
0.0
  0
VERTEX
  5
352
100
AcDbEntity
  8
0
370
              25
  6
Continuous
 62
               8
100
AcDbVertex
100
AcDb2dVertex
 10
235.64322857170001
 20
164.15055753979999
 30
0.0
  0
VERTEX
  5
353
100
AcDbEntity
  8
0
370
              25
  6
Continuous
 62
               8
100
AcDbVertex
100
AcDb2dVertex
 10
236.06018679530001
 20
164.77478178390001
 30
0.0
  0
VERTEX
  5
354
100
AcDbEntity
  8
0
370
              25
  6
Continuous
 62
               8
100
AcDbVertex
100
AcDb2dVertex
 10
236.44526962040001
 20
165.40425552720001
 30
0.0
  0
VERTEX
  5
355
100
AcDbEntity
  8
0
370
              25
  6
Continuous
 62
               8
100
AcDbVertex
100
AcDb2dVertex
 10
236.79801305219999
 20
166.038220303
 30
0.0
  0
VERTEX
  5
356
100
AcDbEntity
  8
0
370
              25
  6
Continuous
 62
               8
100
AcDbVertex
100
AcDb2dVertex
 10
237.11799206219999
 20
166.67591223310001
 30
0.0
  0
VERTEX
  5
357
100
AcDbEntity
  8
0
370
              25
  6
Continuous
 62
               8
100
AcDbVertex
100
AcDb2dVertex
 10
237.40482110089999
 20
167.31656294839999
 30
0.0
  0
VERTEX
  5
358
100
AcDbEntity
  8
0
370
              25
  6
Continuous
 62
               8
100
AcDbVertex
100
AcDb2dVertex
 10
237.65815456140001
 20
167.95940051470001
 30
0.0
  0
VERTEX
  5
359
100
AcDbEntity
  8
0
370
              25
  6
Continuous
 62
               8
100
AcDbVertex
100
AcDb2dVertex
 10
237.87768719670001
 20
168.60365036280001
 30
0.0
  0
VERTEX
  5
35A
100
AcDbEntity
  8
0
370
              25
  6
Continuous
 62
               8
100
AcDbVertex
100
AcDb2dVertex
 10
238.06315448710001
 20
169.24853622169999
 30
0.0
  0
VERTEX
  5
35B
100
AcDbEntity
  8
0
370
              25
  6
Continuous
 62
               8
100
AcDbVertex
100
AcDb2dVertex
 10
238.21433295899999
 20
169.89328105429999
 30
0.0
  0
VERTEX
  5
35C
100
AcDbEntity
  8
0
370
              25
  6
Continuous
 62
               8
100
AcDbVertex
100
AcDb2dVertex
 10
238.331040454
 20
170.5371079933
 30
0.0
  0
VERTEX
  5
35D
100
AcDbEntity
  8
0
370
              25
  6
Continuous
 62
               8
100
AcDbVertex
100
AcDb2dVertex
 10
238.41313634869999
 20
171.17924127730001
 30
0.0
  0
VERTEX
  5
35E
100
AcDbEntity
  8
0
370
              25
  6
Continuous
 62
               8
100
AcDbVertex
100
AcDb2dVertex
 10
238.4605217239
 20
171.8189071857
 30
0.0
  0
VERTEX
  5
35F
100
AcDbEntity
  8
0
370
              25
  6
Continuous
 62
               8
100
AcDbVertex
100
AcDb2dVertex
 10
238.473139484
 20
172.45533497100001
 30
0.0
  0
VERTEX
  5
360
100
AcDbEntity
  8
0
370
              25
  6
Continuous
 62
               8
100
AcDbVertex
100
AcDb2dVertex
 10
238.45097442560001
 20
173.08775778730001
 30
0.0
  0
VERTEX
  5
361
100
AcDbEntity
  8
0
370
              25
  6
Continuous
 62
               8
100
AcDbVertex
100
AcDb2dVertex
 10
238.3940532558
 20
173.7154136142
 30
0.0
  0
VERTEX
  5
362
100
AcDbEntity
  8
0
370
              25
  6
Continuous
 62
               8
100
AcDbVertex
100
AcDb2dVertex
 10
238.30244456010001
 20
174.33754617540001
 30
0.0
  0
VERTEX
  5
363
100
AcDbEntity
  8
0
370
              25
  6
Continuous
 62
               8
100
AcDbVertex
100
AcDb2dVertex
 10
238.28774849940001
 20
174.41931057849999
 30
0.0
  0
SEQEND
  5
364
100
AcDbEntity
  8
0
370
              25
  6
Continuous
 62
               8
  0
POLYLINE
  5
365
100
AcDbEntity
  8
0
370
              25
  6
Continuous
 62
               8
100
AcDb2dPolyline
 66
               1
 10
0.0
 20
0.0
 30
0.0
 75
               5
  0
VERTEX
  5
366
100
AcDbEntity
  8
0
370
              25
  6
Continuous
 62
               8
100
AcDbVertex
100
AcDb2dVertex
 10
180.92920352159999
 20
163.8154210152
 30
0.0
  0
VERTEX
  5
367
100
AcDbEntity
  8
0
370
              25
  6
Continuous
 62
               8
100
AcDbVertex
100
AcDb2dVertex
 10
180.96806275829999
 20
163.61668200899999
 30
0.0
  0
VERTEX
  5
368
100
AcDbEntity
  8
0
370
              25
  6
Continuous
 62
               8
100
AcDbVertex
100
AcDb2dVertex
 10
181.11148275150001
 20
163.00423755930001
 30
0.0
  0
VERTEX
  5
369
100
AcDbEntity
  8
0
370
              25
  6
Continuous
 62
               8
100
AcDbVertex
100
AcDb2dVertex
 10
181.2892362547
 20
162.39917597670001
 30
0.0
  0
VERTEX
  5
36A
100
AcDbEntity
  8
0
370
              25
  6
Continuous
 62
               8
100
AcDbVertex
100
AcDb2dVertex
 10
181.50110908880001
 20
161.80222631340001
 30
0.0
  0
VERTEX
  5
36B
100
AcDbEntity
  8
0
370
              25
  6
Continuous
 62
               8
100
AcDbVertex
100
AcDb2dVertex
 10
181.74684596360001
 20
161.2141078473
 30
0.0
  0
VERTEX
  5
36C
100
AcDbEntity
  8
0
370
              25
  6
Continuous
 62
               8
100
AcDbVertex
100
AcDb2dVertex
 10
182.02615078529999
 20
160.63552921519999
 30
0.0
  0
VERTEX
  5
36D
100
AcDbEntity
  8
0
370
              25
  6
Continuous
 62
               8
100
AcDbVertex
100
AcDb2dVertex
 10
182.3386870132
 20
160.06718755930001
 30
0.0
  0
VERTEX
  5
36E
100
AcDbEntity
  8
0
370
              25
  6
Continuous
 62
               8
100
AcDbVertex
100
AcDb2dVertex
 10
182.68407806569999
 20
159.5097676872
 30
0.0
  0
VERTEX
  5
36F
100
AcDbEntity
  8
0
370
              25
  6
Continuous
 62
               8
100
AcDbVertex
100
AcDb2dVertex
 10
183.06190777340001
 20
158.96394124619999
 30
0.0
  0
VERTEX
  5
370
100
AcDbEntity
  8
0
370
              25
  6
Continuous
 62
               8
100
AcDbVertex
100
AcDb2dVertex
 10
183.47172088100001
 20
158.43036591489999
 30
0.0
  0
VERTEX
  5
371
100
AcDbEntity
  8
0
370
              25
  6
Continuous
 62
               8
100
AcDbVertex
100
AcDb2dVertex
 10
183.91302359540001
 20
157.9096846098
 30
0.0
  0
VERTEX
  5
372
100
AcDbEntity
  8
0
370
              25
  6
Continuous
 62
               8
100
AcDbVertex
100
AcDb2dVertex
 10
184.38528418140001
 20
157.40252471139999
 30
0.0
  0
VERTEX
  5
373
100
AcDbEntity
  8
0
370
              25
  6
Continuous
 62
               8
100
AcDbVertex
100
AcDb2dVertex
 10
184.88793360170001
 20
156.90949730790001
 30
0.0
  0
VERTEX
  5
374
100
AcDbEntity
  8
0
370
              25
  6
Continuous
 62
               8
100
AcDbVertex
100
AcDb2dVertex
 10
185.42036620299999
 20
156.43119645889999
 30
0.0
  0
VERTEX
  5
375
100
AcDbEntity
  8
0
370
              25
  6
Continuous
 62
               8
100
AcDbVertex
100
AcDb2dVertex
 10
185.9819404454
 20
155.96819847960001
 30
0.0
  0
VERTEX
  5
376
100
AcDbEntity
  8
0
370
              25
  6
Continuous
 62
               8
100
AcDbVertex
100
AcDb2dVertex
 10
186.57197967560001
 20
155.5210612466
 30
0.0
  0
VERTEX
  5
377
100
AcDbEntity
  8
0
370
              25
  6
Continuous
 62
               8
100
AcDbVertex
100
AcDb2dVertex
 10
187.1897729424
 20
155.0903235255
 30
0.0
  0
VERTEX
  5
378
100
AcDbEntity
  8
0
370
              25
  6
Continuous
 62
               8
100
AcDbVertex
100
AcDb2dVertex
 10
187.83457585299999
 20
154.6765043215
 30
0.0
  0
VERTEX
  5
379
100
AcDbEntity
  8
0
370
              25
  6
Continuous
 62
               8
100
AcDbVertex
100
AcDb2dVertex
 10
188.50561147019999
 20
154.28010225470001
 30
0.0
  0
SEQEND
  5
37A
100
AcDbEntity
  8
0
370
              25
  6
Continuous
 62
               8
  0
POLYLINE
  5
37B
100
AcDbEntity
  8
0
370
              25
  6
Continuous
 62
               8
100
AcDb2dPolyline
 66
               1
 10
0.0
 20
0.0
 30
0.0
 75
               5
  0
VERTEX
  5
37C
100
AcDbEntity
  8
0
370
              25
  6
Continuous
 62
               8
100
AcDbVertex
100
AcDb2dVertex
 10
189.74168620520001
 20
167.84549580629999
 30
0.0
  0
VERTEX
  5
37D
100
AcDbEntity
  8
0
370
              25
  6
Continuous
 62
               8
100
AcDbVertex
100
AcDb2dVertex
 10
190.38288330649999
 20
167.4983395173
 30
0.0
  0
VERTEX
  5
37E
100
AcDbEntity
  8
0
370
              25
  6
Continuous
 62
               8
100
AcDbVertex
100
AcDb2dVertex
 10
191.04864222640001
 20
167.1696148298
 30
0.0
  0
VERTEX
  5
37F
100
AcDbEntity
  8
0
370
              25
  6
Continuous
 62
               8
100
AcDbVertex
100
AcDb2dVertex
 10
191.73800927159999
 20
166.85979263869999
 30
0.0
  0
VERTEX
  5
380
100
AcDbEntity
  8
0
370
              25
  6
Continuous
 62
               8
100
AcDbVertex
100
AcDb2dVertex
 10
192.44999693049999
 20
166.56931676120001
 30
0.0
  0
VERTEX
  5
381
100
AcDbEntity
  8
0
370
              25
  6
Continuous
 62
               8
100
AcDbVertex
100
AcDb2dVertex
 10
193.18358528760001
 20
166.29860330139999
 30
0.0
  0
VERTEX
  5
382
100
AcDbEntity
  8
0
370
              25
  6
Continuous
 62
               8
100
AcDbVertex
100
AcDb2dVertex
 10
193.9377234847
 20
166.04804005349999
 30
0.0
  0
VERTEX
  5
383
100
AcDbEntity
  8
0
370
              25
  6
Continuous
 62
               8
100
AcDbVertex
100
AcDb2dVertex
 10
194.71133122609999
 20
165.81798594719999
 30
0.0
  0
VERTEX
  5
384
100
AcDbEntity
  8
0
370
              25
  6
Continuous
 62
               8
100
AcDbVertex
100
AcDb2dVertex
 10
195.5033003261
 20
165.60877053249999
 30
0.0
  0
VERTEX
  5
385
100
AcDbEntity
  8
0
370
              25
  6
Continuous
 62
               8
100
AcDbVertex
100
AcDb2dVertex
 10
196.31249629659999
 20
165.4206935087
 30
0.0
  0
VERTEX
  5
386
100
AcDbEntity
  8
0
370
              25
  6
Continuous
 62
               8
100
AcDbVertex
100
AcDb2dVertex
 10
197.1377599722
 20
165.25402429420001
 30
0.0
  0
VERTEX
  5
387
100
AcDbEntity
  8
0
370
              25
  6
Continuous
 62
               8
100
AcDbVertex
100
AcDb2dVertex
 10
197.9779091707
 20
165.10900164099999
 30
0.0
  0
VERTEX
  5
388
100
AcDbEntity
  8
0
370
              25
  6
Continuous
 62
               8
100
AcDbVertex
100
AcDb2dVertex
 10
198.8317403863
 20
164.98583329280001
 30
0.0
  0
VERTEX
  5
389
100
AcDbEntity
  8
0
370
              25
  6
Continuous
 62
               8
100
AcDbVertex
100
AcDb2dVertex
 10
199.6980305141
 20
164.884695687
 30
0.0
  0
VERTEX
  5
38A
100
AcDbEntity
  8
0
370
              25
  6
Continuous
 62
               8
100
AcDbVertex
100
AcDb2dVertex
 10
200.57553860190001
 20
164.80573370229999
 30
0.0
  0
VERTEX
  5
38B
100
AcDbEntity
  8
0
370
              25
  6
Continuous
 62
               8
100
AcDbVertex
100
AcDb2dVertex
 10
201.46300762780001
 20
164.74906045079999
 30
0.0
  0
VERTEX
  5
38C
100
AcDbEntity
  8
0
370
              25
  6
Continuous
 62
               8
100
AcDbVertex
100
AcDb2dVertex
 10
202.35916630080001
 20
164.7147571166
 30
0.0
  0
VERTEX
  5
38D
100
AcDbEntity
  8
0
370
              25
  6
Continuous
 62
               8
100
AcDbVertex
100
AcDb2dVertex
 10
203.26273088249999
 20
164.70287283889999
 30
0.0
  0
VERTEX
  5
38E
100
AcDbEntity
  8
0
370
              25
  6
Continuous
 62
               8
100
AcDbVertex
100
AcDb2dVertex
 10
204.1724070251
 20
164.7134246416
 30
0.0
  0
VERTEX
  5
38F
100
AcDbEntity
  8
0
370
              25
  6
Continuous
 62
               8
100
AcDbVertex
100
AcDb2dVertex
 10
205.08689162639999
 20
164.74639740949999
 30
0.0
  0
VERTEX
  5
390
100
AcDbEntity
  8
0
370
              25
  6
Continuous
 62
               8
100
AcDbVertex
100
AcDb2dVertex
 10
206.004874696
 20
164.80174390939999
 30
0.0
  0
VERTEX
  5
391
100
AcDbEntity
  8
0
370
              25
  6
Continuous
 62
               8
100
AcDbVertex
100
AcDb2dVertex
 10
206.92504123200001
 20
164.87938485800001
 30
0.0
  0
VERTEX
  5
392
100
AcDbEntity
  8
0
370
              25
  6
Continuous
 62
               8
100
AcDbVertex
100
AcDb2dVertex
 10
207.8460731047
 20
164.97920903529999
 30
0.0
  0
VERTEX
  5
393
100
AcDbEntity
  8
0
370
              25
  6
Continuous
 62
               8
100
AcDbVertex
100
AcDb2dVertex
 10
208.76665094480001
 20
165.1010734443
 30
0.0
  0
VERTEX
  5
394
100
AcDbEntity
  8
0
370
              25
  6
Continuous
 62
               8
100
AcDbVertex
100
AcDb2dVertex
 10
209.6854560335
 20
165.2448035152
 30
0.0
  0
VERTEX
  5
395
100
AcDbEntity
  8
0
370
              25
  6
Continuous
 62
               8
100
AcDbVertex
100
AcDb2dVertex
 10
210.60117219119999
 20
165.41019335620001
 30
0.0
  0
VERTEX
  5
396
100
AcDbEntity
  8
0
370
              25
  6
Continuous
 62
               8
100
AcDbVertex
100
AcDb2dVertex
 10
211.5124876635
 20
165.59700604790001
 30
0.0
  0
VERTEX
  5
397
100
AcDbEntity
  8
0
370
              25
  6
Continuous
 62
               8
100
AcDbVertex
100
AcDb2dVertex
 10
212.41809699960001
 20
165.80497398290001
 30
0.0
  0
VERTEX
  5
398
100
AcDbEntity
  8
0
370
              25
  6
Continuous
 62
               8
100
AcDbVertex
100
AcDb2dVertex
 10
213.31670292300001
 20
166.03379924910001
 30
0.0
  0
VERTEX
  5
399
100
AcDbEntity
  8
0
370
              25
  6
Continuous
 62
               8
100
AcDbVertex
100
AcDb2dVertex
 10
214.2070181892
 20
166.28315405660001
 30
0.0
  0
VERTEX
  5
39A
100
AcDbEntity
  8
0
370
              25
  6
Continuous
 62
               8
100
AcDbVertex
100
AcDb2dVertex
 10
215.08776743039999
 20
166.55268120700001
 30
0.0
  0
VERTEX
  5
39B
100
AcDbEntity
  8
0
370
              25
  6
Continuous
 62
               8
100
AcDbVertex
100
AcDb2dVertex
 10
215.95768898150001
 20
166.84199460529999
 30
0.0
  0
VERTEX
  5
39C
100
AcDbEntity
  8
0
370
              25
  6
Continuous
 62
               8
100
AcDbVertex
100
AcDb2dVertex
 10
216.8155366885
 20
167.15067981280001
 30
0.0
  0
VERTEX
  5
39D
100
AcDbEntity
  8
0
370
              25
  6
Continuous
 62
               8
100
AcDbVertex
100
AcDb2dVertex
 10
217.6600816927
 20
167.4782946409
 30
0.0
  0
VERTEX
  5
39E
100
AcDbEntity
  8
0
370
              25
  6
Continuous
 62
               8
100
AcDbVertex
100
AcDb2dVertex
 10
218.4901141915
 20
167.82436978449999
 30
0.0
  0
VERTEX
  5
39F
100
AcDbEntity
  8
0
370
              25
  6
Continuous
 62
               8
100
AcDbVertex
100
AcDb2dVertex
 10
219.30444517149999
 20
168.18840949439999
 30
0.0
  0
VERTEX
  5
3A0
100
AcDbEntity
  8
0
370
              25
  6
Continuous
 62
               8
100
AcDbVertex
100
AcDb2dVertex
 10
220.1019081112
 20
168.5698922871
 30
0.0
  0
VERTEX
  5
3A1
100
AcDbEntity
  8
0
370
              25
  6
Continuous
 62
               8
100
AcDbVertex
100
AcDb2dVertex
 10
220.8813606528
 20
168.96827169220001
 30
0.0
  0
VERTEX
  5
3A2
100
AcDbEntity
  8
0
370
              25
  6
Continuous
 62
               8
100
AcDbVertex
100
AcDb2dVertex
 10
221.64168623789999
 20
169.3829770351
 30
0.0
  0
VERTEX
  5
3A3
100
AcDbEntity
  8
0
370
              25
  6
Continuous
 62
               8
100
AcDbVertex
100
AcDb2dVertex
 10
222.3817957075
 20
169.8134142543
 30
0.0
  0
VERTEX
  5
3A4
100
AcDbEntity
  8
0
370
              25
  6
Continuous
 62
               8
100
AcDbVertex
100
AcDb2dVertex
 10
223.10062886189999
 20
170.25896675269999
 30
0.0
  0
VERTEX
  5
3A5
100
AcDbEntity
  8
0
370
              25
  6
Continuous
 62
               8
100
AcDbVertex
100
AcDb2dVertex
 10
223.79715597960001
 20
170.71899628060001
 30
0.0
  0
VERTEX
  5
3A6
100
AcDbEntity
  8
0
370
              25
  6
Continuous
 62
               8
100
AcDbVertex
100
AcDb2dVertex
 10
224.47037929210001
 20
171.19284385009999
 30
0.0
  0
VERTEX
  5
3A7
100
AcDbEntity
  8
0
370
              25
  6
Continuous
 62
               8
100
AcDbVertex
100
AcDb2dVertex
 10
225.1193344136
 20
171.67983067930001
 30
0.0
  0
VERTEX
  5
3A8
100
AcDbEntity
  8
0
370
              25
  6
Continuous
 62
               8
100
AcDbVertex
100
AcDb2dVertex
 10
225.743091722
 20
172.179259164
 30
0.0
  0
VERTEX
  5
3A9
100
AcDbEntity
  8
0
370
              25
  6
Continuous
 62
               8
100
AcDbVertex
100
AcDb2dVertex
 10
226.34075769099999
 20
172.6904138779
 30
0.0
  0
VERTEX
  5
3AA
100
AcDbEntity
  8
0
370
              25
  6
Continuous
 62
               8
100
AcDbVertex
100
AcDb2dVertex
 10
226.91147616999999
 20
173.2125625967
 30
0.0
  0
VERTEX
  5
3AB
100
AcDbEntity
  8
0
370
              25
  6
Continuous
 62
               8
100
AcDbVertex
100
AcDb2dVertex
 10
227.45442961009999
 20
173.74495734749999
 30
0.0
  0
VERTEX
  5
3AC
100
AcDbEntity
  8
0
370
              25
  6
Continuous
 62
               8
100
AcDbVertex
100
AcDb2dVertex
 10
227.96884023589999
 20
174.2868354798
 30
0.0
  0
VERTEX
  5
3AD
100
AcDbEntity
  8
0
370
              25
  6
Continuous
 62
               8
100
AcDbVertex
100
AcDb2dVertex
 10
228.45397115899999
 20
174.8374207585
 30
0.0
  0
VERTEX
  5
3AE
100
AcDbEntity
  8
0
370
              25
  6
Continuous
 62
               8
100
AcDbVertex
100
AcDb2dVertex
 10
228.909127434
 20
175.39592447539999
 30
0.0
  0
VERTEX
  5
3AF
100
AcDbEntity
  8
0
370
              25
  6
Continuous
 62
               8
100
AcDbVertex
100
AcDb2dVertex
 10
229.33365705400001
 20
175.96154657939999
 30
0.0
  0
VERTEX
  5
3B0
100
AcDbEntity
  8
0
370
              25
  6
Continuous
 62
               8
100
AcDbVertex
100
AcDb2dVertex
 10
229.72695188439999
 20
176.53347682219999
 30
0.0
  0
VERTEX
  5
3B1
100
AcDbEntity
  8
0
370
              25
  6
Continuous
 62
               8
100
AcDbVertex
100
AcDb2dVertex
 10
230.08844853420001
 20
177.11089591929999
 30
0.0
  0
VERTEX
  5
3B2
100
AcDbEntity
  8
0
370
              25
  6
Continuous
 62
               8
100
AcDbVertex
100
AcDb2dVertex
 10
230.41762916280001
 20
177.69297672339999
 30
0.0
  0
VERTEX
  5
3B3
100
AcDbEntity
  8
0
370
              25
  6
Continuous
 62
               8
100
AcDbVertex
100
AcDb2dVertex
 10
230.71402222219999
 20
178.2788854094
 30
0.0
  0
VERTEX
  5
3B4
100
AcDbEntity
  8
0
370
              25
  6
Continuous
 62
               8
100
AcDbVertex
100
AcDb2dVertex
 10
230.97720313209999
 20
178.8677826686
 30
0.0
  0
VERTEX
  5
3B5
100
AcDbEntity
  8
0
370
              25
  6
Continuous
 62
               8
100
AcDbVertex
100
AcDb2dVertex
 10
231.2067948886
 20
179.45882491149999
 30
0.0
  0
VERTEX
  5
3B6
100
AcDbEntity
  8
0
370
              25
  6
Continuous
 62
               8
100
AcDbVertex
100
AcDb2dVertex
 10
231.40246860350001
 20
180.0511654757
 30
0.0
  0
VERTEX
  5
3B7
100
AcDbEntity
  8
0
370
              25
  6
Continuous
 62
               8
100
AcDbVertex
100
AcDb2dVertex
 10
231.56394397619999
 20
180.643955839
 30
0.0
  0
VERTEX
  5
3B8
100
AcDbEntity
  8
0
370
              25
  6
Continuous
 62
               8
100
AcDbVertex
100
AcDb2dVertex
 10
231.69098969480001
 20
181.23634683509999
 30
0.0
  0
VERTEX
  5
3B9
100
AcDbEntity
  8
0
370
              25
  6
Continuous
 62
               8
100
AcDbVertex
100
AcDb2dVertex
 10
231.7834237674
 20
181.82748986940001
 30
0.0
  0
VERTEX
  5
3BA
100
AcDbEntity
  8
0
370
              25
  6
Continuous
 62
               8
100
AcDbVertex
100
AcDb2dVertex
 10
231.8411137832
 20
182.4165381354
 30
0.0
  0
VERTEX
  5
3BB
100
AcDbEntity
  8
0
370
              25
  6
Continuous
 62
               8
100
AcDbVertex
100
AcDb2dVertex
 10
231.8639771018
 20
183.00264782689999
 30
0.0
  0
VERTEX
  5
3BC
100
AcDbEntity
  8
0
370
              25
  6
Continuous
 62
               8
100
AcDbVertex
100
AcDb2dVertex
 10
231.85198097169999
 20
183.58497934760001
 30
0.0
  0
VERTEX
  5
3BD
100
AcDbEntity
  8
0
370
              25
  6
Continuous
 62
               8
100
AcDbVertex
100
AcDb2dVertex
 10
231.80514257729999
 20
184.1626985131
 30
0.0
  0
VERTEX
  5
3BE
100
AcDbEntity
  8
0
370
              25
  6
Continuous
 62
               8
100
AcDbVertex
100
AcDb2dVertex
 10
231.72352901400001
 20
184.73497774629999
 30
0.0
  0
VERTEX
  5
3BF
100
AcDbEntity
  8
0
370
              25
  6
Continuous
 62
               8
100
AcDbVertex
100
AcDb2dVertex
 10
231.60725719249999
 20
185.3009972628
 30
0.0
  0
VERTEX
  5
3C0
100
AcDbEntity
  8
0
370
              25
  6
Continuous
 62
               8
100
AcDbVertex
100
AcDb2dVertex
 10
231.45649367120001
 20
185.85994624489999
 30
0.0
  0
VERTEX
  5
3C1
100
AcDbEntity
  8
0
370
              25
  6
Continuous
 62
               8
100
AcDbVertex
100
AcDb2dVertex
 10
231.2714544172
 20
186.41102400369999
 30
0.0
  0
VERTEX
  5
3C2
100
AcDbEntity
  8
0
370
              25
  6
Continuous
 62
               8
100
AcDbVertex
100
AcDb2dVertex
 10
231.05240449760001
 20
186.95344112559999
 30
0.0
  0
VERTEX
  5
3C3
100
AcDbEntity
  8
0
370
              25
  6
Continuous
 62
               8
100
AcDbVertex
100
AcDb2dVertex
 10
230.79965769910001
 20
187.48642060329999
 30
0.0
  0
VERTEX
  5
3C4
100
AcDbEntity
  8
0
370
              25
  6
Continuous
 62
               8
100
AcDbVertex
100
AcDb2dVertex
 10
230.51357607930001
 20
188.00919894879999
 30
0.0
  0
VERTEX
  5
3C5
100
AcDbEntity
  8
0
370
              25
  6
Continuous
 62
               8
100
AcDbVertex
100
AcDb2dVertex
 10
230.19456944730001
 20
188.52102728720001
 30
0.0
  0
VERTEX
  5
3C6
100
AcDbEntity
  8
0
370
              25
  6
Continuous
 62
               8
100
AcDbVertex
100
AcDb2dVertex
 10
229.84309477689999
 20
189.02117242930001
 30
0.0
  0
VERTEX
  5
3C7
100
AcDbEntity
  8
0
370
              25
  6
Continuous
 62
               8
100
AcDbVertex
100
AcDb2dVertex
 10
229.45965555219999
 20
189.50891792199999
 30
0.0
  0
VERTEX
  5
3C8
100
AcDbEntity
  8
0
370
              25
  6
Continuous
 62
               8
100
AcDbVertex
100
AcDb2dVertex
 10
229.04480104640001
 20
189.98356507459999
 30
0.0
  0
VERTEX
  5
3C9
100
AcDbEntity
  8
0
370
              25
  6
Continuous
 62
               8
100
AcDbVertex
100
AcDb2dVertex
 10
228.59912553429999
 20
190.44443395959999
 30
0.0
  0
VERTEX
  5
3CA
100
AcDbEntity
  8
0
370
              25
  6
Continuous
 62
               8
100
AcDbVertex
100
AcDb2dVertex
 10
228.12326744200001
 20
190.89086438679999
 30
0.0
  0
VERTEX
  5
3CB
100
AcDbEntity
  8
0
370
              25
  6
Continuous
 62
               8
100
AcDbVertex
100
AcDb2dVertex
 10
227.61790843150001
 20
191.32221684890001
 30
0.0
  0
VERTEX
  5
3CC
100
AcDbEntity
  8
0
370
              25
  6
Continuous
 62
               8
100
AcDbVertex
100
AcDb2dVertex
 10
227.0837724248
 20
191.73787343769999
 30
0.0
  0
VERTEX
  5
3CD
100
AcDbEntity
  8
0
370
              25
  6
Continuous
 62
               8
100
AcDbVertex
100
AcDb2dVertex
 10
226.5216245666
 20
192.13723872899999
 30
0.0
  0
VERTEX
  5
3CE
100
AcDbEntity
  8
0
370
              25
  6
Continuous
 62
               8
100
AcDbVertex
100
AcDb2dVertex
 10
226.12852719399999
 20
192.39617168769999
 30
0.0
  0
SEQEND
  5
3CF
100
AcDbEntity
  8
0
370
              25
  6
Continuous
 62
               8
  0
POLYLINE
  5
3D0
100
AcDbEntity
  8
0
370
              25
  6
Continuous
 62
               8
100
AcDb2dPolyline
 66
               1
 10
0.0
 20
0.0
 30
0.0
 75
               5
  0
VERTEX
  5
3D1
100
AcDbEntity
  8
0
370
              25
  6
Continuous
 62
               8
100
AcDbVertex
100
AcDb2dVertex
 10
185.85794877399999
 20
184.95170467259999
 30
0.0
  0
VERTEX
  5
3D2
100
AcDbEntity
  8
0
370
              25
  6
Continuous
 62
               8
100
AcDbVertex
100
AcDb2dVertex
 10
185.72458250540001
 20
184.7687804553
 30
0.0
  0
VERTEX
  5
3D3
100
AcDbEntity
  8
0
370
              25
  6
Continuous
 62
               8
100
AcDbVertex
100
AcDb2dVertex
 10
185.331287675
 20
184.19685021250001
 30
0.0
  0
VERTEX
  5
3D4
100
AcDbEntity
  8
0
370
              25
  6
Continuous
 62
               8
100
AcDbVertex
100
AcDb2dVertex
 10
184.96979102520001
 20
183.61943111529999
 30
0.0
  0
VERTEX
  5
3D5
100
AcDbEntity
  8
0
370
              25
  6
Continuous
 62
               8
100
AcDbVertex
100
AcDb2dVertex
 10
184.64061039660001
 20
183.03735031119999
 30
0.0
  0
VERTEX
  5
3D6
100
AcDbEntity
  8
0
370
              25
  6
Continuous
 62
               8
100
AcDbVertex
100
AcDb2dVertex
 10
184.34421733720001
 20
182.45144162529999
 30
0.0
  0
VERTEX
  5
3D7
100
AcDbEntity
  8
0
370
              25
  6
Continuous
 62
               8
100
AcDbVertex
100
AcDb2dVertex
 10
184.08103642719999
 20
181.8625443661
 30
0.0
  0
VERTEX
  5
3D8
100
AcDbEntity
  8
0
370
              25
  6
Continuous
 62
               8
100
AcDbVertex
100
AcDb2dVertex
 10
183.85144467079999
 20
181.27150212320001
 30
0.0
  0
VERTEX
  5
3D9
100
AcDbEntity
  8
0
370
              25
  6
Continuous
 62
               8
100
AcDbVertex
100
AcDb2dVertex
 10
183.65577095590001
 20
180.67916155899999
 30
0.0
  0
VERTEX
  5
3DA
100
AcDbEntity
  8
0
370
              25
  6
Continuous
 62
               8
100
AcDbVertex
100
AcDb2dVertex
 10
183.4942955832
 20
180.08637119560001
 30
0.0
  0
VERTEX
  5
3DB
100
AcDbEntity
  8
0
370
              25
  6
Continuous
 62
               8
100
AcDbVertex
100
AcDb2dVertex
 10
183.36724986460001
 20
179.4939801996
 30
0.0
  0
VERTEX
  5
3DC
100
AcDbEntity
  8
0
370
              25
  6
Continuous
 62
               8
100
AcDbVertex
100
AcDb2dVertex
 10
183.274815792
 20
178.9028371652
 30
0.0
  0
VERTEX
  5
3DD
100
AcDbEntity
  8
0
370
              25
  6
Continuous
 62
               8
100
AcDbVertex
100
AcDb2dVertex
 10
183.2171257761
 20
178.31378889929999
 30
0.0
  0
VERTEX
  5
3DE
100
AcDbEntity
  8
0
370
              25
  6
Continuous
 62
               8
100
AcDbVertex
100
AcDb2dVertex
 10
183.1942624575
 20
177.72767920769999
 30
0.0
  0
VERTEX
  5
3DF
100
AcDbEntity
  8
0
370
              25
  6
Continuous
 62
               8
100
AcDbVertex
100
AcDb2dVertex
 10
183.20625858759999
 20
177.14534768710001
 30
0.0
  0
VERTEX
  5
3E0
100
AcDbEntity
  8
0
370
              25
  6
Continuous
 62
               8
100
AcDbVertex
100
AcDb2dVertex
 10
183.2530969821
 20
176.56762852150001
 30
0.0
  0
VERTEX
  5
3E1
100
AcDbEntity
  8
0
370
              25
  6
Continuous
 62
               8
100
AcDbVertex
100
AcDb2dVertex
 10
183.33471054539999
 20
175.99534928829999
 30
0.0
  0
VERTEX
  5
3E2
100
AcDbEntity
  8
0
370
              25
  6
Continuous
 62
               8
100
AcDbVertex
100
AcDb2dVertex
 10
183.45098236690001
 20
175.4293297719
 30
0.0
  0
VERTEX
  5
3E3
100
AcDbEntity
  8
0
370
              25
  6
Continuous
 62
               8
100
AcDbVertex
100
AcDb2dVertex
 10
183.60174588820001
 20
174.87038078969999
 30
0.0
  0
VERTEX
  5
3E4
100
AcDbEntity
  8
0
370
              25
  6
Continuous
 62
               8
100
AcDbVertex
100
AcDb2dVertex
 10
183.78678514219999
 20
174.31930303089999
 30
0.0
  0
VERTEX
  5
3E5
100
AcDbEntity
  8
0
370
              25
  6
Continuous
 62
               8
100
AcDbVertex
100
AcDb2dVertex
 10
184.00583506180001
 20
173.77688590899999
 30
0.0
  0
VERTEX
  5
3E6
100
AcDbEntity
  8
0
370
              25
  6
Continuous
 62
               8
100
AcDbVertex
100
AcDb2dVertex
 10
184.2585818602
 20
173.24390643140001
 30
0.0
  0
VERTEX
  5
3E7
100
AcDbEntity
  8
0
370
              25
  6
Continuous
 62
               8
100
AcDbVertex
100
AcDb2dVertex
 10
184.54466348010001
 20
172.72112808579999
 30
0.0
  0
VERTEX
  5
3E8
100
AcDbEntity
  8
0
370
              25
  6
Continuous
 62
               8
100
AcDbVertex
100
AcDb2dVertex
 10
184.86367011210001
 20
172.20929974750001
 30
0.0
  0
VERTEX
  5
3E9
100
AcDbEntity
  8
0
370
              25
  6
Continuous
 62
               8
100
AcDbVertex
100
AcDb2dVertex
 10
185.2151447825
 20
171.70915460539999
 30
0.0
  0
VERTEX
  5
3EA
100
AcDbEntity
  8
0
370
              25
  6
Continuous
 62
               8
100
AcDbVertex
100
AcDb2dVertex
 10
185.5985840072
 20
171.22140911260001
 30
0.0
  0
VERTEX
  5
3EB
100
AcDbEntity
  8
0
370
              25
  6
Continuous
 62
               8
100
AcDbVertex
100
AcDb2dVertex
 10
186.01343851300001
 20
170.74676195999999
 30
0.0
  0
VERTEX
  5
3EC
100
AcDbEntity
  8
0
370
              25
  6
Continuous
 62
               8
100
AcDbVertex
100
AcDb2dVertex
 10
186.45911402510001
 20
170.28589307499999
 30
0.0
  0
VERTEX
  5
3ED
100
AcDbEntity
  8
0
370
              25
  6
Continuous
 62
               8
100
AcDbVertex
100
AcDb2dVertex
 10
186.93497211740001
 20
169.83946264779999
 30
0.0
  0
VERTEX
  5
3EE
100
AcDbEntity
  8
0
370
              25
  6
Continuous
 62
               8
100
AcDbVertex
100
AcDb2dVertex
 10
187.44033112790001
 20
169.4081101857
 30
0.0
  0
VERTEX
  5
3EF
100
AcDbEntity
  8
0
370
              25
  6
Continuous
 62
               8
100
AcDbVertex
100
AcDb2dVertex
 10
187.97446713459999
 20
168.99245359700001
 30
0.0
  0
VERTEX
  5
3F0
100
AcDbEntity
  8
0
370
              25
  6
Continuous
 62
               8
100
AcDbVertex
100
AcDb2dVertex
 10
188.5366149928
 20
168.59308830559999
 30
0.0
  0
VERTEX
  5
3F1
100
AcDbEntity
  8
0
370
              25
  6
Continuous
 62
               8
100
AcDbVertex
100
AcDb2dVertex
 10
189.12596943119999
 20
168.21058639859999
 30
0.0
  0
VERTEX
  5
3F2
100
AcDbEntity
  8
0
370
              25
  6
Continuous
 62
               8
100
AcDbVertex
100
AcDb2dVertex
 10
189.74168620520001
 20
167.84549580629999
 30
0.0
  0
SEQEND
  5
3F3
100
AcDbEntity
  8
0
370
              25
  6
Continuous
 62
               8
  0
MTEXT
  5
3F4
100
AcDbEntity
  8
0
 62
               7
100
AcDbMText
 10
243.38333333333335
 20
114.33835069444444
 30
0.0
 40
3.0316840277777768
 41
0.0
 71
               1
 72
               1
  1
HEC-082K
  7
Arial
 73
               1
 44
0.9673603504928806
  0
ENDSEC
  0
SECTION
  2
OBJECTS
  0
DICTIONARY
  5
19
100
AcDbDictionary
280
               0
281
               1
  3
ACAD_GROUP
350
1A
  3
ACAD_MLINESTYLE
350
1B
  3
ACAD_LAYOUT
350
1E
  3
ACAD_PLOTSETTINGS
350
22
  3
ACAD_PLOTSTYLENAME
350
1F
  3
ACAD_WIPEOUT_VARS
350
23
  0
DICTIONARY
  5
1A
102
{ACAD_REACTORS
330
19
102
}
100
AcDbDictionary
280
               0
281
               1
  0
DICTIONARY
  5
1B
102
{ACAD_REACTORS
330
19
102
}
100
AcDbDictionary
280
               0
281
               1
  3
Standard
350
1C
  0
MLINESTYLE
  5
1C
102
{ACAD_REACTORS
330
1B
102
}
100
AcDbMlineStyle
  2
Standard
 70
               0
  3

 62
               0
 51
90.0
 52
90.0
 71
               2
 49
0.5
 62
             256
  6
ByLayer
 49
-0.5
 62
             256
  6
ByLayer
  0
ACDBDICTIONARYWDFLT
  5
1F
102
{ACAD_REACTORS
330
19
102
}
100
AcDbDictionary
281
               1
  3
Normal
350
1D
100
AcDbDictionaryWithDefault
340
1D
  0
ACDBPLACEHOLDER
  5
1D
102
{ACAD_REACTORS
330
1F
102
}
  0
LAYOUT
  5
20
102
{ACAD_REACTORS
330
1E
102
}
100
AcDbPlotSettings
  1

  2

  4

  6

 40
0.0
 41
0.0
 42
0.0
 43
0.0
 44
0.0
 45
0.0
 46
0.0
 47
0.0
 48
0.0
 49
0.0
140
0.0
141
0.0
142
1.0
143
1.0
 70
            1024
 72
               0
 73
               0
 74
               0
  7

 75
               0
147
1.0
148
0.0
149
0.0
100
AcDbLayout
  1
Model
 70
               0
 71
               0
 10
0.0
 20
0.0
 11
0.0
 21
0.0
 12
0.0
 22
0.0
 32
0.0
 14
0.0
 24
0.0
 34
0.0
 15
0.0
 25
0.0
 35
0.0
146
0.0
 13
0.0
 23
0.0
 33
0.0
 16
0.0
 26
0.0
 36
0.0
 17
0.0
 27
0.0
 37
0.0
 76
               0
330
A
331
0
345
0
346
0
  0
LAYOUT
  5
21
102
{ACAD_REACTORS
330
1E
102
}
100
AcDbPlotSettings
  1

  2

  4

  6

 40
0.0
 41
0.0
 42
0.0
 43
0.0
 44
0.0
 45
0.0
 46
0.0
 47
0.0
 48
0.0
 49
0.0
140
0.0
141
0.0
142
1.0
143
1.0
 70
               0
 72
               0
 73
               0
 74
               0
  7

 75
               0
147
1.0
148
0.0
149
0.0
100
AcDbLayout
  1
Layout1
 70
               0
 71
               0
 10
0.0
 20
0.0
 11
0.0
 21
0.0
 12
0.0
 22
0.0
 32
0.0
 14
0.0
 24
0.0
 34
0.0
 15
0.0
 25
0.0
 35
0.0
146
0.0
 13
0.0
 23
0.0
 33
0.0
 16
0.0
 26
0.0
 36
0.0
 17
0.0
 27
0.0
 37
0.0
 76
               0
330
B
331
0
345
0
346
0
  0
DICTIONARY
  5
1E
102
{ACAD_REACTORS
330
19
102
}
100
AcDbDictionary
280
               0
281
               1
  3
Layout1
350
21
  3
Model
350
20
  0
DICTIONARY
  5
22
102
{ACAD_REACTORS
330
19
102
}
100
AcDbDictionary
280
               0
281
               1
  0
WIPEOUTVARIABLES
  5
23
100
AcDbWipeoutVariables
 70
               1
  0
ENDSEC
  0
EOF
