  0
SECTION
  2
HEADER
  9
$ACADVER
  1
AC1015
  9
$ACADMAINTVER
 70
               6
  9
$DWGCODEPAGE
  3
ANSI_932
  9
$INSBASE
 10
0.0
 20
0.0
 30
0.0
  9
$EXTMIN
 10
121.4225113353
 20
63.86850269189631
 30
0.0
  9
$EXTMAX
 10
308.1611111111111
 20
236.44239064857132
 30
0.0
  9
$LIMMIN
 10
0.0
 20
0.0
  9
$LIMMAX
 10
0.0
 20
0.0
  9
$ORTHOMODE
 70
               0
  9
$REGENMODE
 70
               1
  9
$FILLMODE
 70
               1
  9
$QTEXTMODE
 70
               0
  9
$MIRRTEXT
 70
               1
  9
$LTSCALE
 40
12.699999999999999
  9
$ATTMODE
 70
               1
  9
$TEXTSIZE
 40
0.2
  9
$TRACEWID
 40
1.0
  9
$TEXTSTYLE
  7
Standard
  9
$CLAYER
  8
0
  9
$CELTYPE
  6
Continuous
  9
$CECOLOR
 62
             256
  9
$CELTSCALE
 40
1.0
  9
$DISPSILH
 70
               0
  9
$DIMSCALE
 40
1.0
  9
$DIMASZ
 40
0.18
  9
$DIMEXO
 40
0.0625
  9
$DIMDLI
 40
0.38
  9
$DIMRND
 40
0.0
  9
$DIMDLE
 40
0.0
  9
$DIMEXE
 40
0.18
  9
$DIMTP
 40
0.0
  9
$DIMTM
 40
0.0
  9
$DIMTXT
 40
0.18
  9
$DIMCEN
 40
0.09
  9
$DIMTSZ
 40
0.0
  9
$DIMTOL
 70
               0
  9
$DIMLIM
 70
               0
  9
$DIMTIH
 70
               1
  9
$DIMTOH
 70
               1
  9
$DIMSE1
 70
               0
  9
$DIMSE2
 70
               0
  9
$DIMTAD
 70
               0
  9
$DIMZIN
 70
               0
  9
$DIMBLK
  1

  9
$DIMASO
 70
               1
  9
$DIMSHO
 70
               1
  9
$DIMPOST
  1

  9
$DIMAPOST
  1

  9
$DIMALT
 70
               0
  9
$DIMALTD
 70
               2
  9
$DIMALTF
 40
25.399999999999999
  9
$DIMLFAC
 40
1.0
  9
$DIMTOFL
 70
               0
  9
$DIMTVP
 40
0.0
  9
$DIMTIX
 70
               0
  9
$DIMSOXD
 70
               0
  9
$DIMSAH
 70
               0
  9
$DIMBLK1
  1

  9
$DIMBLK2
  1

  9
$DIMSTYLE
  2
Standard
  9
$DIMCLRD
 70
               0
  9
$DIMCLRE
 70
               0
  9
$DIMCLRT
 70
               0
  9
$DIMTFAC
 40
1.0
  9
$DIMGAP
 40
0.09
  9
$DIMJUST
 70
               0
  9
$DIMSD1
 70
               0
  9
$DIMSD2
 70
               0
  9
$DIMTOLJ
 70
               1
  9
$DIMTZIN
 70
               0
  9
$DIMALTZ
 70
               0
  9
$DIMALTTZ
 70
               0
  9
$DIMUPT
 70
               0
  9
$DIMDEC
 70
               4
  9
$DIMTDEC
 70
               4
  9
$DIMALTU
 70
               2
  9
$DIMALTTD
 70
               2
  9
$DIMTXSTY
  7
Standard
  9
$DIMAUNIT
 70
               0
  9
$DIMADEC
 70
               0
  9
$DIMALTRND
 40
0.0
  9
$DIMAZIN
 70
               0
  9
$DIMDSEP
 70
               0
  9
$DIMATFIT
 70
               3
  9
$DIMFRAC
 70
               0
  9
$DIMLDRBLK
  1

  9
$DIMLUNIT
 70
               2
  9
$DIMLWD
 70
               0
  9
$DIMLWE
 70
               0
  9
$DIMTMOVE
 70
               0
  9
$LUNITS
 70
               2
  9
$LUPREC
 70
               4
  9
$SKETCHINC
 40
0.1
  9
$FILLETRAD
 40
0.0
  9
$AUNITS
 70
               0
  9
$AUPREC
 70
               0
  9
$MENU
  1
acad
  9
$ELEVATION
 40
0.0
  9
$PELEVATION
 40
0.0
  9
$THICKNESS
 40
0.0
  9
$LIMCHECK
 70
               0
  9
$CHAMFERA
 40
0.0
  9
$CHAMFERB
 40
0.0
  9
$CHAMFERC
 40
0.0
  9
$CHAMFERD
 40
0.0
  9
$SKPOLY
 70
               0
  9
$TDCREATE
 40
2458072.660925926
  9
$TDUCREATE
 40
0.000000000
  9
$TDUPDATE
 40
2458072.660925926
  9
$TDUUPDATE
 40
0.000000000
  9
$TDINDWG
 40
0.0000000000
  9
$TDUSRTIMER
 40
0.0000000000
  9
$USRTIMER
 70
               1
  9
$ANGBASE
 50
0.0
  9
$ANGDIR
 70
               0
  9
$PDMODE
 70
               1
  9
$PDSIZE
 40
-2.0
  9
$PLINEWID
 40
0.0
  9
$SPLFRAME
 70
               0
  9
$SPLINETYPE
 70
               6
  9
$SPLINESEGS
 70
               8
  9
$HANDSEED
  5
171
  9
$SURFTAB1
 70
               6
  9
$SURFTAB2
 70
               6
  9
$SURFTYPE
 70
               6
  9
$SURFU
 70
               6
  9
$SURFV
 70
               6
  9
$UCSBASE
  2

  9
$UCSNAME
  2

  9
$UCSORG
 10
0.0
 20
0.0
 30
0.0
  9
$UCSXDIR
 10
1.0
 20
0.0
 30
0.0
  9
$UCSYDIR
 10
0.0
 20
1.0
 30
0.0
  9
$UCSORTHOREF
  2

  9
$UCSORTHOVIEW
 70
               0
  9
$UCSORGTOP
 10
0.0
 20
0.0
 30
0.0
  9
$UCSORGBOTTOM
 10
0.0
 20
0.0
 30
0.0
  9
$UCSORGLEFT
 10
0.0
 20
0.0
 30
0.0
  9
$UCSORGRIGHT
 10
0.0
 20
0.0
 30
0.0
  9
$UCSORGFRONT
 10
0.0
 20
0.0
 30
0.0
  9
$UCSORGBACK
 10
0.0
 20
0.0
 30
0.0
  9
$PUCSBASE
  2

  9
$PUCSNAME
  2

  9
$PUCSORG
 10
0.0
 20
0.0
 30
0.0
  9
$PUCSXDIR
 10
1.0
 20
0.0
 30
0.0
  9
$PUCSYDIR
 10
0.0
 20
1.0
 30
0.0
  9
$PUCSORTHOREF
  2

  9
$PUCSORTHOVIEW
 70
               0
  9
$PUCSORGTOP
 10
0.0
 20
0.0
 30
0.0
  9
$PUCSORGBOTTOM
 10
0.0
 20
0.0
 30
0.0
  9
$PUCSORGLEFT
 10
0.0
 20
0.0
 30
0.0
  9
$PUCSORGRIGHT
 10
0.0
 20
0.0
 30
0.0
  9
$PUCSORGFRONT
 10
0.0
 20
0.0
 30
0.0
  9
$PUCSORGBACK
 10
0.0
 20
0.0
 30
0.0
  9
$USERI1
 70
               0
  9
$USERI2
 70
               0
  9
$USERI3
 70
               0
  9
$USERI4
 70
               0
  9
$USERI5
 70
               0
  9
$USERR1
 40
0.0
  9
$USERR2
 40
0.0
  9
$USERR3
 40
0.0
  9
$USERR4
 40
0.0
  9
$USERR5
 40
0.0
  9
$WORLDVIEW
 70
               1
  9
$SHADEDGE
 70
               3
  9
$SHADEDIF
 70
              70
  9
$TILEMODE
 70
               1
  9
$MAXACTVP
 70
              16
  9
$PINSBASE
 10
0.0
 20
0.0
 30
0.0
  9
$PLIMCHECK
 70
               0
  9
$PEXTMIN
 10
1.0000000000000000E+20
 20
1.0000000000000000E+20
 30
1.0000000000000000E+20
  9
$PEXTMAX
 10
-1.0000000000000000E+20
 20
-1.0000000000000000E+20
 30
-1.0000000000000000E+20
  9
$PLIMMIN
 10
0.0
 20
0.0
  9
$PLIMMAX
 10
12.0
 20
9.0
  9
$UNITMODE
 70
               0
  9
$VISRETAIN
 70
               0
  9
$PLINEGEN
 70
               1
  9
$PSLTSCALE
 70
               0
  9
$TREEDEPTH
 70
            3020
  9
$CMLSTYLE
  2
Standard
  9
$CMLJUST
 70
               0
  9
$CMLSCALE
 40
1.0
  9
$PROXYGRAPHICS
 70
               0
  9
$MEASUREMENT
 70
               1
  9
$CELWEIGHT
370
               0
  9
$ENDCAPS
280
               0
  9
$JOINSTYLE
280
               0
  9
$LWDISPLAY
290
               1
  9
$INSUNITS
 70
               4
  9
$HYPERLINKBASE
  1

  9
$STYLESHEET
  1

  9
$XEDIT
290
               1
  9
$CEPSNTYPE
380
               0
  9
$PSTYLEMODE
290
               1
  9
$FINGERPRINTGUID
  2

  9
$VERSIONGUID
  2

  9
$EXTNAMES
290
               1
  9
$PSVPSCALE
 40
0.0
  0
ENDSEC
  0
SECTION
  2
CLASSES
  0
CLASS
  1
LWPOLYLINE
  2
AcDbPolyline
  3
AutoCAD 2000
 90
    32768
280
               0
281
               1
  0
CLASS
  1
IMAGE
  2
AcDbRasterImage
  3
ISM
 90
    32895
280
               0
281
               1
  0
CLASS
  1
OLE2FRAME
  2
AcDbOle2Frame
  3
AutoCAD 2000
 90
    32768
280
               0
281
               1
  0
CLASS
  1
HATCH
  2
AcDbHatch
  3
AutoCAD 2000
 90
    32768
280
               0
281
               1
  0
CLASS
  1
DICTIONARYVAR
  2
AcDbDictionaryVar
  3
AutoCAD 2000
 90
    32768
280
               0
281
               0
  0
CLASS
  1
RASTERVARIABLES
  2
AcDbRasterVariables
  3
ISM
 90
    32768
280
               0
281
               0
  0
CLASS
  1
IMAGEDEF
  2
AcDbRasterImageDef
  3
ISM
 90
    32768
280
               0
281
               0
  0
CLASS
  1
IMAGEDEF_REACTOR
  2
AcDbRasterImageDefReactor
  3
ISM
 90
    32769
280
               0
281
               0
  0
CLASS
  1
IDBUFFER
  2
AcDbIdBuffer
  3
AutoCAD 2000
 90
    32768
280
               0
281
               0
  0
CLASS
  1
SPATIAL_FILTER
  2
AcDbSpatialFilter
  3
AutoCAD 2000
 90
    32768
280
               0
281
               0
  0
CLASS
  1
XRECORD
  2
AcDbXrecord
  3
AutoCAD 2000
 90
    32768
280
               0
281
               0
  0
CLASS
  1
SORTENTSTABLE
  2
AcDbSortentsTable
  3
AutoCAD 2000
 90
    32768
280
               0
281
               0
  0
CLASS
  1
LAYER_INDEX
  2
AcDbLayerIndex
  3
AutoCAD 2000
 90
    32768
280
               0
281
               0
  0
CLASS
  1
SPATIAL_INDEX
  2
AcDbSpatialIndex
  3
AutoCAD 2000
 90
    32768
280
               0
281
               0
  0
CLASS
  1
OBJECT_PTR
  2
CAseDLPNTableRecord
  3
"ASE-LPNTableRecord"
 90
    32769
280
               0
281
               0
  0
CLASS
  1
LAYOUT
  2
AcDbLayout
  3
AutoCAD 2000
 90
        0
280
               0
281
               0
  0
CLASS
  1
PLOTSETTINGS
  2
AcDbPlotSettings
  3
AutoCAD 2000
 90
    32768
280
               0
281
               0
  0
CLASS
  1
ACDBDICTIONARYWDFLT
  2
AcDbDictionaryWithDefault
  3
AutoCAD 2000
 90
        0
280
               0
281
               0
  0
CLASS
  1
ACDBPLACEHOLDER
  2
AcDbPlaceHolder
  3
AutoCAD 2000
 90
        0
280
               0
281
               0
  0
CLASS
  1
VBA_PROJECT
  2
AcDbVbaProject
  3
acadvba
 90
    32768
280
               0
281
               0
  0
CLASS
  1
WIPEOUT
  2
AcDbWipeout
  3
WipeOut|AutoCAD Express Tool|expresstools@autodesk.com
 90
    32895
280
               0
281
               1
  0
CLASS
  1
WIPEOUTVARIABLES
  2
AcDbWipeoutVariables
  3
WipeOut|AutoCAD Express Tool|expresstools@autodesk.com
 90
        0
280
               0
281
               0
  0
CLASS
  1
RTEXT
  2
RText
  3
RText|AutoCAD Express Tool|expresstools@autodesk.com
 90
    32768
280
               0
281
               1
  0
CLASS
  1
ARCALIGNEDTEXT
  2
AcDbArcAlignedText
  3
ATEXT|AutoCAD Express Tool|expresstools@autodesk.com
 90
    32768
280
               0
281
               1
  0
ENDSEC
  0
SECTION
  2
TABLES
  0
TABLE
  2
VPORT
  5
7
100
AcDbSymbolTable
 70
               1
  0
VPORT
  5
15
100
AcDbSymbolTableRecord
100
AcDbViewportTableRecord
  2
*ACTIVE
 70
               0
 10
0.0
 20
0.0
 11
1.0
 21
1.0
 12
214.79181122320557
 22
150.1554466702338
 13
0.0
 23
0.0
 14
1.0
 24
1.0
 15
0.0
 25
0.0
 16
0.0
 26
0.0
 36
1.0
 17
0.0
 27
0.0
 37
0.0
 40
172.57388795667501
 41
0.688564
 42
50.0
 43
0.0
 44
0.0
 50
0.0
 51
0.0
 71
               0
 72
             100
 73
               1
 74
               1
 75
               0
 76
               0
 77
               0
 78
               0
281
               0
 65
               0
110
0.0
120
0.0
130
0.0
111
1.0
121
0.0
131
0.0
112
0.0
122
1.0
132
0.0
345
0
346
0
 79
               0
146
0.0
  0
ENDTAB
  0
TABLE
  2
LTYPE
  5
4
100
AcDbSymbolTable
 70
              13
  0
LTYPE
  5
11
100
AcDbSymbolTableRecord
100
AcDbLinetypeTableRecord
  2
ByBlock
 70
              64
  3

 72
              65
 73
               0
 40
0.0
  0
LTYPE
  5
12
100
AcDbSymbolTableRecord
100
AcDbLinetypeTableRecord
  2
ByLayer
 70
              64
  3

 72
              65
 73
               0
 40
0.0
  0
LTYPE
  5
13
100
AcDbSymbolTableRecord
100
AcDbLinetypeTableRecord
  2
Continuous
 70
              64
  3
Solid line
 72
              65
 73
               0
 40
0.0
  0
LTYPE
  5
25
100
AcDbSymbolTableRecord
100
AcDbLinetypeTableRecord
  2
STYLE_01
 70
               0
  3

 72
              65
 73
               2
 40
0.15
 49
0.1
 74
               0
 49
-0.05
 74
               0
  0
LTYPE
  5
26
100
AcDbSymbolTableRecord
100
AcDbLinetypeTableRecord
  2
STYLE_02
 70
               0
  3

 72
              65
 73
               6
 40
0.9999999999999999
 49
0.4999999999999999
 74
               0
 49
-0.1
 74
               0
 49
0.1
 74
               0
 49
-0.1
 74
               0
 49
0.1
 74
               0
 49
-0.1
 74
               0
  0
LTYPE
  5
27
100
AcDbSymbolTableRecord
100
AcDbLinetypeTableRecord
  2
STYLE_03
 70
               0
  3

 72
              65
 73
               4
 40
0.7999999999999999
 49
0.4999999999999999
 74
               0
 49
-0.1
 74
               0
 49
0.1
 74
               0
 49
-0.1
 74
               0
  0
LTYPE
  5
28
100
AcDbSymbolTableRecord
100
AcDbLinetypeTableRecord
  2
STYLE_04
 70
               0
  3

 72
              65
 73
               4
 40
1.5999999999999999
 49
0.9999999999999999
 74
               0
 49
-0.2000000000000001
 74
               0
 49
0.2
 74
               0
 49
-0.2
 74
               0
  0
LTYPE
  5
29
100
AcDbSymbolTableRecord
100
AcDbLinetypeTableRecord
  2
STYLE_05
 70
               0
  3

 72
              65
 73
               2
 40
0.05
 49
0.0002
 74
               0
 49
-0.0498
 74
               0
  0
LTYPE
  5
2A
100
AcDbSymbolTableRecord
100
AcDbLinetypeTableRecord
  2
STYLE_06
 70
               0
  3

 72
              65
 73
               4
 40
0.416656
 49
0.25
 74
               0
 49
-0.083312
 74
               0
 49
0.027772
 74
               0
 49
-0.055572
 74
               0
  0
LTYPE
  5
2B
100
AcDbSymbolTableRecord
100
AcDbLinetypeTableRecord
  2
STYLE_07
 70
               0
  3

 72
              65
 73
               6
 40
0.75
 49
0.25
 74
               0
 49
-0.083312
 74
               0
 49
0.2500000000000001
 74
               0
 49
-0.083344
 74
               0
 49
0.027772
 74
               0
 49
-0.055572
 74
               0
  0
LTYPE
  5
2C
100
AcDbSymbolTableRecord
100
AcDbLinetypeTableRecord
  2
STYLE_08
 70
               0
  3

 72
              65
 73
               6
 40
0.5
 49
0.25
 74
               0
 49
-0.083312
 74
               0
 49
0.027772
 74
               0
 49
-0.055572
 74
               0
 49
0.027772
 74
               0
 49
-0.055572
 74
               0
  0
LTYPE
  5
2D
100
AcDbSymbolTableRecord
100
AcDbLinetypeTableRecord
  2
STYLE_09
 70
               0
  3

 72
              65
 73
               4
 40
2.0
 49
1.5
 74
               0
 49
-0.1111139999999999
 74
               0
 49
0.2777720000000001
 74
               0
 49
-0.1111139999999999
 74
               0
  0
LTYPE
  5
2E
100
AcDbSymbolTableRecord
100
AcDbLinetypeTableRecord
  2
STYLE_10
 70
               0
  3

 72
              65
 73
               6
 40
2.375
 49
1.5
 74
               0
 49
-0.1111139999999999
 74
               0
 49
0.2777720000000001
 74
               0
 49
-0.1111139999999999
 74
               0
 49
0.25
 74
               0
 49
-0.125
 74
               0
  0
ENDTAB
  0
TABLE
  2
LAYER
  5
2
100
AcDbSymbolTable
 70
               6
  0
LAYER
  5
14
100
AcDbSymbolTableRecord
100
AcDbLayerTableRecord
  2
0
 70
               0
 62
               7
  6
Continuous
290
               1
370
              15
390
1D
  0
LAYER
  5
2F
100
AcDbSymbolTableRecord
100
AcDbLayerTableRecord
  2
Defpoints
 70
               0
 62
               7
  6
Continuous
290
               0
370
              -3
390
1D
  0
LAYER
  5
30
100
AcDbSymbolTableRecord
100
AcDbLayerTableRecord
  2
一般
 70
               0
 62
               7
  6
Continuous
290
               1
370
               5
390
1D
  0
LAYER
  5
31
100
AcDbSymbolTableRecord
100
AcDbLayerTableRecord
  2
寸法
 70
               0
 62
               7
  6
Continuous
290
               1
370
               5
390
1D
  0
LAYER
  5
32
100
AcDbSymbolTableRecord
100
AcDbLayerTableRecord
  2
レイヤー_1
 70
               0
 62
              19
  6
Continuous
290
               1
370
              15
390
1D
  0
LAYER
  5
33
100
AcDbSymbolTableRecord
100
AcDbLayerTableRecord
  2
FORMAT
 70
               0
 62
               7
  6
Continuous
290
               1
370
              15
390
1D
  0
ENDTAB
  0
TABLE
  2
STYLE
  5
3
100
AcDbSymbolTable
 70
               2
  0
STYLE
  5
17
100
AcDbSymbolTableRecord
100
AcDbTextStyleTableRecord
  2
Standard
 70
               0
 40
0.0
 41
1.0
 50
0.0
 71
               0
 42
0.0
  3
txt
  4
BIGFONT.SHX
  0
STYLE
  5
24
100
AcDbSymbolTableRecord
100
AcDbTextStyleTableRecord
  2
Arial
 70
               0
 40
0.0
 41
1.0
 50
0.0
 71
               0
 42
0.0
  3
Arial
  4

1001
ACAD
1000
Arial
1071
        0
  0
ENDTAB
  0
TABLE
  2
VIEW
  5
5
100
AcDbSymbolTable
 70
               0
  0
ENDTAB
  0
TABLE
  2
UCS
  5
6
100
AcDbSymbolTable
 70
               0
  0
ENDTAB
  0
TABLE
  2
APPID
  5
8
100
AcDbSymbolTable
 70
               1
  0
APPID
  5
16
100
AcDbSymbolTableRecord
100
AcDbRegAppTableRecord
  2
ACAD
 70
               0
  0
ENDTAB
  0
TABLE
  2
DIMSTYLE
  5
9
100
AcDbSymbolTable
 70
               1
100
AcDbDimStyleTable
 71
               0
  0
DIMSTYLE
105
18
100
AcDbSymbolTableRecord
100
AcDbDimStyleTableRecord
  2
Standard
 70
               0
  3

  4

 40
1.0
 41
0.18
 42
0.0625
 43
0.38
 44
0.18
 45
0.0
 46
0.0
 47
0.0
 48
0.0
 71
               0
 72
               0
 73
               1
 74
               1
 75
               0
 76
               0
 77
               0
 78
               0
 79
               0
140
0.18
141
0.09
142
0.0
143
25.399999999999999
144
1.0
145
0.0
146
1.0
147
0.09
148
0.0
170
               0
171
               2
172
               0
173
               0
174
               0
175
               0
176
               0
177
               0
178
               0
179
               0
271
               4
272
               4
273
               2
274
               2
275
               0
276
               0
277
               2
278
              46
279
               0
280
               0
281
               0
282
               0
283
               1
284
               0
285
               0
286
               0
288
               0
340
17
341
0
342
0
343
0
344
0
371
              -2
372
              -2
  0
ENDTAB
  0
TABLE
  2
BLOCK_RECORD
  5
1
100
AcDbSymbolTable
 70
               0
  0
BLOCK_RECORD
  5
A
100
AcDbSymbolTableRecord
100
AcDbBlockTableRecord
  2
*MODEL_SPACE
340
20
  0
BLOCK_RECORD
  5
B
100
AcDbSymbolTableRecord
100
AcDbBlockTableRecord
  2
*PAPER_SPACE
340
21
  0
ENDTAB
  0
ENDSEC
  0
SECTION
  2
BLOCKS
  0
BLOCK
  5
D
100
AcDbEntity
  8
0
100
AcDbBlockBegin
  2
*MODEL_SPACE
 70
               0
 10
0.0
 20
0.0
 30
0.0
  3
*MODEL_SPACE
  1

  0
ENDBLK
  5
E
100
AcDbEntity
  8
0
100
AcDbBlockEnd
  0
BLOCK
  5
F
100
AcDbEntity
 67
               1
  8
0
100
AcDbBlockBegin
  2
*PAPER_SPACE
 70
               0
 10
0.0
 20
0.0
 30
0.0
  3
*PAPER_SPACE
  1

  0
ENDBLK
  5
10
100
AcDbEntity
 67
               1
  8
0
100
AcDbBlockEnd
  0
ENDSEC
  0
SECTION
  2
ENTITIES
  0
SPLINE
  5
34
100
AcDbEntity
  8
0
370
              25
  6
Continuous
 62
               7
100
AcDbSpline
210
0.0
220
0.0
230
1.0
 70
               8
 71
               2
 72
              16
 73
              13
 74
               0
 42
0.000001
 43
0.000001
 40
0.0
 40
0.0
 40
0.0
 40
1.0
 40
1.0
 40
2.0
 40
3.0
 40
4.0
 40
5.0
 40
6.0
 40
7.0
 40
8.0
 40
8.0
 40
9.0
 40
9.0
 40
9.0
 10
165.211454066041
 20
225.32101978756691
 30
0.0
 10
165.20498013870753
 20
225.3247595724977
 30
0.0
 10
165.19850621137405
 20
225.32849935742848
 30
0.0
 10
165.00483227950329
 20
225.44190363873511
 30
0.0
 10
164.30401871713315
 20
225.81265943498266
 30
0.0
 10
163.4001711329326
 20
225.98989233872044
 30
0.0
 10
162.49951902456033
 20
226.04276522273628
 30
0.0
 10
161.62268629434891
 20
225.87726140960118
 30
0.0
 10
160.95032589400319
 20
225.65587486171444
 30
0.0
 10
160.48229505686766
 20
225.37586519716871
 30
0.0
 10
160.33583856752395
 20
225.28192981043662
 30
0.0
 10
160.33094808194392
 20
225.27881526899907
 30
0.0
 10
160.32605759636391
 20
225.27570072756151
 30
0.0
  0
SPLINE
  5
35
100
AcDbEntity
  8
0
370
              25
  6
Continuous
 62
               7
100
AcDbSpline
210
0.0
220
0.0
230
1.0
 70
               8
 71
               2
 72
              13
 73
              10
 74
               0
 42
0.000001
 43
0.000001
 40
0.0
 40
0.0
 40
0.0
 40
1.0
 40
1.0
 40
2.0
 40
3.0
 40
4.0
 40
5.0
 40
5.0
 40
6.0
 40
6.0
 40
6.0
 10
163.59944452783219
 20
225.71031299107111
 30
0.0
 10
163.59931724004014
 20
225.70978994039774
 30
0.0
 10
163.59918995224808
 20
225.70926688972438
 30
0.0
 10
163.58890162050196
 20
225.66630984672295
 30
0.0
 10
163.54811999284709
 20
225.51194502957378
 30
0.0
 10
163.48369813157947
 20
225.33564488940476
 30
0.0
 10
163.43712700120525
 20
225.21837605345399
 30
0.0
 10
163.41514893012592
 20
225.16408922723807
 30
0.0
 10
163.41430487160386
 20
225.16200071139573
 30
0.0
 10
163.4134608130818
 20
225.1599121955534
 30
0.0
  0
SPLINE
  5
36
100
AcDbEntity
  8
0
370
              25
  6
Continuous
 62
               7
100
AcDbSpline
210
0.0
220
0.0
230
1.0
 70
               8
 71
               2
 72
              12
 73
               9
 74
               0
 42
0.000001
 43
0.000001
 40
0.0
 40
0.0
 40
0.0
 40
1.0
 40
1.0
 40
2.0
 40
3.0
 40
4.0
 40
4.0
 40
5.0
 40
5.0
 40
5.0
 10
162.113568435139
 20
225.16471946902399
 30
0.0
 10
162.11296610376996
 20
225.16628049184857
 30
0.0
 10
162.1123637724009
 20
225.16784151467314
 30
0.0
 10
162.05086918579912
 20
225.32545672258942
 30
0.0
 10
161.97273237838775
 20
225.54074213762695
 30
0.0
 10
161.92601349759923
 20
225.68815381611395
 30
0.0
 10
161.90361117815945
 20
225.77893301624297
 30
0.0
 10
161.90346362213637
 20
225.77951360824113
 30
0.0
 10
161.90331606611329
 20
225.78009420023929
 30
0.0
  0
SPLINE
  5
37
100
AcDbEntity
  8
0
370
              25
  6
Continuous
 62
               7
100
AcDbSpline
210
0.0
220
0.0
230
1.0
 70
               8
 71
               2
 72
              16
 73
              13
 74
               0
 42
0.000001
 43
0.000001
 40
0.0
 40
0.0
 40
0.0
 40
1.0
 40
1.0
 40
2.0
 40
3.0
 40
4.0
 40
5.0
 40
6.0
 40
7.0
 40
8.0
 40
8.0
 40
9.0
 40
9.0
 40
9.0
 10
257.40670160598989
 20
190.16197395201789
 30
0.0
 10
257.40022770190859
 20
190.16571372596258
 30
0.0
 10
257.39375379782729
 20
190.16945349990726
 30
0.0
 10
257.20008056196662
 20
190.28285744289337
 30
0.0
 10
256.49926824660179
 20
190.65361332074329
 30
0.0
 10
255.59542253841062
 20
190.83084496901944
 30
0.0
 10
254.69477201591593
 20
190.88371600415087
 30
0.0
 10
253.81793863645063
 20
190.7182138121218
 30
0.0
 10
253.14557634778728
 20
190.49682780655434
 30
0.0
 10
252.67754338557887
 20
190.21681903987502
 30
0.0
 10
252.53108615659232
 20
190.12288395495634
 30
0.0
 10
252.52619564645249
 20
190.1197694234844
 30
0.0
 10
252.52130513631269
 20
190.11665489201249
 30
0.0
  0
SPLINE
  5
38
100
AcDbEntity
  8
0
370
              25
  6
Continuous
 62
               7
100
AcDbSpline
210
0.0
220
0.0
230
1.0
 70
               8
 71
               2
 72
              13
 73
              10
 74
               0
 42
0.000001
 43
0.000001
 40
0.0
 40
0.0
 40
0.0
 40
1.0
 40
1.0
 40
2.0
 40
3.0
 40
4.0
 40
5.0
 40
5.0
 40
6.0
 40
6.0
 40
6.0
 10
255.79469452102441
 20
190.55126621996749
 30
0.0
 10
255.79456724628656
 20
190.55074316398583
 30
0.0
 10
255.79443997154871
 20
190.55022010800414
 30
0.0
 10
255.78415275196426
 20
190.50726260290421
 30
0.0
 10
255.74337403283059
 20
190.35289610577956
 30
0.0
 10
255.67895092003693
 20
190.17659659440733
 30
0.0
 10
255.6323780000036
 20
190.05932872748232
 30
0.0
 10
255.61039899447047
 20
190.00504241693079
 30
0.0
 10
255.60955490037225
 20
190.00295392069029
 30
0.0
 10
255.60871080627399
 20
190.00086542444981
 30
0.0
  0
SPLINE
  5
39
100
AcDbEntity
  8
0
370
              25
  6
Continuous
 62
               7
100
AcDbSpline
210
0.0
220
0.0
230
1.0
 70
               8
 71
               2
 72
              12
 73
               9
 74
               0
 42
0.000001
 43
0.000001
 40
0.0
 40
0.0
 40
0.0
 40
1.0
 40
1.0
 40
2.0
 40
3.0
 40
4.0
 40
4.0
 40
5.0
 40
5.0
 40
5.0
 10
254.30881597508781
 20
190.00567363347511
 30
0.0
 10
254.30821365441281
 20
190.00723464598241
 30
0.0
 10
254.30761133373781
 20
190.0087956584897
 30
0.0
 10
254.24611694920634
 20
190.16640976292928
 30
0.0
 10
254.16798747899358
 20
190.38169425015715
 30
0.0
 10
254.12126845841368
 20
190.5291075216075
 30
0.0
 10
254.09885638209877
 20
190.61988807994862
 30
0.0
 10
254.09870876745879
 20
190.62046869009674
 30
0.0
 10
254.0985611528188
 20
190.62104930024489
 30
0.0
  0
SPLINE
  5
3A
100
AcDbEntity
  8
0
370
              25
  6
Continuous
 62
               7
100
AcDbSpline
210
0.0
220
0.0
230
1.0
 70
               8
 71
               2
 72
              14
 73
              11
 74
               0
 42
0.000001
 43
0.000001
 40
0.0
 40
0.0
 40
0.0
 40
1.0
 40
1.0
 40
2.0
 40
3.0
 40
4.0
 40
5.0
 40
6.0
 40
6.0
 40
7.0
 40
7.0
 40
7.0
 10
252.63794037636541
 20
93.348532033109024
 30
0.0
 10
252.64318969484174
 20
93.346688136600775
 30
0.0
 10
252.64843901331807
 20
93.344844240092527
 30
0.0
 10
252.88950025015569
 20
93.257928014810773
 30
0.0
 10
253.61478076960032
 20
93.031330024963268
 30
0.0
 10
254.98106257373647
 20
92.861553059835359
 30
0.0
 10
256.15747084246772
 20
93.050573463089023
 30
0.0
 10
256.52887151093466
 20
93.201008384480147
 30
0.0
 10
256.5945235132296
 20
93.228853297698095
 30
0.0
 10
256.59671302495826
 20
93.229778085789036
 30
0.0
 10
256.59890253668692
 20
93.230702873879977
 30
0.0
  0
LINE
  5
3B
100
AcDbEntity
  8
0
370
              25
  6
Continuous
 62
               7
100
AcDbLine
 10
256.42762302009999
 20
93.154343259900003
 30
0.0
 11
284.26911740280002
 21
101.7775495857
 31
0.0
  0
LINE
  5
3C
100
AcDbEntity
  8
0
370
              25
  6
Continuous
 62
               7
100
AcDbLine
 10
130.1499666821
 20
140.05983653449999
 30
0.0
 11
252.6379403764
 21
93.3485320331
 31
0.0
  0
SPLINE
  5
3D
100
AcDbEntity
  8
0
370
              25
  6
Continuous
 62
               7
100
AcDbSpline
210
0.0
220
0.0
230
1.0
 70
               8
 71
               2
 72
              16
 73
              13
 74
               0
 42
0.000001
 43
0.000001
 40
0.0
 40
0.0
 40
0.0
 40
1.0
 40
1.0
 40
2.0
 40
3.0
 40
4.0
 40
5.0
 40
6.0
 40
7.0
 40
8.0
 40
8.0
 40
9.0
 40
9.0
 40
9.0
 10
125.9447690109625
 20
226.59917561893221
 30
0.0
 10
125.93608931774997
 20
226.59603593224418
 30
0.0
 10
125.92740962453745
 20
226.59289624555615
 30
0.0
 10
125.66599105174444
 20
226.5013241302575
 30
0.0
 10
124.99881742892023
 20
226.21319515725136
 30
0.0
 10
123.642344428554
 20
225.22939386864715
 30
0.0
 10
122.45582613348995
 20
223.37376491317428
 30
0.0
 10
121.77877861763039
 20
221.4986634832909
 30
0.0
 10
121.4872614488105
 20
219.76179594740887
 30
0.0
 10
121.42997210325075
 20
218.54776937744214
 30
0.0
 10
121.42308771780979
 20
218.0003755761204
 30
0.0
 10
121.422800097729
 20
217.9821544540381
 30
0.0
 10
121.4225124776482
 20
217.96393333195579
 30
0.0
  0
LINE
  5
3E
100
AcDbEntity
  8
0
370
              25
  6
Continuous
 62
               7
100
AcDbLine
 10
153.95754508300001
 20
235.29873269480001
 30
0.0
 11
126.11605070020001
 21
226.67552636900001
 31
0.0
  0
LINE
  5
3F
100
AcDbEntity
  8
0
370
              25
  6
Continuous
 62
               7
100
AcDbLine
 10
121.42251247759999
 20
217.96393333200001
 30
0.0
 11
122.1454903258
 21
154.07960832020001
 31
0.0
  0
SPLINE
  5
40
100
AcDbEntity
  8
0
370
              25
  6
Continuous
 62
               7
100
AcDbSpline
210
0.0
220
0.0
230
1.0
 70
               8
 71
               2
 72
              15
 73
              12
 74
               0
 42
0.000001
 43
0.000001
 40
0.0
 40
0.0
 40
0.0
 40
1.0
 40
1.0
 40
2.0
 40
3.0
 40
4.0
 40
5.0
 40
6.0
 40
7.0
 40
7.0
 40
8.0
 40
8.0
 40
8.0
 10
122.14549032579581
 20
154.0796083201748
 30
0.0
 10
122.14576794636682
 20
154.06888789429959
 30
0.0
 10
122.14604556693784
 20
154.05816746842439
 30
0.0
 10
122.1677975751083
 20
152.58032000843338
 30
0.0
 10
122.7327844238915
 20
149.58892154615734
 30
0.0
 10
123.72318433983799
 20
146.87166036843982
 30
0.0
 10
124.99055226387857
 20
144.53666058550451
 30
0.0
 10
126.53793695800917
 20
142.53750059689514
 30
0.0
 10
128.70892377832138
 20
140.6265903754983
 30
0.0
 10
130.13653063217521
 20
140.0652970493646
 30
0.0
 10
130.1432486571498
 20
140.06256679193052
 30
0.0
 10
130.14996668212439
 20
140.05983653449641
 30
0.0
  0
LINE
  5
41
100
AcDbEntity
  8
0
370
              25
  6
Continuous
 62
               7
100
AcDbLine
 10
290.02755401309997
 20
119.40969952090001
 30
0.0
 11
292.02649476160002
 21
120.0288214067
 31
0.0
  0
LINE
  5
42
100
AcDbEntity
  8
0
370
              25
  6
Continuous
 62
               7
100
AcDbLine
 10
155.45717474369999
 20
236.23459058610001
 30
0.0
 11
153.95222905879999
 21
235.768471312
 31
0.0
  0
LINE
  5
43
100
AcDbEntity
  8
0
370
              25
  6
Continuous
 62
               7
100
AcDbLine
 10
164.31326887399999
 20
234.2666465474
 30
0.0
 11
163.8890517845
 21
234.13525591729999
 31
0.0
  0
ARC
  5
44
100
AcDbEntity
  8
0
370
              25
  6
Continuous
 62
               7
100
AcDbCircle
 10
164.44997757440001
 20
221.5124337387
 30
0.0
 40
4.4525327040696636
100
AcDbArc
 50
125.45809814050003
 51
126.01164106280011
  0
SPLINE
  5
45
100
AcDbEntity
  8
0
370
              25
  6
Continuous
 62
               7
100
AcDbSpline
210
0.0
220
0.0
230
1.0
 70
               8
 71
               2
 72
              17
 73
              14
 74
               0
 42
0.000001
 43
0.000001
 40
0.0
 40
0.0
 40
0.0
 40
1.0
 40
1.0
 40
2.0
 40
3.0
 40
4.0
 40
5.0
 40
6.0
 40
7.0
 40
8.0
 40
9.0
 40
9.0
 40
10.0
 40
10.0
 40
10.0
 10
163.48437841871211
 20
225.1184796176133
 30
0.0
 10
163.48252723585745
 20
225.11973415030599
 30
0.0
 10
163.48067605300278
 20
225.12098868299864
 30
0.0
 10
163.4254010525446
 20
225.15888379233809
 30
0.0
 10
163.31163552593142
 20
225.2314228747569
 30
0.0
 10
163.11708925179477
 20
225.3250674612965
 30
0.0
 10
162.80497981707327
 20
225.38408730782112
 30
0.0
 10
162.51769219586322
 20
225.37742478747197
 30
0.0
 10
162.24052479211107
 20
225.3289469120366
 30
0.0
 10
162.0402431800004
 20
225.23937472158366
 30
0.0
 10
161.92647449222898
 20
225.1749738040719
 30
0.0
 10
161.87075322685141
 20
225.14142672332792
 30
0.0
 10
161.86889177735355
 20
225.14031318853401
 30
0.0
 10
161.8670303278557
 20
225.13919965374009
 30
0.0
  0
LINE
  5
46
100
AcDbEntity
  8
0
370
              25
  6
Continuous
 62
               7
100
AcDbLine
 10
163.51523966650001
 20
225.09251382639999
 30
0.0
 11
163.4843784187
 21
225.1184796176
 31
0.0
  0
LINE
  5
47
100
AcDbEntity
  8
0
370
              25
  6
Continuous
 62
               7
100
AcDbLine
 10
163.89523799860001
 20
225.21020880270001
 30
0.0
 11
163.51523966650001
 21
225.09251382639999
 31
0.0
  0
LINE
  5
48
100
AcDbEntity
  8
0
370
              25
  6
Continuous
 62
               7
100
AcDbLine
 10
163.89523799860001
 20
225.21020880270001
 30
0.0
 11
163.86437675080001
 21
225.23617459389999
 31
0.0
  0
SPLINE
  5
49
100
AcDbEntity
  8
0
370
              25
  6
Continuous
 62
               7
100
AcDbSpline
210
0.0
220
0.0
230
1.0
 70
               8
 71
               2
 72
              17
 73
              14
 74
               0
 42
0.000001
 43
0.000001
 40
0.0
 40
0.0
 40
0.0
 40
1.0
 40
1.0
 40
2.0
 40
3.0
 40
4.0
 40
5.0
 40
6.0
 40
7.0
 40
8.0
 40
9.0
 40
9.0
 40
10.0
 40
10.0
 40
10.0
 10
163.97204865019
 20
225.79117641417139
 30
0.0
 10
163.97197914796021
 20
225.79118236791436
 30
0.0
 10
163.97190964573039
 20
225.79118832165733
 30
0.0
 10
163.88648134946399
 20
225.79867690068835
 30
0.0
 10
163.75454147532201
 20
225.78792994563719
 30
0.0
 10
163.65184369439353
 20
225.75394560191114
 30
0.0
 10
163.57675343144751
 20
225.67505838835848
 30
0.0
 10
163.59329822961669
 20
225.55712909013363
 30
0.0
 10
163.65040091946236
 20
225.45346789345734
 30
0.0
 10
163.71954281663275
 20
225.37411768006459
 30
0.0
 10
163.80116100469181
 20
225.29344202097622
 30
0.0
 10
163.86242527927544
 20
225.23795992635945
 30
0.0
 10
163.86340101505249
 20
225.23706726013285
 30
0.0
 10
163.86437675082951
 20
225.23617459390621
 30
0.0
  0
ARC
  5
4A
100
AcDbEntity
  8
0
370
              25
  6
Continuous
 62
               7
100
AcDbCircle
 10
163.75068666039999
 20
223.3076724323
 30
0.0
 40
2.4933497866608101
100
AcDbArc
 50
84.092963358399828
 51
84.90651945359987
  0
LINE
  5
4B
100
AcDbEntity
  8
0
370
              25
  6
Continuous
 62
               7
100
AcDbLine
 10
163.67472733229999
 20
225.9146067863
 30
0.0
 11
164.0072890008
 21
225.78778299379999
 31
0.0
  0
ARC
  5
4C
100
AcDbEntity
  8
0
370
              25
  6
Continuous
 62
               7
100
AcDbCircle
 10
163.418124992
 20
223.43449622509999
 30
0.0
 40
2.4933497863560445
100
AcDbArc
 50
84.092963358400098
 51
84.906519453599856
  0
SPLINE
  5
4D
100
AcDbEntity
  8
0
370
              25
  6
Continuous
 62
               7
100
AcDbSpline
210
0.0
220
0.0
230
1.0
 70
               8
 71
               2
 72
              15
 73
              12
 74
               0
 42
0.000001
 43
0.000001
 40
0.0
 40
0.0
 40
0.0
 40
1.0
 40
1.0
 40
2.0
 40
3.0
 40
4.0
 40
5.0
 40
6.0
 40
7.0
 40
7.0
 40
8.0
 40
8.0
 40
8.0
 10
162.02213819010791
 20
225.9387200257448
 30
0.0
 10
162.02221938280283
 20
225.93872605833923
 30
0.0
 10
162.02230057549775
 20
225.93873209093366
 30
0.0
 10
162.11729642364071
 20
225.94584778803079
 30
0.0
 10
162.39336625222796
 20
225.9553140595587
 30
0.0
 10
162.73387446991887
 20
225.95614484969369
 30
0.0
 10
163.01288352348109
 20
225.95098246454688
 30
0.0
 10
163.35020497607113
 20
225.93990379321895
 30
0.0
 10
163.58286670932841
 20
225.92241064754194
 30
0.0
 10
163.63594143445292
 20
225.91827504837397
 30
0.0
 10
163.63771420810605
 20
225.91813762752278
 30
0.0
 10
163.63948698175921
 20
225.91800020667159
 30
0.0
  0
LINE
  5
4E
100
AcDbEntity
  8
0
370
              25
  6
Continuous
 62
               7
100
AcDbLine
 10
161.99159966330001
 20
225.93616929710001
 30
0.0
 11
162.02213819010001
 21
225.93872002570001
 31
0.0
  0
LINE
  5
4F
100
AcDbEntity
  8
0
370
              25
  6
Continuous
 62
               7
100
AcDbLine
 10
161.61160133120001
 20
225.81847432079999
 30
0.0
 11
161.99159966330001
 21
225.93616929710001
 31
0.0
  0
LINE
  5
50
100
AcDbEntity
  8
0
370
              25
  6
Continuous
 62
               7
100
AcDbLine
 10
161.61160133120001
 20
225.81847432079999
 30
0.0
 11
161.64213985800001
 21
225.82102504950001
 31
0.0
  0
SPLINE
  5
51
100
AcDbEntity
  8
0
370
              25
  6
Continuous
 62
               7
100
AcDbSpline
210
0.0
220
0.0
230
1.0
 70
               8
 71
               2
 72
              18
 73
              15
 74
               0
 42
0.000001
 43
0.000001
 40
0.0
 40
0.0
 40
0.0
 40
1.0
 40
1.0
 40
2.0
 40
3.0
 40
4.0
 40
5.0
 40
6.0
 40
7.0
 40
8.0
 40
9.0
 40
10.0
 40
10.0
 40
11.0
 40
11.0
 40
11.0
 10
161.53446865942499
 20
225.2660234462403
 30
0.0
 10
161.53453753312016
 20
225.26607270337166
 30
0.0
 10
161.53460640681536
 20
225.26612196050306
 30
0.0
 10
161.64652179504003
 20
225.34595328271513
 30
0.0
 10
161.79188116604206
 20
225.47904077404141
 30
0.0
 10
161.85773574193328
 20
225.55876804610506
 30
0.0
 10
161.90862030108315
 20
225.63701758903767
 30
0.0
 10
161.92330323068438
 20
225.71903871299261
 30
0.0
 10
161.89301922124716
 20
225.78005228466338
 30
0.0
 10
161.81604880755475
 20
225.81515178205069
 30
0.0
 10
161.72985538693496
 20
225.82073825087917
 30
0.0
 10
161.67310770647063
 20
225.82122426006183
 30
0.0
 10
161.64407099304353
 20
225.82103465762566
 30
0.0
 10
161.64310542551706
 20
225.82102985353879
 30
0.0
 10
161.6421398579906
 20
225.82102504945189
 30
0.0
  0
ARC
  5
52
100
AcDbEntity
  8
0
370
              25
  6
Continuous
 62
               7
100
AcDbCircle
 10
164.11741590599999
 20
221.6392575312
 30
0.0
 40
4.4525327041194513
100
AcDbArc
 50
125.45809814049996
 51
126.01164106269984
  0
LINE
  5
53
100
AcDbEntity
  8
0
370
              25
  6
Continuous
 62
               7
100
AcDbLine
 10
161.83211269820001
 20
225.1140765543
 30
0.0
 11
161.49955102979999
 21
225.2409003468
 31
0.0
  0
LINE
  5
54
100
AcDbEntity
  8
0
370
              25
  6
Continuous
 62
               7
100
AcDbLine
 10
163.3082628686
 20
225.22137764390001
 30
0.0
 11
163.67472733229999
 21
225.9146067863
 31
0.0
  0
LINE
  5
55
100
AcDbEntity
  8
0
370
              25
  6
Continuous
 62
               7
100
AcDbLine
 10
162.28386968250001
 20
225.31982463790001
 30
0.0
 11
161.99159966330001
 21
225.93616929710001
 31
0.0
  0
ARC
  5
56
100
AcDbEntity
  8
0
370
              25
  6
Continuous
 62
               7
100
AcDbCircle
 10
256.6452251151
 20
186.3533879021
 30
0.0
 40
4.4525327054289718
100
AcDbArc
 50
125.45809814059999
 51
126.01164106260012
  0
SPLINE
  5
57
100
AcDbEntity
  8
0
370
              25
  6
Continuous
 62
               7
100
AcDbSpline
210
0.0
220
0.0
230
1.0
 70
               8
 71
               2
 72
              17
 73
              14
 74
               0
 42
0.000001
 43
0.000001
 40
0.0
 40
0.0
 40
0.0
 40
1.0
 40
1.0
 40
2.0
 40
3.0
 40
4.0
 40
5.0
 40
6.0
 40
7.0
 40
8.0
 40
9.0
 40
9.0
 40
10.0
 40
10.0
 40
10.0
 10
255.6796308651476
 20
189.959431910955
 30
0.0
 10
255.67777968166337
 20
189.96068644701273
 30
0.0
 10
255.67592849817913
 20
189.96194098307046
 30
0.0
 10
255.62065347731007
 20
189.99983620150729
 30
0.0
 10
255.50688792699535
 20
190.07237541063432
 30
0.0
 10
255.31234186942527
 20
190.16601905333923
 30
0.0
 10
255.0002298432066
 20
190.22504021925772
 30
0.0
 10
254.7129389753328
 20
190.21838121886299
 30
0.0
 10
254.43577814682061
 20
190.16989761034534
 30
0.0
 10
254.23549661293197
 20
190.08032588843733
 30
0.0
 10
254.12172425855078
 20
190.01592674772888
 30
0.0
 10
254.06600090426457
 20
189.98238081318109
 30
0.0
 10
254.06413938603453
 20
189.98126731568615
 30
0.0
 10
254.06227786780451
 20
189.98015381819121
 30
0.0
  0
LINE
  5
58
100
AcDbEntity
  8
0
370
              25
  6
Continuous
 62
               7
100
AcDbLine
 10
255.71048720639999
 20
189.9334679909
 30
0.0
 11
255.67963086509999
 21
189.959431911
 31
0.0
  0
LINE
  5
59
100
AcDbEntity
  8
0
370
              25
  6
Continuous
 62
               7
100
AcDbLine
 10
256.09048553849999
 20
190.05116296720001
 30
0.0
 11
255.71048720639999
 21
189.9334679909
 31
0.0
  0
LINE
  5
5A
100
AcDbEntity
  8
0
370
              25
  6
Continuous
 62
               7
100
AcDbLine
 10
256.09048553849999
 20
190.05116296720001
 30
0.0
 11
256.05962919730001
 21
190.0771268872
 31
0.0
  0
SPLINE
  5
5B
100
AcDbEntity
  8
0
370
              25
  6
Continuous
 62
               7
100
AcDbSpline
210
0.0
220
0.0
230
1.0
 70
               8
 71
               2
 72
              17
 73
              14
 74
               0
 42
0.000001
 43
0.000001
 40
0.0
 40
0.0
 40
0.0
 40
1.0
 40
1.0
 40
2.0
 40
3.0
 40
4.0
 40
5.0
 40
6.0
 40
7.0
 40
8.0
 40
9.0
 40
9.0
 40
10.0
 40
10.0
 40
10.0
 10
256.16729619013881
 20
190.63213057862251
 30
0.0
 10
256.1672266875326
 20
190.63213653250327
 30
0.0
 10
256.1671571849264
 20
190.63214248638403
 30
0.0
 10
256.0817312719002
 20
190.6396301274234
 30
0.0
 10
255.94979425023752
 20
190.62888210957715
 30
0.0
 10
255.8470963086738
 20
190.59489815012424
 30
0.0
 10
255.77200528133034
 20
190.51601063926503
 30
0.0
 10
255.78854797185582
 20
190.39808160560528
 30
0.0
 10
255.84565420347417
 20
190.29442015334573
 30
0.0
 10
255.9147978438246
 20
190.21506938488602
 30
0.0
 10
255.99641492321408
 20
190.13439419364641
 30
0.0
 10
256.05767776910079
 20
190.0789122151665
 30
0.0
 10
256.05865348318287
 20
190.07801955120715
 30
0.0
 10
256.059629197265
 20
190.0771268872478
 30
0.0
  0
ARC
  5
5C
100
AcDbEntity
  8
0
370
              25
  6
Continuous
 62
               7
100
AcDbCircle
 10
255.9459342003
 20
188.1486265961
 30
0.0
 40
2.493349787254715
100
AcDbArc
 50
84.092963358499958
 51
84.90651945339998
  0
LINE
  5
5D
100
AcDbEntity
  8
0
370
              25
  6
Continuous
 62
               7
100
AcDbLine
 10
255.86997487229999
 20
190.7555609508
 30
0.0
 11
256.20253654070001
 21
190.6287371583
 31
0.0
  0
ARC
  5
5E
100
AcDbEntity
  8
0
370
              25
  6
Continuous
 62
               7
100
AcDbCircle
 10
255.613372532
 20
188.27545038989999
 30
0.0
 40
2.4933497859310587
100
AcDbArc
 50
84.092963358199924
 51
84.906519453600211
  0
SPLINE
  5
5F
100
AcDbEntity
  8
0
370
              25
  6
Continuous
 62
               7
100
AcDbSpline
210
0.0
220
0.0
230
1.0
 70
               8
 71
               2
 72
              15
 73
              12
 74
               0
 42
0.000001
 43
0.000001
 40
0.0
 40
0.0
 40
0.0
 40
1.0
 40
1.0
 40
2.0
 40
3.0
 40
4.0
 40
5.0
 40
6.0
 40
7.0
 40
7.0
 40
8.0
 40
8.0
 40
8.0
 10
254.21739063654351
 20
190.7796723190865
 30
0.0
 10
254.21747179507062
 20
190.77967836671223
 30
0.0
 10
254.21755295359773
 20
190.77968441433799
 30
0.0
 10
254.31254680375292
 20
190.7867970957671
 30
0.0
 10
254.5886155217168
 20
190.79627226691593
 30
0.0
 10
254.92912545945691
 20
190.7970954948492
 30
0.0
 10
255.20813585454036
 20
190.79193474036572
 30
0.0
 10
255.54545577093273
 20
190.78085690609538
 30
0.0
 10
255.77811484290584
 20
190.76336457422457
 30
0.0
 10
255.83118901136535
 20
190.75922919804958
 30
0.0
 10
255.83296176653667
 20
190.75909178458608
 30
0.0
 10
255.83473452170799
 20
190.7589543711226
 30
0.0
  0
LINE
  5
60
100
AcDbEntity
  8
0
370
              25
  6
Continuous
 62
               7
100
AcDbLine
 10
254.1868472033
 20
190.77712346160001
 30
0.0
 11
254.2173906365
 21
190.7796723191
 31
0.0
  0
LINE
  5
61
100
AcDbEntity
  8
0
370
              25
  6
Continuous
 62
               7
100
AcDbLine
 10
253.8068488712
 20
190.6594284853
 30
0.0
 11
254.1868472033
 21
190.77712346160001
 31
0.0
  0
LINE
  5
62
100
AcDbEntity
  8
0
370
              25
  6
Continuous
 62
               7
100
AcDbLine
 10
253.8068488712
 20
190.6594284853
 30
0.0
 11
253.8373923044
 21
190.66197734279999
 31
0.0
  0
SPLINE
  5
63
100
AcDbEntity
  8
0
370
              25
  6
Continuous
 62
               7
100
AcDbSpline
210
0.0
220
0.0
230
1.0
 70
               8
 71
               2
 72
              18
 73
              15
 74
               0
 42
0.000001
 43
0.000001
 40
0.0
 40
0.0
 40
0.0
 40
1.0
 40
1.0
 40
2.0
 40
3.0
 40
4.0
 40
5.0
 40
6.0
 40
7.0
 40
8.0
 40
9.0
 40
10.0
 40
10.0
 40
11.0
 40
11.0
 40
11.0
 10
253.7297161993738
 20
190.1069776106913
 30
0.0
 10
253.7297850718881
 20
190.10702686820821
 30
0.0
 10
253.72985394440241
 20
190.10707612572514
 30
0.0
 10
253.84178377787038
 20
190.18690269584587
 30
0.0
 10
253.98713047347263
 20
190.31999396600429
 30
0.0
 10
254.05298663801386
 20
190.39972099495182
 30
0.0
 10
254.10387434988692
 20
190.47797028273334
 30
0.0
 10
254.11854993130444
 20
190.55999331371959
 30
0.0
 10
254.08826437373597
 20
190.62100610883198
 30
0.0
 10
254.01130117042709
 20
190.65610407956697
 30
0.0
 10
253.92510881205843
 20
190.66169048093855
 30
0.0
 10
253.8683605640542
 20
190.66217652681854
 30
0.0
 10
253.83932346450325
 20
190.66198694934928
 30
0.0
 10
253.83835788446467
 20
190.66198214607144
 30
0.0
 10
253.83739230442609
 20
190.66197734279359
 30
0.0
  0
ARC
  5
64
100
AcDbEntity
  8
0
370
              25
  6
Continuous
 62
               7
100
AcDbCircle
 10
256.31266344559998
 20
186.480211696
 30
0.0
 40
4.4525327036142146
100
AcDbArc
 50
125.45809814039994
 51
126.01164106269988
  0
LINE
  5
65
100
AcDbEntity
  8
0
370
              25
  6
Continuous
 62
               7
100
AcDbLine
 10
254.0273602382
 20
189.95503071869999
 30
0.0
 11
253.69479856980001
 21
190.08185451119999
 31
0.0
  0
LINE
  5
66
100
AcDbEntity
  8
0
370
              25
  6
Continuous
 62
               7
100
AcDbLine
 10
255.50351040859999
 20
190.0623318083
 30
0.0
 11
255.86997487229999
 21
190.7555609508
 31
0.0
  0
LINE
  5
67
100
AcDbEntity
  8
0
370
              25
  6
Continuous
 62
               7
100
AcDbLine
 10
254.47911476920001
 20
190.16077973789999
 30
0.0
 11
254.1868472033
 21
190.77712346160001
 31
0.0
  0
POLYLINE
  5
68
100
AcDbEntity
  8
0
370
              25
  6
Continuous
 62
               7
100
AcDb2dPolyline
 66
               1
 10
0.0
 20
0.0
 30
0.0
 75
               5
  0
VERTEX
  5
69
100
AcDbEntity
  8
0
370
              25
  6
Continuous
 62
               7
100
AcDbVertex
100
AcDb2dVertex
 10
258.64577933390001
 20
165.50589058310001
 30
0.0
  0
VERTEX
  5
6A
100
AcDbEntity
  8
0
370
              25
  6
Continuous
 62
               7
100
AcDbVertex
100
AcDb2dVertex
 10
258.55540059840001
 20
167.0047242739
 30
0.0
  0
VERTEX
  5
6B
100
AcDbEntity
  8
0
370
              25
  6
Continuous
 62
               7
100
AcDbVertex
100
AcDb2dVertex
 10
258.31939276430001
 20
168.52927902249999
 30
0.0
  0
VERTEX
  5
6C
100
AcDbEntity
  8
0
370
              25
  6
Continuous
 62
               7
100
AcDbVertex
100
AcDb2dVertex
 10
257.94257219129997
 20
170.04852315689999
 30
0.0
  0
VERTEX
  5
6D
100
AcDbEntity
  8
0
370
              25
  6
Continuous
 62
               7
100
AcDbVertex
100
AcDb2dVertex
 10
257.4325972684
 20
171.53153295749999
 30
0.0
  0
VERTEX
  5
6E
100
AcDbEntity
  8
0
370
              25
  6
Continuous
 62
               7
100
AcDbVertex
100
AcDb2dVertex
 10
256.79986370969999
 20
172.94811104870001
 30
0.0
  0
VERTEX
  5
6F
100
AcDbEntity
  8
0
370
              25
  6
Continuous
 62
               7
100
AcDbVertex
100
AcDb2dVertex
 10
256.05723350419998
 20
174.2694264113
 30
0.0
  0
VERTEX
  5
70
100
AcDbEntity
  8
0
370
              25
  6
Continuous
 62
               7
100
AcDbVertex
100
AcDb2dVertex
 10
255.21983319099999
 20
175.46857220140001
 30
0.0
  0
VERTEX
  5
71
100
AcDbEntity
  8
0
370
              25
  6
Continuous
 62
               7
100
AcDbVertex
100
AcDb2dVertex
 10
254.30470525609999
 20
176.5211517047
 30
0.0
  0
VERTEX
  5
72
100
AcDbEntity
  8
0
370
              25
  6
Continuous
 62
               7
100
AcDbVertex
100
AcDb2dVertex
 10
253.3304904732
 20
177.40572007079999
 30
0.0
  0
VERTEX
  5
73
100
AcDbEntity
  8
0
370
              25
  6
Continuous
 62
               7
100
AcDbVertex
100
AcDb2dVertex
 10
252.31702169019999
 20
178.10428072619999
 30
0.0
  0
VERTEX
  5
74
100
AcDbEntity
  8
0
370
              25
  6
Continuous
 62
               7
100
AcDbVertex
100
AcDb2dVertex
 10
251.28490970440001
 20
178.6026175383
 30
0.0
  0
SEQEND
  5
75
100
AcDbEntity
  8
0
370
              25
  6
Continuous
 62
               7
  0
ARC
  5
76
100
AcDbEntity
  8
0
370
              25
  6
Continuous
 62
               7
100
AcDbCircle
 10
252.5110085236
 20
178.64782495750001
 30
0.0
 40
1.2269319562640393
100
AcDbArc
 50
113.24671708810074
 51
182.11159286190065
  0
POLYLINE
  5
77
100
AcDbEntity
  8
0
370
              25
  6
Continuous
 62
               7
100
AcDb2dPolyline
 66
               1
 10
0.0
 20
0.0
 30
0.0
 75
               5
  0
VERTEX
  5
78
100
AcDbEntity
  8
0
370
              25
  6
Continuous
 62
               7
100
AcDbVertex
100
AcDb2dVertex
 10
252.02674926380001
 20
179.77514700309999
 30
0.0
  0
VERTEX
  5
79
100
AcDbEntity
  8
0
370
              25
  6
Continuous
 62
               7
100
AcDbVertex
100
AcDb2dVertex
 10
253.15268327370001
 20
179.2315174981
 30
0.0
  0
VERTEX
  5
7A
100
AcDbEntity
  8
0
370
              25
  6
Continuous
 62
               7
100
AcDbVertex
100
AcDb2dVertex
 10
254.2582945321
 20
178.46944538130001
 30
0.0
  0
VERTEX
  5
7B
100
AcDbEntity
  8
0
370
              25
  6
Continuous
 62
               7
100
AcDbVertex
100
AcDb2dVertex
 10
255.32107160460001
 20
177.5044640024
 30
0.0
  0
VERTEX
  5
7C
100
AcDbEntity
  8
0
370
              25
  6
Continuous
 62
               7
100
AcDbVertex
100
AcDb2dVertex
 10
256.31939480109997
 20
176.35619222759999
 30
0.0
  0
VERTEX
  5
7D
100
AcDbEntity
  8
0
370
              25
  6
Continuous
 62
               7
100
AcDbVertex
100
AcDb2dVertex
 10
257.23292062410002
 20
175.04803450060001
 30
0.0
  0
VERTEX
  5
7E
100
AcDbEntity
  8
0
370
              25
  6
Continuous
 62
               7
100
AcDbVertex
100
AcDb2dVertex
 10
258.04305730670001
 20
173.60660223720001
 30
0.0
  0
VERTEX
  5
7F
100
AcDbEntity
  8
0
370
              25
  6
Continuous
 62
               7
100
AcDbVertex
100
AcDb2dVertex
 10
258.7333218823
 20
172.06124312259999
 30
0.0
  0
VERTEX
  5
80
100
AcDbEntity
  8
0
370
              25
  6
Continuous
 62
               7
100
AcDbVertex
100
AcDb2dVertex
 10
259.28965998199999
 20
170.44341038709999
 30
0.0
  0
VERTEX
  5
81
100
AcDbEntity
  8
0
370
              25
  6
Continuous
 62
               7
100
AcDbVertex
100
AcDb2dVertex
 10
259.70073603539998
 20
168.78605730769999
 30
0.0
  0
VERTEX
  5
82
100
AcDbEntity
  8
0
370
              25
  6
Continuous
 62
               7
100
AcDbVertex
100
AcDb2dVertex
 10
259.95819561640002
 20
167.1229029431
 30
0.0
  0
VERTEX
  5
83
100
AcDbEntity
  8
0
370
              25
  6
Continuous
 62
               7
100
AcDbVertex
100
AcDb2dVertex
 10
260.0567798811
 20
165.48781699919999
 30
0.0
  0
SEQEND
  5
84
100
AcDbEntity
  8
0
370
              25
  6
Continuous
 62
               7
  0
ARC
  5
85
100
AcDbEntity
  8
0
370
              25
  6
Continuous
 62
               7
100
AcDbCircle
 10
259.38150165420001
 20
167.85628203069999
 30
0.0
 40
2.462849424831945
100
AcDbArc
 50
252.61877434380008
 51
285.91349631299988
  0
POLYLINE
  5
86
100
AcDbEntity
  8
0
370
              25
  6
Continuous
 62
               7
100
AcDb2dPolyline
 66
               1
 10
0.0
 20
0.0
 30
0.0
 75
               5
  0
VERTEX
  5
87
100
AcDbEntity
  8
0
370
              25
  6
Continuous
 62
               7
100
AcDbVertex
100
AcDb2dVertex
 10
279.86824364649999
 20
188.39835332889999
 30
0.0
  0
VERTEX
  5
88
100
AcDbEntity
  8
0
370
              25
  6
Continuous
 62
               7
100
AcDbVertex
100
AcDb2dVertex
 10
280.99417765639998
 20
187.8547238239
 30
0.0
  0
VERTEX
  5
89
100
AcDbEntity
  8
0
370
              25
  6
Continuous
 62
               7
100
AcDbVertex
100
AcDb2dVertex
 10
282.0997889148
 20
187.0926517071
 30
0.0
  0
VERTEX
  5
8A
100
AcDbEntity
  8
0
370
              25
  6
Continuous
 62
               7
100
AcDbVertex
100
AcDb2dVertex
 10
283.1625659874
 20
186.12767032830001
 30
0.0
  0
VERTEX
  5
8B
100
AcDbEntity
  8
0
370
              25
  6
Continuous
 62
               7
100
AcDbVertex
100
AcDb2dVertex
 10
284.1608891839
 20
184.9793985535
 30
0.0
  0
VERTEX
  5
8C
100
AcDbEntity
  8
0
370
              25
  6
Continuous
 62
               7
100
AcDbVertex
100
AcDb2dVertex
 10
285.07441500689998
 20
183.6712408265
 30
0.0
  0
VERTEX
  5
8D
100
AcDbEntity
  8
0
370
              25
  6
Continuous
 62
               7
100
AcDbVertex
100
AcDb2dVertex
 10
285.88455168949997
 20
182.22980856300001
 30
0.0
  0
VERTEX
  5
8E
100
AcDbEntity
  8
0
370
              25
  6
Continuous
 62
               7
100
AcDbVertex
100
AcDb2dVertex
 10
286.57481626499998
 20
180.68444944839999
 30
0.0
  0
VERTEX
  5
8F
100
AcDbEntity
  8
0
370
              25
  6
Continuous
 62
               7
100
AcDbVertex
100
AcDb2dVertex
 10
287.13115436480001
 20
179.066616713
 30
0.0
  0
VERTEX
  5
90
100
AcDbEntity
  8
0
370
              25
  6
Continuous
 62
               7
100
AcDbVertex
100
AcDb2dVertex
 10
287.54223041820001
 20
177.40926363360001
 30
0.0
  0
VERTEX
  5
91
100
AcDbEntity
  8
0
370
              25
  6
Continuous
 62
               7
100
AcDbVertex
100
AcDb2dVertex
 10
287.7996899991
 20
175.74610926899999
 30
0.0
  0
VERTEX
  5
92
100
AcDbEntity
  8
0
370
              25
  6
Continuous
 62
               7
100
AcDbVertex
100
AcDb2dVertex
 10
287.89827426390002
 20
174.11102332499999
 30
0.0
  0
SEQEND
  5
93
100
AcDbEntity
  8
0
370
              25
  6
Continuous
 62
               7
  0
POLYLINE
  5
94
100
AcDbEntity
  8
0
370
              25
  6
Continuous
 62
               7
100
AcDb2dPolyline
 66
               1
 10
0.0
 20
0.0
 30
0.0
 75
               5
  0
VERTEX
  5
95
100
AcDbEntity
  8
0
370
              25
  6
Continuous
 62
               7
100
AcDbVertex
100
AcDb2dVertex
 10
252.2417921405
 20
94.049835314299997
 30
0.0
  0
VERTEX
  5
96
100
AcDbEntity
  8
0
370
              25
  6
Continuous
 62
               7
100
AcDbVertex
100
AcDb2dVertex
 10
253.2715232768
 20
93.761876956899997
 30
0.0
  0
VERTEX
  5
97
100
AcDbEntity
  8
0
370
              25
  6
Continuous
 62
               7
100
AcDbVertex
100
AcDb2dVertex
 10
254.27789807990001
 20
93.690160013899998
 30
0.0
  0
VERTEX
  5
98
100
AcDbEntity
  8
0
370
              25
  6
Continuous
 62
               7
100
AcDbVertex
100
AcDb2dVertex
 10
255.2404501908
 20
93.836137655000002
 30
0.0
  0
VERTEX
  5
99
100
AcDbEntity
  8
0
370
              25
  6
Continuous
 62
               7
100
AcDbVertex
100
AcDb2dVertex
 10
256.1395840591
 20
94.196838167199999
 30
0.0
  0
VERTEX
  5
9A
100
AcDbEntity
  8
0
370
              25
  6
Continuous
 62
               7
100
AcDbVertex
100
AcDb2dVertex
 10
256.95698465229998
 20
94.764923020099999
 30
0.0
  0
VERTEX
  5
9B
100
AcDbEntity
  8
0
370
              25
  6
Continuous
 62
               7
100
AcDbVertex
100
AcDb2dVertex
 10
257.67601648009997
 20
95.528825669599996
 30
0.0
  0
VERTEX
  5
9C
100
AcDbEntity
  8
0
370
              25
  6
Continuous
 62
               7
100
AcDbVertex
100
AcDb2dVertex
 10
258.28203345089997
 20
96.472999288300002
 30
0.0
  0
VERTEX
  5
9D
100
AcDbEntity
  8
0
370
              25
  6
Continuous
 62
               7
100
AcDbVertex
100
AcDb2dVertex
 10
258.76271746409998
 20
97.578215390099999
 30
0.0
  0
VERTEX
  5
9E
100
AcDbEntity
  8
0
370
              25
  6
Continuous
 62
               7
100
AcDbVertex
100
AcDb2dVertex
 10
259.10826910740002
 20
98.821980491700003
 30
0.0
  0
VERTEX
  5
9F
100
AcDbEntity
  8
0
370
              25
  6
Continuous
 62
               7
100
AcDbVertex
100
AcDb2dVertex
 10
259.31166654660001
 20
100.1789705451
 30
0.0
  0
VERTEX
  5
A0
100
AcDbEntity
  8
0
370
              25
  6
Continuous
 62
               7
100
AcDbVertex
100
AcDb2dVertex
 10
259.36875718210001
 20
101.6215655714
 30
0.0
  0
SEQEND
  5
A1
100
AcDbEntity
  8
0
370
              25
  6
Continuous
 62
               7
  0
LINE
  5
A2
100
AcDbEntity
  8
0
370
              25
  6
Continuous
 62
               7
100
AcDbLine
 10
129.75381844629999
 20
140.76113981570001
 30
0.0
 11
252.2417921405
 21
94.049835314299997
 31
0.0
  0
POLYLINE
  5
A3
100
AcDbEntity
  8
0
370
              25
  6
Continuous
 62
               7
100
AcDb2dPolyline
 66
               1
 10
0.0
 20
0.0
 30
0.0
 75
               5
  0
VERTEX
  5
A4
100
AcDbEntity
  8
0
370
              25
  6
Continuous
 62
               7
100
AcDbVertex
100
AcDb2dVertex
 10
122.39295364589999
 20
153.85786498370001
 30
0.0
  0
VERTEX
  5
A5
100
AcDbEntity
  8
0
370
              25
  6
Continuous
 62
               7
100
AcDbVertex
100
AcDb2dVertex
 10
122.4833302281
 20
152.359032713
 30
0.0
  0
VERTEX
  5
A6
100
AcDbEntity
  8
0
370
              25
  6
Continuous
 62
               7
100
AcDbVertex
100
AcDb2dVertex
 10
122.71933220850001
 20
150.83447584090001
 30
0.0
  0
VERTEX
  5
A7
100
AcDbEntity
  8
0
370
              25
  6
Continuous
 62
               7
100
AcDbVertex
100
AcDb2dVertex
 10
123.0961552422
 20
149.3152301147
 30
0.0
  0
VERTEX
  5
A8
100
AcDbEntity
  8
0
370
              25
  6
Continuous
 62
               7
100
AcDbVertex
100
AcDb2dVertex
 10
123.60612830540001
 20
147.83222276570001
 30
0.0
  0
VERTEX
  5
A9
100
AcDbEntity
  8
0
370
              25
  6
Continuous
 62
               7
100
AcDbVertex
100
AcDb2dVertex
 10
124.2388698174
 20
146.41564338379999
 30
0.0
  0
VERTEX
  5
AA
100
AcDbEntity
  8
0
370
              25
  6
Continuous
 62
               7
100
AcDbVertex
100
AcDb2dVertex
 10
124.9814989298
 20
145.09433018039999
 30
0.0
  0
VERTEX
  5
AB
100
AcDbEntity
  8
0
370
              25
  6
Continuous
 62
               7
100
AcDbVertex
100
AcDb2dVertex
 10
125.8188977591
 20
143.89518060029999
 30
0.0
  0
VERTEX
  5
AC
100
AcDbEntity
  8
0
370
              25
  6
Continuous
 62
               7
100
AcDbVertex
100
AcDb2dVertex
 10
126.7340195312
 20
142.84260606070001
 30
0.0
  0
VERTEX
  5
AD
100
AcDbEntity
  8
0
370
              25
  6
Continuous
 62
               7
100
AcDbVertex
100
AcDb2dVertex
 10
127.7082352738
 20
141.95803384390001
 30
0.0
  0
VERTEX
  5
AE
100
AcDbEntity
  8
0
370
              25
  6
Continuous
 62
               7
100
AcDbVertex
100
AcDb2dVertex
 10
128.72171201
 20
141.25947189799999
 30
0.0
  0
VERTEX
  5
AF
100
AcDbEntity
  8
0
370
              25
  6
Continuous
 62
               7
100
AcDbVertex
100
AcDb2dVertex
 10
129.75381844629999
 20
140.76113981570001
 30
0.0
  0
SEQEND
  5
B0
100
AcDbEntity
  8
0
370
              25
  6
Continuous
 62
               7
  0
LINE
  5
B1
100
AcDbEntity
  8
0
370
              25
  6
Continuous
 62
               7
100
AcDbLine
 10
121.66997579780001
 20
217.7421899954
 30
0.0
 11
122.39295364589999
 21
153.85786498370001
 31
0.0
  0
POLYLINE
  5
B2
100
AcDbEntity
  8
0
370
              25
  6
Continuous
 62
               7
100
AcDb2dPolyline
 66
               1
 10
0.0
 20
0.0
 30
0.0
 75
               5
  0
VERTEX
  5
B3
100
AcDbEntity
  8
0
370
              25
  6
Continuous
 62
               7
100
AcDbVertex
100
AcDb2dVertex
 10
128.7969360102
 20
225.3139220397
 30
0.0
  0
VERTEX
  5
B4
100
AcDbEntity
  8
0
370
              25
  6
Continuous
 62
               7
100
AcDbVertex
100
AcDb2dVertex
 10
127.7672104234
 20
225.60187566720001
 30
0.0
  0
VERTEX
  5
B5
100
AcDbEntity
  8
0
370
              25
  6
Continuous
 62
               7
100
AcDbVertex
100
AcDb2dVertex
 10
126.7608276671
 20
225.67359390089999
 30
0.0
  0
VERTEX
  5
B6
100
AcDbEntity
  8
0
370
              25
  6
Continuous
 62
               7
100
AcDbVertex
100
AcDb2dVertex
 10
125.7982745966
 20
225.52762011039999
 30
0.0
  0
VERTEX
  5
B7
100
AcDbEntity
  8
0
370
              25
  6
Continuous
 62
               7
100
AcDbVertex
100
AcDb2dVertex
 10
124.8991468911
 20
225.16691463449999
 30
0.0
  0
VERTEX
  5
B8
100
AcDbEntity
  8
0
370
              25
  6
Continuous
 62
               7
100
AcDbVertex
100
AcDb2dVertex
 10
124.0817477816
 20
224.5988335717
 30
0.0
  0
VERTEX
  5
B9
100
AcDbEntity
  8
0
370
              25
  6
Continuous
 62
               7
100
AcDbVertex
100
AcDb2dVertex
 10
123.3627170469
 20
223.83492876290001
 30
0.0
  0
VERTEX
  5
BA
100
AcDbEntity
  8
0
370
              25
  6
Continuous
 62
               7
100
AcDbVertex
100
AcDb2dVertex
 10
122.75669212290001
 20
222.8907564349
 30
0.0
  0
VERTEX
  5
BB
100
AcDbEntity
  8
0
370
              25
  6
Continuous
 62
               7
100
AcDbVertex
100
AcDb2dVertex
 10
122.27600996939999
 20
221.78553788150001
 30
0.0
  0
VERTEX
  5
BC
100
AcDbEntity
  8
0
370
              25
  6
Continuous
 62
               7
100
AcDbVertex
100
AcDb2dVertex
 10
121.93045586549999
 20
220.5417743717
 30
0.0
  0
VERTEX
  5
BD
100
AcDbEntity
  8
0
370
              25
  6
Continuous
 62
               7
100
AcDbVertex
100
AcDb2dVertex
 10
121.72706427990001
 20
219.18478644179999
 30
0.0
  0
VERTEX
  5
BE
100
AcDbEntity
  8
0
370
              25
  6
Continuous
 62
               7
100
AcDbVertex
100
AcDb2dVertex
 10
121.66997579780001
 20
217.7421899954
 30
0.0
  0
SEQEND
  5
BF
100
AcDbEntity
  8
0
370
              25
  6
Continuous
 62
               7
  0
LINE
  5
C0
100
AcDbEntity
  8
0
370
              25
  6
Continuous
 62
               7
100
AcDbLine
 10
251.28490970440001
 20
178.6026175383
 30
0.0
 11
128.7969360102
 21
225.3139220397
 31
0.0
  0
LINE
  5
C1
100
AcDbEntity
  8
0
370
              25
  6
Continuous
 62
               7
100
AcDbLine
 10
259.36875718210001
 20
101.6215655714
 30
0.0
 11
258.64577933390001
 21
165.50589058310001
 31
0.0
  0
LINE
  5
C2
100
AcDbEntity
  8
0
370
              25
  6
Continuous
 62
               7
100
AcDbLine
 10
260.0567798811
 20
165.48781699919999
 30
0.0
 11
260.7797577293
 21
101.60349198740001
 31
0.0
  0
ARC
  5
C3
100
AcDbEntity
  8
0
370
              25
  6
Continuous
 62
               7
100
AcDbCircle
 10
260.10447950240001
 20
103.9719570189
 30
0.0
 40
2.4628494248323314
100
AcDbArc
 50
252.61877434380017
 51
285.91349631300011
  0
LINE
  5
C4
100
AcDbEntity
  8
0
370
              25
  6
Continuous
 62
               7
100
AcDbLine
 10
288.62125211199998
 20
110.22669831330001
 30
0.0
 11
287.89827426390002
 21
174.11102332499999
 31
0.0
  0
LINE
  5
C5
100
AcDbEntity
  8
0
370
              25
  6
Continuous
 62
               7
100
AcDbLine
 10
129.53877556949999
 20
226.4864515045
 30
0.0
 11
252.02674926380001
 21
179.77514700309999
 31
0.0
  0
ARC
  5
C6
100
AcDbEntity
  8
0
370
              25
  6
Continuous
 62
               7
100
AcDbCircle
 10
130.02303482939999
 20
225.3591294588
 30
0.0
 40
1.226931956264028
100
AcDbArc
 50
113.24671708809952
 51
182.11159286189931
  0
LINE
  5
C7
100
AcDbEntity
  8
0
370
              25
  6
Continuous
 62
               7
100
AcDbLine
 10
279.86824364649999
 20
188.39835332889999
 30
0.0
 11
157.38026995230001
 21
235.10965783029999
 31
0.0
  0
POLYLINE
  5
C8
100
AcDbEntity
  8
0
370
              25
  6
Continuous
 62
               7
100
AcDb2dPolyline
 66
               1
 10
0.0
 20
0.0
 30
0.0
 75
               5
  0
VERTEX
  5
C9
100
AcDbEntity
  8
0
370
              25
  6
Continuous
 62
               7
100
AcDbVertex
100
AcDb2dVertex
 10
252.0239020644
 20
190.24160193130001
 30
0.0
  0
VERTEX
  5
CA
100
AcDbEntity
  8
0
370
              25
  6
Continuous
 62
               7
100
AcDbVertex
100
AcDb2dVertex
 10
252.7193203443
 20
190.03495465890001
 30
0.0
  0
VERTEX
  5
CB
100
AcDbEntity
  8
0
370
              25
  6
Continuous
 62
               7
100
AcDbVertex
100
AcDb2dVertex
 10
253.5437903449
 20
189.89279998309999
 30
0.0
  0
VERTEX
  5
CC
100
AcDbEntity
  8
0
370
              25
  6
Continuous
 62
               7
100
AcDbVertex
100
AcDb2dVertex
 10
254.44937981730001
 20
189.82340358330001
 30
0.0
  0
VERTEX
  5
CD
100
AcDbEntity
  8
0
370
              25
  6
Continuous
 62
               7
100
AcDbVertex
100
AcDb2dVertex
 10
255.3834759607
 20
189.8307942413
 30
0.0
  0
VERTEX
  5
CE
100
AcDbEntity
  8
0
370
              25
  6
Continuous
 62
               7
100
AcDbVertex
100
AcDb2dVertex
 10
256.29176971700002
 20
189.9145488529
 30
0.0
  0
VERTEX
  5
CF
100
AcDbEntity
  8
0
370
              25
  6
Continuous
 62
               7
100
AcDbVertex
100
AcDb2dVertex
 10
257.12149792140002
 20
190.06979293500001
 30
0.0
  0
VERTEX
  5
D0
100
AcDbEntity
  8
0
370
              25
  6
Continuous
 62
               7
100
AcDbVertex
100
AcDb2dVertex
 10
257.82442745439999
 20
190.28750777139999
 30
0.0
  0
VERTEX
  5
D1
100
AcDbEntity
  8
0
370
              25
  6
Continuous
 62
               7
100
AcDbVertex
100
AcDb2dVertex
 10
258.35970687819997
 20
190.55504065139999
 30
0.0
  0
VERTEX
  5
D2
100
AcDbEntity
  8
0
370
              25
  6
Continuous
 62
               7
100
AcDbVertex
100
AcDb2dVertex
 10
258.69623862740002
 20
190.8568395961
 30
0.0
  0
VERTEX
  5
D3
100
AcDbEntity
  8
0
370
              25
  6
Continuous
 62
               7
100
AcDbVertex
100
AcDb2dVertex
 10
258.81444350909999
 20
191.17537285349999
 30
0.0
  0
VERTEX
  5
D4
100
AcDbEntity
  8
0
370
              25
  6
Continuous
 62
               7
100
AcDbVertex
100
AcDb2dVertex
 10
258.70747220930002
 20
191.4921212518
 30
0.0
  0
VERTEX
  5
D5
100
AcDbEntity
  8
0
370
              25
  6
Continuous
 62
               7
100
AcDbVertex
100
AcDb2dVertex
 10
258.38152738589997
 20
191.7886816287
 30
0.0
  0
VERTEX
  5
D6
100
AcDbEntity
  8
0
370
              25
  6
Continuous
 62
               7
100
AcDbVertex
100
AcDb2dVertex
 10
257.85556552039998
 20
192.04781378589999
 30
0.0
  0
VERTEX
  5
D7
100
AcDbEntity
  8
0
370
              25
  6
Continuous
 62
               7
100
AcDbVertex
100
AcDb2dVertex
 10
257.16014583899999
 20
192.25446062419999
 30
0.0
  0
VERTEX
  5
D8
100
AcDbEntity
  8
0
370
              25
  6
Continuous
 62
               7
100
AcDbVertex
100
AcDb2dVertex
 10
256.33567653919999
 20
192.39661551699999
 30
0.0
  0
VERTEX
  5
D9
100
AcDbEntity
  8
0
370
              25
  6
Continuous
 62
               7
100
AcDbVertex
100
AcDb2dVertex
 10
255.43008636600001
 20
192.4660116997
 30
0.0
  0
VERTEX
  5
DA
100
AcDbEntity
  8
0
370
              25
  6
Continuous
 62
               7
100
AcDbVertex
100
AcDb2dVertex
 10
254.49600143719999
 20
192.45861773370001
 30
0.0
  0
VERTEX
  5
DB
100
AcDbEntity
  8
0
370
              25
  6
Continuous
 62
               7
100
AcDbVertex
100
AcDb2dVertex
 10
253.5876971671
 20
192.37486664720001
 30
0.0
  0
VERTEX
  5
DC
100
AcDbEntity
  8
0
370
              25
  6
Continuous
 62
               7
100
AcDbVertex
100
AcDb2dVertex
 10
252.75796966350001
 20
192.21962278219999
 30
0.0
  0
VERTEX
  5
DD
100
AcDbEntity
  8
0
370
              25
  6
Continuous
 62
               7
100
AcDbVertex
100
AcDb2dVertex
 10
252.0550401305
 20
192.0019079457
 30
0.0
  0
VERTEX
  5
DE
100
AcDbEntity
  8
0
370
              25
  6
Continuous
 62
               7
100
AcDbVertex
100
AcDb2dVertex
 10
251.5197600059
 20
191.73437484870001
 30
0.0
  0
VERTEX
  5
DF
100
AcDbEntity
  8
0
370
              25
  6
Continuous
 62
               7
100
AcDbVertex
100
AcDb2dVertex
 10
251.18323877040001
 20
191.43257237879999
 30
0.0
  0
VERTEX
  5
E0
100
AcDbEntity
  8
0
370
              25
  6
Continuous
 62
               7
100
AcDbVertex
100
AcDb2dVertex
 10
251.06502267420001
 20
191.1140424296
 30
0.0
  0
VERTEX
  5
E1
100
AcDbEntity
  8
0
370
              25
  6
Continuous
 62
               7
100
AcDbVertex
100
AcDb2dVertex
 10
251.1719946748
 20
190.79729424830001
 30
0.0
  0
VERTEX
  5
E2
100
AcDbEntity
  8
0
370
              25
  6
Continuous
 62
               7
100
AcDbVertex
100
AcDb2dVertex
 10
251.4979387974
 20
190.50073365430001
 30
0.0
  0
VERTEX
  5
E3
100
AcDbEntity
  8
0
370
              25
  6
Continuous
 62
               7
100
AcDbVertex
100
AcDb2dVertex
 10
252.0239020644
 20
190.24160193130001
 30
0.0
  0
SEQEND
  5
E4
100
AcDbEntity
  8
0
370
              25
  6
Continuous
 62
               7
  0
POLYLINE
  5
E5
100
AcDbEntity
  8
0
370
              25
  6
Continuous
 62
               7
100
AcDb2dPolyline
 66
               1
 10
0.0
 20
0.0
 30
0.0
 75
               5
  0
VERTEX
  5
E6
100
AcDbEntity
  8
0
370
              25
  6
Continuous
 62
               7
100
AcDbVertex
100
AcDb2dVertex
 10
159.8286545245
 20
225.40064776680001
 30
0.0
  0
VERTEX
  5
E7
100
AcDbEntity
  8
0
370
              25
  6
Continuous
 62
               7
100
AcDbVertex
100
AcDb2dVertex
 10
160.5240752576
 20
225.19399955879999
 30
0.0
  0
VERTEX
  5
E8
100
AcDbEntity
  8
0
370
              25
  6
Continuous
 62
               7
100
AcDbVertex
100
AcDb2dVertex
 10
161.3485403517
 20
225.0518467542
 30
0.0
  0
VERTEX
  5
E9
100
AcDbEntity
  8
0
370
              25
  6
Continuous
 62
               7
100
AcDbVertex
100
AcDb2dVertex
 10
162.25413227729999
 20
224.98244941889999
 30
0.0
  0
VERTEX
  5
EA
100
AcDbEntity
  8
0
370
              25
  6
Continuous
 62
               7
100
AcDbVertex
100
AcDb2dVertex
 10
163.18822106100001
 20
224.98984288349999
 30
0.0
  0
VERTEX
  5
EB
100
AcDbEntity
  8
0
370
              25
  6
Continuous
 62
               7
100
AcDbVertex
100
AcDb2dVertex
 10
164.09652217710001
 20
225.07359468839999
 30
0.0
  0
VERTEX
  5
EC
100
AcDbEntity
  8
0
370
              25
  6
Continuous
 62
               7
100
AcDbVertex
100
AcDb2dVertex
 10
164.92624792820001
 20
225.22883970609999
 30
0.0
  0
VERTEX
  5
ED
100
AcDbEntity
  8
0
370
              25
  6
Continuous
 62
               7
100
AcDbVertex
100
AcDb2dVertex
 10
165.62917746119999
 20
225.4465545425
 30
0.0
  0
VERTEX
  5
EE
100
AcDbEntity
  8
0
370
              25
  6
Continuous
 62
               7
100
AcDbVertex
100
AcDb2dVertex
 10
166.16445933829999
 20
225.71408648689999
 30
0.0
  0
VERTEX
  5
EF
100
AcDbEntity
  8
0
370
              25
  6
Continuous
 62
               7
100
AcDbVertex
100
AcDb2dVertex
 10
166.50098372779999
 20
226.01588823840001
 30
0.0
  0
VERTEX
  5
F0
100
AcDbEntity
  8
0
370
              25
  6
Continuous
 62
               7
100
AcDbVertex
100
AcDb2dVertex
 10
166.61919596920001
 20
226.33441868899999
 30
0.0
  0
VERTEX
  5
F1
100
AcDbEntity
  8
0
370
              25
  6
Continuous
 62
               7
100
AcDbVertex
100
AcDb2dVertex
 10
166.51222221610001
 20
226.65116802290001
 30
0.0
  0
VERTEX
  5
F2
100
AcDbEntity
  8
0
370
              25
  6
Continuous
 62
               7
100
AcDbVertex
100
AcDb2dVertex
 10
166.1862822992
 20
226.9477265287
 30
0.0
  0
VERTEX
  5
F3
100
AcDbEntity
  8
0
370
              25
  6
Continuous
 62
               7
100
AcDbVertex
100
AcDb2dVertex
 10
165.6603179805
 20
227.20685962140001
 30
0.0
  0
VERTEX
  5
F4
100
AcDbEntity
  8
0
370
              25
  6
Continuous
 62
               7
100
AcDbVertex
100
AcDb2dVertex
 10
164.96489584579999
 20
227.4135073953
 30
0.0
  0
VERTEX
  5
F5
100
AcDbEntity
  8
0
370
              25
  6
Continuous
 62
               7
100
AcDbVertex
100
AcDb2dVertex
 10
164.1404314525
 20
227.55566041700001
 30
0.0
  0
VERTEX
  5
F6
100
AcDbEntity
  8
0
370
              25
  6
Continuous
 62
               7
100
AcDbVertex
100
AcDb2dVertex
 10
163.2348388261
 20
227.62505753529999
 30
0.0
  0
VERTEX
  5
F7
100
AcDbEntity
  8
0
370
              25
  6
Continuous
 62
               7
100
AcDbVertex
100
AcDb2dVertex
 10
162.30075144400001
 20
227.61766450479999
 30
0.0
  0
VERTEX
  5
F8
100
AcDbEntity
  8
0
370
              25
  6
Continuous
 62
               7
100
AcDbVertex
100
AcDb2dVertex
 10
161.39244962710001
 20
227.5339124827
 30
0.0
  0
VERTEX
  5
F9
100
AcDbEntity
  8
0
370
              25
  6
Continuous
 62
               7
100
AcDbVertex
100
AcDb2dVertex
 10
160.5627233502
 20
227.37866814989999
 30
0.0
  0
VERTEX
  5
FA
100
AcDbEntity
  8
0
370
              25
  6
Continuous
 62
               7
100
AcDbVertex
100
AcDb2dVertex
 10
159.8597938172
 20
227.16095331349999
 30
0.0
  0
VERTEX
  5
FB
100
AcDbEntity
  8
0
370
              25
  6
Continuous
 62
               7
100
AcDbVertex
100
AcDb2dVertex
 10
159.3245124659
 20
226.89342068420001
 30
0.0
  0
VERTEX
  5
FC
100
AcDbEntity
  8
0
370
              25
  6
Continuous
 62
               7
100
AcDbVertex
100
AcDb2dVertex
 10
158.9879887772
 20
226.5916191499
 30
0.0
  0
VERTEX
  5
FD
100
AcDbEntity
  8
0
370
              25
  6
Continuous
 62
               7
100
AcDbVertex
100
AcDb2dVertex
 10
158.86977513420001
 20
226.2730882651
 30
0.0
  0
VERTEX
  5
FE
100
AcDbEntity
  8
0
370
              25
  6
Continuous
 62
               7
100
AcDbVertex
100
AcDb2dVertex
 10
158.97674958810001
 20
225.9563391483
 30
0.0
  0
VERTEX
  5
FF
100
AcDbEntity
  8
0
370
              25
  6
Continuous
 62
               7
100
AcDbVertex
100
AcDb2dVertex
 10
159.30268880419999
 20
225.6597804255
 30
0.0
  0
VERTEX
  5
100
100
AcDbEntity
  8
0
370
              25
  6
Continuous
 62
               7
100
AcDbVertex
100
AcDb2dVertex
 10
159.8286545245
 20
225.40064776680001
 30
0.0
  0
SEQEND
  5
101
100
AcDbEntity
  8
0
370
              25
  6
Continuous
 62
               7
  0
LINE
  5
102
100
AcDbEntity
  8
0
370
              25
  6
Continuous
 62
               7
100
AcDbLine
 10
256.58339150749998
 20
93.205683627599996
 30
0.0
 11
256.42762302009999
 21
93.154343259900003
 31
0.0
  0
POLYLINE
  5
103
100
AcDbEntity
  8
0
370
              25
  6
Continuous
 62
               7
100
AcDb2dPolyline
 66
               1
 10
0.0
 20
0.0
 30
0.0
 75
               5
  0
VERTEX
  5
104
100
AcDbEntity
  8
0
370
              25
  6
Continuous
 62
               7
100
AcDbVertex
100
AcDb2dVertex
 10
288.62125211199998
 20
110.22669831330001
 30
0.0
  0
VERTEX
  5
105
100
AcDbEntity
  8
0
370
              25
  6
Continuous
 62
               7
100
AcDbVertex
100
AcDb2dVertex
 10
288.56485432220001
 20
108.7177013757
 30
0.0
  0
VERTEX
  5
106
100
AcDbEntity
  8
0
370
              25
  6
Continuous
 62
               7
100
AcDbVertex
100
AcDb2dVertex
 10
288.36189868539998
 20
107.2931815772
 30
0.0
  0
VERTEX
  5
107
100
AcDbEntity
  8
0
370
              25
  6
Continuous
 62
               7
100
AcDbVertex
100
AcDb2dVertex
 10
288.0161976247
 20
105.9797369266
 30
0.0
  0
VERTEX
  5
108
100
AcDbEntity
  8
0
370
              25
  6
Continuous
 62
               7
100
AcDbVertex
100
AcDb2dVertex
 10
287.53418582419999
 20
104.8019087373
 30
0.0
  0
VERTEX
  5
109
100
AcDbEntity
  8
0
370
              25
  6
Continuous
 62
               7
100
AcDbVertex
100
AcDb2dVertex
 10
286.92488672870002
 20
103.7816884116
 30
0.0
  0
VERTEX
  5
10A
100
AcDbEntity
  8
0
370
              25
  6
Continuous
 62
               7
100
AcDbVertex
100
AcDb2dVertex
 10
286.19966281239999
 20
102.93813701320001
 30
0.0
  0
VERTEX
  5
10B
100
AcDbEntity
  8
0
370
              25
  6
Continuous
 62
               7
100
AcDbVertex
100
AcDb2dVertex
 10
285.37208311120003
 20
102.2870034621
 30
0.0
  0
VERTEX
  5
10C
100
AcDbEntity
  8
0
370
              25
  6
Continuous
 62
               7
100
AcDbVertex
100
AcDb2dVertex
 10
284.45757448590001
 20
101.8404589628
 30
0.0
  0
VERTEX
  5
10D
100
AcDbEntity
  8
0
370
              25
  6
Continuous
 62
               7
100
AcDbVertex
100
AcDb2dVertex
 10
284.26911740280002
 20
101.7775495857
 30
0.0
  0
SEQEND
  5
10E
100
AcDbEntity
  8
0
370
              25
  6
Continuous
 62
               7
  0
LINE
  5
10F
100
AcDbEntity
  8
0
370
              25
  6
Continuous
 62
               7
100
AcDbLine
 10
125.9602770095
 20
226.62418711430001
 30
0.0
 11
126.11605070020001
 21
226.67552636900001
 31
0.0
  0
ARC
  5
110
100
AcDbEntity
  8
0
370
              25
  6
Continuous
 62
               7
100
AcDbCircle
 10
155.40240274979999
 20
230.3797967415
 30
0.0
 40
5.1267479546721377
100
AcDbArc
 50
67.306975334200033
 51
106.36929554859992
  0
ARC
  5
111
100
AcDbEntity
  8
0
370
              25
  6
Continuous
 62
               7
100
AcDbCircle
 10
155.4312786358
 20
231.05040652970001
 30
0.0
 40
4.9284503972487217
100
AcDbArc
 50
66.772776382500183
 51
131.4425307094001
  0
LINE
  5
112
100
AcDbEntity
  8
0
370
              25
  6
Continuous
 62
               7
100
AcDbLine
 10
279.86292762239998
 20
188.86809194610001
 30
0.0
 11
157.37495392810001
 21
235.57939644749999
 31
0.0
  0
POLYLINE
  5
113
100
AcDbEntity
  8
0
370
              25
  6
Continuous
 62
               7
100
AcDb2dPolyline
 66
               1
 10
0.0
 20
0.0
 30
0.0
 75
               5
  0
VERTEX
  5
114
100
AcDbEntity
  8
0
370
              25
  6
Continuous
 62
               7
100
AcDbVertex
100
AcDb2dVertex
 10
287.89295823970002
 20
174.58076194220001
 30
0.0
  0
VERTEX
  5
115
100
AcDbEntity
  8
0
370
              25
  6
Continuous
 62
               7
100
AcDbVertex
100
AcDb2dVertex
 10
287.79437397499998
 20
176.21584788609999
 30
0.0
  0
VERTEX
  5
116
100
AcDbEntity
  8
0
370
              25
  6
Continuous
 62
               7
100
AcDbVertex
100
AcDb2dVertex
 10
287.53691439400001
 20
177.8790022508
 30
0.0
  0
VERTEX
  5
117
100
AcDbEntity
  8
0
370
              25
  6
Continuous
 62
               7
100
AcDbVertex
100
AcDb2dVertex
 10
287.12583834060001
 20
179.5363553302
 30
0.0
  0
VERTEX
  5
118
100
AcDbEntity
  8
0
370
              25
  6
Continuous
 62
               7
100
AcDbVertex
100
AcDb2dVertex
 10
286.56950032010002
 20
181.15418106600001
 30
0.0
  0
VERTEX
  5
119
100
AcDbEntity
  8
0
370
              25
  6
Continuous
 62
               7
100
AcDbVertex
100
AcDb2dVertex
 10
285.87923566529997
 20
182.6995471802
 30
0.0
  0
VERTEX
  5
11A
100
AcDbEntity
  8
0
370
              25
  6
Continuous
 62
               7
100
AcDbVertex
100
AcDb2dVertex
 10
285.06909906189998
 20
184.140972444
 30
0.0
  0
VERTEX
  5
11B
100
AcDbEntity
  8
0
370
              25
  6
Continuous
 62
               7
100
AcDbVertex
100
AcDb2dVertex
 10
284.15557315979999
 20
185.4491371707
 30
0.0
  0
VERTEX
  5
11C
100
AcDbEntity
  8
0
370
              25
  6
Continuous
 62
               7
100
AcDbVertex
100
AcDb2dVertex
 10
283.15725004249998
 20
186.59740194579999
 30
0.0
  0
VERTEX
  5
11D
100
AcDbEntity
  8
0
370
              25
  6
Continuous
 62
               7
100
AcDbVertex
100
AcDb2dVertex
 10
282.09447289069999
 20
187.5623903243
 30
0.0
  0
VERTEX
  5
11E
100
AcDbEntity
  8
0
370
              25
  6
Continuous
 62
               7
100
AcDbVertex
100
AcDb2dVertex
 10
280.98886163229997
 20
188.3244624411
 30
0.0
  0
VERTEX
  5
11F
100
AcDbEntity
  8
0
370
              25
  6
Continuous
 62
               7
100
AcDbVertex
100
AcDb2dVertex
 10
279.86292762239998
 20
188.86809194610001
 30
0.0
  0
SEQEND
  5
120
100
AcDbEntity
  8
0
370
              25
  6
Continuous
 62
               7
  0
LINE
  5
121
100
AcDbEntity
  8
0
370
              25
  6
Continuous
 62
               7
100
AcDbLine
 10
288.61593609840003
 20
110.69643600080001
 30
0.0
 11
287.89295823970002
 21
174.58076194220001
 31
0.0
  0
LINE
  5
122
100
AcDbEntity
  8
0
370
              25
  6
Continuous
 62
               7
100
AcDbLine
 10
279.86292762239998
 20
188.86809194610001
 30
0.0
 11
281.36787330729999
 21
189.33421122019999
 31
0.0
  0
POLYLINE
  5
123
100
AcDbEntity
  8
0
370
              25
  6
Continuous
 62
               7
100
AcDb2dPolyline
 66
               1
 10
0.0
 20
0.0
 30
0.0
 75
               5
  0
VERTEX
  5
124
100
AcDbEntity
  8
0
370
              25
  6
Continuous
 62
               7
100
AcDbVertex
100
AcDb2dVertex
 10
281.36787330729999
 20
189.33421122019999
 30
0.0
  0
VERTEX
  5
125
100
AcDbEntity
  8
0
370
              25
  6
Continuous
 62
               7
100
AcDbVertex
100
AcDb2dVertex
 10
282.49380731719998
 20
188.79058171520001
 30
0.0
  0
VERTEX
  5
126
100
AcDbEntity
  8
0
370
              25
  6
Continuous
 62
               7
100
AcDbVertex
100
AcDb2dVertex
 10
283.5994185756
 20
188.02850959840001
 30
0.0
  0
VERTEX
  5
127
100
AcDbEntity
  8
0
370
              25
  6
Continuous
 62
               7
100
AcDbVertex
100
AcDb2dVertex
 10
284.66219572739999
 20
187.0635212199
 30
0.0
  0
VERTEX
  5
128
100
AcDbEntity
  8
0
370
              25
  6
Continuous
 62
               7
100
AcDbVertex
100
AcDb2dVertex
 10
285.66051884469999
 20
185.91525644469999
 30
0.0
  0
VERTEX
  5
129
100
AcDbEntity
  8
0
370
              25
  6
Continuous
 62
               7
100
AcDbVertex
100
AcDb2dVertex
 10
286.57404474679998
 20
184.60709171810001
 30
0.0
  0
VERTEX
  5
12A
100
AcDbEntity
  8
0
370
              25
  6
Continuous
 62
               7
100
AcDbVertex
100
AcDb2dVertex
 10
287.38418135019998
 20
183.16566645430001
 30
0.0
  0
VERTEX
  5
12B
100
AcDbEntity
  8
0
370
              25
  6
Continuous
 62
               7
100
AcDbVertex
100
AcDb2dVertex
 10
288.07444600500003
 20
181.62030034
 30
0.0
  0
VERTEX
  5
12C
100
AcDbEntity
  8
0
370
              25
  6
Continuous
 62
               7
100
AcDbVertex
100
AcDb2dVertex
 10
288.63078402550002
 20
180.00247460419999
 30
0.0
  0
VERTEX
  5
12D
100
AcDbEntity
  8
0
370
              25
  6
Continuous
 62
               7
100
AcDbVertex
100
AcDb2dVertex
 10
289.041860079
 20
178.34512152479999
 30
0.0
  0
VERTEX
  5
12E
100
AcDbEntity
  8
0
370
              25
  6
Continuous
 62
               7
100
AcDbVertex
100
AcDb2dVertex
 10
289.29931965989999
 20
176.6819671602
 30
0.0
  0
VERTEX
  5
12F
100
AcDbEntity
  8
0
370
              25
  6
Continuous
 62
               7
100
AcDbVertex
100
AcDb2dVertex
 10
289.39790392470002
 20
175.04688121629999
 30
0.0
  0
SEQEND
  5
130
100
AcDbEntity
  8
0
370
              25
  6
Continuous
 62
               7
  0
LINE
  5
131
100
AcDbEntity
  8
0
370
              25
  6
Continuous
 62
               7
100
AcDbLine
 10
289.39790392470002
 20
175.04688121629999
 30
0.0
 11
287.89295823970002
 21
174.58076194220001
 31
0.0
  0
LINE
  5
132
100
AcDbEntity
  8
0
370
              25
  6
Continuous
 62
               7
100
AcDbLine
 10
288.61593609840003
 20
110.69643600080001
 30
0.0
 11
290.12088178329998
 21
111.1625552749
 31
0.0
  0
LINE
  5
133
100
AcDbEntity
  8
0
370
              25
  6
Continuous
 62
               7
100
AcDbLine
 10
290.12088178329998
 20
111.1625552749
 30
0.0
 11
289.39790392470002
 21
175.04688121629999
 31
0.0
  0
POLYLINE
  5
134
100
AcDbEntity
  8
0
370
              25
  6
Continuous
 62
               7
100
AcDb2dPolyline
 66
               1
 10
0.0
 20
0.0
 30
0.0
 75
               5
  0
VERTEX
  5
135
100
AcDbEntity
  8
0
370
              25
  6
Continuous
 62
               7
100
AcDbVertex
100
AcDb2dVertex
 10
288.94044534450001
 20
187.43716687279999
 30
0.0
  0
VERTEX
  5
136
100
AcDbEntity
  8
0
370
              25
  6
Continuous
 62
               7
100
AcDbVertex
100
AcDb2dVertex
 10
289.7993106509
 20
187.00305151289999
 30
0.0
  0
VERTEX
  5
137
100
AcDbEntity
  8
0
370
              25
  6
Continuous
 62
               7
100
AcDbVertex
100
AcDb2dVertex
 10
290.63449872820001
 20
186.36803942980001
 30
0.0
  0
VERTEX
  5
138
100
AcDbEntity
  8
0
370
              25
  6
Continuous
 62
               7
100
AcDbVertex
100
AcDb2dVertex
 10
291.42064174550001
 20
185.55141559360001
 30
0.0
  0
VERTEX
  5
139
100
AcDbEntity
  8
0
370
              25
  6
Continuous
 62
               7
100
AcDbVertex
100
AcDb2dVertex
 10
292.13385300919998
 20
184.57799838560001
 30
0.0
  0
VERTEX
  5
13A
100
AcDbEntity
  8
0
370
              25
  6
Continuous
 62
               7
100
AcDbVertex
100
AcDb2dVertex
 10
292.75244893349998
 20
183.47736944280001
 30
0.0
  0
VERTEX
  5
13B
100
AcDbEntity
  8
0
370
              25
  6
Continuous
 62
               7
100
AcDbVertex
100
AcDb2dVertex
 10
293.25764331599999
 20
182.28296073569999
 30
0.0
  0
VERTEX
  5
13C
100
AcDbEntity
  8
0
370
              25
  6
Continuous
 62
               7
100
AcDbVertex
100
AcDb2dVertex
 10
293.63408611049999
 20
181.0310685298
 30
0.0
  0
VERTEX
  5
13D
100
AcDbEntity
  8
0
370
              25
  6
Continuous
 62
               7
100
AcDbVertex
100
AcDb2dVertex
 10
293.8703353299
 20
179.75973255
 30
0.0
  0
VERTEX
  5
13E
100
AcDbEntity
  8
0
370
              25
  6
Continuous
 62
               7
100
AcDbVertex
100
AcDb2dVertex
 10
293.95922180050002
 20
178.50758631350001
 30
0.0
  0
SEQEND
  5
13F
100
AcDbEntity
  8
0
370
              25
  6
Continuous
 62
               7
  0
LINE
  5
140
100
AcDbEntity
  8
0
370
              25
  6
Continuous
 62
               7
100
AcDbLine
 10
158.87989961310001
 20
236.0455157216
 30
0.0
 11
157.37495392810001
 21
235.57939644749999
 31
0.0
  0
LINE
  5
141
100
AcDbEntity
  8
0
370
              25
  6
Continuous
 62
               7
100
AcDbLine
 10
281.36787330729999
 20
189.33421122019999
 30
0.0
 11
158.87989961310001
 21
236.0455157216
 31
0.0
  0
LINE
  5
142
100
AcDbEntity
  8
0
370
              25
  6
Continuous
 62
               7
100
AcDbLine
 10
293.95922180050002
 20
178.50758631350001
 30
0.0
 11
294.5652473655
 21
124.9574889509
 31
0.0
  0
LINE
  5
143
100
AcDbEntity
  8
0
370
              25
  6
Continuous
 62
               7
100
AcDbLine
 10
166.4524716503
 20
234.1484713742
 30
0.0
 11
288.94044534450001
 21
187.43716687279999
 31
0.0
  0
POLYLINE
  5
144
100
AcDbEntity
  8
0
370
              25
  6
Continuous
 62
               7
100
AcDb2dPolyline
 66
               1
 10
0.0
 20
0.0
 30
0.0
 75
               5
  0
VERTEX
  5
145
100
AcDbEntity
  8
0
370
              25
  6
Continuous
 62
               7
100
AcDbVertex
100
AcDb2dVertex
 10
294.5652473655
 20
124.9574889509
 30
0.0
  0
VERTEX
  5
146
100
AcDbEntity
  8
0
370
              25
  6
Continuous
 62
               7
100
AcDbVertex
100
AcDb2dVertex
 10
294.49118508859999
 20
123.7082925551
 30
0.0
  0
VERTEX
  5
147
100
AcDbEntity
  8
0
370
              25
  6
Continuous
 62
               7
100
AcDbVertex
100
AcDb2dVertex
 10
294.24282614880002
 20
122.5746558326
 30
0.0
  0
VERTEX
  5
148
100
AcDbEntity
  8
0
370
              25
  6
Continuous
 62
               7
100
AcDbVertex
100
AcDb2dVertex
 10
293.82970212499998
 20
121.60014868099999
 30
0.0
  0
VERTEX
  5
149
100
AcDbEntity
  8
0
370
              25
  6
Continuous
 62
               7
100
AcDbVertex
100
AcDb2dVertex
 10
293.26769639150001
 20
120.82221881930001
 30
0.0
  0
VERTEX
  5
14A
100
AcDbEntity
  8
0
370
              25
  6
Continuous
 62
               7
100
AcDbVertex
100
AcDb2dVertex
 10
292.57840566980002
 20
120.27076172869999
 30
0.0
  0
VERTEX
  5
14B
100
AcDbEntity
  8
0
370
              25
  6
Continuous
 62
               7
100
AcDbVertex
100
AcDb2dVertex
 10
292.02649476160002
 20
120.0288214067
 30
0.0
  0
SEQEND
  5
14C
100
AcDbEntity
  8
0
370
              25
  6
Continuous
 62
               7
  0
ARC
  5
14D
100
AcDbEntity
  8
0
370
              25
  6
Continuous
 62
               7
100
AcDbCircle
 10
156.9020206548
 20
231.31544182339999
 30
0.0
 40
5.1269488251713318
100
AcDbArc
 50
67.307771635699822
 51
106.36849924709996
  0
ARC
  5
14E
100
AcDbEntity
  8
0
370
              25
  6
Continuous
 62
               7
100
AcDbCircle
 10
165.21542460160001
 20
231.17646357699999
 30
0.0
 40
3.2191793592886837
100
AcDbArc
 50
67.40132100389998
 51
106.27476843059995
  0
LINE
  5
14F
100
AcDbEntity
  8
0
370
              25
  6
Continuous
 62
               8
100
AcDbLine
 10
163.2594318182
 20
225.2499086734
 30
0.0
 11
163.63948698179999
 21
225.91800020669999
 31
0.0
  0
LINE
  5
150
100
AcDbEntity
  8
0
370
              25
  6
Continuous
 62
               8
100
AcDbLine
 10
162.02213819010001
 20
225.93872002570001
 30
0.0
 11
162.33083661890001
 21
225.331303676
 31
0.0
  0
LINE
  5
151
100
AcDbEntity
  8
0
370
              25
  6
Continuous
 62
               8
100
AcDbLine
 10
255.45467935810001
 20
190.09086283779999
 30
0.0
 11
255.8347345217
 21
190.7589543711
 31
0.0
  0
LINE
  5
152
100
AcDbEntity
  8
0
370
              25
  6
Continuous
 62
               8
100
AcDbLine
 10
254.2173906365
 20
190.7796723191
 30
0.0
 11
254.5260890653
 21
190.17225596930001
 31
0.0
  0
POLYLINE
  5
153
100
AcDbEntity
  8
0
370
              25
  6
Continuous
 62
               8
100
AcDb2dPolyline
 66
               1
 10
0.0
 20
0.0
 30
0.0
 75
               5
  0
VERTEX
  5
154
100
AcDbEntity
  8
0
370
              25
  6
Continuous
 62
               8
100
AcDbVertex
100
AcDb2dVertex
 10
260.7797577293
 20
101.60349198740001
 30
0.0
  0
VERTEX
  5
155
100
AcDbEntity
  8
0
370
              25
  6
Continuous
 62
               8
100
AcDbVertex
100
AcDb2dVertex
 10
260.71748774219998
 20
100.0297477819
 30
0.0
  0
VERTEX
  5
156
100
AcDbEntity
  8
0
370
              25
  6
Continuous
 62
               8
100
AcDbVertex
100
AcDb2dVertex
 10
260.49560319369999
 20
98.549393754799993
 30
0.0
  0
VERTEX
  5
157
100
AcDbEntity
  8
0
370
              25
  6
Continuous
 62
               8
100
AcDbVertex
100
AcDb2dVertex
 10
260.11863865740003
 20
97.192558698599996
 30
0.0
  0
VERTEX
  5
158
100
AcDbEntity
  8
0
370
              25
  6
Continuous
 62
               8
100
AcDbVertex
100
AcDb2dVertex
 10
259.59425431649998
 20
95.986868807799993
 30
0.0
  0
VERTEX
  5
159
100
AcDbEntity
  8
0
370
              25
  6
Continuous
 62
               8
100
AcDbVertex
100
AcDb2dVertex
 10
258.93313507369999
 20
94.956865602299999
 30
0.0
  0
VERTEX
  5
15A
100
AcDbEntity
  8
0
370
              25
  6
Continuous
 62
               8
100
AcDbVertex
100
AcDb2dVertex
 10
258.14874207309998
 20
94.123514818499999
 30
0.0
  0
VERTEX
  5
15B
100
AcDbEntity
  8
0
370
              25
  6
Continuous
 62
               8
100
AcDbVertex
100
AcDb2dVertex
 10
257.2570341174
 20
93.503785366800003
 30
0.0
  0
VERTEX
  5
15C
100
AcDbEntity
  8
0
370
              25
  6
Continuous
 62
               8
100
AcDbVertex
100
AcDb2dVertex
 10
256.58339150749998
 20
93.205683627599996
 30
0.0
  0
SEQEND
  5
15D
100
AcDbEntity
  8
0
370
              25
  6
Continuous
 62
               8
  0
ARC
  5
15E
100
AcDbEntity
  8
0
370
              25
  6
Continuous
 62
               8
100
AcDbCircle
 10
252.9483684816
 20
93.986450715299995
 30
0.0
 40
0.7094136544468896
100
AcDbArc
 50
174.87390834820025
 51
244.0750294337991
  0
ARC
  5
15F
100
AcDbEntity
  8
0
370
              25
  6
Continuous
 62
               8
100
AcDbCircle
 10
130.46048309349999
 20
140.69777792030001
 30
0.0
 40
0.7094995796189824
100
AcDbArc
 50
174.87637160780025
 51
244.0456101388001
  0
ARC
  5
160
100
AcDbEntity
  8
0
370
              25
  6
Continuous
 62
               8
100
AcDbCircle
 10
127.560908367
 20
221.75659041559999
 30
0.0
 40
5.1267479546714361
100
AcDbArc
 50
67.306975334199834
 51
106.36929554860011
  0
POLYLINE
  5
161
100
AcDbEntity
  8
0
370
              25
  6
Continuous
 62
               8
100
AcDb2dPolyline
 66
               1
 10
0.0
 20
0.0
 30
0.0
 75
               5
  0
VERTEX
  5
162
100
AcDbEntity
  8
0
370
              25
  6
Continuous
 62
               8
100
AcDbVertex
100
AcDb2dVertex
 10
121.4225113353
 20
217.9640868079
 30
0.0
  0
VERTEX
  5
163
100
AcDbEntity
  8
0
370
              25
  6
Continuous
 62
               8
100
AcDbVertex
100
AcDb2dVertex
 10
121.43092498910001
 20
217.92099088379999
 30
0.0
  0
VERTEX
  5
164
100
AcDbEntity
  8
0
370
              25
  6
Continuous
 62
               8
100
AcDbVertex
100
AcDb2dVertex
 10
121.4752417512
 20
217.85603584239999
 30
0.0
  0
VERTEX
  5
165
100
AcDbEntity
  8
0
370
              25
  6
Continuous
 62
               8
100
AcDbVertex
100
AcDb2dVertex
 10
121.5559602758
 20
217.7956624711
 30
0.0
  0
VERTEX
  5
166
100
AcDbEntity
  8
0
370
              25
  6
Continuous
 62
               8
100
AcDbVertex
100
AcDb2dVertex
 10
121.66997579780001
 20
217.7421899954
 30
0.0
  0
SEQEND
  5
167
100
AcDbEntity
  8
0
370
              25
  6
Continuous
 62
               8
  0
POLYLINE
  5
168
100
AcDbEntity
  8
0
370
              25
  6
Continuous
 62
               8
100
AcDb2dPolyline
 66
               1
 10
0.0
 20
0.0
 30
0.0
 75
               5
  0
VERTEX
  5
169
100
AcDbEntity
  8
0
370
              25
  6
Continuous
 62
               8
100
AcDbVertex
100
AcDb2dVertex
 10
122.1454903258
 20
154.07960832020001
 30
0.0
  0
VERTEX
  5
16A
100
AcDbEntity
  8
0
370
              25
  6
Continuous
 62
               8
100
AcDbVertex
100
AcDb2dVertex
 10
122.15390283719999
 20
154.0366658721
 30
0.0
  0
VERTEX
  5
16B
100
AcDbEntity
  8
0
370
              25
  6
Continuous
 62
               8
100
AcDbVertex
100
AcDb2dVertex
 10
122.1982195993
 20
153.97171083059999
 30
0.0
  0
VERTEX
  5
16C
100
AcDbEntity
  8
0
370
              25
  6
Continuous
 62
               8
100
AcDbVertex
100
AcDb2dVertex
 10
122.27893812390001
 20
153.9113374593
 30
0.0
  0
VERTEX
  5
16D
100
AcDbEntity
  8
0
370
              25
  6
Continuous
 62
               8
100
AcDbVertex
100
AcDb2dVertex
 10
122.39295364589999
 20
153.85786498370001
 30
0.0
  0
SEQEND
  5
16E
100
AcDbEntity
  8
0
370
              25
  6
Continuous
 62
               8
  0
LINE
  5
16F
100
AcDbEntity
  8
0
370
              25
  6
Continuous
 62
               8
100
AcDbLine
 10
166.4524716503
 20
234.1484713742
 30
0.0
 11
165.01878752229999
 21
233.70442358450001
 31
0.0
  0
MTEXT
  5
170
100
AcDbEntity
  8
0
 62
               7
100
AcDbMText
 10
275.0
 20
77.695186719674084
 30
0.0
 40
3.0316840277777768
 41
0.0
 71
               1
 72
               1
  1
HEC-083I^I\PHEC-083G^I\PHEC-083S^I
  7
Arial
 73
               1
 44
0.9673603504928806
  0
ENDSEC
  0
SECTION
  2
OBJECTS
  0
DICTIONARY
  5
19
100
AcDbDictionary
280
               0
281
               1
  3
ACAD_GROUP
350
1A
  3
ACAD_MLINESTYLE
350
1B
  3
ACAD_LAYOUT
350
1E
  3
ACAD_PLOTSETTINGS
350
22
  3
ACAD_PLOTSTYLENAME
350
1F
  3
ACAD_WIPEOUT_VARS
350
23
  0
DICTIONARY
  5
1A
102
{ACAD_REACTORS
330
19
102
}
100
AcDbDictionary
280
               0
281
               1
  0
DICTIONARY
  5
1B
102
{ACAD_REACTORS
330
19
102
}
100
AcDbDictionary
280
               0
281
               1
  3
Standard
350
1C
  0
MLINESTYLE
  5
1C
102
{ACAD_REACTORS
330
1B
102
}
100
AcDbMlineStyle
  2
Standard
 70
               0
  3

 62
               0
 51
90.0
 52
90.0
 71
               2
 49
0.5
 62
             256
  6
ByLayer
 49
-0.5
 62
             256
  6
ByLayer
  0
ACDBDICTIONARYWDFLT
  5
1F
102
{ACAD_REACTORS
330
19
102
}
100
AcDbDictionary
281
               1
  3
Normal
350
1D
100
AcDbDictionaryWithDefault
340
1D
  0
ACDBPLACEHOLDER
  5
1D
102
{ACAD_REACTORS
330
1F
102
}
  0
LAYOUT
  5
20
102
{ACAD_REACTORS
330
1E
102
}
100
AcDbPlotSettings
  1

  2

  4

  6

 40
0.0
 41
0.0
 42
0.0
 43
0.0
 44
0.0
 45
0.0
 46
0.0
 47
0.0
 48
0.0
 49
0.0
140
0.0
141
0.0
142
1.0
143
1.0
 70
            1024
 72
               0
 73
               0
 74
               0
  7

 75
               0
147
1.0
148
0.0
149
0.0
100
AcDbLayout
  1
Model
 70
               0
 71
               0
 10
0.0
 20
0.0
 11
0.0
 21
0.0
 12
0.0
 22
0.0
 32
0.0
 14
0.0
 24
0.0
 34
0.0
 15
0.0
 25
0.0
 35
0.0
146
0.0
 13
0.0
 23
0.0
 33
0.0
 16
0.0
 26
0.0
 36
0.0
 17
0.0
 27
0.0
 37
0.0
 76
               0
330
A
331
0
345
0
346
0
  0
LAYOUT
  5
21
102
{ACAD_REACTORS
330
1E
102
}
100
AcDbPlotSettings
  1

  2

  4

  6

 40
0.0
 41
0.0
 42
0.0
 43
0.0
 44
0.0
 45
0.0
 46
0.0
 47
0.0
 48
0.0
 49
0.0
140
0.0
141
0.0
142
1.0
143
1.0
 70
               0
 72
               0
 73
               0
 74
               0
  7

 75
               0
147
1.0
148
0.0
149
0.0
100
AcDbLayout
  1
Layout1
 70
               0
 71
               0
 10
0.0
 20
0.0
 11
0.0
 21
0.0
 12
0.0
 22
0.0
 32
0.0
 14
0.0
 24
0.0
 34
0.0
 15
0.0
 25
0.0
 35
0.0
146
0.0
 13
0.0
 23
0.0
 33
0.0
 16
0.0
 26
0.0
 36
0.0
 17
0.0
 27
0.0
 37
0.0
 76
               0
330
B
331
0
345
0
346
0
  0
DICTIONARY
  5
1E
102
{ACAD_REACTORS
330
19
102
}
100
AcDbDictionary
280
               0
281
               1
  3
Layout1
350
21
  3
Model
350
20
  0
DICTIONARY
  5
22
102
{ACAD_REACTORS
330
19
102
}
100
AcDbDictionary
280
               0
281
               1
  0
WIPEOUTVARIABLES
  5
23
100
AcDbWipeoutVariables
 70
               1
  0
ENDSEC
  0
EOF
