  0
SECTION
  2
HEADER
  9
$ACADVER
  1
AC1015
  9
$ACADMAINTVER
 70
     6
  9
$DWGCODEPAGE
  3
DOS932
  9
$INSBASE
 10
0.0
 20
0.0
 30
0.0
  9
$EXTMIN
 10
0.0
 20
0.0
 30
0.0
  9
$EXTMAX
 10
210.0
 20
297.0
 30
0.0
  9
$LIMMIN
 10
0.0
 20
0.0
  9
$LIMMAX
 10
210.0
 20
297.0
  9
$ORTHOMODE
 70
     0
  9
$REGENMODE
 70
     1
  9
$FILLMODE
 70
     1
  9
$QTEXTMODE
 70
     0
  9
$MIRRTEXT
 70
     1
  9
$LTSCALE
 40
1.0
  9
$ATTMODE
 70
     1
  9
$TEXTSIZE
 40
3.5
  9
$TRACEWID
 40
1.0
  9
$TEXTSTYLE
  7
Standard
  9
$CLAYER
  8
0
  9
$CELTYPE
  6
ByLayer
  9
$CECOLOR
 62
   256
  9
$CELTSCALE
 40
1.0
  9
$DISPSILH
 70
     0
  9
$DIMSCALE
 40
1.0
  9
$DIMASZ
 40
3.302
  9
$DIMEXO
 40
1.0
  9
$DIMDLI
 40
3.75
  9
$DIMRND
 40
0.0
  9
$DIMDLE
 40
0.0
  9
$DIMEXE
 40
1.0
  9
$DIMTP
 40
0.0
  9
$DIMTM
 40
0.0
  9
$DIMTXT
 40
3.5
  9
$DIMCEN
 40
2.5
  9
$DIMTSZ
 40
0.0
  9
$DIMTOL
 70
     0
  9
$DIMLIM
 70
     0
  9
$DIMTIH
 70
     1
  9
$DIMTOH
 70
     1
  9
$DIMSE1
 70
     0
  9
$DIMSE2
 70
     0
  9
$DIMTAD
 70
     1
  9
$DIMZIN
 70
     1
  9
$DIMBLK
  1

  9
$DIMASO
 70
     1
  9
$DIMSHO
 70
     1
  9
$DIMPOST
  1

  9
$DIMAPOST
  1

  9
$DIMALT
 70
     0
  9
$DIMALTD
 70
     3
  9
$DIMALTF
 40
0.0393700787
  9
$DIMLFAC
 40
5.0
  9
$DIMTOFL
 70
     1
  9
$DIMTVP
 40
0.0
  9
$DIMTIX
 70
     0
  9
$DIMSOXD
 70
     0
  9
$DIMSAH
 70
     0
  9
$DIMBLK1
  1

  9
$DIMBLK2
  1

  9
$DIMSTYLE
  2
ISO-25
  9
$DIMCLRD
 70
     0
  9
$DIMCLRE
 70
     0
  9
$DIMCLRT
 70
     0
  9
$DIMTFAC
 40
1.0
  9
$DIMGAP
 40
1.524
  9
$DIMJUST
 70
     0
  9
$DIMSD1
 70
     0
  9
$DIMSD2
 70
     0
  9
$DIMTOLJ
 70
     0
  9
$DIMTZIN
 70
     1
  9
$DIMALTZ
 70
     0
  9
$DIMALTTZ
 70
     0
  9
$DIMUPT
 70
     0
  9
$DIMDEC
 70
     2
  9
$DIMTDEC
 70
     2
  9
$DIMALTU
 70
     2
  9
$DIMALTTD
 70
     3
  9
$DIMTXSTY
  7
Standard
  9
$DIMAUNIT
 70
     0
  9
$DIMADEC
 70
     2
  9
$DIMALTRND
 40
0.0
  9
$DIMAZIN
 70
     0
  9
$DIMDSEP
 70
    44
  9
$DIMATFIT
 70
     3
  9
$DIMFRAC
 70
     0
  9
$DIMLDRBLK
  1

  9
$DIMLUNIT
 70
     2
  9
$DIMLWD
 70
    -2
  9
$DIMLWE
 70
    -2
  9
$DIMTMOVE
 70
     0
  9
$LUNITS
 70
     2
  9
$LUPREC
 70
     2
  9
$SKETCHINC
 40
1.0
  9
$FILLETRAD
 40
10.0
  9
$AUNITS
 70
     0
  9
$AUPREC
 70
     2
  9
$MENU
  1
.
  9
$ELEVATION
 40
0.0
  9
$PELEVATION
 40
0.0
  9
$THICKNESS
 40
0.0
  9
$LIMCHECK
 70
     0
  9
$CHAMFERA
 40
0.0
  9
$CHAMFERB
 40
0.0
  9
$CHAMFERC
 40
0.0
  9
$CHAMFERD
 40
0.0
  9
$SKPOLY
 70
     0
  9
$TDCREATE
 40
2460018.605924028
  9
$TDUCREATE
 40
2460018.230924028
  9
$TDUPDATE
 40
2460018.605924201
  9
$TDUUPDATE
 40
2460018.230924201
  9
$TDINDWG
 40
0.0000000116
  9
$TDUSRTIMER
 40
0.0000000116
  9
$USRTIMER
 70
     1
  9
$ANGBASE
 50
0.0
  9
$ANGDIR
 70
     0
  9
$PDMODE
 70
     0
  9
$PDSIZE
 40
-1.0
  9
$PLINEWID
 40
0.0
  9
$SPLFRAME
 70
     0
  9
$SPLINETYPE
 70
     6
  9
$SPLINESEGS
 70
     8
  9
$HANDSEED
  5
C3
  9
$SURFTAB1
 70
     6
  9
$SURFTAB2
 70
     6
  9
$SURFTYPE
 70
     6
  9
$SURFU
 70
     6
  9
$SURFV
 70
     6
  9
$UCSBASE
  2

  9
$UCSNAME
  2

  9
$UCSORG
 10
0.0
 20
0.0
 30
0.0
  9
$UCSXDIR
 10
1.0
 20
0.0
 30
0.0
  9
$UCSYDIR
 10
0.0
 20
1.0
 30
0.0
  9
$UCSORTHOREF
  2

  9
$UCSORTHOVIEW
 70
     0
  9
$UCSORGTOP
 10
0.0
 20
0.0
 30
0.0
  9
$UCSORGBOTTOM
 10
0.0
 20
0.0
 30
0.0
  9
$UCSORGLEFT
 10
0.0
 20
0.0
 30
0.0
  9
$UCSORGRIGHT
 10
0.0
 20
0.0
 30
0.0
  9
$UCSORGFRONT
 10
0.0
 20
0.0
 30
0.0
  9
$UCSORGBACK
 10
0.0
 20
0.0
 30
0.0
  9
$PUCSBASE
  2

  9
$PUCSNAME
  2

  9
$PUCSORG
 10
0.0
 20
0.0
 30
0.0
  9
$PUCSXDIR
 10
1.0
 20
0.0
 30
0.0
  9
$PUCSYDIR
 10
0.0
 20
1.0
 30
0.0
  9
$PUCSORTHOREF
  2

  9
$PUCSORTHOVIEW
 70
     0
  9
$PUCSORGTOP
 10
0.0
 20
0.0
 30
0.0
  9
$PUCSORGBOTTOM
 10
0.0
 20
0.0
 30
0.0
  9
$PUCSORGLEFT
 10
0.0
 20
0.0
 30
0.0
  9
$PUCSORGRIGHT
 10
0.0
 20
0.0
 30
0.0
  9
$PUCSORGFRONT
 10
0.0
 20
0.0
 30
0.0
  9
$PUCSORGBACK
 10
0.0
 20
0.0
 30
0.0
  9
$USERI1
 70
     0
  9
$USERI2
 70
     0
  9
$USERI3
 70
     0
  9
$USERI4
 70
     0
  9
$USERI5
 70
     0
  9
$USERR1
 40
0.0
  9
$USERR2
 40
0.0
  9
$USERR3
 40
0.0
  9
$USERR4
 40
0.0
  9
$USERR5
 40
0.0
  9
$WORLDVIEW
 70
     1
  9
$SHADEDGE
 70
     3
  9
$SHADEDIF
 70
    70
  9
$TILEMODE
 70
     1
  9
$MAXACTVP
 70
    64
  9
$PINSBASE
 10
0.0
 20
0.0
 30
0.0
  9
$PLIMCHECK
 70
     0
  9
$PEXTMIN
 10
1.0000000000E+20
 20
1.0000000000E+20
 30
1.0000000000E+20
  9
$PEXTMAX
 10
-1.0000000000E+20
 20
-1.0000000000E+20
 30
-1.0000000000E+20
  9
$PLIMMIN
 10
0.0
 20
0.0
  9
$PLIMMAX
 10
420.0
 20
297.0
  9
$UNITMODE
 70
     0
  9
$VISRETAIN
 70
     1
  9
$PLINEGEN
 70
     0
  9
$PSLTSCALE
 70
     1
  9
$TREEDEPTH
 70
  3020
  9
$CMLSTYLE
  2
Standard
  9
$CMLJUST
 70
     0
  9
$CMLSCALE
 40
20.0
  9
$PROXYGRAPHICS
 70
     1
  9
$MEASUREMENT
 70
     1
  9
$CELWEIGHT
370
    -1
  9
$ENDCAPS
280
     0
  9
$JOINSTYLE
280
     0
  9
$LWDISPLAY
290
     1
  9
$INSUNITS
 70
     4
  9
$HYPERLINKBASE
  1

  9
$STYLESHEET
  1

  9
$XEDIT
290
     1
  9
$CEPSNTYPE
380
     0
  9
$PSTYLEMODE
290
     1
  9
$FINGERPRINTGUID
  2
{5172c64f-3618-4589-b03f-abc64d6fcd7f}
  9
$VERSIONGUID
  2
{FAEB1C32-E019-11D5-929B-00C0DF256EC4}
  9
$EXTNAMES
290
     1
  9
$PSVPSCALE
 40
0.0
  9
$OLESTARTUP
290
     0
  0
ENDSEC
  0
SECTION
  2
CLASSES
  0
CLASS
  1
ACDBDICTIONARYWDFLT
  2
AcDbDictionaryWithDefault
  3
ObjectDBX Classes
 90
        0
280
     0
281
     0
  0
CLASS
  1
VISUALSTYLE
  2
AcDbVisualStyle
  3
ObjectDBX Classes
 90
     4095
280
     0
281
     0
  0
CLASS
  1
MATERIAL
  2
AcDbMaterial
  3
ObjectDBX Classes
 90
     1153
280
     0
281
     0
  0
CLASS
  1
SCALE
  2
AcDbScale
  3
ObjectDBX Classes
 90
     1153
280
     0
281
     0
  0
CLASS
  1
TABLESTYLE
  2
AcDbTableStyle
  3
ObjectDBX Classes
 90
     4095
280
     0
281
     0
  0
CLASS
  1
MLEADERSTYLE
  2
AcDbMLeaderStyle
  3
ACDB_MLEADERSTYLE_CLASS
 90
     4095
280
     0
281
     0
  0
CLASS
  1
SUN
  2
AcDbSun
  3
SCENEOE
 90
     1153
280
     0
281
     0
  0
CLASS
  1
ACDBPLACEHOLDER
  2
AcDbPlaceHolder
  3
ObjectDBX Classes
 90
        0
280
     0
281
     0
  0
CLASS
  1
LAYOUT
  2
AcDbLayout
  3
ObjectDBX Classes
 90
        0
280
     0
281
     0
  0
ENDSEC
  0
SECTION
  2
TABLES
  0
TABLE
  2
VPORT
  5
8
330
0
100
AcDbSymbolTable
 70
     1
  0
VPORT
  5
29
330
8
100
AcDbSymbolTableRecord
100
AcDbViewportTableRecord
  2
*Active
 70
     0
 10
0.0
 20
0.0
 11
1.0
 21
1.0
 12
105.0
 22
148.5
 13
0.0
 23
0.0
 14
10.0
 24
10.0
 15
10.0
 25
10.0
 16
0.0
 26
0.0
 36
1.0
 17
0.0
 27
0.0
 37
0.0
 40
297.0
 41
0.7070707071
 42
50.0
 43
0.0
 44
0.0
 50
0.0
 51
0.0
 71
     0
 72
  2000
 73
     1
 74
     3
 75
     0
 76
     0
 77
     0
 78
     0
281
     0
 65
     1
110
0.0
120
0.0
130
0.0
111
1.0
121
0.0
131
0.0
112
0.0
122
1.0
132
0.0
 79
     0
146
0.0
  0
ENDTAB
  0
TABLE
  2
LTYPE
  5
5
330
0
100
AcDbSymbolTable
 70
     6
  0
LTYPE
  5
14
330
5
100
AcDbSymbolTableRecord
100
AcDbLinetypeTableRecord
  2
ByBlock
 70
     0
  3

 72
    65
 73
     0
 40
0.0
  0
LTYPE
  5
15
330
5
100
AcDbSymbolTableRecord
100
AcDbLinetypeTableRecord
  2
ByLayer
 70
     0
  3

 72
    65
 73
     0
 40
0.0
  0
LTYPE
  5
16
330
5
100
AcDbSymbolTableRecord
100
AcDbLinetypeTableRecord
  2
Continuous
 70
     0
  3
Solid line
 72
    65
 73
     0
 40
0.0
  0
LTYPE
  5
6E
330
5
100
AcDbSymbolTableRecord
100
AcDbLinetypeTableRecord
  2
HIDDEN
 70
     0
  3
Hidden __ __ __ __ __ __ __ __ __ __ __ __ __ __
 72
    65
 73
     2
 40
1.905
 49
1.27
 74
     0
 49
-0.635
 74
     0
  0
LTYPE
  5
6F
330
5
100
AcDbSymbolTableRecord
100
AcDbLinetypeTableRecord
  2
PHANTOM
 70
     0
  3
Phantom ______  __  __  ______  __  __  ______
 72
    65
 73
     6
 40
12.7
 49
6.35
 74
     0
 49
-1.27
 74
     0
 49
1.27
 74
     0
 49
-1.27
 74
     0
 49
1.27
 74
     0
 49
-1.27
 74
     0
  0
LTYPE
  5
70
330
5
100
AcDbSymbolTableRecord
100
AcDbLinetypeTableRecord
  2
CENTER
 70
     0
  3
Center ____ _ ____ _ ____ _ ____ _ ____ _ ____
 72
    65
 73
     4
 40
10.16
 49
6.35
 74
     0
 49
-1.27
 74
     0
 49
1.27
 74
     0
 49
-1.27
 74
     0
  0
LTYPE
  5
71
330
5
100
AcDbSymbolTableRecord
100
AcDbLinetypeTableRecord
  2
CENTERX2
 70
     0
  3
Center (2x) ________  __  ________  __  _____
 72
    65
 73
     4
 40
20.32
 49
12.7
 74
     0
 49
-2.54
 74
     0
 49
2.54
 74
     0
 49
-2.54
 74
     0
  0
LTYPE
  5
72
330
5
100
AcDbSymbolTableRecord
100
AcDbLinetypeTableRecord
  2
DOT2
 70
     0
  3
Dot (.5x) ........................................
 72
    65
 73
     2
 40
0.635
 49
0.0
 74
     0
 49
-0.635
 74
     0
  0
ENDTAB
  0
TABLE
  2
LAYER
  5
2
330
0
100
AcDbSymbolTable
 70
     2
  0
LAYER
  5
10
330
2
100
AcDbSymbolTableRecord
100
AcDbLayerTableRecord
  2
0
 70
     0
 62
     7
  6
Continuous
370
    -3
390
F
  0
LAYER
  5
73
330
2
100
AcDbSymbolTableRecord
100
AcDbLayerTableRecord
  2
FORMAT
 70
     0
 62
     7
  6
Continuous
370
    -3
390
F
  0
ENDTAB
  0
TABLE
  2
STYLE
  5
3
330
0
100
AcDbSymbolTable
 70
     2
  0
STYLE
  5
11
330
3
100
AcDbSymbolTableRecord
100
AcDbTextStyleTableRecord
  2
Standard
 70
     0
 40
0.0
 41
1.0
 50
0.0
 71
     0
 42
3.5
  3
txt
  4
bigfont
  0
STYLE
  5
77
330
3
100
AcDbSymbolTableRecord
100
AcDbTextStyleTableRecord
  2
SLDTEXTSTYLE0
 70
     0
 40
0.0
 41
0.7
 50
0.0
 71
     0
 42
3.5
  3
TXT
  4
bigfont
  0
ENDTAB
  0
TABLE
  2
VIEW
  5
6
330
0
100
AcDbSymbolTable
 70
     0
  0
ENDTAB
  0
TABLE
  2
UCS
  5
7
330
0
100
AcDbSymbolTable
 70
     0
  0
ENDTAB
  0
TABLE
  2
APPID
  5
9
330
0
100
AcDbSymbolTable
 70
     1
  0
APPID
  5
12
330
9
100
AcDbSymbolTableRecord
100
AcDbRegAppTableRecord
  2
ACAD
 70
     0
  0
ENDTAB
  0
TABLE
  2
DIMSTYLE
  5
A
330
0
100
AcDbSymbolTable
 70
     1
100
AcDbDimStyleTable
  0
DIMSTYLE
105
27
330
A
100
AcDbSymbolTableRecord
100
AcDbDimStyleTableRecord
  2
ISO-25
 70
     0
 41
2.5
 42
0.625
 43
3.75
 44
1.25
 73
     0
 74
     0
 77
     1
 78
     8
140
2.5
141
2.5
143
0.0393700787
147
0.625
171
     3
172
     1
178
     0
271
     2
272
     2
274
     3
278
    44
283
     0
284
     8
340
11
  0
ENDTAB
  0
TABLE
  2
BLOCK_RECORD
  5
1
330
0
100
AcDbSymbolTable
 70
     2
  0
BLOCK_RECORD
  5
1F
330
1
100
AcDbSymbolTableRecord
100
AcDbBlockTableRecord
  2
*Model_Space
340
22
  0
BLOCK_RECORD
  5
1B
330
1
100
AcDbSymbolTableRecord
100
AcDbBlockTableRecord
  2
*Paper_Space
340
1E
  0
BLOCK_RECORD
  5
23
330
1
100
AcDbSymbolTableRecord
100
AcDbBlockTableRecord
  2
*Paper_Space0
340
26
  0
BLOCK_RECORD
  5
74
330
1
100
AcDbSymbolTableRecord
100
AcDbBlockTableRecord
  2
SW_NOTE_0
340
0
102
{BLKREFS
331
7B
102
}
  0
ENDTAB
  0
ENDSEC
  0
SECTION
  2
BLOCKS
  0
BLOCK
  5
20
330
1F
100
AcDbEntity
  8
0
100
AcDbBlockBegin
  2
*Model_Space
 70
     0
 10
0.0
 20
0.0
 30
0.0
  3
*Model_Space
  1

  0
ENDBLK
  5
21
330
1F
100
AcDbEntity
  8
0
100
AcDbBlockEnd
  0
BLOCK
  5
1C
330
1B
100
AcDbEntity
 67
     1
  8
0
100
AcDbBlockBegin
  2
*Paper_Space
 70
     0
 10
0.0
 20
0.0
 30
0.0
  3
*Paper_Space
  1

  0
ENDBLK
  5
1D
330
1B
100
AcDbEntity
 67
     1
  8
0
100
AcDbBlockEnd
  0
BLOCK
  5
24
330
23
100
AcDbEntity
  8
0
100
AcDbBlockBegin
  2
*Paper_Space0
 70
     0
 10
0.0
 20
0.0
 30
0.0
  3
*Paper_Space0
  1

  0
ENDBLK
  5
25
330
23
100
AcDbEntity
  8
0
100
AcDbBlockEnd
  0
BLOCK
  5
75
330
74
100
AcDbEntity
  8
0
100
AcDbBlockBegin
  2
SW_NOTE_0
 70
     0
 10
0.0
 20
0.0
 30
0.0
  3
SW_NOTE_0
  1

  0
MTEXT
  5
78
330
74
100
AcDbEntity
  8
0
  6
Continuous
 62
     0
370
     0
100
AcDbMText
 10
0.0
 20
4.5117370892
 30
0.0
 40
3.5
 41
0.0
 71
     1
 72
     1
  1
HEC-083I
  7
SLDTEXTSTYLE0
 73
     1
 44
1.0
  0
MTEXT
  5
79
330
74
100
AcDbEntity
  8
0
  6
Continuous
 62
     0
370
     0
100
AcDbMText
 10
0.0
 20
0.0117372829
 30
0.0
 40
3.5
 41
0.0
 71
     1
 72
     1
  1
HEC-083S
  7
SLDTEXTSTYLE0
 73
     1
 44
1.0
  0
MTEXT
  5
7A
330
74
100
AcDbEntity
  8
0
  6
Continuous
 62
     0
370
     0
100
AcDbMText
 10
0.0
 20
-4.4882625234
 30
0.0
 40
3.5
 41
0.0
 71
     1
 72
     1
  1
HEC-083K
  7
SLDTEXTSTYLE0
 73
     1
 44
1.0
  0
ENDBLK
  5
76
330
74
100
AcDbEntity
  8
0
100
AcDbBlockEnd
  0
ENDSEC
  0
SECTION
  2
ENTITIES
  0
INSERT
  5
7B
330
1F
100
AcDbEntity
  8
0
  6
Continuous
 62
     7
370
     0
100
AcDbBlockReference
  2
SW_NOTE_0
 10
153.171338063
 20
90.2452906509
 30
0.0
  0
SPLINE
  5
7C
330
1F
100
AcDbEntity
  8
0
  6
Continuous
 62
     7
370
    25
100
AcDbSpline
210
0.0
220
0.0
230
1.0
 70
     8
 71
     3
 72
     9
 73
     5
 74
     0
 42
0.00000001
 43
0.00000001
 40
0.0
 40
0.0
 40
0.0
 40
0.0
 40
0.5308354090745596
 40
1.0
 40
1.0
 40
1.0
 40
1.0
 10
127.1799874890731
 20
168.5367291428011
 30
0.0
 10
127.0919168799034
 20
168.5219623471739
 30
0.0
 10
126.9260074328994
 20
168.494144316623
 30
0.0
 10
126.7758555454366
 20
168.4186305484852
 30
0.0
 10
126.7054095965785
 20
168.3832021623477
 30
0.0
  0
SPLINE
  5
7D
330
1F
100
AcDbEntity
  8
0
  6
Continuous
 62
     7
370
    25
100
AcDbSpline
210
0.0
220
0.0
230
1.0
 70
     8
 71
     3
 72
     9
 73
     5
 74
     0
 42
0.00000001
 43
0.00000001
 40
0.0
 40
0.0
 40
0.0
 40
0.0
 40
0.800328267696598
 40
1.0
 40
1.0
 40
1.0
 40
1.0
 10
128.6037232383501
 20
168.382271941459
 30
0.0
 10
128.5115348003798
 20
168.4293150481348
 30
0.0
 10
128.3963465186567
 20
168.4880948121074
 30
0.0
 10
128.2700939832866
 20
168.5102422411246
 30
0.0
 10
128.2448849208415
 20
168.5146644566426
 30
0.0
  0
SPLINE
  5
7E
330
1F
100
AcDbEntity
  8
0
  6
Continuous
 62
     7
370
    25
100
AcDbSpline
210
0.0
220
0.0
230
1.0
 70
     8
 71
     3
 72
     9
 73
     5
 74
     0
 42
0.00000001
 43
0.00000001
 40
0.0
 40
0.0
 40
0.0
 40
0.0
 40
0.2383604762542204
 40
1.0
 40
1.0
 40
1.0
 40
1.0
 10
128.0788197237628
 20
168.5183772751643
 30
0.0
 10
128.0742175510268
 20
168.4995361947165
 30
0.0
 10
128.0549099342261
 20
168.4204917124107
 30
0.0
 10
128.0251321458738
 20
168.3453668615056
 30
0.0
 10
128.0024522053351
 20
168.2881488058408
 30
0.0
  0
SPLINE
  5
7F
330
1F
100
AcDbEntity
  8
0
  6
Continuous
 62
     7
370
    25
100
AcDbSpline
210
0.0
220
0.0
230
1.0
 70
     8
 71
     3
 72
    10
 73
     6
 74
     0
 42
0.00000001
 43
0.00000001
 40
0.0
 40
0.0
 40
0.0
 40
0.0
 40
0.3598736418896998
 40
0.7609262929440603
 40
1.0
 40
1.0
 40
1.0
 40
1.0
 10
127.3013148831624
 20
168.2879375486048
 30
0.0
 10
127.2911121562037
 20
168.3150243726242
 30
0.0
 10
127.2695392419948
 20
168.3722974657033
 30
0.0
 10
127.2440010608355
 20
168.4489078124505
 30
0.0
 10
127.2316494298297
 20
168.4993126385139
 30
0.0
 10
127.2270363559024
 20
168.5181377790003
 30
0.0
  0
SPLINE
  5
80
330
1F
100
AcDbEntity
  8
0
  6
Continuous
 62
     7
370
    25
100
AcDbSpline
210
0.0
220
0.0
230
1.0
 70
     8
 71
     3
 72
     9
 73
     5
 74
     0
 42
0.00000001
 43
0.00000001
 40
0.0
 40
0.0
 40
0.0
 40
0.0
 40
0.5308354090745702
 40
1.0
 40
1.0
 40
1.0
 40
1.0
 10
77.6825128060148
 20
181.3476182752565
 30
0.0
 10
77.59444219684511
 20
181.3328514796293
 30
0.0
 10
77.42853274984112
 20
181.3050334490784
 30
0.0
 10
77.27838086237837
 20
181.2295196809407
 30
0.0
 10
77.20793491352022
 20
181.1940912948031
 30
0.0
  0
SPLINE
  5
81
330
1F
100
AcDbEntity
  8
0
  6
Continuous
 62
     7
370
    25
100
AcDbSpline
210
0.0
220
0.0
230
1.0
 70
     8
 71
     3
 72
     9
 73
     5
 74
     0
 42
0.00000001
 43
0.00000001
 40
0.0
 40
0.0
 40
0.0
 40
0.0
 40
0.8003282676966058
 40
1.0
 40
1.0
 40
1.0
 40
1.0
 10
79.10624855529188
 20
181.1931610739144
 30
0.0
 10
79.0140601173215
 20
181.2402041805902
 30
0.0
 10
78.89887183559843
 20
181.2989839445628
 30
0.0
 10
78.7726193002283
 20
181.3211313735801
 30
0.0
 10
78.74741023778326
 20
181.325553589098
 30
0.0
  0
SPLINE
  5
82
330
1F
100
AcDbEntity
  8
0
  6
Continuous
 62
     7
370
    25
100
AcDbSpline
210
0.0
220
0.0
230
1.0
 70
     8
 71
     3
 72
     9
 73
     5
 74
     0
 42
0.00000001
 43
0.00000001
 40
0.0
 40
0.0
 40
0.0
 40
0.0
 40
0.2383604762542194
 40
1.0
 40
1.0
 40
1.0
 40
1.0
 10
78.58134504070449
 20
181.3292664076197
 30
0.0
 10
78.57674286796853
 20
181.310425327172
 30
0.0
 10
78.55743525116777
 20
181.2313808448661
 30
0.0
 10
78.52765746281558
 20
181.156255993961
 30
0.0
 10
78.5049775222768
 20
181.0990379382962
 30
0.0
  0
SPLINE
  5
83
330
1F
100
AcDbEntity
  8
0
  6
Continuous
 62
     7
370
    25
100
AcDbSpline
210
0.0
220
0.0
230
1.0
 70
     8
 71
     3
 72
    10
 73
     6
 74
     0
 42
0.00000001
 43
0.00000001
 40
0.0
 40
0.0
 40
0.0
 40
0.0
 40
0.2222400593413492
 40
0.7095230498525613
 40
0.9999999999999999
 40
0.9999999999999999
 40
0.9999999999999999
 40
0.9999999999999999
 10
77.78902456646739
 20
181.1388974642738
 30
0.0
 10
77.78386473497098
 20
181.1526771768621
 30
0.0
 10
77.76739147002084
 20
181.1966702523264
 30
0.0
 10
77.7465539263649
 20
181.2598100963849
 30
0.0
 10
77.73418223783426
 20
181.3102053471438
 30
0.0
 10
77.72956167284411
 20
181.3290269114557
 30
0.0
  0
SPLINE
  5
84
330
1F
100
AcDbEntity
  8
0
  6
Continuous
 62
     7
370
    25
100
AcDbSpline
210
0.0
220
0.0
230
1.0
 70
     8
 71
     3
 72
    11
 73
     7
 74
     0
 42
0.00000001
 43
0.00000001
 40
0.0
 40
0.0
 40
0.0
 40
0.0
 40
0.1936242857333144
 40
0.54008949382457
 40
0.8834751332004329
 40
1.0
 40
1.0
 40
1.0
 40
1.0
 10
127.1740912266382
 20
120.0805829862872
 30
0.0
 10
127.2776162007793
 20
120.0565733824306
 30
0.0
 10
127.5663855081537
 20
119.9896017484499
 30
0.0
 10
128.0400922169305
 20
119.959121483859
 30
0.0
 10
128.4704744461826
 20
119.9829834230852
 30
0.0
 10
128.7032289864804
 20
120.0519196831623
 30
0.0
 10
128.7622006591015
 20
120.0693856649463
 30
0.0
  0
LINE
  5
85
330
1F
100
AcDbEntity
  8
0
  6
Continuous
 62
     7
370
    25
100
AcDbLine
 10
128.8027494727
 20
120.0686231285
 30
0.0
 11
141.8842249246
 21
123.4543581135
 31
0.0
  0
LINE
  5
86
330
1F
100
AcDbEntity
  8
0
  6
Continuous
 62
     7
370
    25
100
AcDbLine
 10
61.4131605763
 20
137.1007642623
 30
0.0
 11
127.1740912266
 21
120.0805829863
 31
0.0
  0
SPLINE
  5
87
330
1F
100
AcDbEntity
  8
0
  6
Continuous
 62
     7
370
    25
100
AcDbSpline
210
0.0
220
0.0
230
1.0
 70
     8
 71
     3
 72
    18
 73
    14
 74
     0
 42
0.00000001
 43
0.00000001
 40
0.0
 40
0.0
 40
0.0
 40
0.0
 40
0.0657424439017932
 40
0.1653713740543954
 40
0.2651245523370793
 40
0.3655877761664433
 40
0.4670825635039597
 40
0.5696191472526829
 40
0.6729807709077834
 40
0.7768686150590748
 40
0.8810193550953103
 40
0.9799328875650379
 40
1.0
 40
1.0
 40
1.0
 40
1.0
 10
60.07561395091194
 20
181.5418944833677
 30
0.0
 10
59.96081840488358
 20
181.5140030252178
 30
0.0
 10
59.672056745667
 20
181.4438436504687
 30
0.0
 10
59.24059962848971
 20
181.2286904886824
 30
0.0
 10
58.78832796634451
 20
180.9150294647611
 30
0.0
 10
58.38100788021845
 20
180.5182014692801
 30
0.0
 10
58.02271590560383
 20
180.0477113391432
 30
0.0
 10
57.71915747332846
 20
179.5084242687194
 30
0.0
 10
57.47539085840479
 20
178.9085783323446
 30
0.0
 10
57.29551160302699
 20
178.2577011543158
 30
0.0
 10
57.18496834375171
 20
177.5783322026895
 30
0.0
 10
57.15122353085035
 20
177.065052892691
 30
0.0
 10
57.14962439189058
 20
176.7874456601185
 30
0.0
 10
57.14935468330621
 20
176.7406248049008
 30
0.0
  0
LINE
  5
88
330
1F
100
AcDbEntity
  8
0
  6
Continuous
 62
     7
370
    25
100
AcDbLine
 10
73.1165405893
 20
184.9283920048
 30
0.0
 11
60.0350651373
 21
181.5426570198
 31
0.0
  0
LINE
  5
89
330
1F
100
AcDbEntity
  8
0
  6
Continuous
 62
     7
370
    25
100
AcDbLine
 10
57.1493546833
 20
176.7406248049
 30
0.0
 11
57.1493546833
 21
143.9039763402
 31
0.0
  0
SPLINE
  5
8A
330
1F
100
AcDbEntity
  8
0
  6
Continuous
 62
     7
370
    25
100
AcDbSpline
210
0.0
220
0.0
230
1.0
 70
     8
 71
     3
 72
    20
 73
    16
 74
     0
 42
0.00000001
 43
0.00000001
 40
0.0
 40
0.0
 40
0.0
 40
0.0
 40
0.043511270848474
 40
0.1250415519891505
 40
0.2065725978370912
 40
0.2881105836661471
 40
0.3696868672188375
 40
0.4513283104209457
 40
0.5330680574343302
 40
0.6149283201136555
 40
0.6969080706452755
 40
0.7789547695289346
 40
0.8609165990842713
 40
0.9425689252555913
 40
1.0
 40
1.0
 40
1.0
 40
1.0
 10
57.14935468330623
 20
143.903976340204
 30
0.0
 10
57.15132096495033
 20
143.7736616798701
 30
0.0
 10
57.15697161370481
 20
143.3991668177953
 30
0.0
 10
57.21918979198696
 20
142.7719439523292
 30
0.0
 10
57.35663384765191
 20
142.0321874789381
 30
0.0
 10
57.56011505936844
 20
141.3054830015511
 30
0.0
 10
57.8254023032722
 20
140.6033333740859
 30
0.0
 10
58.1490139426533
 20
139.9364098157357
 30
0.0
 10
58.52635476671373
 20
139.315054235581
 30
0.0
 10
58.95228988765046
 20
138.7489848717299
 30
0.0
 10
59.42099818148264
 20
138.2475619764215
 30
0.0
 10
59.92581368152372
 20
137.8189280990326
 30
0.0
 10
60.45924103940661
 20
137.4729930244387
 30
0.0
 10
60.95868656168211
 20
137.2347247567706
 30
0.0
 10
61.28034119484369
 20
137.1399140253892
 30
0.0
 10
61.41316057628937
 20
137.1007642622637
 30
0.0
  0
LINE
  5
8B
330
1F
100
AcDbEntity
  8
0
  6
Continuous
 62
     7
370
    25
100
AcDbLine
 10
145.3305955504
 20
132.3864589199
 30
0.0
 11
145.6772352893
 21
132.4761758861
 31
0.0
  0
LINE
  5
8C
330
1F
100
AcDbEntity
  8
0
  6
Continuous
 62
     7
370
    25
100
AcDbLine
 10
73.8236473705
 20
185.3528861633
 30
0.0
 11
73.1165405893
 21
185.1698734614
 31
0.0
  0
SPLINE
  5
8D
330
1F
100
AcDbEntity
  8
0
  6
Continuous
 62
     7
370
    25
100
AcDbSpline
210
0.0
220
0.0
230
1.0
 70
     8
 71
     3
 72
    14
 73
    10
 74
     0
 42
0.00000001
 43
0.00000001
 40
0.0
 40
0.0
 40
0.0
 40
0.0
 40
0.0102263406438573
 40
0.0511531701539244
 40
0.2162617002865063
 40
0.4213704088257578
 40
0.6246249039533319
 40
0.8207938228671008
 40
1.0
 40
1.0
 40
1.0
 40
1.0
 10
128.2367253262574
 20
168.5166241637234
 30
0.0
 10
128.2346463826474
 20
168.5169882244879
 30
0.0
 10
128.2242473005199
 20
168.5188092925397
 30
0.0
 10
128.1821805808247
 20
168.5250994549885
 30
0.0
 10
128.1157640947991
 20
168.5272829831403
 30
0.0
 10
128.0658850515357
 20
168.5048339203668
 30
0.0
 10
128.0733669826899
 20
168.453440481177
 30
0.0
 10
128.1320965771389
 20
168.3847579792114
 30
0.0
 10
128.2029158215833
 20
168.3320242153767
 30
0.0
 10
128.2367253262574
 20
168.3068488206257
 30
0.0
  0
ARC
  5
8E
330
1F
100
AcDbEntity
  8
0
  6
Continuous
 62
     7
370
    25
100
AcDbCircle
 10
128.0483315294
 20
167.4577615829
 30
0.0
 40
1.075491602853899
100
AcDbArc
 50
79.0183111006
 51
79.9114524293
  0
LINE
  5
8F
330
1F
100
AcDbEntity
  8
0
  6
Continuous
 62
     7
370
    25
100
AcDbLine
 10
128.0746631287
 20
168.5597696131
 30
0.0
 11
128.2532075909
 21
168.5135589059
 31
0.0
  0
ARC
  5
90
330
1F
100
AcDbEntity
  8
0
  6
Continuous
 62
     7
370
    25
100
AcDbCircle
 10
127.8697870672
 20
167.5039722905
 30
0.0
 40
1.075491602453073
100
AcDbArc
 50
79.0183111004
 51
79.9114524295
  0
SPLINE
  5
91
330
1F
100
AcDbEntity
  8
0
  6
Continuous
 62
     7
370
    25
100
AcDbSpline
210
0.0
220
0.0
230
1.0
 70
     8
 71
     3
 72
    14
 73
    10
 74
     0
 42
0.00000001
 43
0.00000001
 40
0.0
 40
0.0
 40
0.0
 40
0.0
 40
0.0102263406438585
 40
0.0511531701539069
 40
0.216261700286422
 40
0.4213704088256683
 40
0.6246249039532468
 40
0.8207938228670173
 40
1.0
 40
1.0
 40
1.0
 40
1.0
 10
127.2476711775409
 20
168.5628348709512
 30
0.0
 10
127.2497726587356
 20
168.5632047648719
 30
0.0
 10
127.2602844760974
 20
168.5650550109493
 30
0.0
 10
127.3069374744864
 20
168.5725321896702
 30
0.0
 10
127.4100520136515
 20
168.5842138728927
 30
0.0
 10
127.5791693719124
 20
168.5926259569464
 30
0.0
 10
127.7655536131242
 20
168.5914087753662
 30
0.0
 10
127.9336851220784
 20
168.5814422475543
 30
0.0
 10
128.0179515828195
 20
168.5688476178447
 30
0.0
 10
128.0581808640078
 20
168.5628348709512
 30
0.0
  0
LINE
  5
92
330
1F
100
AcDbEntity
  8
0
  6
Continuous
 62
     7
370
    25
100
AcDbLine
 10
127.2311889129
 20
168.5597696131
 30
0.0
 11
127.2476711775
 21
168.562834871
 31
0.0
  0
LINE
  5
93
330
1F
100
AcDbEntity
  8
0
  6
Continuous
 62
     7
370
    25
100
AcDbLine
 10
127.0526444506
 20
168.5135589059
 30
0.0
 11
127.2311889129
 21
168.5597696131
 31
0.0
  0
LINE
  5
94
330
1F
100
AcDbEntity
  8
0
  6
Continuous
 62
     7
370
    25
100
AcDbLine
 10
127.0526444506
 20
168.5135589059
 30
0.0
 11
127.0691267153
 21
168.5166241637
 31
0.0
  0
SPLINE
  5
95
330
1F
100
AcDbEntity
  8
0
  6
Continuous
 62
     7
370
    25
100
AcDbSpline
210
0.0
220
0.0
230
1.0
 70
     8
 71
     3
 72
    14
 73
    10
 74
     0
 42
0.00000001
 43
0.00000001
 40
0.0
 40
0.0
 40
0.0
 40
0.0
 40
0.0102263406438477
 40
0.0511531701538918
 40
0.2162617002863844
 40
0.4213704088256349
 40
0.6246249039532096
 40
0.8207938228669863
 40
1.0
 40
1.0
 40
1.0
 40
1.0
 10
127.0691267152914
 20
168.3068488206257
 30
0.0
 10
127.0712056589013
 20
168.3083006881025
 30
0.0
 10
127.0816047410288
 20
168.315563073218
 30
0.0
 10
127.1236714607241
 20
168.3460026046551
 30
0.0
 10
127.1900879467495
 20
168.4015621459328
 30
0.0
 10
127.2399669900131
 20
168.4666546695099
 30
0.0
 10
127.2324850588588
 20
168.5117408129854
 30
0.0
 10
127.1737554644098
 20
168.5300895842181
 30
0.0
 10
127.1029362199654
 20
168.5209753501898
 30
0.0
 10
127.0691267152913
 20
168.5166241637234
 30
0.0
  0
LINE
  5
96
330
1F
100
AcDbEntity
  8
0
  6
Continuous
 62
     7
370
    25
100
AcDbLine
 10
127.9491833966
 20
168.3146621231
 30
0.0
 11
128.0746631287
 21
168.5597696131
 31
0.0
  0
LINE
  5
97
330
1F
100
AcDbEntity
  8
0
  6
Continuous
 62
     7
370
    25
100
AcDbLine
 10
127.3560817412
 20
168.3158085593
 30
0.0
 11
127.2311889129
 21
168.5597696131
 31
0.0
  0
SPLINE
  5
98
330
1F
100
AcDbEntity
  8
0
  6
Continuous
 62
     7
370
    25
100
AcDbSpline
210
0.0
220
0.0
230
1.0
 70
     8
 71
     3
 72
    14
 73
    10
 74
     0
 42
0.00000001
 43
0.00000001
 40
0.0
 40
0.0
 40
0.0
 40
0.0
 40
0.0102263406438572
 40
0.0511531701539241
 40
0.2162617002865085
 40
0.4213704088257568
 40
0.6246249039533285
 40
0.8207938228671077
 40
1.0
 40
1.0
 40
1.0
 40
1.0
 10
78.7392506431991
 20
181.3275132961789
 30
0.0
 10
78.73717169958915
 20
181.3278773569433
 30
0.0
 10
78.72677261746165
 20
181.3296984249951
 30
0.0
 10
78.68470589776638
 20
181.3359885874439
 30
0.0
 10
78.61828941174086
 20
181.3381721155957
 30
0.0
 10
78.56841036847737
 20
181.3157230528222
 30
0.0
 10
78.57589229963166
 20
181.2643296136324
 30
0.0
 10
78.63462189408064
 20
181.1956471116668
 30
0.0
 10
78.70544113852505
 20
181.1429133478321
 30
0.0
 10
78.7392506431991
 20
181.1177379530811
 30
0.0
  0
ARC
  5
99
330
1F
100
AcDbEntity
  8
0
  6
Continuous
 62
     7
370
    25
100
AcDbCircle
 10
78.5508568462
 20
180.2686507149
 30
0.0
 40
1.07549160334319
100
AcDbArc
 50
79.0183111008
 51
79.9114524292
  0
LINE
  5
9A
330
1F
100
AcDbEntity
  8
0
  6
Continuous
 62
     7
370
    25
100
AcDbLine
 10
78.5771884456
 20
181.3706587455
 30
0.0
 11
78.7557329078
 21
181.3244480383
 31
0.0
  0
ARC
  5
9B
330
1F
100
AcDbEntity
  8
0
  6
Continuous
 62
     7
370
    25
100
AcDbCircle
 10
78.3723123842
 20
180.3148614232
 30
0.0
 40
1.075491602255146
100
AcDbArc
 50
79.0183111004
 51
79.9114524296
  0
SPLINE
  5
9C
330
1F
100
AcDbEntity
  8
0
  6
Continuous
 62
     7
370
    25
100
AcDbSpline
210
0.0
220
0.0
230
1.0
 70
     8
 71
     3
 72
    14
 73
    10
 74
     0
 42
0.00000001
 43
0.00000001
 40
0.0
 40
0.0
 40
0.0
 40
0.0
 40
0.0102263406438476
 40
0.0511531701538963
 40
0.216261700286416
 40
0.421370408825667
 40
0.6246249039532467
 40
0.8207938228670169
 40
1.0
 40
1.0
 40
1.0
 40
1.0
 10
77.75019649448267
 20
181.3737240034066
 30
0.0
 10
77.75229797567735
 20
181.3740938973273
 30
0.0
 10
77.76280979303911
 20
181.3759441434048
 30
0.0
 10
77.80946279142816
 20
181.3834213221257
 30
0.0
 10
77.91257733059325
 20
181.3951030053481
 30
0.0
 10
78.08169468885409
 20
181.4035150894019
 30
0.0
 10
78.2680789300659
 20
181.4022979078216
 30
0.0
 10
78.43621043902013
 20
181.3923313800097
 30
0.0
 10
78.52047689976123
 20
181.3797367503001
 30
0.0
 10
78.5607061809495
 20
181.3737240034066
 30
0.0
  0
LINE
  5
9D
330
1F
100
AcDbEntity
  8
0
  6
Continuous
 62
     7
370
    25
100
AcDbLine
 10
77.7337142298
 20
181.3706587455
 30
0.0
 11
77.7501964945
 21
181.3737240034
 31
0.0
  0
LINE
  5
9E
330
1F
100
AcDbEntity
  8
0
  6
Continuous
 62
     7
370
    25
100
AcDbLine
 10
77.5551697676
 20
181.3244480383
 30
0.0
 11
77.7337142298
 21
181.3706587455
 31
0.0
  0
LINE
  5
9F
330
1F
100
AcDbEntity
  8
0
  6
Continuous
 62
     7
370
    25
100
AcDbLine
 10
77.5551697676
 20
181.3244480383
 30
0.0
 11
77.5716520322
 21
181.3275132962
 31
0.0
  0
SPLINE
  5
A0
330
1F
100
AcDbEntity
  8
0
  6
Continuous
 62
     7
370
    25
100
AcDbSpline
210
0.0
220
0.0
230
1.0
 70
     8
 71
     3
 72
    14
 73
    10
 74
     0
 42
0.00000001
 43
0.00000001
 40
0.0
 40
0.0
 40
0.0
 40
0.0
 40
0.0102263406438476
 40
0.0511531701538922
 40
0.2162617002863827
 40
0.4213704088256354
 40
0.6246249039532189
 40
0.8207938228669859
 40
0.9999999999999999
 40
0.9999999999999999
 40
0.9999999999999999
 40
0.9999999999999999
 10
77.57165203223308
 20
181.1177379530811
 30
0.0
 10
77.57373097584299
 20
181.1191898205579
 30
0.0
 10
77.58413005797051
 20
181.1264522056734
 30
0.0
 10
77.62619677766574
 20
181.1568917371106
 30
0.0
 10
77.69261326369127
 20
181.2124512783882
 30
0.0
 10
77.74249230695477
 20
181.2775438019654
 30
0.0
 10
77.73501037580053
 20
181.3226299454408
 30
0.0
 10
77.67628078135155
 20
181.3409787166735
 30
0.0
 10
77.60546153690716
 20
181.3318644826452
 30
0.0
 10
77.57165203223308
 20
181.3275132961789
 30
0.0
  0
LINE
  5
A1
330
1F
100
AcDbEntity
  8
0
  6
Continuous
 62
     7
370
    25
100
AcDbLine
 10
78.4517087136
 20
181.1255512556
 30
0.0
 11
78.5771884456
 21
181.3706587455
 31
0.0
  0
LINE
  5
A2
330
1F
100
AcDbEntity
  8
0
  6
Continuous
 62
     7
370
    25
100
AcDbLine
 10
77.8586070581
 20
181.1266976917
 30
0.0
 11
77.7337142298
 21
181.3706587455
 31
0.0
  0
LWPOLYLINE
  5
A3
330
1F
100
AcDbEntity
  8
0
  6
Continuous
 62
     7
370
    25
100
AcDbPolyline
 90
       12
 70
   128
 43
0.0
 10
127.2993726302
 20
164.5094286263
 10
127.9031633534
 20
164.2941656949
 10
128.4946626387
 20
163.96530411
 10
129.0618292664
 20
163.5295385453
 10
129.5931173594
 20
162.9957399309
 10
130.0777114244
 20
162.3747748673
 10
130.5057465236
 20
161.6792844124
 10
130.8685090968
 20
160.9234267464
 10
131.158614344
 20
160.1225889515
 10
131.370156559
 20
159.2930737758
 10
131.4988293525
 20
158.4517677562
 10
131.5420133173
 20
157.6157974572
  0
LWPOLYLINE
  5
A4
330
1F
100
AcDbEntity
  8
0
  6
Continuous
 62
     7
370
    25
100
AcDbPolyline
 90
       12
 70
   128
 43
0.0
 10
140.3808480821
 20
167.8951636113
 10
140.9846388054
 20
167.6799006799
 10
141.5761380907
 20
167.351039095
 10
142.1433047183
 20
166.9152735303
 10
142.6745928114
 20
166.3814749159
 10
143.1591868764
 20
165.7605098523
 10
143.5872219756
 20
165.0650193974
 10
143.9499845487
 20
164.3091617314
 10
144.2400897959
 20
163.5083239365
 10
144.451632011
 20
162.6788087608
 10
144.5803048044
 20
161.8375027412
 10
144.6234887693
 20
161.0015324422
  0
LINE
  5
A5
330
1F
100
AcDbEntity
  8
0
  6
Continuous
 62
     7
370
    25
100
AcDbLine
 10
131.5420133173
 20
157.6157974572
 30
0.0
 11
131.5420133173
 21
124.7791489925
 31
0.0
  0
LINE
  5
A6
330
1F
100
AcDbEntity
  8
0
  6
Continuous
 62
     7
370
    25
100
AcDbLine
 10
144.6234887693
 20
128.1648839775
 30
0.0
 11
144.6234887693
 21
161.0015324422
 31
0.0
  0
LINE
  5
A7
330
1F
100
AcDbEntity
  8
0
  6
Continuous
 62
     7
370
    25
100
AcDbLine
 10
61.5384419798
 20
181.5296099022
 30
0.0
 11
127.2993726302
 21
164.5094286263
 31
0.0
  0
LINE
  5
A8
330
1F
100
AcDbEntity
  8
0
  6
Continuous
 62
     7
370
    25
100
AcDbLine
 10
140.3808480821
 20
167.8951636113
 30
0.0
 11
74.6199174318
 21
184.9153448872
 31
0.0
  0
LWPOLYLINE
  5
A9
330
1F
100
AcDbEntity
  8
0
  6
Continuous
 62
     7
370
    25
100
AcDbPolyline
 90
       28
 70
   128
 43
0.0
 10
126.2829066322
 20
168.4556400108
 10
126.6357838964
 20
168.3834245371
 10
127.0434955557
 20
168.3342181012
 10
127.4840617692
 20
168.3106734348
 10
127.9337314982
 20
168.3140598368
 10
128.3682629312
 20
168.3441947456
 10
128.7642303662
 20
168.3994535803
 10
129.1002870963
 20
168.4768573229
 10
129.3583162162
 20
168.5722331176
 10
129.5244073092
 20
168.6804392306
 10
129.5896063616
 20
168.7956422424
 10
129.5503984754
 20
168.9116315287
 10
129.4088973582
 20
169.0221540772
 10
129.1727313716
 20
169.1212515885
 10
128.8546322851
 20
169.2035816903
 10
128.4717489029
 20
169.2647059455
 10
128.0447225672
 20
169.3013291295
 10
127.5965743782
 20
169.3114768772
 10
127.1514641209
 20
169.2946021207
 10
126.7333878044
 20
169.2516145826
 10
126.3648840311
 20
169.1848317322
 10
126.065818935
 20
169.0978538502
 10
125.8523151926
 20
168.9953699368
 10
125.735882846
 20
168.8829049262
 10
125.7227987932
 20
168.7665218364
 10
125.8137683989
 20
168.6524949097
 10
126.0038874679
 20
168.5469713673
 10
126.2829066322
 20
168.4556400108
  0
LWPOLYLINE
  5
AA
330
1F
100
AcDbEntity
  8
0
  6
Continuous
 62
     7
370
    25
100
AcDbPolyline
 90
       28
 70
   128
 43
0.0
 10
76.7854319492
 20
181.2665291433
 10
77.1383092133
 20
181.1943136696
 10
77.5460208727
 20
181.1451072337
 10
77.9865870861
 20
181.1215625672
 10
78.4362568151
 20
181.1249489693
 10
78.8707882481
 20
181.155083878
 10
79.2667556831
 20
181.2103427127
 10
79.6028124132
 20
181.2877464554
 10
79.8608415331
 20
181.3831222501
 10
80.0269326262
 20
181.4913283631
 10
80.0921316785
 20
181.6065313749
 10
80.0529237924
 20
181.7225206612
 10
79.9114226751
 20
181.8330432096
 10
79.6752566885
 20
181.932140721
 10
79.357157602
 20
182.0144708228
 10
78.9742742198
 20
182.0755950779
 10
78.5472478841
 20
182.112218262
 10
78.0990996952
 20
182.1223660096
 10
77.6539894378
 20
182.1054912532
 10
77.2359131213
 20
182.0625037151
 10
76.8674093481
 20
181.9957208647
 10
76.5683442519
 20
181.9087429827
 10
76.3548405095
 20
181.8062590693
 10
76.238408163
 20
181.6937940587
 10
76.2253241102
 20
181.5774109688
 10
76.3162937158
 20
181.4633840422
 10
76.5064127849
 20
181.3578604998
 10
76.7854319492
 20
181.2665291433
  0
LINE
  5
AB
330
1F
100
AcDbEntity
  8
0
  6
Continuous
 62
     7
370
    25
100
AcDbLine
 10
128.8027494727
 20
120.0686231285
 30
0.0
 11
128.7679924201
 21
120.0598644001
 31
0.0
  0
LWPOLYLINE
  5
AC
330
1F
100
AcDbEntity
  8
0
  6
Continuous
 62
     7
370
    25
100
AcDbPolyline
 90
       10
 70
   128
 43
0.0
 10
144.6234887693
 20
128.1648839775
 10
144.5838672087
 20
127.3849309116
 10
144.46574257
 20
126.6400552685
 10
144.2713211595
 20
125.9441696737
 10
144.0042343381
 20
125.3102717272
 10
143.6694706953
 20
124.750201237
 10
143.2732828738
 20
124.2744190782
 10
142.8230707836
 20
123.8918118065
 10
142.3272433884
 20
123.6095256774
 10
141.8842249246
 20
123.4543581135
  0
LINE
  5
AD
330
1F
100
AcDbEntity
  8
0
  6
Continuous
 62
     7
370
    25
100
AcDbLine
 10
60.0350651373
 20
181.5426570198
 30
0.0
 11
60.06982219
 21
181.5514157482
 31
0.0
  0
ARC
  5
AE
330
1F
100
AcDbEntity
  8
0
  6
Continuous
 62
     7
370
    25
100
AcDbCircle
 10
73.8433344524
 20
182.053349635
 30
0.0
 40
2.96548443726582
100
AcDbArc
 50
74.8187180725
 51
104.1868193491
  0
ARC
  5
AF
330
1F
100
AcDbEntity
  8
0
  6
Continuous
 62
     7
370
    25
100
AcDbCircle
 10
73.8487314417
 20
182.3543794588
 30
0.0
 40
2.906619406521687
100
AcDbArc
 50
74.6139965372
 51
127.5206563421
  0
LINE
  5
B0
330
1F
100
AcDbEntity
  8
0
  6
Continuous
 62
     7
370
    25
100
AcDbLine
 10
140.3808480821
 20
168.1366450678
 30
0.0
 11
74.6199174318
 21
185.1568263438
 31
0.0
  0
LWPOLYLINE
  5
B1
330
1F
100
AcDbEntity
  8
0
  6
Continuous
 62
     7
370
    25
100
AcDbPolyline
 90
       12
 70
   128
 43
0.0
 10
144.6234887693
 20
161.2430138987
 10
144.5803048044
 20
162.0789841978
 10
144.451632011
 20
162.9202902174
 10
144.2400897959
 20
163.749805393
 10
143.9499845487
 20
164.5506431879
 10
143.5872219756
 20
165.306500854
 10
143.1591868764
 20
166.0019913089
 10
142.6745928114
 20
166.6229563725
 10
142.1433047183
 20
167.1567549869
 10
141.5761380907
 20
167.5925205516
 10
140.9846388054
 20
167.9213821364
 10
140.3808480821
 20
168.1366450678
  0
LINE
  5
B2
330
1F
100
AcDbEntity
  8
0
  6
Continuous
 62
     7
370
    25
100
AcDbLine
 10
144.6234887693
 20
128.4015358049
 30
0.0
 11
144.6234887693
 21
161.2430138987
 31
0.0
  0
LWPOLYLINE
  5
B3
330
1F
100
AcDbEntity
  8
0
  6
Continuous
 62
     7
370
    25
100
AcDbPolyline
 90
       12
 70
   128
 43
0.0
 10
141.0879548633
 20
168.3196577697
 10
141.6917455866
 20
168.1043948383
 10
142.2832448719
 20
167.7755332535
 10
142.8504114995
 20
167.3397676888
 10
143.3816995926
 20
166.8059690744
 10
143.8662936576
 20
166.1850040107
 10
144.2943287567
 20
165.4895135559
 10
144.6570913299
 20
164.7336558898
 10
144.9471965771
 20
163.9328180949
 10
145.1587387922
 20
163.1033029193
 10
145.2874115856
 20
162.2619968997
 10
145.3305955504
 20
161.4260266006
  0
LINE
  5
B4
330
1F
100
AcDbEntity
  8
0
  6
Continuous
 62
     7
370
    25
100
AcDbLine
 10
145.3305955504
 20
128.5845485068
 30
0.0
 11
145.3305955504
 21
161.4260266006
 31
0.0
  0
LINE
  5
B5
330
1F
100
AcDbEntity
  8
0
  6
Continuous
 62
     7
370
    25
100
AcDbLine
 10
144.6234887693
 20
128.4015358049
 30
0.0
 11
145.3305955504
 21
128.5845485068
 31
0.0
  0
LWPOLYLINE
  5
B6
330
1F
100
AcDbEntity
  8
0
  6
Continuous
 62
     7
370
    25
100
AcDbPolyline
 90
       10
 70
   128
 43
0.0
 10
144.6234887693
 20
167.06138817
 10
145.0839430341
 20
166.8871841479
 10
145.5304066292
 20
166.6082138489
 10
145.949313984
 20
166.2329536444
 10
146.3279368105
 20
165.7728056258
 10
146.6547708458
 20
165.2417511579
 10
146.9198854031
 20
164.6559260618
 10
147.1152251107
 20
164.0331303367
 10
147.2348546705
 20
163.3922873156
 10
147.2751391987
 20
162.7528686894
  0
LINE
  5
B7
330
1F
100
AcDbEntity
  8
0
  6
Continuous
 62
     7
370
    25
100
AcDbLine
 10
147.2751391987
 20
162.7528686894
 30
0.0
 11
147.2751391987
 21
135.2239826401
 31
0.0
  0
LINE
  5
B8
330
1F
100
AcDbEntity
  8
0
  6
Continuous
 62
     7
370
    25
100
AcDbLine
 10
141.0879548633
 20
168.3196577697
 30
0.0
 11
75.327024213
 21
185.3398390457
 31
0.0
  0
LINE
  5
B9
330
1F
100
AcDbEntity
  8
0
  6
Continuous
 62
     7
370
    25
100
AcDbLine
 10
142.526271534
 20
167.6041879322
 30
0.0
 11
144.6234887693
 21
167.06138817
 31
0.0
  0
LWPOLYLINE
  5
BA
330
1F
100
AcDbEntity
  8
0
  6
Continuous
 62
     7
370
    25
100
AcDbPolyline
 90
        8
 70
   128
 43
0.0
 10
147.2751391987
 20
135.2239826401
 10
147.2375403057
 20
134.6466545415
 10
147.1258860499
 20
134.1063308841
 10
146.9435689895
 20
133.619429129
 10
146.696128736
 20
133.2007435396
 10
146.3910836364
 20
132.8629956656
 10
146.0377023316
 20
132.6164478053
 10
145.6772352893
 20
132.4761758861
  0
ARC
  5
BB
330
1F
100
AcDbEntity
  8
0
  6
Continuous
 62
     7
370
    25
100
AcDbCircle
 10
74.5504412336
 20
182.4778437935
 30
0.0
 40
2.965484437267018
100
AcDbArc
 50
74.8187180725
 51
104.1868193491
  0
LINE
  5
BC
330
1F
100
AcDbEntity
  8
0
  6
Continuous
 62
     8
370
    25
100
AcDbLine
 10
127.9271338495
 20
168.3253300367
 30
0.0
 11
128.058180864
 21
168.562834871
 31
0.0
  0
LINE
  5
BD
330
1F
100
AcDbEntity
  8
0
  6
Continuous
 62
     8
370
    25
100
AcDbLine
 10
127.2782395065
 20
168.5074339454
 30
0.0
 11
127.3778573356
 21
168.3268902216
 31
0.0
  0
LINE
  5
BE
330
1F
100
AcDbEntity
  8
0
  6
Continuous
 62
     8
370
    25
100
AcDbLine
 10
78.4296591664
 20
181.1362191692
 30
0.0
 11
78.5607061809
 21
181.3737240034
 31
0.0
  0
LINE
  5
BF
330
1F
100
AcDbEntity
  8
0
  6
Continuous
 62
     8
370
    25
100
AcDbLine
 10
77.7501964945
 20
181.3737240034
 30
0.0
 11
77.8803826526
 21
181.137779354
 31
0.0
  0
LWPOLYLINE
  5
C0
330
1F
100
AcDbEntity
  8
0
  6
Continuous
 62
     8
370
    25
100
AcDbPolyline
 90
       10
 70
   128
 43
0.0
 10
131.5420133173
 20
124.7791489925
 10
131.4988293525
 20
123.9655323585
 10
131.370156559
 20
123.190832278
 10
131.158614344
 20
122.4708194105
 10
130.8685090968
 20
121.8201511417
 10
130.5057465236
 20
121.2520732012
 10
130.0777114244
 20
120.7781500177
 10
129.5931173594
 20
120.4080293004
 10
129.0618292664
 20
120.1492456398
 10
128.8027494727
 20
120.0686231285
  0
ARC
  5
C1
330
1F
100
AcDbEntity
  8
0
  6
Continuous
 62
     8
370
    25
100
AcDbCircle
 10
60.7614208701
 20
178.6639202168
 30
0.0
 40
2.969164727338204
100
AcDbArc
 50
74.8292278604
 51
103.4694589041
  0
ENDSEC
  0
SECTION
  2
OBJECTS
  0
DICTIONARY
  5
C
330
0
100
AcDbDictionary
281
     1
  3
ACAD_GROUP
350
D
  3
ACAD_LAYOUT
350
1A
  3
ACAD_MLINESTYLE
350
17
  3
ACAD_PLOTSETTINGS
350
19
  3
ACAD_PLOTSTYLENAME
350
E
  3
ACAD_SCALELIST
350
47
  3
DWGPROPS
350
C2
  0
DICTIONARY
  5
D
102
{ACAD_REACTORS
330
C
102
}
330
C
100
AcDbDictionary
281
     1
  0
DICTIONARY
  5
1A
102
{ACAD_REACTORS
330
C
102
}
330
C
100
AcDbDictionary
281
     1
  3
Layout1
350
1E
  3
Layout2
350
26
  3
Model
350
22
  0
DICTIONARY
  5
17
102
{ACAD_REACTORS
330
C
102
}
330
C
100
AcDbDictionary
281
     1
  3
Standard
350
18
  0
DICTIONARY
  5
19
102
{ACAD_REACTORS
330
C
102
}
330
C
100
AcDbDictionary
281
     1
  0
ACDBDICTIONARYWDFLT
  5
E
102
{ACAD_REACTORS
330
C
102
}
330
C
100
AcDbDictionary
281
     1
  3
Normal
350
F
100
AcDbDictionaryWithDefault
340
F
  0
DICTIONARY
  5
47
102
{ACAD_REACTORS
330
C
102
}
330
C
100
AcDbDictionary
281
     1
  3
A0
350
48
  3
A1
350
49
  3
A2
350
4A
  3
A3
350
4B
  3
A4
350
4C
  3
A5
350
4D
  3
A6
350
4E
  3
A7
350
4F
  3
A8
350
50
  3
A9
350
51
  3
B0
350
52
  3
B1
350
53
  3
B2
350
54
  3
B3
350
55
  3
B4
350
56
  3
B5
350
57
  3
B6
350
58
  3
B7
350
59
  3
B8
350
5A
  3
B9
350
5B
  3
C0
350
5C
  3
C1
350
5D
  3
C2
350
5E
  3
C3
350
5F
  3
C4
350
60
  3
C5
350
61
  3
C6
350
62
  3
C7
350
63
  3
C8
350
64
  3
C9
350
65
  3
D0
350
66
  3
D1
350
67
  3
D2
350
68
  0
XRECORD
  5
C2
102
{ACAD_REACTORS
330
C
102
}
330
C
100
AcDbXrecord
280
     1
  1
DWGPROPS COOKIE
  2

  3

  4

  6

  7

  8
9128
  9

300
=
301
=
302
=
303
=
304
=
305
=
306
=
307
=
308
=
309
=
 40
0.0
 41
2460018.230924028
 42
2460018.230924201
  1

 90
        0
  0
LAYOUT
  5
1E
102
{ACAD_REACTORS
330
1A
102
}
330
1A
100
AcDbPlotSettings
  1

  2
none_device
  4

  6

 40
0.0
 41
0.0
 42
0.0
 43
0.0
 44
0.0
 45
0.0
 46
0.0
 47
0.0
 48
0.0
 49
0.0
140
0.0
141
0.0
142
1.0
143
1.0
 70
   688
 72
     1
 73
     0
 74
     5
  7

 75
    16
147
1.0
148
0.0
149
0.0
100
AcDbLayout
  1
Layout1
 70
     1
 71
     1
 10
0.0
 20
0.0
 11
420.0
 21
297.0
 12
0.0
 22
0.0
 32
0.0
 14
1.0000000000E+20
 24
1.0000000000E+20
 34
1.0000000000E+20
 15
-1.0000000000E+20
 25
-1.0000000000E+20
 35
-1.0000000000E+20
146
0.0
 13
0.0
 23
0.0
 33
0.0
 16
1.0
 26
0.0
 36
0.0
 17
0.0
 27
1.0
 37
0.0
 76
     0
330
1B
  0
LAYOUT
  5
26
102
{ACAD_REACTORS
330
1A
102
}
330
1A
100
AcDbPlotSettings
  1

  2
none_device
  4

  6

 40
0.0
 41
0.0
 42
0.0
 43
0.0
 44
0.0
 45
0.0
 46
0.0
 47
0.0
 48
0.0
 49
0.0
140
0.0
141
0.0
142
1.0
143
1.0
 70
   688
 72
     1
 73
     0
 74
     5
  7

 75
    16
147
1.0
148
0.0
149
0.0
100
AcDbLayout
  1
Layout2
 70
     1
 71
     2
 10
0.0
 20
0.0
 11
0.0
 21
0.0
 12
0.0
 22
0.0
 32
0.0
 14
0.0
 24
0.0
 34
0.0
 15
0.0
 25
0.0
 35
0.0
146
0.0
 13
0.0
 23
0.0
 33
0.0
 16
1.0
 26
0.0
 36
0.0
 17
0.0
 27
1.0
 37
0.0
 76
     0
330
23
  0
LAYOUT
  5
22
102
{ACAD_REACTORS
330
1A
102
}
330
1A
100
AcDbPlotSettings
  1

  2
none_device
  4
Letter_(8.50_x_11.00_Inches)
  6

 40
6.35
 41
6.35
 42
6.35000508
 43
6.35000508
 44
215.9
 45
279.4
 46
0.0
 47
0.0
 48
0.0
 49
0.0
140
0.0
141
0.0
142
1.0
143
1.0
 70
  1712
 72
     1
 73
     0
 74
     0
  7

 75
     0
147
1.0
148
0.0
149
0.0
100
AcDbLayout
  1
Model
 70
     1
 71
     0
 10
0.0
 20
0.0
 11
210.0
 21
297.0
 12
0.0
 22
0.0
 32
0.0
 14
0.0
 24
0.0
 34
0.0
 15
210.0
 25
297.0
 35
0.0
146
0.0
 13
0.0
 23
0.0
 33
0.0
 16
1.0
 26
0.0
 36
0.0
 17
0.0
 27
1.0
 37
0.0
 76
     0
330
1F
331
29
  0
MLINESTYLE
  5
18
102
{ACAD_REACTORS
330
17
102
}
330
17
100
AcDbMlineStyle
  2
Standard
 70
     0
  3

 62
   256
 51
90.0
 52
90.0
 71
     2
 49
0.5
 62
   256
  6
BYLAYER
 49
-0.5
 62
   256
  6
BYLAYER
  0
ACDBPLACEHOLDER
  5
F
102
{ACAD_REACTORS
330
E
102
}
330
E
  0
SCALE
  5
48
102
{ACAD_REACTORS
330
47
102
}
330
47
100
AcDbScale
 70
     0
300
1:1
140
1.0
141
1.0
290
     1
  0
SCALE
  5
49
102
{ACAD_REACTORS
330
47
102
}
330
47
100
AcDbScale
 70
     0
300
1:2
140
1.0
141
2.0
290
     0
  0
SCALE
  5
4A
102
{ACAD_REACTORS
330
47
102
}
330
47
100
AcDbScale
 70
     0
300
1:4
140
1.0
141
4.0
290
     0
  0
SCALE
  5
4B
102
{ACAD_REACTORS
330
47
102
}
330
47
100
AcDbScale
 70
     0
300
1:5
140
1.0
141
5.0
290
     0
  0
SCALE
  5
4C
102
{ACAD_REACTORS
330
47
102
}
330
47
100
AcDbScale
 70
     0
300
1:8
140
1.0
141
8.0
290
     0
  0
SCALE
  5
4D
102
{ACAD_REACTORS
330
47
102
}
330
47
100
AcDbScale
 70
     0
300
1:10
140
1.0
141
10.0
290
     0
  0
SCALE
  5
4E
102
{ACAD_REACTORS
330
47
102
}
330
47
100
AcDbScale
 70
     0
300
1:16
140
1.0
141
16.0
290
     0
  0
SCALE
  5
4F
102
{ACAD_REACTORS
330
47
102
}
330
47
100
AcDbScale
 70
     0
300
1:20
140
1.0
141
20.0
290
     0
  0
SCALE
  5
50
102
{ACAD_REACTORS
330
47
102
}
330
47
100
AcDbScale
 70
     0
300
1:30
140
1.0
141
30.0
290
     0
  0
SCALE
  5
51
102
{ACAD_REACTORS
330
47
102
}
330
47
100
AcDbScale
 70
     0
300
1:40
140
1.0
141
40.0
290
     0
  0
SCALE
  5
52
102
{ACAD_REACTORS
330
47
102
}
330
47
100
AcDbScale
 70
     0
300
1:50
140
1.0
141
50.0
290
     0
  0
SCALE
  5
53
102
{ACAD_REACTORS
330
47
102
}
330
47
100
AcDbScale
 70
     0
300
1:100
140
1.0
141
100.0
290
     0
  0
SCALE
  5
54
102
{ACAD_REACTORS
330
47
102
}
330
47
100
AcDbScale
 70
     0
300
2:1
140
2.0
141
1.0
290
     0
  0
SCALE
  5
55
102
{ACAD_REACTORS
330
47
102
}
330
47
100
AcDbScale
 70
     0
300
4:1
140
4.0
141
1.0
290
     0
  0
SCALE
  5
56
102
{ACAD_REACTORS
330
47
102
}
330
47
100
AcDbScale
 70
     0
300
8:1
140
8.0
141
1.0
290
     0
  0
SCALE
  5
57
102
{ACAD_REACTORS
330
47
102
}
330
47
100
AcDbScale
 70
     0
300
10:1
140
10.0
141
1.0
290
     0
  0
SCALE
  5
58
102
{ACAD_REACTORS
330
47
102
}
330
47
100
AcDbScale
 70
     0
300
100:1
140
100.0
141
1.0
290
     0
  0
SCALE
  5
59
102
{ACAD_REACTORS
330
47
102
}
330
47
100
AcDbScale
 70
     0
300
1/128" = 1'-0"
140
0.0078125
141
12.0
290
     0
  0
SCALE
  5
5A
102
{ACAD_REACTORS
330
47
102
}
330
47
100
AcDbScale
 70
     0
300
1/64" = 1'-0"
140
0.015625
141
12.0
290
     0
  0
SCALE
  5
5B
102
{ACAD_REACTORS
330
47
102
}
330
47
100
AcDbScale
 70
     0
300
1/32" = 1'-0"
140
0.03125
141
12.0
290
     0
  0
SCALE
  5
5C
102
{ACAD_REACTORS
330
47
102
}
330
47
100
AcDbScale
 70
     0
300
1/16" = 1'-0"
140
0.0625
141
12.0
290
     0
  0
SCALE
  5
5D
102
{ACAD_REACTORS
330
47
102
}
330
47
100
AcDbScale
 70
     0
300
3/32" = 1'-0"
140
0.09375
141
12.0
290
     0
  0
SCALE
  5
5E
102
{ACAD_REACTORS
330
47
102
}
330
47
100
AcDbScale
 70
     0
300
1/8" = 1'-0"
140
0.125
141
12.0
290
     0
  0
SCALE
  5
5F
102
{ACAD_REACTORS
330
47
102
}
330
47
100
AcDbScale
 70
     0
300
3/16" = 1'-0"
140
0.1875
141
12.0
290
     0
  0
SCALE
  5
60
102
{ACAD_REACTORS
330
47
102
}
330
47
100
AcDbScale
 70
     0
300
1/4" = 1'-0"
140
0.25
141
12.0
290
     0
  0
SCALE
  5
61
102
{ACAD_REACTORS
330
47
102
}
330
47
100
AcDbScale
 70
     0
300
3/8" = 1'-0"
140
0.375
141
12.0
290
     0
  0
SCALE
  5
62
102
{ACAD_REACTORS
330
47
102
}
330
47
100
AcDbScale
 70
     0
300
1/2" = 1'-0"
140
0.5
141
12.0
290
     0
  0
SCALE
  5
63
102
{ACAD_REACTORS
330
47
102
}
330
47
100
AcDbScale
 70
     0
300
3/4" = 1'-0"
140
0.75
141
12.0
290
     0
  0
SCALE
  5
64
102
{ACAD_REACTORS
330
47
102
}
330
47
100
AcDbScale
 70
     0
300
1" = 1'-0"
140
1.0
141
12.0
290
     0
  0
SCALE
  5
65
102
{ACAD_REACTORS
330
47
102
}
330
47
100
AcDbScale
 70
     0
300
1-1/2" = 1'-0"
140
1.5
141
12.0
290
     0
  0
SCALE
  5
66
102
{ACAD_REACTORS
330
47
102
}
330
47
100
AcDbScale
 70
     0
300
3" = 1'-0"
140
3.0
141
12.0
290
     0
  0
SCALE
  5
67
102
{ACAD_REACTORS
330
47
102
}
330
47
100
AcDbScale
 70
     0
300
6" = 1'-0"
140
6.0
141
12.0
290
     0
  0
SCALE
  5
68
102
{ACAD_REACTORS
330
47
102
}
330
47
100
AcDbScale
 70
     0
300
1'-0" = 1'-0"
140
12.0
141
12.0
290
     0
  0
ENDSEC
  0
EOF
