  0
SECTION
  2
HEADER
  9
$ACADVER
  1
AC1015
  9
$ACADMAINTVER
 70
               6
  9
$DWGCODEPAGE
  3
ANSI_932
  9
$INSBASE
 10
0.0
 20
0.0
 30
0.0
  9
$EXTMIN
 10
263.0
 20
89.439390896921026
 30
0.0
  9
$EXTMAX
 10
282.17700021531846
 20
98.560609103078988
 30
0.0
  9
$LIMMIN
 10
0.0
 20
0.0
  9
$LIMMAX
 10
0.0
 20
0.0
  9
$ORTHOMODE
 70
               0
  9
$REGENMODE
 70
               1
  9
$FILLMODE
 70
               1
  9
$QTEXTMODE
 70
               0
  9
$MIRRTEXT
 70
               1
  9
$LTSCALE
 40
12.699999999999999
  9
$ATTMODE
 70
               1
  9
$TEXTSIZE
 40
0.2
  9
$TRACEWID
 40
1.0
  9
$TEXTSTYLE
  7
Standard
  9
$CLAYER
  8
0
  9
$CELTYPE
  6
Continuous
  9
$CECOLOR
 62
             256
  9
$CELTSCALE
 40
1.0
  9
$DISPSILH
 70
               0
  9
$DIMSCALE
 40
1.0
  9
$DIMASZ
 40
0.18
  9
$DIMEXO
 40
0.0625
  9
$DIMDLI
 40
0.38
  9
$DIMRND
 40
0.0
  9
$DIMDLE
 40
0.0
  9
$DIMEXE
 40
0.18
  9
$DIMTP
 40
0.0
  9
$DIMTM
 40
0.0
  9
$DIMTXT
 40
0.18
  9
$DIMCEN
 40
0.09
  9
$DIMTSZ
 40
0.0
  9
$DIMTOL
 70
               0
  9
$DIMLIM
 70
               0
  9
$DIMTIH
 70
               1
  9
$DIMTOH
 70
               1
  9
$DIMSE1
 70
               0
  9
$DIMSE2
 70
               0
  9
$DIMTAD
 70
               0
  9
$DIMZIN
 70
               0
  9
$DIMBLK
  1

  9
$DIMASO
 70
               1
  9
$DIMSHO
 70
               1
  9
$DIMPOST
  1

  9
$DIMAPOST
  1

  9
$DIMALT
 70
               0
  9
$DIMALTD
 70
               2
  9
$DIMALTF
 40
25.399999999999999
  9
$DIMLFAC
 40
1.0
  9
$DIMTOFL
 70
               0
  9
$DIMTVP
 40
0.0
  9
$DIMTIX
 70
               0
  9
$DIMSOXD
 70
               0
  9
$DIMSAH
 70
               0
  9
$DIMBLK1
  1

  9
$DIMBLK2
  1

  9
$DIMSTYLE
  2
Standard
  9
$DIMCLRD
 70
               0
  9
$DIMCLRE
 70
               0
  9
$DIMCLRT
 70
               0
  9
$DIMTFAC
 40
1.0
  9
$DIMGAP
 40
0.09
  9
$DIMJUST
 70
               0
  9
$DIMSD1
 70
               0
  9
$DIMSD2
 70
               0
  9
$DIMTOLJ
 70
               1
  9
$DIMTZIN
 70
               0
  9
$DIMALTZ
 70
               0
  9
$DIMALTTZ
 70
               0
  9
$DIMUPT
 70
               0
  9
$DIMDEC
 70
               4
  9
$DIMTDEC
 70
               4
  9
$DIMALTU
 70
               2
  9
$DIMALTTD
 70
               2
  9
$DIMTXSTY
  7
Standard
  9
$DIMAUNIT
 70
               0
  9
$DIMADEC
 70
               0
  9
$DIMALTRND
 40
0.0
  9
$DIMAZIN
 70
               0
  9
$DIMDSEP
 70
               0
  9
$DIMATFIT
 70
               3
  9
$DIMFRAC
 70
               0
  9
$DIMLDRBLK
  1

  9
$DIMLUNIT
 70
               2
  9
$DIMLWD
 70
               0
  9
$DIMLWE
 70
               0
  9
$DIMTMOVE
 70
               0
  9
$LUNITS
 70
               2
  9
$LUPREC
 70
               4
  9
$SKETCHINC
 40
0.1
  9
$FILLETRAD
 40
0.0
  9
$AUNITS
 70
               0
  9
$AUPREC
 70
               0
  9
$MENU
  1
acad
  9
$ELEVATION
 40
0.0
  9
$PELEVATION
 40
0.0
  9
$THICKNESS
 40
0.0
  9
$LIMCHECK
 70
               0
  9
$CHAMFERA
 40
0.0
  9
$CHAMFERB
 40
0.0
  9
$CHAMFERC
 40
0.0
  9
$CHAMFERD
 40
0.0
  9
$SKPOLY
 70
               0
  9
$TDCREATE
 40
2458135.476817130
  9
$TDUCREATE
 40
0.000000000
  9
$TDUPDATE
 40
2458135.476817130
  9
$TDUUPDATE
 40
0.000000000
  9
$TDINDWG
 40
0.0000000000
  9
$TDUSRTIMER
 40
0.0000000000
  9
$USRTIMER
 70
               1
  9
$ANGBASE
 50
0.0
  9
$ANGDIR
 70
               0
  9
$PDMODE
 70
               1
  9
$PDSIZE
 40
-2.0
  9
$PLINEWID
 40
0.0
  9
$SPLFRAME
 70
               0
  9
$SPLINETYPE
 70
               6
  9
$SPLINESEGS
 70
               8
  9
$HANDSEED
  5
14E
  9
$SURFTAB1
 70
               6
  9
$SURFTAB2
 70
               6
  9
$SURFTYPE
 70
               6
  9
$SURFU
 70
               6
  9
$SURFV
 70
               6
  9
$UCSBASE
  2

  9
$UCSNAME
  2

  9
$UCSORG
 10
0.0
 20
0.0
 30
0.0
  9
$UCSXDIR
 10
1.0
 20
0.0
 30
0.0
  9
$UCSYDIR
 10
0.0
 20
1.0
 30
0.0
  9
$UCSORTHOREF
  2

  9
$UCSORTHOVIEW
 70
               0
  9
$UCSORGTOP
 10
0.0
 20
0.0
 30
0.0
  9
$UCSORGBOTTOM
 10
0.0
 20
0.0
 30
0.0
  9
$UCSORGLEFT
 10
0.0
 20
0.0
 30
0.0
  9
$UCSORGRIGHT
 10
0.0
 20
0.0
 30
0.0
  9
$UCSORGFRONT
 10
0.0
 20
0.0
 30
0.0
  9
$UCSORGBACK
 10
0.0
 20
0.0
 30
0.0
  9
$PUCSBASE
  2

  9
$PUCSNAME
  2

  9
$PUCSORG
 10
0.0
 20
0.0
 30
0.0
  9
$PUCSXDIR
 10
1.0
 20
0.0
 30
0.0
  9
$PUCSYDIR
 10
0.0
 20
1.0
 30
0.0
  9
$PUCSORTHOREF
  2

  9
$PUCSORTHOVIEW
 70
               0
  9
$PUCSORGTOP
 10
0.0
 20
0.0
 30
0.0
  9
$PUCSORGBOTTOM
 10
0.0
 20
0.0
 30
0.0
  9
$PUCSORGLEFT
 10
0.0
 20
0.0
 30
0.0
  9
$PUCSORGRIGHT
 10
0.0
 20
0.0
 30
0.0
  9
$PUCSORGFRONT
 10
0.0
 20
0.0
 30
0.0
  9
$PUCSORGBACK
 10
0.0
 20
0.0
 30
0.0
  9
$USERI1
 70
               0
  9
$USERI2
 70
               0
  9
$USERI3
 70
               0
  9
$USERI4
 70
               0
  9
$USERI5
 70
               0
  9
$USERR1
 40
0.0
  9
$USERR2
 40
0.0
  9
$USERR3
 40
0.0
  9
$USERR4
 40
0.0
  9
$USERR5
 40
0.0
  9
$WORLDVIEW
 70
               1
  9
$SHADEDGE
 70
               3
  9
$SHADEDIF
 70
              70
  9
$TILEMODE
 70
               1
  9
$MAXACTVP
 70
              16
  9
$PINSBASE
 10
0.0
 20
0.0
 30
0.0
  9
$PLIMCHECK
 70
               0
  9
$PEXTMIN
 10
1.0000000000000000E+20
 20
1.0000000000000000E+20
 30
1.0000000000000000E+20
  9
$PEXTMAX
 10
-1.0000000000000000E+20
 20
-1.0000000000000000E+20
 30
-1.0000000000000000E+20
  9
$PLIMMIN
 10
0.0
 20
0.0
  9
$PLIMMAX
 10
12.0
 20
9.0
  9
$UNITMODE
 70
               0
  9
$VISRETAIN
 70
               0
  9
$PLINEGEN
 70
               1
  9
$PSLTSCALE
 70
               0
  9
$TREEDEPTH
 70
            3020
  9
$CMLSTYLE
  2
Standard
  9
$CMLJUST
 70
               0
  9
$CMLSCALE
 40
1.0
  9
$PROXYGRAPHICS
 70
               0
  9
$MEASUREMENT
 70
               1
  9
$CELWEIGHT
370
               0
  9
$ENDCAPS
280
               0
  9
$JOINSTYLE
280
               0
  9
$LWDISPLAY
290
               1
  9
$INSUNITS
 70
               4
  9
$HYPERLINKBASE
  1

  9
$STYLESHEET
  1

  9
$XEDIT
290
               1
  9
$CEPSNTYPE
380
               0
  9
$PSTYLEMODE
290
               1
  9
$FINGERPRINTGUID
  2

  9
$VERSIONGUID
  2

  9
$EXTNAMES
290
               1
  9
$PSVPSCALE
 40
0.0
  0
ENDSEC
  0
SECTION
  2
CLASSES
  0
CLASS
  1
LWPOLYLINE
  2
AcDbPolyline
  3
AutoCAD 2000
 90
    32768
280
               0
281
               1
  0
CLASS
  1
IMAGE
  2
AcDbRasterImage
  3
ISM
 90
    32895
280
               0
281
               1
  0
CLASS
  1
OLE2FRAME
  2
AcDbOle2Frame
  3
AutoCAD 2000
 90
    32768
280
               0
281
               1
  0
CLASS
  1
HATCH
  2
AcDbHatch
  3
AutoCAD 2000
 90
    32768
280
               0
281
               1
  0
CLASS
  1
DICTIONARYVAR
  2
AcDbDictionaryVar
  3
AutoCAD 2000
 90
    32768
280
               0
281
               0
  0
CLASS
  1
RASTERVARIABLES
  2
AcDbRasterVariables
  3
ISM
 90
    32768
280
               0
281
               0
  0
CLASS
  1
IMAGEDEF
  2
AcDbRasterImageDef
  3
ISM
 90
    32768
280
               0
281
               0
  0
CLASS
  1
IMAGEDEF_REACTOR
  2
AcDbRasterImageDefReactor
  3
ISM
 90
    32769
280
               0
281
               0
  0
CLASS
  1
IDBUFFER
  2
AcDbIdBuffer
  3
AutoCAD 2000
 90
    32768
280
               0
281
               0
  0
CLASS
  1
SPATIAL_FILTER
  2
AcDbSpatialFilter
  3
AutoCAD 2000
 90
    32768
280
               0
281
               0
  0
CLASS
  1
XRECORD
  2
AcDbXrecord
  3
AutoCAD 2000
 90
    32768
280
               0
281
               0
  0
CLASS
  1
SORTENTSTABLE
  2
AcDbSortentsTable
  3
AutoCAD 2000
 90
    32768
280
               0
281
               0
  0
CLASS
  1
LAYER_INDEX
  2
AcDbLayerIndex
  3
AutoCAD 2000
 90
    32768
280
               0
281
               0
  0
CLASS
  1
SPATIAL_INDEX
  2
AcDbSpatialIndex
  3
AutoCAD 2000
 90
    32768
280
               0
281
               0
  0
CLASS
  1
OBJECT_PTR
  2
CAseDLPNTableRecord
  3
"ASE-LPNTableRecord"
 90
    32769
280
               0
281
               0
  0
CLASS
  1
LAYOUT
  2
AcDbLayout
  3
AutoCAD 2000
 90
        0
280
               0
281
               0
  0
CLASS
  1
PLOTSETTINGS
  2
AcDbPlotSettings
  3
AutoCAD 2000
 90
    32768
280
               0
281
               0
  0
CLASS
  1
ACDBDICTIONARYWDFLT
  2
AcDbDictionaryWithDefault
  3
AutoCAD 2000
 90
        0
280
               0
281
               0
  0
CLASS
  1
ACDBPLACEHOLDER
  2
AcDbPlaceHolder
  3
AutoCAD 2000
 90
        0
280
               0
281
               0
  0
CLASS
  1
VBA_PROJECT
  2
AcDbVbaProject
  3
acadvba
 90
    32768
280
               0
281
               0
  0
CLASS
  1
WIPEOUT
  2
AcDbWipeout
  3
WipeOut|AutoCAD Express Tool|expresstools@autodesk.com
 90
    32895
280
               0
281
               1
  0
CLASS
  1
WIPEOUTVARIABLES
  2
AcDbWipeoutVariables
  3
WipeOut|AutoCAD Express Tool|expresstools@autodesk.com
 90
        0
280
               0
281
               0
  0
CLASS
  1
RTEXT
  2
RText
  3
RText|AutoCAD Express Tool|expresstools@autodesk.com
 90
    32768
280
               0
281
               1
  0
CLASS
  1
ARCALIGNEDTEXT
  2
AcDbArcAlignedText
  3
ATEXT|AutoCAD Express Tool|expresstools@autodesk.com
 90
    32768
280
               0
281
               1
  0
ENDSEC
  0
SECTION
  2
TABLES
  0
TABLE
  2
VPORT
  5
7
100
AcDbSymbolTable
 70
               1
  0
VPORT
  5
15
100
AcDbSymbolTableRecord
100
AcDbViewportTableRecord
  2
*ACTIVE
 70
               0
 10
0.0
 20
0.0
 11
1.0
 21
1.0
 12
272.58850010765923
 22
94.0
 13
0.0
 23
0.0
 14
1.0
 24
1.0
 15
0.0
 25
0.0
 16
0.0
 26
0.0
 36
1.0
 17
0.0
 27
0.0
 37
0.0
 40
9.1212182061579625
 41
0.688564
 42
50.0
 43
0.0
 44
0.0
 50
0.0
 51
0.0
 71
               0
 72
             100
 73
               1
 74
               1
 75
               0
 76
               0
 77
               0
 78
               0
281
               0
 65
               0
110
0.0
120
0.0
130
0.0
111
1.0
121
0.0
131
0.0
112
0.0
122
1.0
132
0.0
345
0
346
0
 79
               0
146
0.0
  0
ENDTAB
  0
TABLE
  2
LTYPE
  5
4
100
AcDbSymbolTable
 70
              13
  0
LTYPE
  5
11
100
AcDbSymbolTableRecord
100
AcDbLinetypeTableRecord
  2
ByBlock
 70
              64
  3

 72
              65
 73
               0
 40
0.0
  0
LTYPE
  5
12
100
AcDbSymbolTableRecord
100
AcDbLinetypeTableRecord
  2
ByLayer
 70
              64
  3

 72
              65
 73
               0
 40
0.0
  0
LTYPE
  5
13
100
AcDbSymbolTableRecord
100
AcDbLinetypeTableRecord
  2
Continuous
 70
              64
  3
Solid line
 72
              65
 73
               0
 40
0.0
  0
LTYPE
  5
26
100
AcDbSymbolTableRecord
100
AcDbLinetypeTableRecord
  2
STYLE_01
 70
               0
  3

 72
              65
 73
               2
 40
0.15
 49
0.1
 74
               0
 49
-0.05
 74
               0
  0
LTYPE
  5
27
100
AcDbSymbolTableRecord
100
AcDbLinetypeTableRecord
  2
STYLE_02
 70
               0
  3

 72
              65
 73
               6
 40
0.9999999999999999
 49
0.4999999999999999
 74
               0
 49
-0.1
 74
               0
 49
0.1
 74
               0
 49
-0.1
 74
               0
 49
0.1
 74
               0
 49
-0.1
 74
               0
  0
LTYPE
  5
28
100
AcDbSymbolTableRecord
100
AcDbLinetypeTableRecord
  2
STYLE_03
 70
               0
  3

 72
              65
 73
               4
 40
0.7999999999999999
 49
0.4999999999999999
 74
               0
 49
-0.1
 74
               0
 49
0.1
 74
               0
 49
-0.1
 74
               0
  0
LTYPE
  5
29
100
AcDbSymbolTableRecord
100
AcDbLinetypeTableRecord
  2
STYLE_04
 70
               0
  3

 72
              65
 73
               4
 40
1.5999999999999999
 49
0.9999999999999999
 74
               0
 49
-0.2000000000000001
 74
               0
 49
0.2
 74
               0
 49
-0.2
 74
               0
  0
LTYPE
  5
2A
100
AcDbSymbolTableRecord
100
AcDbLinetypeTableRecord
  2
STYLE_05
 70
               0
  3

 72
              65
 73
               2
 40
0.05
 49
0.0002
 74
               0
 49
-0.0498
 74
               0
  0
LTYPE
  5
2B
100
AcDbSymbolTableRecord
100
AcDbLinetypeTableRecord
  2
STYLE_06
 70
               0
  3

 72
              65
 73
               4
 40
0.416656
 49
0.25
 74
               0
 49
-0.083312
 74
               0
 49
0.027772
 74
               0
 49
-0.055572
 74
               0
  0
LTYPE
  5
2C
100
AcDbSymbolTableRecord
100
AcDbLinetypeTableRecord
  2
STYLE_07
 70
               0
  3

 72
              65
 73
               6
 40
0.75
 49
0.25
 74
               0
 49
-0.083312
 74
               0
 49
0.2500000000000001
 74
               0
 49
-0.083344
 74
               0
 49
0.027772
 74
               0
 49
-0.055572
 74
               0
  0
LTYPE
  5
2D
100
AcDbSymbolTableRecord
100
AcDbLinetypeTableRecord
  2
STYLE_08
 70
               0
  3

 72
              65
 73
               6
 40
0.5
 49
0.25
 74
               0
 49
-0.083312
 74
               0
 49
0.027772
 74
               0
 49
-0.055572
 74
               0
 49
0.027772
 74
               0
 49
-0.055572
 74
               0
  0
LTYPE
  5
2E
100
AcDbSymbolTableRecord
100
AcDbLinetypeTableRecord
  2
STYLE_09
 70
               0
  3

 72
              65
 73
               4
 40
2.0
 49
1.5
 74
               0
 49
-0.1111139999999999
 74
               0
 49
0.2777720000000001
 74
               0
 49
-0.1111139999999999
 74
               0
  0
LTYPE
  5
2F
100
AcDbSymbolTableRecord
100
AcDbLinetypeTableRecord
  2
STYLE_10
 70
               0
  3

 72
              65
 73
               6
 40
2.375
 49
1.5
 74
               0
 49
-0.1111139999999999
 74
               0
 49
0.2777720000000001
 74
               0
 49
-0.1111139999999999
 74
               0
 49
0.25
 74
               0
 49
-0.125
 74
               0
  0
ENDTAB
  0
TABLE
  2
LAYER
  5
2
100
AcDbSymbolTable
 70
               6
  0
LAYER
  5
14
100
AcDbSymbolTableRecord
100
AcDbLayerTableRecord
  2
0
 70
               0
 62
               7
  6
Continuous
290
               1
370
              15
390
1D
  0
LAYER
  5
30
100
AcDbSymbolTableRecord
100
AcDbLayerTableRecord
  2
Defpoints
 70
               0
 62
               7
  6
Continuous
290
               0
370
              -3
390
1D
  0
LAYER
  5
31
100
AcDbSymbolTableRecord
100
AcDbLayerTableRecord
  2
一般
 70
               0
 62
               7
  6
Continuous
290
               1
370
               5
390
1D
  0
LAYER
  5
32
100
AcDbSymbolTableRecord
100
AcDbLayerTableRecord
  2
寸法
 70
               0
 62
               7
  6
Continuous
290
               1
370
               5
390
1D
  0
LAYER
  5
33
100
AcDbSymbolTableRecord
100
AcDbLayerTableRecord
  2
レイヤー_1
 70
               0
 62
              19
  6
Continuous
290
               1
370
              15
390
1D
  0
LAYER
  5
34
100
AcDbSymbolTableRecord
100
AcDbLayerTableRecord
  2
FORMAT
 70
               0
 62
               7
  6
Continuous
290
               1
370
              15
390
1D
  0
ENDTAB
  0
TABLE
  2
STYLE
  5
3
100
AcDbSymbolTable
 70
               2
  0
STYLE
  5
17
100
AcDbSymbolTableRecord
100
AcDbTextStyleTableRecord
  2
Standard
 70
               0
 40
0.0
 41
1.0
 50
0.0
 71
               0
 42
0.0
  3
txt
  4
BIGFONT.SHX
  0
STYLE
  5
25
100
AcDbSymbolTableRecord
100
AcDbTextStyleTableRecord
  2
ＭＳ Ｐゴシック
 70
               0
 40
0.0
 41
1.0
 50
0.0
 71
               0
 42
0.0
  3
ＭＳ Ｐゴシック
  4

1001
ACAD
1000
ＭＳ Ｐゴシック
1071
        0
  0
ENDTAB
  0
TABLE
  2
VIEW
  5
5
100
AcDbSymbolTable
 70
               0
  0
ENDTAB
  0
TABLE
  2
UCS
  5
6
100
AcDbSymbolTable
 70
               0
  0
ENDTAB
  0
TABLE
  2
APPID
  5
8
100
AcDbSymbolTable
 70
               1
  0
APPID
  5
16
100
AcDbSymbolTableRecord
100
AcDbRegAppTableRecord
  2
ACAD
 70
               0
  0
ENDTAB
  0
TABLE
  2
DIMSTYLE
  5
9
100
AcDbSymbolTable
 70
               1
100
AcDbDimStyleTable
 71
               0
  0
DIMSTYLE
105
18
100
AcDbSymbolTableRecord
100
AcDbDimStyleTableRecord
  2
Standard
 70
               0
  3

  4

 40
1.0
 41
0.18
 42
0.0625
 43
0.38
 44
0.18
 45
0.0
 46
0.0
 47
0.0
 48
0.0
 71
               0
 72
               0
 73
               1
 74
               1
 75
               0
 76
               0
 77
               0
 78
               0
 79
               0
140
0.18
141
0.09
142
0.0
143
25.399999999999999
144
1.0
145
0.0
146
1.0
147
0.09
148
0.0
170
               0
171
               2
172
               0
173
               0
174
               0
175
               0
176
               0
177
               0
178
               0
179
               0
271
               4
272
               4
273
               2
274
               2
275
               0
276
               0
277
               2
278
              46
279
               0
280
               0
281
               0
282
               0
283
               1
284
               0
285
               0
286
               0
288
               0
340
17
341
0
342
0
343
0
344
0
371
              -2
372
              -2
  0
ENDTAB
  0
TABLE
  2
BLOCK_RECORD
  5
1
100
AcDbSymbolTable
 70
               1
  0
BLOCK_RECORD
  5
A
100
AcDbSymbolTableRecord
100
AcDbBlockTableRecord
  2
*MODEL_SPACE
340
20
  0
BLOCK_RECORD
  5
B
100
AcDbSymbolTableRecord
100
AcDbBlockTableRecord
  2
*PAPER_SPACE
340
21
  0
BLOCK_RECORD
  5
24
100
AcDbSymbolTableRecord
100
AcDbBlockTableRecord
  2
*U0
340
0
102
{BLKREFS
331
14C
102
}
  0
ENDTAB
  0
ENDSEC
  0
SECTION
  2
BLOCKS
  0
BLOCK
  5
D
100
AcDbEntity
  8
0
100
AcDbBlockBegin
  2
*MODEL_SPACE
 70
               0
 10
0.0
 20
0.0
 30
0.0
  3
*MODEL_SPACE
  1

  0
ENDBLK
  5
E
100
AcDbEntity
  8
0
100
AcDbBlockEnd
  0
BLOCK
  5
F
100
AcDbEntity
 67
               1
  8
0
100
AcDbBlockBegin
  2
*PAPER_SPACE
 70
               0
 10
0.0
 20
0.0
 30
0.0
  3
*PAPER_SPACE
  1

  0
ENDBLK
  5
10
100
AcDbEntity
 67
               1
  8
0
100
AcDbBlockEnd
  0
BLOCK
  5
35
100
AcDbEntity
  8
一般
100
AcDbBlockBegin
  2
*U0
 70
               1
 10
0.0
 20
0.0
 30
0.0
  3
*U0
  1

  0
LINE
  5
36
100
AcDbEntity
  8
0
370
              18
  6
Continuous
 62
               7
100
AcDbLine
 10
11.964666809600004
 20
-20.136991187700005
 30
0.0
 11
11.485645531700015
 21
-19.632655427200007
 31
0.0
  0
LINE
  5
37
100
AcDbEntity
  8
0
370
              18
  6
Continuous
 62
               7
100
AcDbLine
 10
4.5474637057000109
 20
-19.39692503629999
 30
0.0
 11
4.0353161513000089
 21
-19.867585026600011
 31
0.0
  0
LINE
  5
38
100
AcDbEntity
  8
0
370
              18
  6
Continuous
 62
               7
100
AcDbLine
 10
4.000081991299993
 20
-19.931692093700008
 30
0.0
 11
3.6969590429999926
 21
-28.853418829000006
 31
0.0
  0
LINE
  5
39
100
AcDbEntity
  8
0
370
              18
  6
Continuous
 62
               7
100
AcDbLine
 10
11.692345612400004
 20
-29.125068614100002
 30
0.0
 11
11.99546856080002
 21
-20.203341878799989
 31
0.0
  0
LINE
  5
3A
100
AcDbEntity
  8
0
370
              18
  6
Continuous
 62
               7
100
AcDbLine
 10
11.144963898000015
 20
-29.659835671600007
 30
0.0
 11
11.657111452400017
 21
-29.189175681199998
 31
0.0
  0
LINE
  5
3B
100
AcDbEntity
  8
0
370
              18
  6
Continuous
 62
               7
100
AcDbLine
 10
10.034128828799993
 20
-12.168038036899986
 30
0.0
 11
9.5551075509000043
 21
-11.663702276399988
 31
0.0
  0
LINE
  5
3C
100
AcDbEntity
  8
0
370
              18
  6
Continuous
 62
               7
100
AcDbLine
 10
7.0144287783000152
 20
-11.577380641199994
 30
0.0
 11
6.5022812239000132
 21
-12.048040631600003
 31
0.0
  0
LINE
  5
3D
100
AcDbEntity
  8
0
370
              18
  6
Continuous
 62
               7
100
AcDbLine
 10
9.7952459178000026
 20
-19.632363874899994
 30
0.0
 11
9.8134557749999942
 21
-19.096398616199991
 31
0.0
  0
LINE
  5
3E
100
AcDbEntity
  8
0
370
              18
  6
Continuous
 62
               7
100
AcDbLine
 10
9.9624335953000127
 20
-14.711579155999999
 30
0.0
 11
10.047848374799997
 21
-12.1975915955
 31
0.0
  0
LINE
  5
3F
100
AcDbEntity
  8
0
370
              18
  6
Continuous
 62
               7
100
AcDbLine
 10
6.4865874188000134
 20
-12.076594847600006
 30
0.0
 11
6.3681753526000193
 21
-15.56178164260001
 31
0.0
  0
LINE
  5
40
100
AcDbEntity
  8
0
370
              18
  6
Continuous
 62
               7
100
AcDbLine
 10
6.2521948190000103
 20
-18.975401868200009
 30
0.0
 11
6.2339849619000063
 21
-19.511367127
 31
0.0
  0
LINE
  5
41
100
AcDbEntity
  8
0
370
              18
  6
Continuous
 62
               7
100
AcDbLine
 10
3.7277607942000088
 20
-28.919769520100004
 30
0.0
 11
4.2067820720999975
 21
-29.424105280600003
 31
0.0
  0
LINE
  5
42
100
AcDbEntity
  8
0
370
              18
  6
Continuous
 62
               7
100
AcDbLine
 10
8.6893959826000184
 20
68.211830438199996
 30
0.0
 11
-35.789204462300006
 21
63.225943068699991
 31
0.0
  0
LINE
  5
43
100
AcDbEntity
  8
0
370
              18
  6
Continuous
 62
               7
100
AcDbLine
 10
3.3290007228000036
 20
-18.927683498899995
 30
0.0
 11
18.269676380800007
 21
-17.252888759200005
 31
0.0
  0
POLYLINE
  5
44
100
AcDbEntity
  8
0
370
              18
  6
Continuous
 62
               7
100
AcDb2dPolyline
 66
               1
 10
0.0
 20
0.0
 30
0.0
 75
               5
  0
VERTEX
  5
45
100
AcDbEntity
  8
0
370
              18
  6
Continuous
 62
               7
100
AcDbVertex
100
AcDb2dVertex
 10
11.006070843499998
 20
-20.503395404200006
 30
0.0
  0
VERTEX
  5
46
100
AcDbEntity
  8
0
370
              18
  6
Continuous
 62
               7
100
AcDbVertex
100
AcDb2dVertex
 10
10.471060179200009
 20
-20.550204679800004
 30
0.0
  0
VERTEX
  5
47
100
AcDbEntity
  8
0
370
              18
  6
Continuous
 62
               7
100
AcDbVertex
100
AcDb2dVertex
 10
9.8518247640000141
 20
-20.580576605000005
 30
0.0
  0
VERTEX
  5
48
100
AcDbEntity
  8
0
370
              18
  6
Continuous
 62
               7
100
AcDbVertex
100
AcDb2dVertex
 10
9.1694519171000195
 20
-20.593476900200002
 30
0.0
  0
VERTEX
  5
49
100
AcDbEntity
  8
0
370
              18
  6
Continuous
 62
               7
100
AcDbVertex
100
AcDb2dVertex
 10
8.4471790274999989
 20
-20.588466261299999
 30
0.0
  0
VERTEX
  5
4A
100
AcDbEntity
  8
0
370
              18
  6
Continuous
 62
               7
100
AcDbVertex
100
AcDb2dVertex
 10
7.7096022322000124
 20
-20.565715319700004
 30
0.0
  0
VERTEX
  5
4B
100
AcDbEntity
  8
0
370
              18
  6
Continuous
 62
               7
100
AcDbVertex
100
AcDb2dVertex
 10
6.9818388241999969
 20
-20.525998831400003
 30
0.0
  0
VERTEX
  5
4C
100
AcDbEntity
  8
0
370
              18
  6
Continuous
 62
               7
100
AcDbVertex
100
AcDb2dVertex
 10
6.2886719136000124
 20
-20.470669293700013
 30
0.0
  0
VERTEX
  5
4D
100
AcDbEntity
  8
0
370
              18
  6
Continuous
 62
               7
100
AcDbVertex
100
AcDb2dVertex
 10
5.6537064681999993
 20
-20.401610887700002
 30
0.0
  0
VERTEX
  5
4E
100
AcDbEntity
  8
0
370
              18
  6
Continuous
 62
               7
100
AcDbVertex
100
AcDb2dVertex
 10
5.098565474600008
 20
-20.321175314599998
 30
0.0
  0
VERTEX
  5
4F
100
AcDbEntity
  8
0
370
              18
  6
Continuous
 62
               7
100
AcDbVertex
100
AcDb2dVertex
 10
4.6421535935999998
 20
-20.232101711399991
 30
0.0
  0
VERTEX
  5
50
100
AcDbEntity
  8
0
370
              18
  6
Continuous
 62
               7
100
AcDbVertex
100
AcDb2dVertex
 10
4.3000133844000175
 20
-20.137423372699999
 30
0.0
  0
VERTEX
  5
51
100
AcDbEntity
  8
0
370
              18
  6
Continuous
 62
               7
100
AcDbVertex
100
AcDb2dVertex
 10
4.0837960214000191
 20
-20.040364455900004
 30
0.0
  0
VERTEX
  5
52
100
AcDbEntity
  8
0
370
              18
  6
Continuous
 62
               7
100
AcDbVertex
100
AcDb2dVertex
 10
4.0008645276000152
 20
-19.944230185999999
 30
0.0
  0
VERTEX
  5
53
100
AcDbEntity
  8
0
370
              18
  6
Continuous
 62
               7
100
AcDbVertex
100
AcDb2dVertex
 10
4.0353161513000089
 20
-19.867585026600011
 30
0.0
  0
SEQEND
  5
54
100
AcDbEntity
  8
0
370
              18
  6
Continuous
 62
               7
  0
POLYLINE
  5
55
100
AcDbEntity
  8
0
370
              18
  6
Continuous
 62
               7
100
AcDb2dPolyline
 66
               1
 10
0.0
 20
0.0
 30
0.0
 75
               5
  0
VERTEX
  5
56
100
AcDbEntity
  8
0
370
              18
  6
Continuous
 62
               7
100
AcDbVertex
100
AcDb2dVertex
 10
11.964666809600004
 20
-20.136991187700005
 30
0.0
  0
VERTEX
  5
57
100
AcDbEntity
  8
0
370
              18
  6
Continuous
 62
               7
100
AcDbVertex
100
AcDb2dVertex
 10
11.994686024400011
 20
-20.190803786499998
 30
0.0
  0
VERTEX
  5
58
100
AcDbEntity
  8
0
370
              18
  6
Continuous
 62
               7
100
AcDbVertex
100
AcDb2dVertex
 10
11.941507516499996
 20
-20.282739672399998
 30
0.0
  0
VERTEX
  5
59
100
AcDbEntity
  8
0
370
              18
  6
Continuous
 62
               7
100
AcDbVertex
100
AcDb2dVertex
 10
11.754029937000013
 20
-20.367346407799999
 30
0.0
  0
VERTEX
  5
5A
100
AcDbEntity
  8
0
370
              18
  6
Continuous
 62
               7
100
AcDbVertex
100
AcDb2dVertex
 10
11.438637610200004
 20
-20.441742811799998
 30
0.0
  0
VERTEX
  5
5B
100
AcDbEntity
  8
0
370
              18
  6
Continuous
 62
               7
100
AcDbVertex
100
AcDb2dVertex
 10
11.006070843499998
 20
-20.503395404200006
 30
0.0
  0
SEQEND
  5
5C
100
AcDbEntity
  8
0
370
              18
  6
Continuous
 62
               7
  0
POLYLINE
  5
5D
100
AcDbEntity
  8
0
370
              18
  6
Continuous
 62
               7
100
AcDb2dPolyline
 66
               1
 10
0.0
 20
0.0
 30
0.0
 75
               5
  0
VERTEX
  5
5E
100
AcDbEntity
  8
0
370
              18
  6
Continuous
 62
               7
100
AcDbVertex
100
AcDb2dVertex
 10
10.646874061299997
 20
-19.953259116699996
 30
0.0
  0
VERTEX
  5
5F
100
AcDbEntity
  8
0
370
              18
  6
Continuous
 62
               7
100
AcDbVertex
100
AcDb2dVertex
 10
11.056735420400003
 20
-19.893467988800012
 30
0.0
  0
VERTEX
  5
60
100
AcDbEntity
  8
0
370
              18
  6
Continuous
 62
               7
100
AcDbVertex
100
AcDb2dVertex
 10
11.342052030000019
 20
-19.8205104173
 30
0.0
  0
VERTEX
  5
61
100
AcDbEntity
  8
0
370
              18
  6
Continuous
 62
               7
100
AcDbVertex
100
AcDb2dVertex
 10
11.491142994699999
 20
-19.737373293699989
 30
0.0
  0
VERTEX
  5
62
100
AcDbEntity
  8
0
370
              18
  6
Continuous
 62
               7
100
AcDbVertex
100
AcDb2dVertex
 10
11.497904512800005
 20
-19.64746026169999
 30
0.0
  0
VERTEX
  5
63
100
AcDbEntity
  8
0
370
              18
  6
Continuous
 62
               7
100
AcDbVertex
100
AcDb2dVertex
 10
11.362059767000005
 20
-19.5544523712
 30
0.0
  0
VERTEX
  5
64
100
AcDbEntity
  8
0
370
              18
  6
Continuous
 62
               7
100
AcDbVertex
100
AcDb2dVertex
 10
11.089170257099994
 20
-19.462157376300013
 30
0.0
  0
VERTEX
  5
65
100
AcDbEntity
  8
0
370
              18
  6
Continuous
 62
               7
100
AcDbVertex
100
AcDb2dVertex
 10
10.690408111799997
 20
-19.374353845000002
 30
0.0
  0
VERTEX
  5
66
100
AcDbEntity
  8
0
370
              18
  6
Continuous
 62
               7
100
AcDbVertex
100
AcDb2dVertex
 10
10.182098700099999
 20
-19.294636464000007
 30
0.0
  0
VERTEX
  5
67
100
AcDbEntity
  8
0
370
              18
  6
Continuous
 62
               7
100
AcDbVertex
100
AcDb2dVertex
 10
9.8082596844000136
 20
-19.249333590100008
 30
0.0
  0
SEQEND
  5
68
100
AcDbEntity
  8
0
370
              18
  6
Continuous
 62
               7
  0
POLYLINE
  5
69
100
AcDbEntity
  8
0
370
              18
  6
Continuous
 62
               7
100
AcDb2dPolyline
 66
               1
 10
0.0
 20
0.0
 30
0.0
 75
               5
  0
VERTEX
  5
6A
100
AcDbEntity
  8
0
370
              18
  6
Continuous
 62
               7
100
AcDbVertex
100
AcDb2dVertex
 10
6.2469987285000173
 20
-19.128336842200014
 30
0.0
  0
VERTEX
  5
6B
100
AcDbEntity
  8
0
370
              18
  6
Continuous
 62
               7
100
AcDbVertex
100
AcDb2dVertex
 10
6.1927354931000025
 20
-19.130654383099994
 30
0.0
  0
VERTEX
  5
6C
100
AcDbEntity
  8
0
370
              18
  6
Continuous
 62
               7
100
AcDbVertex
100
AcDb2dVertex
 10
5.6289298050000127
 20
-19.166302659199999
 30
0.0
  0
VERTEX
  5
6D
100
AcDbEntity
  8
0
370
              18
  6
Continuous
 62
               7
100
AcDbVertex
100
AcDb2dVertex
 10
5.1627943672000072
 20
-19.218554725800004
 30
0.0
  0
VERTEX
  5
6E
100
AcDbEntity
  8
0
370
              18
  6
Continuous
 62
               7
100
AcDbVertex
100
AcDb2dVertex
 10
4.8134128190999945
 20
-19.285271377100003
 30
0.0
  0
VERTEX
  5
6F
100
AcDbEntity
  8
0
370
              18
  6
Continuous
 62
               7
100
AcDbVertex
100
AcDb2dVertex
 10
4.595088882400006
 20
-19.363721225400013
 30
0.0
  0
VERTEX
  5
70
100
AcDbEntity
  8
0
370
              18
  6
Continuous
 62
               7
100
AcDbVertex
100
AcDb2dVertex
 10
4.5167607648000114
 20
-19.45069252479999
 30
0.0
  0
VERTEX
  5
71
100
AcDbEntity
  8
0
370
              18
  6
Continuous
 62
               7
100
AcDbVertex
100
AcDb2dVertex
 10
4.581635228500005
 20
-19.542624660200005
 30
0.0
  0
VERTEX
  5
72
100
AcDbEntity
  8
0
370
              18
  6
Continuous
 62
               7
100
AcDbVertex
100
AcDb2dVertex
 10
4.7870563055000162
 20
-19.635753918900008
 30
0.0
  0
VERTEX
  5
73
100
AcDbEntity
  8
0
370
              18
  6
Continuous
 62
               7
100
AcDbVertex
100
AcDb2dVertex
 10
5.1246140325999932
 20
-19.726267578400012
 30
0.0
  0
VERTEX
  5
74
100
AcDbEntity
  8
0
370
              18
  6
Continuous
 62
               7
100
AcDbVertex
100
AcDb2dVertex
 10
5.5804887568999959
 20
-19.81045999860001
 30
0.0
  0
VERTEX
  5
75
100
AcDbEntity
  8
0
370
              18
  6
Continuous
 62
               7
100
AcDbVertex
100
AcDb2dVertex
 10
6.1360169136000025
 20
-19.8848843321
 30
0.0
  0
VERTEX
  5
76
100
AcDbEntity
  8
0
370
              18
  6
Continuous
 62
               7
100
AcDbVertex
100
AcDb2dVertex
 10
6.7684551147000036
 20
-19.946493637799989
 30
0.0
  0
VERTEX
  5
77
100
AcDbEntity
  8
0
370
              18
  6
Continuous
 62
               7
100
AcDbVertex
100
AcDb2dVertex
 10
7.4519112659000086
 20
-19.992765623600008
 30
0.0
  0
VERTEX
  5
78
100
AcDbEntity
  8
0
370
              18
  6
Continuous
 62
               7
100
AcDbVertex
100
AcDb2dVertex
 10
8.1584045922000143
 20
-20.021805908999994
 30
0.0
  0
VERTEX
  5
79
100
AcDbEntity
  8
0
370
              18
  6
Continuous
 62
               7
100
AcDbVertex
100
AcDb2dVertex
 10
8.8590111736000097
 20
-20.0324255811
 30
0.0
  0
VERTEX
  5
7A
100
AcDbEntity
  8
0
370
              18
  6
Continuous
 62
               7
100
AcDbVertex
100
AcDb2dVertex
 10
9.5250480944999936
 20
-20.024189869499992
 30
0.0
  0
VERTEX
  5
7B
100
AcDbEntity
  8
0
370
              18
  6
Continuous
 62
               7
100
AcDbVertex
100
AcDb2dVertex
 10
10.129247724999999
 20
-19.997435945099994
 30
0.0
  0
VERTEX
  5
7C
100
AcDbEntity
  8
0
370
              18
  6
Continuous
 62
               7
100
AcDbVertex
100
AcDb2dVertex
 10
10.646874061299997
 20
-19.953259116699996
 30
0.0
  0
VERTEX
  5
7D
100
AcDbEntity
  8
0
370
              18
  6
Continuous
 62
               7
100
AcDbVertex
100
AcDb2dVertex
 10
10.646874061299997
 20
-19.953259116699996
 30
0.0
  0
SEQEND
  5
7E
100
AcDbEntity
  8
0
370
              18
  6
Continuous
 62
               7
  0
POLYLINE
  5
7F
100
AcDbEntity
  8
0
370
              18
  6
Continuous
 62
               7
100
AcDb2dPolyline
 66
               1
 10
0.0
 20
0.0
 30
0.0
 75
               5
  0
VERTEX
  5
80
100
AcDbEntity
  8
0
370
              18
  6
Continuous
 62
               7
100
AcDbVertex
100
AcDb2dVertex
 10
6.1337340875000166
 20
-29.405809809000004
 30
0.0
  0
VERTEX
  5
81
100
AcDbEntity
  8
0
370
              18
  6
Continuous
 62
               7
100
AcDbVertex
100
AcDb2dVertex
 10
6.8677128715000038
 20
-29.459746245900007
 30
0.0
  0
VERTEX
  5
82
100
AcDbEntity
  8
0
370
              18
  6
Continuous
 62
               7
100
AcDbVertex
100
AcDb2dVertex
 10
7.6323243319000085
 20
-29.496253654100002
 30
0.0
  0
VERTEX
  5
83
100
AcDbEntity
  8
0
370
              18
  6
Continuous
 62
               7
100
AcDbVertex
100
AcDb2dVertex
 10
8.3992446352000059
 20
-29.513979673899996
 30
0.0
  0
VERTEX
  5
84
100
AcDbEntity
  8
0
370
              18
  6
Continuous
 62
               7
100
AcDbVertex
100
AcDb2dVertex
 10
9.1400644205999981
 20
-29.512267672600004
 30
0.0
  0
VERTEX
  5
85
100
AcDbEntity
  8
0
370
              18
  6
Continuous
 62
               7
100
AcDbVertex
100
AcDb2dVertex
 10
9.827341179900003
 20
-29.491181068499998
 30
0.0
  0
VERTEX
  5
86
100
AcDbEntity
  8
0
370
              18
  6
Continuous
 62
               7
100
AcDbVertex
100
AcDb2dVertex
 10
10.435615822700015
 20
-29.451500981999999
 30
0.0
  0
VERTEX
  5
87
100
AcDbEntity
  8
0
370
              18
  6
Continuous
 62
               7
100
AcDbVertex
100
AcDb2dVertex
 10
10.942355767799995
 20
-29.394697299599997
 30
0.0
  0
VERTEX
  5
88
100
AcDbEntity
  8
0
370
              18
  6
Continuous
 62
               7
100
AcDbVertex
100
AcDb2dVertex
 10
11.328789628099997
 20
-29.322874224800003
 30
0.0
  0
VERTEX
  5
89
100
AcDbEntity
  8
0
370
              18
  6
Continuous
 62
               7
100
AcDbVertex
100
AcDb2dVertex
 10
11.580602566900012
 20
-29.238692330800006
 30
0.0
  0
VERTEX
  5
8A
100
AcDbEntity
  8
0
370
              18
  6
Continuous
 62
               7
100
AcDbVertex
100
AcDb2dVertex
 10
11.688466568199999
 20
-29.145270003899995
 30
0.0
  0
VERTEX
  5
8B
100
AcDbEntity
  8
0
370
              18
  6
Continuous
 62
               7
100
AcDbVertex
100
AcDb2dVertex
 10
11.692345612400004
 20
-29.125068614100002
 30
0.0
  0
SEQEND
  5
8C
100
AcDbEntity
  8
0
370
              18
  6
Continuous
 62
               7
  0
LINE
  5
8D
100
AcDbEntity
  8
0
370
              18
  6
Continuous
 62
               7
100
AcDbLine
 10
6.2516152340000133
 20
-25.936249411899993
 30
0.0
 11
6.1337340875000166
 21
-29.405809809000004
 31
0.0
  0
ARC
  5
8E
100
AcDbEntity
  8
0
370
              18
  6
Continuous
 62
               7
100
AcDbCircle
 10
7.2009747916000038
 20
-12.759635292399992
 30
0.0
 40
13.210769970864581
100
AcDbArc
 50
257.63230243839996
 51
265.87902729789994
  0
LINE
  5
8F
100
AcDbEntity
  8
0
370
              18
  6
Continuous
 62
               7
100
AcDbLine
 10
4.2535493578000114
 20
-29.133385797700001
 30
0.0
 11
4.3714305043999957
 21
-25.663825400700006
 31
0.0
  0
ARC
  5
90
100
AcDbEntity
  8
0
370
              18
  6
Continuous
 62
               7
100
AcDbCircle
 10
4.2421164165999983
 20
-28.462864994499995
 30
0.0
 40
0.6706182667351374
100
AcDbArc
 50
215.61802644909909
 51
270.97684636240098
  0
POLYLINE
  5
91
100
AcDbEntity
  8
0
370
              18
  6
Continuous
 62
               7
100
AcDb2dPolyline
 66
               1
 10
0.0
 20
0.0
 30
0.0
 75
               5
  0
VERTEX
  5
92
100
AcDbEntity
  8
0
370
              18
  6
Continuous
 62
               7
100
AcDbVertex
100
AcDb2dVertex
 10
9.3545538475000001
 20
-19.766012060099996
 30
0.0
  0
VERTEX
  5
93
100
AcDbEntity
  8
0
370
              18
  6
Continuous
 62
               7
100
AcDbVertex
100
AcDb2dVertex
 10
9.6306699705999961
 20
-19.721111916399991
 30
0.0
  0
VERTEX
  5
94
100
AcDbEntity
  8
0
370
              18
  6
Continuous
 62
               7
100
AcDbVertex
100
AcDb2dVertex
 10
9.7758629667000037
 20
-19.664120715699994
 30
0.0
  0
VERTEX
  5
95
100
AcDbEntity
  8
0
370
              18
  6
Continuous
 62
               7
100
AcDbVertex
100
AcDb2dVertex
 10
9.7952459178000026
 20
-19.632363874899994
 30
0.0
  0
SEQEND
  5
96
100
AcDbEntity
  8
0
370
              18
  6
Continuous
 62
               7
  0
ARC
  5
97
100
AcDbEntity
  8
0
370
              18
  6
Continuous
 62
               7
100
AcDbCircle
 10
8.3112925924000081
 20
-13.302783148900005
 30
0.0
 40
6.5468864359477008
100
AcDbArc
 50
251.50046069149991
 51
279.16930202210006
  0
ARC
  5
98
100
AcDbEntity
  8
0
370
              18
  6
Continuous
 62
               7
100
AcDbCircle
 10
8.2590629105999938
 20
-17.133821465000011
 30
0.0
 40
12.85416105437641
100
AcDbArc
 50
261.98184568720001
 51
282.97412686849987
  0
LINE
  5
99
100
AcDbEntity
  8
0
370
              18
  6
Continuous
 62
               7
100
AcDbLine
 10
6.4660763098000018
 20
-29.862319234200001
 30
0.0
 11
6.1337340875000166
 21
-29.405809809000004
 31
0.0
  0
POLYLINE
  5
9A
100
AcDbEntity
  8
0
370
              18
  6
Continuous
 62
               7
100
AcDb2dPolyline
 66
               1
 10
0.0
 20
0.0
 30
0.0
 75
               5
  0
VERTEX
  5
9B
100
AcDbEntity
  8
0
370
              18
  6
Continuous
 62
               7
100
AcDbVertex
100
AcDb2dVertex
 10
7.320156598900013
 20
-11.501779979300011
 30
0.0
  0
VERTEX
  5
9C
100
AcDbEntity
  8
0
370
              18
  6
Continuous
 62
               7
100
AcDbVertex
100
AcDb2dVertex
 10
7.0984637562999922
 20
-11.540052626599987
 30
0.0
  0
VERTEX
  5
9D
100
AcDbEntity
  8
0
370
              18
  6
Continuous
 62
               7
100
AcDbVertex
100
AcDb2dVertex
 10
7.0052484529000196
 20
-11.589312357099999
 30
0.0
  0
VERTEX
  5
9E
100
AcDbEntity
  8
0
370
              18
  6
Continuous
 62
               7
100
AcDbVertex
100
AcDb2dVertex
 10
7.0506120132999968
 20
-11.644221114700002
 30
0.0
  0
VERTEX
  5
9F
100
AcDbEntity
  8
0
370
              18
  6
Continuous
 62
               7
100
AcDbVertex
100
AcDb2dVertex
 10
7.2296385918000112
 20
-11.698828683500011
 30
0.0
  0
VERTEX
  5
A0
100
AcDbEntity
  8
0
370
              18
  6
Continuous
 62
               7
100
AcDbVertex
100
AcDb2dVertex
 10
7.5229278806999957
 20
-11.747217486099998
 30
0.0
  0
VERTEX
  5
A1
100
AcDbEntity
  8
0
370
              18
  6
Continuous
 62
               7
100
AcDbVertex
100
AcDb2dVertex
 10
7.898697434799999
 20
-11.784143844900001
 30
0.0
  0
VERTEX
  5
A2
100
AcDbEntity
  8
0
370
              18
  6
Continuous
 62
               7
100
AcDbVertex
100
AcDb2dVertex
 10
8.3162267922000126
 20
-11.805606216099989
 30
0.0
  0
VERTEX
  5
A3
100
AcDbEntity
  8
0
370
              18
  6
Continuous
 62
               7
100
AcDbVertex
100
AcDb2dVertex
 10
8.7302701684000112
 20
-11.80927881849999
 30
0.0
  0
VERTEX
  5
A4
100
AcDbEntity
  8
0
370
              18
  6
Continuous
 62
               7
100
AcDbVertex
100
AcDb2dVertex
 10
9.0959595390000061
 20
-11.794763668799987
 30
0.0
  0
VERTEX
  5
A5
100
AcDbEntity
  8
0
370
              18
  6
Continuous
 62
               7
100
AcDbVertex
100
AcDb2dVertex
 10
9.3736667864000083
 20
-11.763633708700013
 30
0.0
  0
VERTEX
  5
A6
100
AcDbEntity
  8
0
370
              18
  6
Continuous
 62
               7
100
AcDbVertex
100
AcDb2dVertex
 10
9.5332980214000145
 20
-11.719262352399994
 30
0.0
  0
VERTEX
  5
A7
100
AcDbEntity
  8
0
370
              18
  6
Continuous
 62
               7
100
AcDbVertex
100
AcDb2dVertex
 10
9.5575547227000186
 20
-11.6664579248
 30
0.0
  0
VERTEX
  5
A8
100
AcDbEntity
  8
0
370
              18
  6
Continuous
 62
               7
100
AcDbVertex
100
AcDb2dVertex
 10
9.4438083003000202
 20
-11.610942604999991
 30
0.0
  0
VERTEX
  5
A9
100
AcDbEntity
  8
0
370
              18
  6
Continuous
 62
               7
100
AcDbVertex
100
AcDb2dVertex
 10
9.2043849441000134
 20
-11.558732339300008
 30
0.0
  0
VERTEX
  5
AA
100
AcDbEntity
  8
0
370
              18
  6
Continuous
 62
               7
100
AcDbVertex
100
AcDb2dVertex
 10
8.8652298897000037
 20
-11.515484920099993
 30
0.0
  0
VERTEX
  5
AB
100
AcDbEntity
  8
0
370
              18
  6
Continuous
 62
               7
100
AcDbVertex
100
AcDb2dVertex
 10
8.4630958497999984
 20
-11.485886876400002
 30
0.0
  0
VERTEX
  5
AC
100
AcDbEntity
  8
0
370
              18
  6
Continuous
 62
               7
100
AcDbVertex
100
AcDb2dVertex
 10
8.0415602873000012
 20
-11.4731456154
 30
0.0
  0
VERTEX
  5
AD
100
AcDbEntity
  8
0
370
              18
  6
Continuous
 62
               7
100
AcDbVertex
100
AcDb2dVertex
 10
7.6463031213999955
 20
-11.478641850499997
 30
0.0
  0
VERTEX
  5
AE
100
AcDbEntity
  8
0
370
              18
  6
Continuous
 62
               7
100
AcDbVertex
100
AcDb2dVertex
 10
7.320156598900013
 20
-11.501779979300011
 30
0.0
  0
SEQEND
  5
AF
100
AcDbEntity
  8
0
370
              18
  6
Continuous
 62
               7
  0
ARC
  5
B0
100
AcDbEntity
  8
0
370
              18
  6
Continuous
 62
               7
100
AcDbCircle
 10
8.4173179836000145
 20
-7.7192424309999979
 30
0.0
 40
4.7334828247134277
100
AcDbArc
 50
246.13566235010001
 51
289.97249295879999
  0
LINE
  5
B1
100
AcDbEntity
  8
0
370
              18
  6
Continuous
 62
               7
100
AcDbLine
 10
4.5858915800999966
 20
-29.589895222999999
 30
0.0
 11
6.1408538992999979
 21
-29.415589671399999
 31
0.0
  0
LINE
  5
B2
100
AcDbEntity
  8
0
370
              18
  6
Continuous
 62
               7
100
AcDbLine
 10
4.2535493578000114
 20
-29.133385797700001
 30
0.0
 11
4.5858915800999966
 21
-29.589895222999999
 31
0.0
  0
POLYLINE
  5
B3
100
AcDbEntity
  8
0
370
              18
  6
Continuous
 62
               7
100
AcDb2dPolyline
 66
               1
 10
0.0
 20
0.0
 30
0.0
 75
               5
  0
VERTEX
  5
B4
100
AcDbEntity
  8
0
370
              18
  6
Continuous
 62
               7
100
AcDbVertex
100
AcDb2dVertex
 10
4.5858915800999966
 20
-29.589895222999999
 30
0.0
  0
VERTEX
  5
B5
100
AcDbEntity
  8
0
370
              18
  6
Continuous
 62
               7
100
AcDbVertex
100
AcDb2dVertex
 10
4.3216034433999937
 20
-29.498276042300006
 30
0.0
  0
VERTEX
  5
B6
100
AcDbEntity
  8
0
370
              18
  6
Continuous
 62
               7
100
AcDbVertex
100
AcDb2dVertex
 10
4.2067820720999975
 20
-29.424105280600003
 30
0.0
  0
SEQEND
  5
B7
100
AcDbEntity
  8
0
370
              18
  6
Continuous
 62
               7
  0
SPLINE
  5
B8
100
AcDbEntity
  8
0
370
              18
  6
Continuous
 62
               7
100
AcDbSpline
210
0.0
220
0.0
230
1.0
 70
               9
 71
               2
 72
              28
 73
              25
 74
               0
 42
0.000001
 43
0.000001
 40
0.0
 40
0.0
 40
0.0
 40
1.0
 40
1.0
 40
2.0
 40
3.0
 40
4.0
 40
5.0
 40
6.0
 40
7.0
 40
8.0
 40
9.0
 40
10.0
 40
11.0
 40
12.0
 40
13.0
 40
14.0
 40
15.0
 40
16.0
 40
17.0
 40
18.0
 40
19.0
 40
20.0
 40
20.0
 40
21.0
 40
21.0
 40
21.0
 10
-43.780675723145833
 20
60.243870199287329
 30
0.0
 10
-44.32919704423476
 20
59.847172991158089
 30
0.0
 10
-44.877718365323688
 20
59.45047578302885
 30
0.0
 10
-50.002421249120715
 20
54.26634415251533
 30
0.0
 10
-51.558574703330692
 20
42.511506985222269
 30
0.0
 10
-50.575618935612027
 20
33.443050222667523
 30
0.0
 10
-47.712285093486571
 20
23.881790506433077
 30
0.0
 10
-41.148508739512749
 20
10.084922123019624
 30
0.0
 10
-31.885402326183168
 20
-1.2216625112613144
 30
0.0
 10
-24.443769491237902
 20
-8.2920470856751933
 30
0.0
 10
-16.260204731161963
 20
-14.005651896601591
 30
0.0
 10
-3.5744053029896747
 20
-19.660086706078289
 30
0.0
 10
9.5588683296432464
 20
-18.206254005205693
 30
0.0
 10
15.395050711560998
 20
-12.080660318163041
 30
0.0
 10
19.552665843693092
 20
-2.8324603718693595
 30
0.0
 10
18.115452694545013
 20
10.85523646652203
 30
0.0
 10
15.252074925566689
 20
20.416464414328686
 30
0.0
 10
10.867817455248286
 20
29.697979576962581
 30
0.0
 10
3.0884421605811951
 20
42.010354400207007
 30
0.0
 10
-8.0164278200420256
 20
52.590311304513477
 30
0.0
 10
-20.521036908888846
 20
61.305789267227652
 30
0.0
 10
-36.197057282680049
 20
64.22871929491447
 30
0.0
 10
-42.683633080967979
 20
61.037264615545809
 30
0.0
 10
-43.232154402056906
 20
60.640567407416569
 30
0.0
 10
-43.780675723145833
 20
60.243870199287329
 30
0.0
  0
SPLINE
  5
B9
100
AcDbEntity
  8
0
370
              18
  6
Continuous
 62
               7
100
AcDbSpline
210
0.0
220
0.0
230
1.0
 70
               8
 71
               2
 72
              27
 73
              24
 74
               0
 42
0.000001
 43
0.000001
 40
0.0
 40
0.0
 40
0.0
 40
1.0
 40
1.0
 40
2.0
 40
3.0
 40
4.0
 40
5.0
 40
6.0
 40
7.0
 40
8.0
 40
9.0
 40
10.0
 40
11.0
 40
12.0
 40
13.0
 40
14.0
 40
15.0
 40
16.0
 40
17.0
 40
18.0
 40
19.0
 40
19.0
 40
20.0
 40
20.0
 40
20.0
 10
-43.071446651568806
 20
59.464826487436682
 30
0.0
 10
-43.60343235239263
 20
59.080112983429544
 30
0.0
 10
-44.135418053216455
 20
58.695399479422406
 30
0.0
 10
-49.105661166937949
 20
53.667791110220776
 30
0.0
 10
-50.615108530906497
 20
42.267458271966802
 30
0.0
 10
-49.661973759899439
 20
33.472401290231289
 30
0.0
 10
-46.885182246978133
 20
24.199324750741653
 30
0.0
 10
-40.519634644331376
 20
10.818205496735288
 30
0.0
 10
-31.536120061601451
 20
-0.1478282062562926
 30
0.0
 10
-20.534873608702895
 20
-10.643852387239889
 30
0.0
 10
-4.1226844717320716
 20
-18.020339438315801
 30
0.0
 10
5.5689663595923378
 20
-17.008415824933536
 30
0.0
 10
12.990731630846426
 20
-13.554988256850152
 30
0.0
 10
16.95878637798387
 20
-4.8114297234985486
 30
0.0
 10
18.358702884515935
 20
6.8033175194779005
 30
0.0
 10
14.180119817709425
 20
20.835942333106374
 30
0.0
 10
9.9282700999578424
 20
29.83777089512887
 30
0.0
 10
2.3837571747476716
 20
41.779207450343932
 30
0.0
 10
-8.3859877633505846
 20
52.040597877255607
 30
0.0
 10
-20.513292053536532
 20
60.493785292258025
 30
0.0
 10
-35.71647066271251
 20
63.329214791659467
 30
0.0
 10
-42.007474581900055
 20
60.234253893841327
 30
0.0
 10
-42.539460302833135
 20
59.849540417641464
 30
0.0
 10
-43.071446023766214
 20
59.464826941441601
 30
0.0
  0
POLYLINE
  5
BA
100
AcDbEntity
  8
0
370
              18
  6
Continuous
 62
               7
100
AcDb2dPolyline
 66
               1
 10
0.0
 20
0.0
 30
0.0
 75
               5
  0
VERTEX
  5
BB
100
AcDbEntity
  8
0
370
              18
  6
Continuous
 62
               7
100
AcDbVertex
100
AcDb2dVertex
 10
18.269676380800007
 20
-17.252888759200005
 30
0.0
  0
VERTEX
  5
BC
100
AcDbEntity
  8
0
370
              18
  6
Continuous
 62
               7
100
AcDbVertex
100
AcDb2dVertex
 10
18.678766572600011
 20
-17.203491896900005
 30
0.0
  0
VERTEX
  5
BD
100
AcDbEntity
  8
0
370
              18
  6
Continuous
 62
               7
100
AcDbVertex
100
AcDb2dVertex
 10
20.473258797499994
 20
-16.902187120799994
 30
0.0
  0
VERTEX
  5
BE
100
AcDbEntity
  8
0
370
              18
  6
Continuous
 62
               7
100
AcDbVertex
100
AcDb2dVertex
 10
22.245468757100014
 20
-16.465852776499986
 30
0.0
  0
VERTEX
  5
BF
100
AcDbEntity
  8
0
370
              18
  6
Continuous
 62
               7
100
AcDbVertex
100
AcDb2dVertex
 10
23.989750123300013
 20
-15.895879041699999
 30
0.0
  0
VERTEX
  5
C0
100
AcDbEntity
  8
0
370
              18
  6
Continuous
 62
               7
100
AcDbVertex
100
AcDb2dVertex
 10
25.700545549600008
 20
-15.194081874299997
 30
0.0
  0
VERTEX
  5
C1
100
AcDbEntity
  8
0
370
              18
  6
Continuous
 62
               7
100
AcDbVertex
100
AcDb2dVertex
 10
27.372404377000009
 20
-14.362697226800009
 30
0.0
  0
VERTEX
  5
C2
100
AcDbEntity
  8
0
370
              18
  6
Continuous
 62
               7
100
AcDbVertex
100
AcDb2dVertex
 10
29.0
 20
-13.404373922100007
 30
0.0
  0
VERTEX
  5
C3
100
AcDbEntity
  8
0
370
              18
  6
Continuous
 62
               7
100
AcDbVertex
100
AcDb2dVertex
 10
30.57814683700002
 20
-12.322165214600005
 30
0.0
  0
VERTEX
  5
C4
100
AcDbEntity
  8
0
370
              18
  6
Continuous
 62
               7
100
AcDbVertex
100
AcDb2dVertex
 10
32.101816852599995
 20
-11.119519062199998
 30
0.0
  0
VERTEX
  5
C5
100
AcDbEntity
  8
0
370
              18
  6
Continuous
 62
               7
100
AcDbVertex
100
AcDb2dVertex
 10
33.566155576400007
 20
-9.8002671412000097
 30
0.0
  0
VERTEX
  5
C6
100
AcDbEntity
  8
0
370
              18
  6
Continuous
 62
               7
100
AcDbVertex
100
AcDb2dVertex
 10
34.966497569599994
 20
-8.3686126380999895
 30
0.0
  0
VERTEX
  5
C7
100
AcDbEntity
  8
0
370
              18
  6
Continuous
 62
               7
100
AcDbVertex
100
AcDb2dVertex
 10
36.298381289700018
 20
-6.8291168584999866
 30
0.0
  0
VERTEX
  5
C8
100
AcDbEntity
  8
0
370
              18
  6
Continuous
 62
               7
100
AcDbVertex
100
AcDb2dVertex
 10
37.557563304500007
 20
-5.1866846942000109
 30
0.0
  0
VERTEX
  5
C9
100
AcDbEntity
  8
0
370
              18
  6
Continuous
 62
               7
100
AcDbVertex
100
AcDb2dVertex
 10
38.740031812599995
 20
-3.4465489963000095
 30
0.0
  0
VERTEX
  5
CA
100
AcDbEntity
  8
0
370
              18
  6
Continuous
 62
               7
100
AcDbVertex
100
AcDb2dVertex
 10
39.842019424400007
 20
-1.6142539031999945
 30
0.0
  0
VERTEX
  5
CB
100
AcDbEntity
  8
0
370
              18
  6
Continuous
 62
               7
100
AcDbVertex
100
AcDb2dVertex
 10
40.86001516570002
 20
0.3043628236000018
 30
0.0
  0
VERTEX
  5
CC
100
AcDbEntity
  8
0
370
              18
  6
Continuous
 62
               7
100
AcDbVertex
100
AcDb2dVertex
 10
41.790775663400012
 20
2.3031883986000139
 30
0.0
  0
VERTEX
  5
CD
100
AcDbEntity
  8
0
370
              18
  6
Continuous
 62
               7
100
AcDbVertex
100
AcDb2dVertex
 10
42.63133547930002
 20
4.3758544874999927
 30
0.0
  0
VERTEX
  5
CE
100
AcDbEntity
  8
0
370
              18
  6
Continuous
 62
               7
100
AcDbVertex
100
AcDb2dVertex
 10
43.379016558000018
 20
6.5157574979000117
 30
0.0
  0
VERTEX
  5
CF
100
AcDbEntity
  8
0
370
              18
  6
Continuous
 62
               7
100
AcDbVertex
100
AcDb2dVertex
 10
44.031436759299993
 20
8.7160796174999859
 30
0.0
  0
VERTEX
  5
D0
100
AcDbEntity
  8
0
370
              18
  6
Continuous
 62
               7
100
AcDbVertex
100
AcDb2dVertex
 10
44.586517447600016
 20
10.969810536799997
 30
0.0
  0
VERTEX
  5
D1
100
AcDbEntity
  8
0
370
              18
  6
Continuous
 62
               7
100
AcDbVertex
100
AcDb2dVertex
 10
45.042490114900005
 20
13.269769783599997
 30
0.0
  0
VERTEX
  5
D2
100
AcDbEntity
  8
0
370
              18
  6
Continuous
 62
               7
100
AcDbVertex
100
AcDb2dVertex
 10
45.397902015
 20
15.608629600600011
 30
0.0
  0
VERTEX
  5
D3
100
AcDbEntity
  8
0
370
              18
  6
Continuous
 62
               7
100
AcDbVertex
100
AcDb2dVertex
 10
45.651620792000017
 20
17.978938291899993
 30
0.0
  0
VERTEX
  5
D4
100
AcDbEntity
  8
0
370
              18
  6
Continuous
 62
               7
100
AcDbVertex
100
AcDb2dVertex
 10
45.802838088399994
 20
20.373143964000008
 30
0.0
  0
VERTEX
  5
D5
100
AcDbEntity
  8
0
370
              18
  6
Continuous
 62
               7
100
AcDbVertex
100
AcDb2dVertex
 10
45.851072120100014
 20
22.783618587099994
 30
0.0
  0
VERTEX
  5
D6
100
AcDbEntity
  8
0
370
              18
  6
Continuous
 62
               7
100
AcDbVertex
100
AcDb2dVertex
 10
45.796169211700004
 20
25.202682297600006
 30
0.0
  0
VERTEX
  5
D7
100
AcDbEntity
  8
0
370
              18
  6
Continuous
 62
               7
100
AcDbVertex
100
AcDb2dVertex
 10
45.638304285900006
 20
27.62262786689999
 30
0.0
  0
VERTEX
  5
D8
100
AcDbEntity
  8
0
370
              18
  6
Continuous
 62
               7
100
AcDbVertex
100
AcDb2dVertex
 10
45.377980306300003
 20
30.035745256700011
 30
0.0
  0
VERTEX
  5
D9
100
AcDbEntity
  8
0
370
              18
  6
Continuous
 62
               7
100
AcDbVertex
100
AcDb2dVertex
 10
45.016026675000006
 20
32.434346183499997
 30
0.0
  0
VERTEX
  5
DA
100
AcDbEntity
  8
0
370
              18
  6
Continuous
 62
               7
100
AcDbVertex
100
AcDb2dVertex
 10
44.553596590000012
 20
34.810788613999989
 30
0.0
  0
VERTEX
  5
DB
100
AcDbEntity
  8
0
370
              18
  6
Continuous
 62
               7
100
AcDbVertex
100
AcDb2dVertex
 10
43.99216337110002
 20
37.157501112400013
 30
0.0
  0
VERTEX
  5
DC
100
AcDbEntity
  8
0
370
              18
  6
Continuous
 62
               7
100
AcDbVertex
100
AcDb2dVertex
 10
43.333515765700014
 20
39.467006963899991
 30
0.0
  0
VERTEX
  5
DD
100
AcDbEntity
  8
0
370
              18
  6
Continuous
 62
               7
100
AcDbVertex
100
AcDb2dVertex
 10
42.579752250200016
 20
41.731947995300004
 30
0.0
  0
VERTEX
  5
DE
100
AcDbEntity
  8
0
370
              18
  6
Continuous
 62
               7
100
AcDbVertex
100
AcDb2dVertex
 10
41.733274343600016
 20
43.945108018599996
 30
0.0
  0
VERTEX
  5
DF
100
AcDbEntity
  8
0
370
              18
  6
Continuous
 62
               7
100
AcDbVertex
100
AcDb2dVertex
 10
40.79677895650002
 20
46.099435822099991
 30
0.0
  0
VERTEX
  5
E0
100
AcDbEntity
  8
0
370
              18
  6
Continuous
 62
               7
100
AcDbVertex
100
AcDb2dVertex
 10
39.773249798899997
 20
48.188067635900012
 30
0.0
  0
VERTEX
  5
E1
100
AcDbEntity
  8
0
370
              18
  6
Continuous
 62
               7
100
AcDbVertex
100
AcDb2dVertex
 10
38.6659478734
 20
50.204348999800004
 30
0.0
  0
VERTEX
  5
E2
100
AcDbEntity
  8
0
370
              18
  6
Continuous
 62
               7
100
AcDbVertex
100
AcDb2dVertex
 10
37.478401085800016
 20
52.141855964900003
 30
0.0
  0
VERTEX
  5
E3
100
AcDbEntity
  8
0
370
              18
  6
Continuous
 62
               7
100
AcDbVertex
100
AcDb2dVertex
 10
36.214393005200009
 20
53.994415560800007
 30
0.0
  0
VERTEX
  5
E4
100
AcDbEntity
  8
0
370
              18
  6
Continuous
 62
               7
100
AcDbVertex
100
AcDb2dVertex
 10
34.877950809400005
 20
55.756125462299991
 30
0.0
  0
VERTEX
  5
E5
100
AcDbEntity
  8
0
370
              18
  6
Continuous
 62
               7
100
AcDbVertex
100
AcDb2dVertex
 10
33.47333245370001
 20
57.421372794799993
 30
0.0
  0
VERTEX
  5
E6
100
AcDbEntity
  8
0
370
              18
  6
Continuous
 62
               7
100
AcDbVertex
100
AcDb2dVertex
 10
32.005013105399996
 20
58.984852017399987
 30
0.0
  0
VERTEX
  5
E7
100
AcDbEntity
  8
0
370
              18
  6
Continuous
 62
               7
100
AcDbVertex
100
AcDb2dVertex
 10
30.477670885700007
 20
60.441581826000004
 30
0.0
  0
VERTEX
  5
E8
100
AcDbEntity
  8
0
370
              18
  6
Continuous
 62
               7
100
AcDbVertex
100
AcDb2dVertex
 10
28.896171964700017
 20
61.786921024099996
 30
0.0
  0
VERTEX
  5
E9
100
AcDbEntity
  8
0
370
              18
  6
Continuous
 62
               7
100
AcDbVertex
100
AcDb2dVertex
 10
27.265555058000018
 20
63.016583310199991
 30
0.0
  0
VERTEX
  5
EA
100
AcDbEntity
  8
0
370
              18
  6
Continuous
 62
               7
100
AcDbVertex
100
AcDb2dVertex
 10
25.591015372700014
 20
64.126650933500002
 30
0.0
  0
VERTEX
  5
EB
100
AcDbEntity
  8
0
370
              18
  6
Continuous
 62
               7
100
AcDbVertex
100
AcDb2dVertex
 10
23.877888055800014
 20
65.113587176700008
 30
0.0
  0
VERTEX
  5
EC
100
AcDbEntity
  8
0
370
              18
  6
Continuous
 62
               7
100
AcDbVertex
100
AcDb2dVertex
 10
22.13163119570001
 20
65.974247623299988
 30
0.0
  0
VERTEX
  5
ED
100
AcDbEntity
  8
0
370
              18
  6
Continuous
 62
               7
100
AcDbVertex
100
AcDb2dVertex
 10
20.357808433200006
 20
66.705890176699995
 30
0.0
  0
VERTEX
  5
EE
100
AcDbEntity
  8
0
370
              18
  6
Continuous
 62
               7
100
AcDbVertex
100
AcDb2dVertex
 10
18.562071234600012
 20
67.306183795900012
 30
0.0
  0
VERTEX
  5
EF
100
AcDbEntity
  8
0
370
              18
  6
Continuous
 62
               7
100
AcDbVertex
100
AcDb2dVertex
 10
16.750140886699995
 20
67.773215922600002
 30
0.0
  0
VERTEX
  5
F0
100
AcDbEntity
  8
0
370
              18
  6
Continuous
 62
               7
100
AcDbVertex
100
AcDb2dVertex
 10
14.927790268300015
 20
68.105498575000013
 30
0.0
  0
VERTEX
  5
F1
100
AcDbEntity
  8
0
370
              18
  6
Continuous
 62
               7
100
AcDbVertex
100
AcDb2dVertex
 10
13.100825457500008
 20
68.301973087699992
 30
0.0
  0
VERTEX
  5
F2
100
AcDbEntity
  8
0
370
              18
  6
Continuous
 62
               7
100
AcDbVertex
100
AcDb2dVertex
 10
11.275067233399994
 20
68.362013485599988
 30
0.0
  0
VERTEX
  5
F3
100
AcDbEntity
  8
0
370
              18
  6
Continuous
 62
               7
100
AcDbVertex
100
AcDb2dVertex
 10
9.4563325308999993
 20
68.285428477700009
 30
0.0
  0
VERTEX
  5
F4
100
AcDbEntity
  8
0
370
              18
  6
Continuous
 62
               7
100
AcDbVertex
100
AcDb2dVertex
 10
8.6893959826000184
 20
68.211830438199996
 30
0.0
  0
SEQEND
  5
F5
100
AcDbEntity
  8
0
370
              18
  6
Continuous
 62
               7
  0
POLYLINE
  5
F6
100
AcDbEntity
  8
0
370
              18
  6
Continuous
 62
               7
100
AcDb2dPolyline
 66
               1
 10
0.0
 20
0.0
 30
0.0
 75
               5
  0
VERTEX
  5
F7
100
AcDbEntity
  8
0
370
              18
  6
Continuous
 62
               7
100
AcDbVertex
100
AcDb2dVertex
 10
-12.403856315500008
 20
54.847747840300002
 30
0.0
  0
VERTEX
  5
F8
100
AcDbEntity
  8
0
370
              18
  6
Continuous
 62
               7
100
AcDbVertex
100
AcDb2dVertex
 10
-13.380465100199984
 20
53.47652501280001
 30
0.0
  0
VERTEX
  5
F9
100
AcDbEntity
  8
0
370
              18
  6
Continuous
 62
               7
100
AcDbVertex
100
AcDb2dVertex
 10
-14.492218976900006
 20
51.728325951699986
 30
0.0
  0
VERTEX
  5
FA
100
AcDbEntity
  8
0
370
              18
  6
Continuous
 62
               7
100
AcDbVertex
100
AcDb2dVertex
 10
-15.521574020399981
 20
49.891260834700006
 30
0.0
  0
VERTEX
  5
FB
100
AcDbEntity
  8
0
370
              18
  6
Continuous
 62
               7
100
AcDbVertex
100
AcDb2dVertex
 10
-16.465093627899989
 20
47.971462884400012
 30
0.0
  0
VERTEX
  5
FC
100
AcDbEntity
  8
0
370
              18
  6
Continuous
 62
               7
100
AcDbVertex
100
AcDb2dVertex
 10
-17.319627766299988
 20
45.975341535000013
 30
0.0
  0
VERTEX
  5
FD
100
AcDbEntity
  8
0
370
              18
  6
Continuous
 62
               7
100
AcDbVertex
100
AcDb2dVertex
 10
-18.082323489299995
 20
43.90956103389999
 30
0.0
  0
VERTEX
  5
FE
100
AcDbEntity
  8
0
370
              18
  6
Continuous
 62
               7
100
AcDbVertex
100
AcDb2dVertex
 10
-18.750634462400001
 20
41.781018192499999
 30
0.0
  0
VERTEX
  5
FF
100
AcDbEntity
  8
0
370
              18
  6
Continuous
 62
               7
100
AcDbVertex
100
AcDb2dVertex
 10
-19.322329463499983
 20
39.596819360300003
 30
0.0
  0
VERTEX
  5
100
100
AcDbEntity
  8
0
370
              18
  6
Continuous
 62
               7
100
AcDbVertex
100
AcDb2dVertex
 10
-19.795499832699988
 20
37.364256699900011
 30
0.0
  0
VERTEX
  5
101
100
AcDbEntity
  8
0
370
              18
  6
Continuous
 62
               7
100
AcDbVertex
100
AcDb2dVertex
 10
-20.168565844200003
 20
35.090783841300009
 30
0.0
  0
VERTEX
  5
102
100
AcDbEntity
  8
0
370
              18
  6
Continuous
 62
               7
100
AcDbVertex
100
AcDb2dVertex
 10
-20.440281980399988
 20
32.783990997100005
 30
0.0
  0
VERTEX
  5
103
100
AcDbEntity
  8
0
370
              18
  6
Continuous
 62
               7
100
AcDbVertex
100
AcDb2dVertex
 10
-20.609741090400007
 20
30.451579622200001
 30
0.0
  0
VERTEX
  5
104
100
AcDbEntity
  8
0
370
              18
  6
Continuous
 62
               7
100
AcDbVertex
100
AcDb2dVertex
 10
-20.676377418100003
 20
28.101336701200012
 30
0.0
  0
VERTEX
  5
105
100
AcDbEntity
  8
0
370
              18
  6
Continuous
 62
               7
100
AcDbVertex
100
AcDb2dVertex
 10
-20.639968491800005
 20
25.741108751199988
 30
0.0
  0
VERTEX
  5
106
100
AcDbEntity
  8
0
370
              18
  6
Continuous
 62
               7
100
AcDbVertex
100
AcDb2dVertex
 10
-20.500635865999982
 20
23.37877562540001
 30
0.0
  0
VERTEX
  5
107
100
AcDbEntity
  8
0
370
              18
  6
Continuous
 62
               7
100
AcDbVertex
100
AcDb2dVertex
 10
-20.258844716599981
 20
21.022224205100002
 30
0.0
  0
VERTEX
  5
108
100
AcDbEntity
  8
0
370
              18
  6
Continuous
 62
               7
100
AcDbVertex
100
AcDb2dVertex
 10
-19.915402287000006
 20
18.679322068999994
 30
0.0
  0
VERTEX
  5
109
100
AcDbEntity
  8
0
370
              18
  6
Continuous
 62
               7
100
AcDbVertex
100
AcDb2dVertex
 10
-19.471455193600008
 20
16.357891226300012
 30
0.0
  0
VERTEX
  5
10A
100
AcDbEntity
  8
0
370
              18
  6
Continuous
 62
               7
100
AcDbVertex
100
AcDb2dVertex
 10
-18.928485597399998
 20
14.065682002100004
 30
0.0
  0
VERTEX
  5
10B
100
AcDbEntity
  8
0
370
              18
  6
Continuous
 62
               7
100
AcDbVertex
100
AcDb2dVertex
 10
-18.288306255799995
 20
11.810347162200003
 30
0.0
  0
VERTEX
  5
10C
100
AcDbEntity
  8
0
370
              18
  6
Continuous
 62
               7
100
AcDbVertex
100
AcDb2dVertex
 10
-17.553054470399985
 20
9.5994163638999908
 30
0.0
  0
VERTEX
  5
10D
100
AcDbEntity
  8
0
370
              18
  6
Continuous
 62
               7
100
AcDbVertex
100
AcDb2dVertex
 10
-16.725184951699987
 20
7.4402710169999864
 30
0.0
  0
VERTEX
  5
10E
100
AcDbEntity
  8
0
370
              18
  6
Continuous
 62
               7
100
AcDbVertex
100
AcDb2dVertex
 10
-15.807461623400002
 20
5.3401196405000064
 30
0.0
  0
VERTEX
  5
10F
100
AcDbEntity
  8
0
370
              18
  6
Continuous
 62
               7
100
AcDbVertex
100
AcDb2dVertex
 10
-14.802948395199991
 20
3.3059737963999964
 30
0.0
  0
VERTEX
  5
110
100
AcDbEntity
  8
0
370
              18
  6
Continuous
 62
               7
100
AcDbVertex
100
AcDb2dVertex
 10
-13.714998933099992
 20
1.3446246805000044
 30
0.0
  0
VERTEX
  5
111
100
AcDbEntity
  8
0
370
              18
  6
Continuous
 62
               7
100
AcDbVertex
100
AcDb2dVertex
 10
-12.547245463499991
 20
-0.5373795502999883
 30
0.0
  0
VERTEX
  5
112
100
AcDbEntity
  8
0
370
              18
  6
Continuous
 62
               7
100
AcDbVertex
100
AcDb2dVertex
 10
-11.303586646100001
 20
-2.3337556397000014
 30
0.0
  0
VERTEX
  5
113
100
AcDbEntity
  8
0
370
              18
  6
Continuous
 62
               7
100
AcDbVertex
100
AcDb2dVertex
 10
-9.9881745582999883
 20
-4.0385062096000013
 30
0.0
  0
VERTEX
  5
114
100
AcDbEntity
  8
0
370
              18
  6
Continuous
 62
               7
100
AcDbVertex
100
AcDb2dVertex
 10
-8.6054008324999813
 20
-5.6459397826000099
 30
0.0
  0
VERTEX
  5
115
100
AcDbEntity
  8
0
370
              18
  6
Continuous
 62
               7
100
AcDbVertex
100
AcDb2dVertex
 10
-7.1598819948999903
 20
-7.1506897836000007
 30
0.0
  0
VERTEX
  5
116
100
AcDbEntity
  8
0
370
              18
  6
Continuous
 62
               7
100
AcDbVertex
100
AcDb2dVertex
 10
-5.656444052300003
 20
-8.5477324567000039
 30
0.0
  0
VERTEX
  5
117
100
AcDbEntity
  8
0
370
              18
  6
Continuous
 62
               7
100
AcDbVertex
100
AcDb2dVertex
 10
-4.1001063798999837
 20
-9.832403637699997
 30
0.0
  0
VERTEX
  5
118
100
AcDbEntity
  8
0
370
              18
  6
Continuous
 62
               7
100
AcDbVertex
100
AcDb2dVertex
 10
-2.4960649642999897
 20
-11.000414325399987
 30
0.0
  0
VERTEX
  5
119
100
AcDbEntity
  8
0
370
              18
  6
Continuous
 62
               7
100
AcDbVertex
100
AcDb2dVertex
 10
-0.849675055299997
 20
-12.047865001399998
 30
0.0
  0
VERTEX
  5
11A
100
AcDbEntity
  8
0
370
              18
  6
Continuous
 62
               7
100
AcDbVertex
100
AcDb2dVertex
 10
0.8335667123000121
 20
-12.971258648499997
 30
0.0
  0
VERTEX
  5
11B
100
AcDbEntity
  8
0
370
              18
  6
Continuous
 62
               7
100
AcDbVertex
100
AcDb2dVertex
 10
2.5480406705000007
 20
-13.767512426299987
 30
0.0
  0
VERTEX
  5
11C
100
AcDbEntity
  8
0
370
              18
  6
Continuous
 62
               7
100
AcDbVertex
100
AcDb2dVertex
 10
4.2880228794000175
 20
-14.43396796319999
 30
0.0
  0
VERTEX
  5
11D
100
AcDbEntity
  8
0
370
              18
  6
Continuous
 62
               7
100
AcDbVertex
100
AcDb2dVertex
 10
6.0477042372000085
 20
-14.968400231999993
 30
0.0
  0
VERTEX
  5
11E
100
AcDbEntity
  8
0
370
              18
  6
Continuous
 62
               7
100
AcDbVertex
100
AcDb2dVertex
 10
6.3853847802000132
 20
-15.0552617285
 30
0.0
  0
SEQEND
  5
11F
100
AcDbEntity
  8
0
370
              18
  6
Continuous
 62
               7
  0
POLYLINE
  5
120
100
AcDbEntity
  8
0
370
              18
  6
Continuous
 62
               7
100
AcDb2dPolyline
 66
               1
 10
0.0
 20
0.0
 30
0.0
 75
               5
  0
VERTEX
  5
121
100
AcDbEntity
  8
0
370
              18
  6
Continuous
 62
               7
100
AcDbVertex
100
AcDb2dVertex
 10
-10.453901231399982
 20
53.433346090399993
 30
0.0
  0
VERTEX
  5
122
100
AcDbEntity
  8
0
370
              18
  6
Continuous
 62
               7
100
AcDbVertex
100
AcDb2dVertex
 10
-11.144371166799999
 20
52.335751277199989
 30
0.0
  0
VERTEX
  5
123
100
AcDbEntity
  8
0
370
              18
  6
Continuous
 62
               7
100
AcDbVertex
100
AcDb2dVertex
 10
-12.181954590700002
 20
50.508228942300008
 30
0.0
  0
VERTEX
  5
124
100
AcDbEntity
  8
0
370
              18
  6
Continuous
 62
               7
100
AcDbVertex
100
AcDb2dVertex
 10
-13.134293122999992
 20
48.597563589900005
 30
0.0
  0
VERTEX
  5
125
100
AcDbEntity
  8
0
370
              18
  6
Continuous
 62
               7
100
AcDbVertex
100
AcDb2dVertex
 10
-13.998223190700003
 20
46.610102258300003
 30
0.0
  0
VERTEX
  5
126
100
AcDbEntity
  8
0
370
              18
  6
Continuous
 62
               7
100
AcDbVertex
100
AcDb2dVertex
 10
-14.770874905099987
 20
44.552447094200005
 30
0.0
  0
VERTEX
  5
127
100
AcDbEntity
  8
0
370
              18
  6
Continuous
 62
               7
100
AcDbVertex
100
AcDb2dVertex
 10
-15.449681594899999
 20
42.431433421000008
 30
0.0
  0
VERTEX
  5
128
100
AcDbEntity
  8
0
370
              18
  6
Continuous
 62
               7
100
AcDbVertex
100
AcDb2dVertex
 10
-16.032388332500005
 20
40.254107032900009
 30
0.0
  0
VERTEX
  5
129
100
AcDbEntity
  8
0
370
              18
  6
Continuous
 62
               7
100
AcDbVertex
100
AcDb2dVertex
 10
-16.517059424799982
 20
38.027700789199997
 30
0.0
  0
VERTEX
  5
12A
100
AcDbEntity
  8
0
370
              18
  6
Continuous
 62
               7
100
AcDbVertex
100
AcDb2dVertex
 10
-16.902084843199987
 20
35.759610587600008
 30
0.0
  0
VERTEX
  5
12B
100
AcDbEntity
  8
0
370
              18
  6
Continuous
 62
               7
100
AcDbVertex
100
AcDb2dVertex
 10
-17.186185571799996
 20
33.457370795499997
 30
0.0
  0
VERTEX
  5
12C
100
AcDbEntity
  8
0
370
              18
  6
Continuous
 62
               7
100
AcDbVertex
100
AcDb2dVertex
 10
-17.368417856700006
 20
31.128629222099988
 30
0.0
  0
VERTEX
  5
12D
100
AcDbEntity
  8
0
370
              18
  6
Continuous
 62
               7
100
AcDbVertex
100
AcDb2dVertex
 10
-17.448176340499998
 20
28.781121712700013
 30
0.0
  0
VERTEX
  5
12E
100
AcDbEntity
  8
0
370
              18
  6
Continuous
 62
               7
100
AcDbVertex
100
AcDb2dVertex
 10
-17.425196073600006
 20
26.422646450999991
 30
0.0
  0
VERTEX
  5
12F
100
AcDbEntity
  8
0
370
              18
  6
Continuous
 62
               7
100
AcDbVertex
100
AcDb2dVertex
 10
-17.299553394100002
 20
24.061038054899996
 30
0.0
  0
VERTEX
  5
130
100
AcDbEntity
  8
0
370
              18
  6
Continuous
 62
               7
100
AcDbVertex
100
AcDb2dVertex
 10
-17.071665674399981
 20
21.704141549799999
 30
0.0
  0
VERTEX
  5
131
100
AcDbEntity
  8
0
370
              18
  6
Continuous
 62
               7
100
AcDbVertex
100
AcDb2dVertex
 10
-16.742289934500008
 20
19.359786308999986
 30
0.0
  0
VERTEX
  5
132
100
AcDbEntity
  8
0
370
              18
  6
Continuous
 62
               7
100
AcDbVertex
100
AcDb2dVertex
 10
-16.312520327499982
 20
17.035760044699998
 30
0.0
  0
VERTEX
  5
133
100
AcDbEntity
  8
0
370
              18
  6
Continuous
 62
               7
100
AcDbVertex
100
AcDb2dVertex
 10
-15.783784504899984
 20
14.739782938500014
 30
0.0
  0
VERTEX
  5
134
100
AcDbEntity
  8
0
370
              18
  6
Continuous
 62
               7
100
AcDbVertex
100
AcDb2dVertex
 10
-15.157838873799989
 20
12.479481995500009
 30
0.0
  0
VERTEX
  5
135
100
AcDbEntity
  8
0
370
              18
  6
Continuous
 62
               7
100
AcDbVertex
100
AcDb2dVertex
 10
-14.436762762799987
 20
10.262365708099992
 30
0.0
  0
VERTEX
  5
136
100
AcDbEntity
  8
0
370
              18
  6
Continuous
 62
               7
100
AcDbVertex
100
AcDb2dVertex
 10
-13.622951514099981
 20
8.0957991136000089
 30
0.0
  0
VERTEX
  5
137
100
AcDbEntity
  8
0
370
              18
  6
Continuous
 62
               7
100
AcDbVertex
100
AcDb2dVertex
 10
-12.719108526799999
 20
5.9869793283999968
 30
0.0
  0
VERTEX
  5
138
100
AcDbEntity
  8
0
370
              18
  6
Continuous
 62
               7
100
AcDbVertex
100
AcDb2dVertex
 10
-11.728236276499985
 20
3.9429116396999859
 30
0.0
  0
VERTEX
  5
139
100
AcDbEntity
  8
0
370
              18
  6
Continuous
 62
               7
100
AcDbVertex
100
AcDb2dVertex
 10
-10.653626341099994
 20
1.970386234800003
 30
0.0
  0
VERTEX
  5
13A
100
AcDbEntity
  8
0
370
              18
  6
Continuous
 62
               7
100
AcDbVertex
100
AcDb2dVertex
 10
-9.4988484669000002
 20
0.0759556447999898
 30
0.0
  0
VERTEX
  5
13B
100
AcDbEntity
  8
0
370
              18
  6
Continuous
 62
               7
100
AcDbVertex
100
AcDb2dVertex
 10
-8.2677387095999961
 20
-1.734087022500006
 30
0.0
  0
VERTEX
  5
13C
100
AcDbEntity
  8
0
370
              18
  6
Continuous
 62
               7
100
AcDbVertex
100
AcDb2dVertex
 10
-6.9643866921999802
 20
-3.4537289872999963
 30
0.0
  0
VERTEX
  5
13D
100
AcDbEntity
  8
0
370
              18
  6
Continuous
 62
               7
100
AcDbVertex
100
AcDb2dVertex
 10
-5.593122018999992
 20
-5.0772577719999958
 30
0.0
  0
VERTEX
  5
13E
100
AcDbEntity
  8
0
370
              18
  6
Continuous
 62
               7
100
AcDbVertex
100
AcDb2dVertex
 10
-4.1584998932000019
 20
-6.5992801772000007
 30
0.0
  0
VERTEX
  5
13F
100
AcDbEntity
  8
0
370
              18
  6
Continuous
 62
               7
100
AcDbVertex
100
AcDb2dVertex
 10
-2.6652859854999917
 20
-8.0147401975000037
 30
0.0
  0
VERTEX
  5
140
100
AcDbEntity
  8
0
370
              18
  6
Continuous
 62
               7
100
AcDbVertex
100
AcDb2dVertex
 10
-1.1184406020999802
 20
-9.3189358172000141
 30
0.0
  0
VERTEX
  5
141
100
AcDbEntity
  8
0
370
              18
  6
Continuous
 62
               7
100
AcDbVertex
100
AcDb2dVertex
 10
0.4768977922000204
 20
-10.507534629499986
 30
0.0
  0
VERTEX
  5
142
100
AcDbEntity
  8
0
370
              18
  6
Continuous
 62
               7
100
AcDbVertex
100
AcDb2dVertex
 10
2.1154296434999935
 20
-11.576588228600002
 30
0.0
  0
VERTEX
  5
143
100
AcDbEntity
  8
0
370
              18
  6
Continuous
 62
               7
100
AcDbVertex
100
AcDb2dVertex
 10
3.7917119139000022
 20
-12.522545326099987
 30
0.0
  0
VERTEX
  5
144
100
AcDbEntity
  8
0
370
              18
  6
Continuous
 62
               7
100
AcDbVertex
100
AcDb2dVertex
 10
5.5001761622999936
 20
-13.342263547699986
 30
0.0
  0
VERTEX
  5
145
100
AcDbEntity
  8
0
370
              18
  6
Continuous
 62
               7
100
AcDbVertex
100
AcDb2dVertex
 10
6.4304124655000123
 20
-13.729975384900001
 30
0.0
  0
SEQEND
  5
146
100
AcDbEntity
  8
0
370
              18
  6
Continuous
 62
               7
  0
ARC
  5
147
100
AcDbEntity
  8
0
370
              18
  6
Continuous
 62
               7
100
AcDbCircle
 10
8.8677287126000124
 20
4.7711895253000023
 30
0.0
 40
23.888124311676606
100
AcDbArc
 50
260.15082973260002
 51
275.25737178629998
  0
LINE
  5
148
100
AcDbEntity
  8
0
370
              18
  6
Continuous
 62
               7
100
AcDbLine
 10
11.056591334800004
 20
-19.016440948299987
 30
0.0
 11
15.005897334899998
 21
-18.573738284400008
 31
0.0
  0
LINE
  5
149
100
AcDbEntity
  8
0
370
              18
  6
Continuous
 62
               7
100
AcDbLine
 10
15.038468012099997
 20
-17.61509532209999
 30
0.0
 11
15.005897334899998
 21
-18.573738284400008
 31
0.0
  0
LINE
  5
14A
100
AcDbEntity
  8
0
370
              18
  6
Continuous
 62
               8
100
AcDbLine
 10
11.089162012000003
 20
-18.057797986100013
 30
0.0
 11
11.056591334800004
 21
-19.016440948299987
 31
0.0
  0
ENDBLK
  5
14B
100
AcDbEntity
  8
一般
100
AcDbBlockEnd
  0
ENDSEC
  0
SECTION
  2
ENTITIES
  0
INSERT
  5
14C
100
AcDbEntity
  8
一般
 62
               7
100
AcDbBlockReference
  2
*U0
 10
210.0
 20
148.5
 30
0.0
  0
MTEXT
  5
14D
100
AcDbEntity
  8
0
 62
               7
100
AcDbMText
 10
263.0
 20
97.83035910307899
 30
0.0
 40
2.910416666666666
 41
0.0
 71
               1
 72
               1
  1
HEC-085C\PHEC-085S
  7
ＭＳ Ｐゴシック
 73
               1
 44
1.0117138873126679
  0
ENDSEC
  0
SECTION
  2
OBJECTS
  0
DICTIONARY
  5
19
100
AcDbDictionary
280
               0
281
               1
  3
ACAD_GROUP
350
1A
  3
ACAD_MLINESTYLE
350
1B
  3
ACAD_LAYOUT
350
1E
  3
ACAD_PLOTSETTINGS
350
22
  3
ACAD_PLOTSTYLENAME
350
1F
  3
ACAD_WIPEOUT_VARS
350
23
  0
DICTIONARY
  5
1A
102
{ACAD_REACTORS
330
19
102
}
100
AcDbDictionary
280
               0
281
               1
  0
DICTIONARY
  5
1B
102
{ACAD_REACTORS
330
19
102
}
100
AcDbDictionary
280
               0
281
               1
  3
Standard
350
1C
  0
MLINESTYLE
  5
1C
102
{ACAD_REACTORS
330
1B
102
}
100
AcDbMlineStyle
  2
Standard
 70
               0
  3

 62
               0
 51
90.0
 52
90.0
 71
               2
 49
0.5
 62
             256
  6
ByLayer
 49
-0.5
 62
             256
  6
ByLayer
  0
ACDBDICTIONARYWDFLT
  5
1F
102
{ACAD_REACTORS
330
19
102
}
100
AcDbDictionary
281
               1
  3
Normal
350
1D
100
AcDbDictionaryWithDefault
340
1D
  0
ACDBPLACEHOLDER
  5
1D
102
{ACAD_REACTORS
330
1F
102
}
  0
LAYOUT
  5
20
102
{ACAD_REACTORS
330
1E
102
}
100
AcDbPlotSettings
  1

  2

  4

  6

 40
0.0
 41
0.0
 42
0.0
 43
0.0
 44
0.0
 45
0.0
 46
0.0
 47
0.0
 48
0.0
 49
0.0
140
0.0
141
0.0
142
1.0
143
1.0
 70
            1024
 72
               0
 73
               0
 74
               0
  7

 75
               0
147
1.0
148
0.0
149
0.0
100
AcDbLayout
  1
Model
 70
               0
 71
               0
 10
0.0
 20
0.0
 11
0.0
 21
0.0
 12
0.0
 22
0.0
 32
0.0
 14
0.0
 24
0.0
 34
0.0
 15
0.0
 25
0.0
 35
0.0
146
0.0
 13
0.0
 23
0.0
 33
0.0
 16
0.0
 26
0.0
 36
0.0
 17
0.0
 27
0.0
 37
0.0
 76
               0
330
A
331
0
345
0
346
0
  0
LAYOUT
  5
21
102
{ACAD_REACTORS
330
1E
102
}
100
AcDbPlotSettings
  1

  2

  4

  6

 40
0.0
 41
0.0
 42
0.0
 43
0.0
 44
0.0
 45
0.0
 46
0.0
 47
0.0
 48
0.0
 49
0.0
140
0.0
141
0.0
142
1.0
143
1.0
 70
               0
 72
               0
 73
               0
 74
               0
  7

 75
               0
147
1.0
148
0.0
149
0.0
100
AcDbLayout
  1
Layout1
 70
               0
 71
               0
 10
0.0
 20
0.0
 11
0.0
 21
0.0
 12
0.0
 22
0.0
 32
0.0
 14
0.0
 24
0.0
 34
0.0
 15
0.0
 25
0.0
 35
0.0
146
0.0
 13
0.0
 23
0.0
 33
0.0
 16
0.0
 26
0.0
 36
0.0
 17
0.0
 27
0.0
 37
0.0
 76
               0
330
B
331
0
345
0
346
0
  0
DICTIONARY
  5
1E
102
{ACAD_REACTORS
330
19
102
}
100
AcDbDictionary
280
               0
281
               1
  3
Layout1
350
21
  3
Model
350
20
  0
DICTIONARY
  5
22
102
{ACAD_REACTORS
330
19
102
}
100
AcDbDictionary
280
               0
281
               1
  0
WIPEOUTVARIABLES
  5
23
100
AcDbWipeoutVariables
 70
               1
  0
ENDSEC
  0
EOF
