  0
SECTION
  2
HEADER
  9
$ACADVER
  1
AC1027
  9
$ACADMAINTVER
 70
   105
  9
$DWGCODEPAGE
  3
DOS932
  9
$REQUIREDVERSIONS
160
                 0
  9
$INSBASE
 10
0.0
 20
0.0
 30
0.0
  9
$EXTMIN
 10
0.0
 20
0.0
 30
0.0
  9
$EXTMAX
 10
210.0
 20
297.0
 30
0.0
  9
$LIMMIN
 10
0.0
 20
0.0
  9
$LIMMAX
 10
210.0
 20
297.0
  9
$ORTHOMODE
 70
     0
  9
$REGENMODE
 70
     1
  9
$FILLMODE
 70
     1
  9
$QTEXTMODE
 70
     0
  9
$MIRRTEXT
 70
     1
  9
$LTSCALE
 40
1.0
  9
$ATTMODE
 70
     1
  9
$TEXTSIZE
 40
3.5
  9
$TRACEWID
 40
1.0
  9
$TEXTSTYLE
  7
STANDARD
  9
$CLAYER
  8
0
  9
$CELTYPE
  6
ByLayer
  9
$CECOLOR
 62
   256
  9
$CELTSCALE
 40
1.0
  9
$DISPSILH
 70
     0
  9
$DIMSCALE
 40
1.0
  9
$DIMASZ
 40
3.302
  9
$DIMEXO
 40
1.0
  9
$DIMDLI
 40
3.75
  9
$DIMRND
 40
0.0
  9
$DIMDLE
 40
0.0
  9
$DIMEXE
 40
1.0
  9
$DIMTP
 40
0.0
  9
$DIMTM
 40
0.0
  9
$DIMTXT
 40
3.5
  9
$DIMCEN
 40
2.5
  9
$DIMTSZ
 40
0.0
  9
$DIMTOL
 70
     0
  9
$DIMLIM
 70
     0
  9
$DIMTIH
 70
     1
  9
$DIMTOH
 70
     1
  9
$DIMSE1
 70
     0
  9
$DIMSE2
 70
     0
  9
$DIMTAD
 70
     1
  9
$DIMZIN
 70
     1
  9
$DIMBLK
  1

  9
$DIMASO
 70
     1
  9
$DIMSHO
 70
     1
  9
$DIMPOST
  1

  9
$DIMAPOST
  1

  9
$DIMALT
 70
     0
  9
$DIMALTD
 70
     3
  9
$DIMALTF
 40
0.0393700787
  9
$DIMLFAC
 40
2.0
  9
$DIMTOFL
 70
     1
  9
$DIMTVP
 40
0.0
  9
$DIMTIX
 70
     0
  9
$DIMSOXD
 70
     0
  9
$DIMSAH
 70
     0
  9
$DIMBLK1
  1

  9
$DIMBLK2
  1

  9
$DIMSTYLE
  2
ISO-25
  9
$DIMCLRD
 70
     0
  9
$DIMCLRE
 70
     0
  9
$DIMCLRT
 70
     0
  9
$DIMTFAC
 40
1.0
  9
$DIMGAP
 40
1.524
  9
$DIMJUST
 70
     0
  9
$DIMSD1
 70
     0
  9
$DIMSD2
 70
     0
  9
$DIMTOLJ
 70
     0
  9
$DIMTZIN
 70
     1
  9
$DIMALTZ
 70
     0
  9
$DIMALTTZ
 70
     0
  9
$DIMUPT
 70
     0
  9
$DIMDEC
 70
     2
  9
$DIMTDEC
 70
     2
  9
$DIMALTU
 70
     2
  9
$DIMALTTD
 70
     3
  9
$DIMTXSTY
  7
STANDARD
  9
$DIMAUNIT
 70
     0
  9
$DIMADEC
 70
     2
  9
$DIMALTRND
 40
0.0
  9
$DIMAZIN
 70
     0
  9
$DIMDSEP
 70
    44
  9
$DIMATFIT
 70
     3
  9
$DIMFRAC
 70
     0
  9
$DIMLDRBLK
  1

  9
$DIMLUNIT
 70
     2
  9
$DIMLWD
 70
    -2
  9
$DIMLWE
 70
    -2
  9
$DIMTMOVE
 70
     0
  9
$DIMFXL
 40
1.0
  9
$DIMFXLON
 70
     0
  9
$DIMJOGANG
 40
0.7853981634
  9
$DIMTFILL
 70
     0
  9
$DIMTFILLCLR
 70
     0
  9
$DIMARCSYM
 70
     0
  9
$DIMLTYPE
  6

  9
$DIMLTEX1
  6

  9
$DIMLTEX2
  6

  9
$DIMTXTDIRECTION
 70
     0
  9
$LUNITS
 70
     2
  9
$LUPREC
 70
     2
  9
$SKETCHINC
 40
1.0
  9
$FILLETRAD
 40
10.0
  9
$AUNITS
 70
     0
  9
$AUPREC
 70
     2
  9
$MENU
  1
.
  9
$ELEVATION
 40
0.0
  9
$PELEVATION
 40
0.0
  9
$THICKNESS
 40
0.0
  9
$LIMCHECK
 70
     0
  9
$CHAMFERA
 40
0.0
  9
$CHAMFERB
 40
0.0
  9
$CHAMFERC
 40
0.0
  9
$CHAMFERD
 40
0.0
  9
$SKPOLY
 70
     0
  9
$TDCREATE
 40
2458612.586162164
  9
$TDUCREATE
 40
2458612.211162164
  9
$TDUPDATE
 40
2458612.586162558
  9
$TDUUPDATE
 40
2458612.211162558
  9
$TDINDWG
 40
0.0000000116
  9
$TDUSRTIMER
 40
0.0000000116
  9
$USRTIMER
 70
     1
  9
$ANGBASE
 50
0.0
  9
$ANGDIR
 70
     0
  9
$PDMODE
 70
     0
  9
$PDSIZE
 40
-1.0
  9
$PLINEWID
 40
0.0
  9
$SPLFRAME
 70
     0
  9
$SPLINETYPE
 70
     6
  9
$SPLINESEGS
 70
     8
  9
$HANDSEED
  5
19B
  9
$SURFTAB1
 70
     6
  9
$SURFTAB2
 70
     6
  9
$SURFTYPE
 70
     6
  9
$SURFU
 70
     6
  9
$SURFV
 70
     6
  9
$UCSBASE
  2

  9
$UCSNAME
  2

  9
$UCSORG
 10
0.0
 20
0.0
 30
0.0
  9
$UCSXDIR
 10
1.0
 20
0.0
 30
0.0
  9
$UCSYDIR
 10
0.0
 20
1.0
 30
0.0
  9
$UCSORTHOREF
  2

  9
$UCSORTHOVIEW
 70
     0
  9
$UCSORGTOP
 10
0.0
 20
0.0
 30
0.0
  9
$UCSORGBOTTOM
 10
0.0
 20
0.0
 30
0.0
  9
$UCSORGLEFT
 10
0.0
 20
0.0
 30
0.0
  9
$UCSORGRIGHT
 10
0.0
 20
0.0
 30
0.0
  9
$UCSORGFRONT
 10
0.0
 20
0.0
 30
0.0
  9
$UCSORGBACK
 10
0.0
 20
0.0
 30
0.0
  9
$PUCSBASE
  2

  9
$PUCSNAME
  2

  9
$PUCSORG
 10
0.0
 20
0.0
 30
0.0
  9
$PUCSXDIR
 10
1.0
 20
0.0
 30
0.0
  9
$PUCSYDIR
 10
0.0
 20
1.0
 30
0.0
  9
$PUCSORTHOREF
  2

  9
$PUCSORTHOVIEW
 70
     0
  9
$PUCSORGTOP
 10
0.0
 20
0.0
 30
0.0
  9
$PUCSORGBOTTOM
 10
0.0
 20
0.0
 30
0.0
  9
$PUCSORGLEFT
 10
0.0
 20
0.0
 30
0.0
  9
$PUCSORGRIGHT
 10
0.0
 20
0.0
 30
0.0
  9
$PUCSORGFRONT
 10
0.0
 20
0.0
 30
0.0
  9
$PUCSORGBACK
 10
0.0
 20
0.0
 30
0.0
  9
$USERI1
 70
     0
  9
$USERI2
 70
     0
  9
$USERI3
 70
     0
  9
$USERI4
 70
     0
  9
$USERI5
 70
     0
  9
$USERR1
 40
0.0
  9
$USERR2
 40
0.0
  9
$USERR3
 40
0.0
  9
$USERR4
 40
0.0
  9
$USERR5
 40
0.0
  9
$WORLDVIEW
 70
     1
  9
$SHADEDGE
 70
     3
  9
$SHADEDIF
 70
    70
  9
$TILEMODE
 70
     1
  9
$MAXACTVP
 70
    64
  9
$PINSBASE
 10
0.0
 20
0.0
 30
0.0
  9
$PLIMCHECK
 70
     0
  9
$PEXTMIN
 10
1.0000000000E+20
 20
1.0000000000E+20
 30
1.0000000000E+20
  9
$PEXTMAX
 10
-1.0000000000E+20
 20
-1.0000000000E+20
 30
-1.0000000000E+20
  9
$PLIMMIN
 10
0.0
 20
0.0
  9
$PLIMMAX
 10
420.0
 20
297.0
  9
$UNITMODE
 70
     0
  9
$VISRETAIN
 70
     1
  9
$PLINEGEN
 70
     0
  9
$PSLTSCALE
 70
     1
  9
$TREEDEPTH
 70
  3020
  9
$CMLSTYLE
  2
Standard
  9
$CMLJUST
 70
     0
  9
$CMLSCALE
 40
20.0
  9
$PROXYGRAPHICS
 70
     1
  9
$MEASUREMENT
 70
     1
  9
$CELWEIGHT
370
    -1
  9
$ENDCAPS
280
     0
  9
$JOINSTYLE
280
     0
  9
$LWDISPLAY
290
     1
  9
$INSUNITS
 70
     4
  9
$HYPERLINKBASE
  1

  9
$STYLESHEET
  1

  9
$XEDIT
290
     1
  9
$CEPSNTYPE
380
     0
  9
$PSTYLEMODE
290
     1
  9
$FINGERPRINTGUID
  2
{263B7955-C701-43AE-8DB4-2A4F04436A5B}
  9
$VERSIONGUID
  2
{FAEB1C32-E019-11D5-929B-00C0DF256EC4}
  9
$EXTNAMES
290
     1
  9
$PSVPSCALE
 40
0.0
  9
$OLESTARTUP
290
     0
  9
$SORTENTS
280
   127
  9
$INDEXCTL
280
     0
  9
$HIDETEXT
280
     1
  9
$XCLIPFRAME
280
     2
  9
$HALOGAP
280
     0
  9
$OBSCOLOR
 70
   257
  9
$OBSLTYPE
280
     0
  9
$INTERSECTIONDISPLAY
280
     0
  9
$INTERSECTIONCOLOR
 70
   257
  9
$DIMASSOC
280
     2
  9
$PROJECTNAME
  1

  9
$CAMERADISPLAY
290
     0
  9
$LENSLENGTH
 40
50.0
  9
$CAMERAHEIGHT
 40
0.0
  9
$STEPSPERSEC
 40
2.0
  9
$STEPSIZE
 40
6.0
  9
$3DDWFPREC
 40
2.0
  9
$PSOLWIDTH
 40
5.0
  9
$PSOLHEIGHT
 40
80.0
  9
$LOFTANG1
 40
1.5707963268
  9
$LOFTANG2
 40
1.5707963268
  9
$LOFTMAG1
 40
0.0
  9
$LOFTMAG2
 40
0.0
  9
$LOFTPARAM
 70
     7
  9
$LOFTNORMALS
280
     1
  9
$LATITUDE
 40
37.795
  9
$LONGITUDE
 40
-122.394
  9
$NORTHDIRECTION
 40
0.0
  9
$TIMEZONE
 70
 -8000
  9
$LIGHTGLYPHDISPLAY
280
     1
  9
$TILEMODELIGHTSYNCH
280
     1
  9
$CMATERIAL
347
44
  9
$SOLIDHIST
280
     0
  9
$SHOWHIST
280
     1
  9
$DWFFRAME
280
     2
  9
$DGNFRAME
280
     2
  9
$REALWORLDSCALE
290
     1
  9
$INTERFERECOLOR
 62
   256
  9
$CSHADOW
280
     0
  9
$SHADOWPLANELOCATION
 40
0.0
  0
ENDSEC
  0
SECTION
  2
CLASSES
  0
CLASS
  1
ACDBDICTIONARYWDFLT
  2
AcDbDictionaryWithDefault
  3
ObjectDBX Classes
 90
        0
 91
        4
280
     0
281
     0
  0
CLASS
  1
VISUALSTYLE
  2
AcDbVisualStyle
  3
ObjectDBX Classes
 90
     4095
 91
        4
280
     0
281
     0
  0
CLASS
  1
MATERIAL
  2
AcDbMaterial
  3
ObjectDBX Classes
 90
     1153
 91
        4
280
     0
281
     0
  0
CLASS
  1
SCALE
  2
AcDbScale
  3
ObjectDBX Classes
 90
     1153
 91
        4
280
     0
281
     0
  0
CLASS
  1
TABLESTYLE
  2
AcDbTableStyle
  3
ObjectDBX Classes
 90
     4095
 91
        4
280
     0
281
     0
  0
CLASS
  1
MLEADERSTYLE
  2
AcDbMLeaderStyle
  3
ACDB_MLEADERSTYLE_CLASS
 90
     4095
 91
        4
280
     0
281
     0
  0
CLASS
  1
SUN
  2
AcDbSun
  3
SCENEOE
 90
     1153
 91
        4
280
     0
281
     0
  0
CLASS
  1
DICTIONARYVAR
  2
AcDbDictionaryVar
  3
ObjectDBX Classes
 90
        0
 91
        4
280
     0
281
     0
  0
CLASS
  1
CELLSTYLEMAP
  2
AcDbCellStyleMap
  3
ObjectDBX Classes
 90
     1152
 91
        4
280
     0
281
     0
  0
ENDSEC
  0
SECTION
  2
TABLES
  0
TABLE
  2
VPORT
  5
8
330
0
100
AcDbSymbolTable
 70
     1
  0
VPORT
  5
29
330
8
100
AcDbSymbolTableRecord
100
AcDbViewportTableRecord
  2
*Active
 70
     0
 10
0.0
 20
0.0
 11
1.0
 21
1.0
 12
105.0
 22
148.5
 13
0.0
 23
0.0
 14
10.0
 24
10.0
 15
10.0
 25
10.0
 16
0.0
 26
0.0
 36
1.0
 17
0.0
 27
0.0
 37
0.0
 40
297.0
 41
0.7070707071
 42
50.0
 43
0.0
 44
0.0
 50
0.0
 51
0.0
 71
     0
 72
  2000
 73
     1
 74
     3
 75
     0
 76
     0
 77
     0
 78
     0
281
     0
 65
     1
110
0.0
120
0.0
130
0.0
111
1.0
121
0.0
131
0.0
112
0.0
122
1.0
132
0.0
 79
     0
146
0.0
348
2F
 60
     3
 61
     5
292
     1
282
     1
141
0.0
142
0.0
 63
   250
361
6D
  0
ENDTAB
  0
TABLE
  2
LTYPE
  5
5
330
0
100
AcDbSymbolTable
 70
     8
  0
LTYPE
  5
14
330
5
100
AcDbSymbolTableRecord
100
AcDbLinetypeTableRecord
  2
ByBlock
 70
     0
  3

 72
    65
 73
     0
 40
0.0
  0
LTYPE
  5
15
330
5
100
AcDbSymbolTableRecord
100
AcDbLinetypeTableRecord
  2
ByLayer
 70
     0
  3

 72
    65
 73
     0
 40
0.0
  0
LTYPE
  5
16
330
5
100
AcDbSymbolTableRecord
100
AcDbLinetypeTableRecord
  2
Continuous
 70
     0
  3
Solid line
 72
    65
 73
     0
 40
0.0
  0
LTYPE
  5
6E
330
5
100
AcDbSymbolTableRecord
100
AcDbLinetypeTableRecord
  2
SLD-実線
 70
     0
  3
SolidWorks Line Style
 72
    65
 73
     0
 40
0.0
  0
LTYPE
  5
6F
330
5
100
AcDbSymbolTableRecord
100
AcDbLinetypeTableRecord
  2
SLD-破線
 70
     0
  3
SolidWorks Line Style
 72
    65
 73
     2
 40
1.905
 49
1.27
 74
     0
 49
-0.635
 74
     0
  0
LTYPE
  5
70
330
5
100
AcDbSymbolTableRecord
100
AcDbLinetypeTableRecord
  2
SLD-2点鎖線
 70
     0
  3
SolidWorks Line Style
 72
    65
 73
     6
 40
12.7
 49
6.35
 74
     0
 49
-1.27
 74
     0
 49
1.27
 74
     0
 49
-1.27
 74
     0
 49
1.27
 74
     0
 49
-1.27
 74
     0
  0
LTYPE
  5
71
330
5
100
AcDbSymbolTableRecord
100
AcDbLinetypeTableRecord
  2
SLD-鎖線
 70
     0
  3
SolidWorks Line Style
 72
    65
 73
     4
 40
10.16
 49
6.35
 74
     0
 49
-1.27
 74
     0
 49
1.27
 74
     0
 49
-1.27
 74
     0
  0
LTYPE
  5
72
330
5
100
AcDbSymbolTableRecord
100
AcDbLinetypeTableRecord
  2
SLD-1点鎖線(中心線)
 70
     0
  3
SolidWorks Line Style
 72
    65
 73
     4
 40
34.29
 49
30.48
 74
     0
 49
-1.27
 74
     0
 49
1.27
 74
     0
 49
-1.27
 74
     0
  0
LTYPE
  5
73
330
5
100
AcDbSymbolTableRecord
100
AcDbLinetypeTableRecord
  2
SLD-点線
 70
     0
  3
SolidWorks Line Style
 72
    65
 73
     2
 40
0.635
 49
0.0
 74
     0
 49
-0.635
 74
     0
  0
LTYPE
  5
74
330
5
100
AcDbSymbolTableRecord
100
AcDbLinetypeTableRecord
  2
SLD-細-太鎖線(切断面)
 70
     0
  3
SolidWorks Line Style
 72
    65
 73
     4
 40
10.16
 49
6.35
 74
     0
 49
-1.27
 74
     0
 49
1.27
 74
     0
 49
-1.27
 74
     0
  0
ENDTAB
  0
TABLE
  2
LAYER
  5
2
330
0
100
AcDbSymbolTable
 70
     3
  0
LAYER
  5
10
330
2
100
AcDbSymbolTableRecord
100
AcDbLayerTableRecord
  2
0
 70
     0
 62
     7
  6
Continuous
370
    -3
390
F
347
46
348
0
  0
LAYER
  5
75
330
2
100
AcDbSymbolTableRecord
100
AcDbLayerTableRecord
  2
SLD-0_0
 70
     0
 62
   179
  6
SLD-実線
370
    -3
390
F
347
46
348
0
  0
LAYER
  5
76
330
2
100
AcDbSymbolTableRecord
100
AcDbLayerTableRecord
  2
SLD-0
 70
     0
 62
   179
  6
SLD-実線
370
    -3
390
F
347
46
348
0
  0
ENDTAB
  0
TABLE
  2
STYLE
  5
3
330
0
100
AcDbSymbolTable
 70
     2
  0
STYLE
  5
11
330
3
100
AcDbSymbolTableRecord
100
AcDbTextStyleTableRecord
  2
STANDARD
 70
     0
 40
0.0
 41
1.0
 50
0.0
 71
     0
 42
3.5
  3
GOTHIC.TTF
  4

1001
ACAD
1000
CENTURY GOTHIC
1071
       34
  0
STYLE
  5
18F
330
3
100
AcDbSymbolTableRecord
100
AcDbTextStyleTableRecord
  2
SLDTEXTSTYLE0
 70
     0
 40
0.0
 41
1.0
 50
0.0
 71
     0
 42
3.5
  3
MS PGOTHIC
  4

1001
ACAD
1000
MS PGOTHIC
1071
      256
  0
ENDTAB
  0
TABLE
  2
VIEW
  5
6
330
0
100
AcDbSymbolTable
 70
     0
  0
ENDTAB
  0
TABLE
  2
UCS
  5
7
330
0
100
AcDbSymbolTable
 70
     0
  0
ENDTAB
  0
TABLE
  2
APPID
  5
9
330
0
100
AcDbSymbolTable
 70
     1
  0
APPID
  5
12
330
9
100
AcDbSymbolTableRecord
100
AcDbRegAppTableRecord
  2
ACAD
 70
     0
  0
ENDTAB
  0
TABLE
  2
DIMSTYLE
  5
A
330
0
100
AcDbSymbolTable
 70
     1
100
AcDbDimStyleTable
  0
DIMSTYLE
105
27
330
A
100
AcDbSymbolTableRecord
100
AcDbDimStyleTableRecord
  2
ISO-25
 70
     0
 41
2.5
 42
0.625
 43
3.75
 44
1.25
 73
     0
 74
     0
 77
     1
 78
     8
140
2.5
141
2.5
143
0.0393700787
147
0.625
171
     3
172
     1
178
     0
271
     2
272
     2
274
     3
278
    44
283
     0
284
     8
340
11
  0
ENDTAB
  0
TABLE
  2
BLOCK_RECORD
  5
1
330
0
100
AcDbSymbolTable
 70
     1
  0
BLOCK_RECORD
  5
1F
330
1
100
AcDbSymbolTableRecord
100
AcDbBlockTableRecord
  2
*Model_Space
340
22
 70
     0
280
     1
281
     0
  0
BLOCK_RECORD
  5
1B
330
1
100
AcDbSymbolTableRecord
100
AcDbBlockTableRecord
  2
*Paper_Space
340
1E
 70
     0
280
     1
281
     0
  0
BLOCK_RECORD
  5
23
330
1
100
AcDbSymbolTableRecord
100
AcDbBlockTableRecord
  2
*Paper_Space0
340
26
 70
     0
280
     1
281
     0
  0
ENDTAB
  0
ENDSEC
  0
SECTION
  2
BLOCKS
  0
BLOCK
  5
20
330
1F
100
AcDbEntity
  8
0
100
AcDbBlockBegin
  2
*Model_Space
 70
     0
 10
0.0
 20
0.0
 30
0.0
  3
*Model_Space
  1

  0
ENDBLK
  5
21
330
1F
100
AcDbEntity
  8
0
100
AcDbBlockEnd
  0
BLOCK
  5
1C
330
1B
100
AcDbEntity
 67
     1
  8
0
100
AcDbBlockBegin
  2
*Paper_Space
 70
     0
 10
0.0
 20
0.0
 30
0.0
  3
*Paper_Space
  1

  0
ENDBLK
  5
1D
330
1B
100
AcDbEntity
 67
     1
  8
0
100
AcDbBlockEnd
  0
BLOCK
  5
24
330
23
100
AcDbEntity
  8
0
100
AcDbBlockBegin
  2
*Paper_Space0
 70
     0
 10
0.0
 20
0.0
 30
0.0
  3
*Paper_Space0
  1

  0
ENDBLK
  5
25
330
23
100
AcDbEntity
  8
0
100
AcDbBlockEnd
  0
ENDSEC
  0
SECTION
  2
ENTITIES
  0
LINE
  5
77
330
1F
100
AcDbEntity
  8
SLD-0
  6
SLD-実線
 62
   208
420
  4194368
370
    25
100
AcDbLine
 10
67.8464573742
 20
143.3527663652
 30
0.0
 11
67.6244640651
 21
143.2579110134
 31
0.0
  0
LINE
  5
78
330
1F
100
AcDbEntity
  8
SLD-0
  6
SLD-実線
 62
   208
420
  4194368
370
    25
100
AcDbLine
 10
71.3179398844
 20
134.6139399138
 30
0.0
 11
71.5399331936
 21
134.7087952656
 31
0.0
  0
LINE
  5
79
330
1F
100
AcDbEntity
  8
SLD-0
  6
SLD-実線
 62
   208
420
  4194368
370
    25
100
AcDbLine
 10
136.4977016744
 20
169.2210720871
 30
0.0
 11
136.4361910554
 21
168.8414999479
 31
0.0
  0
LINE
  5
7A
330
1F
100
AcDbEntity
  8
SLD-0
  6
SLD-実線
 62
   208
420
  4194368
370
    25
100
AcDbLine
 10
137.3699560502
 20
166.6561769277
 30
0.0
 11
137.6867681662
 21
166.4382580247
 31
0.0
  0
LINE
  5
7B
330
1F
100
AcDbEntity
  8
SLD-0
  6
SLD-実線
 62
   208
420
  4194368
370
    25
100
AcDbLine
 10
138.5363068978
 20
166.2717751874
 30
0.0
 11
142.2848186055
 21
167.8734738964
 31
0.0
  0
LINE
  5
7C
330
1F
100
AcDbEntity
  8
SLD-0
  6
SLD-実線
 62
   208
420
  4194368
370
    25
100
AcDbLine
 10
140.7131267675
 20
171.5517594707
 30
0.0
 11
136.9646150598
 21
169.9500607617
 31
0.0
  0
LINE
  5
7D
330
1F
100
AcDbEntity
  8
SLD-0
  6
SLD-実線
 62
   208
420
  4194368
370
    25
100
AcDbLine
 10
59.3700504527
 20
141.1063750802
 30
0.0
 11
83.6330203375
 21
126.0437496171
 31
0.0
  0
LINE
  5
7E
330
1F
100
AcDbEntity
  8
SLD-0
  6
SLD-実線
 62
   208
420
  4194368
370
    25
100
AcDbLine
 10
69.4156876939
 20
137.9635896708
 30
0.0
 11
69.3106757756
 21
137.9537537124
 31
0.0
  0
LINE
  5
7F
330
1F
100
AcDbEntity
  8
SLD-0
  6
SLD-実線
 62
   208
420
  4194368
370
    25
100
AcDbLine
 10
69.2634619623
 20
138.5514582346
 30
0.0
 11
69.4156876939
 21
137.9635896708
 31
0.0
  0
LINE
  5
80
330
1F
100
AcDbEntity
  8
SLD-0
  6
SLD-実線
 62
   208
420
  4194368
370
    25
100
AcDbLine
 10
69.2634619623
 20
138.5514582346
 30
0.0
 11
69.1584500441
 21
138.5416222762
 31
0.0
  0
LINE
  5
81
330
1F
100
AcDbEntity
  8
SLD-0
  6
SLD-実線
 62
   208
420
  4194368
370
    25
100
AcDbLine
 10
67.3675737878
 20
140.3739683653
 30
0.0
 11
67.7350792134
 21
140.3501771457
 31
0.0
  0
LINE
  5
82
330
1F
100
AcDbEntity
  8
SLD-0
  6
SLD-実線
 62
   208
420
  4194368
370
    25
100
AcDbLine
 10
66.7344969247
 20
138.7151759878
 30
0.0
 11
66.7718940786
 21
138.6961208851
 31
0.0
  0
LINE
  5
83
330
1F
100
AcDbEntity
  8
SLD-0
  6
SLD-実線
 62
   208
420
  4194368
370
    25
100
AcDbLine
 10
66.8867226562
 20
138.127307424
 30
0.0
 11
66.7344969247
 21
138.7151759878
 31
0.0
  0
LINE
  5
84
330
1F
100
AcDbEntity
  8
SLD-0
  6
SLD-実線
 62
   208
420
  4194368
370
    25
100
AcDbLine
 10
66.8867226562
 20
138.127307424
 30
0.0
 11
66.9241198102
 21
138.1082523213
 31
0.0
  0
LINE
  5
85
330
1F
100
AcDbEntity
  8
SLD-0
  6
SLD-実線
 62
   208
420
  4194368
370
    25
100
AcDbLine
 10
68.7826108308
 20
136.3047972933
 30
0.0
 11
68.4151054051
 21
136.3285885128
 31
0.0
  0
LINE
  5
86
330
1F
100
AcDbEntity
  8
SLD-0
  6
SLD-実線
 62
   208
420
  4194368
370
    25
100
AcDbLine
 10
72.2437148166
 20
138.7564411424
 30
0.0
 11
72.3920298109
 21
138.0473472444
 31
0.0
  0
LINE
  5
87
330
1F
100
AcDbEntity
  8
SLD-0
  6
SLD-実線
 62
   208
420
  4194368
370
    25
100
AcDbLine
 10
72.3920298109
 20
138.0473472444
 30
0.0
 11
72.4646968984
 21
137.3612670554
 31
0.0
  0
LINE
  5
88
330
1F
100
AcDbEntity
  8
SLD-0
  6
SLD-実線
 62
   208
420
  4194368
370
    25
100
AcDbLine
 10
72.4646968984
 20
137.3612670554
 30
0.0
 11
72.4598340398
 21
136.7159696922
 31
0.0
  0
LINE
  5
89
330
1F
100
AcDbEntity
  8
SLD-0
  6
SLD-実線
 62
   208
420
  4194368
370
    25
100
AcDbLine
 10
72.4598340398
 20
136.7159696922
 30
0.0
 11
72.3775671807
 21
136.1281680173
 31
0.0
  0
LINE
  5
8A
330
1F
100
AcDbEntity
  8
SLD-0
  6
SLD-実線
 62
   208
420
  4194368
370
    25
100
AcDbLine
 10
72.3775671807
 20
136.1281680173
 30
0.0
 11
72.2200269893
 21
135.6130857854
 31
0.0
  0
LINE
  5
8B
330
1F
100
AcDbEntity
  8
SLD-0
  6
SLD-実線
 62
   208
420
  4194368
370
    25
100
AcDbLine
 10
72.2200269893
 20
135.6130857854
 30
0.0
 11
71.9912936739
 21
135.1840633558
 31
0.0
  0
LINE
  5
8C
330
1F
100
AcDbEntity
  8
SLD-0
  6
SLD-実線
 62
   208
420
  4194368
370
    25
100
AcDbLine
 10
71.9912936739
 20
135.1840633558
 30
0.0
 11
71.6972913073
 21
134.852212184
 31
0.0
  0
LINE
  5
8D
330
1F
100
AcDbEntity
  8
SLD-0
  6
SLD-実線
 62
   208
420
  4194368
370
    25
100
AcDbLine
 10
71.6972913073
 20
134.852212184
 30
0.0
 11
71.3456343962
 21
134.6261270411
 31
0.0
  0
LINE
  5
8E
330
1F
100
AcDbEntity
  8
SLD-0
  6
SLD-実線
 62
   208
420
  4194368
370
    25
100
AcDbLine
 10
71.3456343962
 20
134.6261270411
 30
0.0
 11
70.9454306701
 21
134.5116634135
 31
0.0
  0
LINE
  5
8F
330
1F
100
AcDbEntity
  8
SLD-0
  6
SLD-実線
 62
   208
420
  4194368
370
    25
100
AcDbLine
 10
70.9454306701
 20
134.5116634135
 30
0.0
 11
70.5070451951
 21
134.511785849
 31
0.0
  0
LINE
  5
90
330
1F
100
AcDbEntity
  8
SLD-0
  6
SLD-実線
 62
   208
420
  4194368
370
    25
100
AcDbLine
 10
70.5070451951
 20
134.511785849
 30
0.0
 11
70.0418319248
 21
134.6264911767
 31
0.0
  0
LINE
  5
91
330
1F
100
AcDbEntity
  8
SLD-0
  6
SLD-実線
 62
   208
420
  4194368
370
    25
100
AcDbLine
 10
70.0418319248
 20
134.6264911767
 30
0.0
 11
69.7396243241
 21
134.7567488897
 31
0.0
  0
LINE
  5
92
330
1F
100
AcDbEntity
  8
SLD-0
  6
SLD-実線
 62
   208
420
  4194368
370
    25
100
AcDbLine
 10
66.6323141807
 20
142.0043218986
 30
0.0
 11
66.6344080159
 21
142.0111961812
 31
0.0
  0
LINE
  5
93
330
1F
100
AcDbEntity
  8
SLD-0
  6
SLD-実線
 62
   208
420
  4194368
370
    25
100
AcDbLine
 10
66.6344080159
 20
142.0111961812
 30
0.0
 11
66.8281730897
 21
142.484784212
 31
0.0
  0
LINE
  5
94
330
1F
100
AcDbEntity
  8
SLD-0
  6
SLD-実線
 62
   208
420
  4194368
370
    25
100
AcDbLine
 10
66.8281730897
 20
142.484784212
 30
0.0
 11
67.0903912233
 21
142.8664586654
 31
0.0
  0
LINE
  5
95
330
1F
100
AcDbEntity
  8
SLD-0
  6
SLD-実線
 62
   208
420
  4194368
370
    25
100
AcDbLine
 10
67.0903912233
 20
142.8664586654
 30
0.0
 11
67.4142711048
 21
143.1463343734
 31
0.0
  0
LINE
  5
96
330
1F
100
AcDbEntity
  8
SLD-0
  6
SLD-実線
 62
   208
420
  4194368
370
    25
100
AcDbLine
 10
67.4142711048
 20
143.1463343734
 30
0.0
 11
67.7914244153
 21
143.3171627023
 31
0.0
  0
LINE
  5
97
330
1F
100
AcDbEntity
  8
SLD-0
  6
SLD-実線
 62
   208
420
  4194368
370
    25
100
AcDbLine
 10
67.7914244153
 20
143.3171627023
 30
0.0
 11
68.2120830823
 21
143.3745192881
 31
0.0
  0
LINE
  5
98
330
1F
100
AcDbEntity
  8
SLD-0
  6
SLD-実線
 62
   208
420
  4194368
370
    25
100
AcDbLine
 10
68.2120830823
 20
143.3745192881
 30
0.0
 11
68.6653522673
 21
143.3169186253
 31
0.0
  0
LINE
  5
99
330
1F
100
AcDbEntity
  8
SLD-0
  6
SLD-実線
 62
   208
420
  4194368
370
    25
100
AcDbLine
 10
68.6653522673
 20
143.3169186253
 30
0.0
 11
69.1394925363
 21
143.1458525408
 31
0.0
  0
LINE
  5
9A
330
1F
100
AcDbEntity
  8
SLD-0
  6
SLD-実線
 62
   208
420
  4194368
370
    25
100
AcDbLine
 10
69.1394925363
 20
143.1458525408
 30
0.0
 11
69.6222239056
 21
142.8657515564
 31
0.0
  0
LINE
  5
9B
330
1F
100
AcDbEntity
  8
SLD-0
  6
SLD-実線
 62
   208
420
  4194368
370
    25
100
AcDbLine
 10
69.6222239056
 20
142.8657515564
 30
0.0
 11
70.1010438862
 21
142.4838701405
 31
0.0
  0
LINE
  5
9C
330
1F
100
AcDbEntity
  8
SLD-0
  6
SLD-実線
 62
   208
420
  4194368
370
    25
100
AcDbLine
 10
70.1010438862
 20
142.4838701405
 30
0.0
 11
70.5635512922
 21
142.0100988211
 31
0.0
  0
LINE
  5
9D
330
1F
100
AcDbEntity
  8
SLD-0
  6
SLD-実線
 62
   208
420
  4194368
370
    25
100
AcDbLine
 10
70.5635512922
 20
142.0100988211
 30
0.0
 11
70.9977674246
 21
141.4567080265
 31
0.0
  0
LINE
  5
9E
330
1F
100
AcDbEntity
  8
SLD-0
  6
SLD-実線
 62
   208
420
  4194368
370
    25
100
AcDbLine
 10
70.9977674246
 20
141.4567080265
 30
0.0
 11
71.3924463137
 21
140.8380302876
 31
0.0
  0
LINE
  5
9F
330
1F
100
AcDbEntity
  8
SLD-0
  6
SLD-実線
 62
   208
420
  4194368
370
    25
100
AcDbLine
 10
71.3924463137
 20
140.8380302876
 30
0.0
 11
71.7373659836
 21
140.1700890329
 31
0.0
  0
LINE
  5
A0
330
1F
100
AcDbEntity
  8
SLD-0
  6
SLD-実線
 62
   208
420
  4194368
370
    25
100
AcDbLine
 10
71.7373659836
 20
140.1700890329
 30
0.0
 11
72.0235931961
 21
139.4701835901
 31
0.0
  0
LINE
  5
A1
330
1F
100
AcDbEntity
  8
SLD-0
  6
SLD-実線
 62
   208
420
  4194368
370
    25
100
AcDbLine
 10
72.0235931961
 20
139.4701835901
 30
0.0
 11
72.2437148166
 21
138.7564411424
 31
0.0
  0
LINE
  5
A2
330
1F
100
AcDbEntity
  8
SLD-0
  6
SLD-実線
 62
   208
420
  4194368
370
    25
100
AcDbLine
 10
72.4657081258
 20
138.8512964942
 30
0.0
 11
72.61402312
 21
138.1422025962
 31
0.0
  0
LINE
  5
A3
330
1F
100
AcDbEntity
  8
SLD-0
  6
SLD-実線
 62
   208
420
  4194368
370
    25
100
AcDbLine
 10
72.61402312
 20
138.1422025962
 30
0.0
 11
72.6866902076
 21
137.4561224072
 31
0.0
  0
LINE
  5
A4
330
1F
100
AcDbEntity
  8
SLD-0
  6
SLD-実線
 62
   208
420
  4194368
370
    25
100
AcDbLine
 10
72.6866902076
 20
137.4561224072
 30
0.0
 11
72.681827349
 21
136.810825044
 31
0.0
  0
LINE
  5
A5
330
1F
100
AcDbEntity
  8
SLD-0
  6
SLD-実線
 62
   208
420
  4194368
370
    25
100
AcDbLine
 10
72.681827349
 20
136.810825044
 30
0.0
 11
72.5995604898
 21
136.2230233691
 31
0.0
  0
LINE
  5
A6
330
1F
100
AcDbEntity
  8
SLD-0
  6
SLD-実線
 62
   208
420
  4194368
370
    25
100
AcDbLine
 10
72.5995604898
 20
136.2230233691
 30
0.0
 11
72.4420202985
 21
135.7079411372
 31
0.0
  0
LINE
  5
A7
330
1F
100
AcDbEntity
  8
SLD-0
  6
SLD-実線
 62
   208
420
  4194368
370
    25
100
AcDbLine
 10
72.4420202985
 20
135.7079411372
 30
0.0
 11
72.2132869831
 21
135.2789187076
 31
0.0
  0
LINE
  5
A8
330
1F
100
AcDbEntity
  8
SLD-0
  6
SLD-実線
 62
   208
420
  4194368
370
    25
100
AcDbLine
 10
72.2132869831
 20
135.2789187076
 30
0.0
 11
71.9192846164
 21
134.9470675358
 31
0.0
  0
LINE
  5
A9
330
1F
100
AcDbEntity
  8
SLD-0
  6
SLD-実線
 62
   208
420
  4194368
370
    25
100
AcDbLine
 10
71.9192846164
 20
134.9470675358
 30
0.0
 11
71.5676277054
 21
134.7209823929
 31
0.0
  0
LINE
  5
AA
330
1F
100
AcDbEntity
  8
SLD-0
  6
SLD-実線
 62
   208
420
  4194368
370
    25
100
AcDbLine
 10
71.5676277054
 20
134.7209823929
 30
0.0
 11
71.5399331936
 21
134.7087952656
 31
0.0
  0
LINE
  5
AB
330
1F
100
AcDbEntity
  8
SLD-0
  6
SLD-実線
 62
   208
420
  4194368
370
    25
100
AcDbLine
 10
67.8464573742
 20
143.3527663652
 30
0.0
 11
68.0134177245
 21
143.4120180541
 31
0.0
  0
LINE
  5
AC
330
1F
100
AcDbEntity
  8
SLD-0
  6
SLD-実線
 62
   208
420
  4194368
370
    25
100
AcDbLine
 10
68.0134177245
 20
143.4120180541
 30
0.0
 11
68.4340763915
 21
143.4693746399
 31
0.0
  0
LINE
  5
AD
330
1F
100
AcDbEntity
  8
SLD-0
  6
SLD-実線
 62
   208
420
  4194368
370
    25
100
AcDbLine
 10
68.4340763915
 20
143.4693746399
 30
0.0
 11
68.8873455765
 21
143.4117739771
 31
0.0
  0
LINE
  5
AE
330
1F
100
AcDbEntity
  8
SLD-0
  6
SLD-実線
 62
   208
420
  4194368
370
    25
100
AcDbLine
 10
68.8873455765
 20
143.4117739771
 30
0.0
 11
69.3614858455
 21
143.2407078926
 31
0.0
  0
LINE
  5
AF
330
1F
100
AcDbEntity
  8
SLD-0
  6
SLD-実線
 62
   208
420
  4194368
370
    25
100
AcDbLine
 10
69.3614858455
 20
143.2407078926
 30
0.0
 11
69.8442172148
 21
142.9606069082
 31
0.0
  0
LINE
  5
B0
330
1F
100
AcDbEntity
  8
SLD-0
  6
SLD-実線
 62
   208
420
  4194368
370
    25
100
AcDbLine
 10
69.8442172148
 20
142.9606069082
 30
0.0
 11
70.3230371954
 21
142.5787254923
 31
0.0
  0
LINE
  5
B1
330
1F
100
AcDbEntity
  8
SLD-0
  6
SLD-実線
 62
   208
420
  4194368
370
    25
100
AcDbLine
 10
70.3230371954
 20
142.5787254923
 30
0.0
 11
70.7855446014
 21
142.1049541729
 31
0.0
  0
LINE
  5
B2
330
1F
100
AcDbEntity
  8
SLD-0
  6
SLD-実線
 62
   208
420
  4194368
370
    25
100
AcDbLine
 10
70.7855446014
 20
142.1049541729
 30
0.0
 11
71.2197607338
 21
141.5515633783
 31
0.0
  0
LINE
  5
B3
330
1F
100
AcDbEntity
  8
SLD-0
  6
SLD-実線
 62
   208
420
  4194368
370
    25
100
AcDbLine
 10
71.2197607338
 20
141.5515633783
 30
0.0
 11
71.6144396229
 21
140.9328856394
 31
0.0
  0
LINE
  5
B4
330
1F
100
AcDbEntity
  8
SLD-0
  6
SLD-実線
 62
   208
420
  4194368
370
    25
100
AcDbLine
 10
71.6144396229
 20
140.9328856394
 30
0.0
 11
71.9593592928
 21
140.2649443847
 31
0.0
  0
LINE
  5
B5
330
1F
100
AcDbEntity
  8
SLD-0
  6
SLD-実線
 62
   208
420
  4194368
370
    25
100
AcDbLine
 10
71.9593592928
 20
140.2649443847
 30
0.0
 11
72.2455865053
 21
139.5650389419
 31
0.0
  0
LINE
  5
B6
330
1F
100
AcDbEntity
  8
SLD-0
  6
SLD-実線
 62
   208
420
  4194368
370
    25
100
AcDbLine
 10
72.2455865053
 20
139.5650389419
 30
0.0
 11
72.4657081258
 21
138.8512964942
 31
0.0
  0
LINE
  5
B7
330
1F
100
AcDbEntity
  8
SLD-0
  6
SLD-実線
 62
   208
420
  4194368
370
    25
100
AcDbLine
 10
67.7309086102
 20
140.137518072
 30
0.0
 11
67.3675737878
 21
140.3739683653
 31
0.0
  0
LINE
  5
B8
330
1F
100
AcDbEntity
  8
SLD-0
  6
SLD-実線
 62
   208
420
  4194368
370
    25
100
AcDbLine
 10
69.2667569313
 20
138.5387336531
 30
0.0
 11
69.1253466922
 21
138.1717559127
 31
0.0
  0
LINE
  5
B9
330
1F
100
AcDbEntity
  8
SLD-0
  6
SLD-実線
 62
   208
420
  4194368
370
    25
100
AcDbLine
 10
68.5699712481
 20
136.7304852741
 30
0.0
 11
68.4151054051
 21
136.3285885128
 31
0.0
  0
LINE
  5
BA
330
1F
100
AcDbEntity
  8
SLD-0
  6
SLD-実線
 62
   208
420
  4194368
370
    25
100
AcDbLine
 10
68.9126950466
 20
138.5467229014
 30
0.0
 11
66.8867226562
 21
138.127307424
 31
0.0
  0
LINE
  5
BB
330
1F
100
AcDbEntity
  8
SLD-0
  6
SLD-実線
 62
   208
420
  4194368
370
    25
100
AcDbLine
 10
137.8037350994
 20
168.9752389392
 30
0.0
 11
138.0492103033
 21
168.6273189283
 31
0.0
  0
LINE
  5
BC
330
1F
100
AcDbEntity
  8
SLD-0
  6
SLD-実線
 62
   208
420
  4194368
370
    25
100
AcDbLine
 10
138.0492103033
 20
168.6273189283
 30
0.0
 11
138.2437084871
 21
168.2261228872
 31
0.0
  0
LINE
  5
BD
330
1F
100
AcDbEntity
  8
SLD-0
  6
SLD-実線
 62
   208
420
  4194368
370
    25
100
AcDbLine
 10
138.2437084871
 20
168.2261228872
 30
0.0
 11
138.3714725645
 21
167.804153333
 31
0.0
  0
LINE
  5
BE
330
1F
100
AcDbEntity
  8
SLD-0
  6
SLD-実線
 62
   208
420
  4194368
370
    25
100
AcDbLine
 10
138.3714725645
 20
167.804153333
 30
0.0
 11
138.4221518498
 21
167.3955957295
 31
0.0
  0
LINE
  5
BF
330
1F
100
AcDbEntity
  8
SLD-0
  6
SLD-実線
 62
   208
420
  4194368
370
    25
100
AcDbLine
 10
138.4221518498
 20
167.3955957295
 30
0.0
 11
138.3916406088
 21
167.0335489839
 31
0.0
  0
LINE
  5
C0
330
1F
100
AcDbEntity
  8
SLD-0
  6
SLD-実線
 62
   208
420
  4194368
370
    25
100
AcDbLine
 10
138.3916406088
 20
167.0335489839
 30
0.0
 11
138.2824106807
 21
166.7473439704
 31
0.0
  0
LINE
  5
C1
330
1F
100
AcDbEntity
  8
SLD-0
  6
SLD-実線
 62
   208
420
  4194368
370
    25
100
AcDbLine
 10
138.2824106807
 20
166.7473439704
 30
0.0
 11
138.1033112247
 21
166.5601673171
 31
0.0
  0
LINE
  5
C2
330
1F
100
AcDbEntity
  8
SLD-0
  6
SLD-実線
 62
   208
420
  4194368
370
    25
100
AcDbLine
 10
138.1033112247
 20
166.5601673171
 30
0.0
 11
137.8688518135
 21
166.4871829632
 31
0.0
  0
LINE
  5
C3
330
1F
100
AcDbEntity
  8
SLD-0
  6
SLD-実線
 62
   208
420
  4194368
370
    25
100
AcDbLine
 10
137.8688518135
 20
166.4871829632
 30
0.0
 11
137.5980269544
 21
166.534303667
 31
0.0
  0
LINE
  5
C4
330
1F
100
AcDbEntity
  8
SLD-0
  6
SLD-実線
 62
   208
420
  4194368
370
    25
100
AcDbLine
 10
137.5980269544
 20
166.534303667
 30
0.0
 11
137.3127772666
 21
166.6977119893
 31
0.0
  0
LINE
  5
C5
330
1F
100
AcDbEntity
  8
SLD-0
  6
SLD-実線
 62
   208
420
  4194368
370
    25
100
AcDbLine
 10
137.3127772666
 20
166.6977119893
 30
0.0
 11
137.0362119835
 21
166.9641695598
 31
0.0
  0
LINE
  5
C6
330
1F
100
AcDbEntity
  8
SLD-0
  6
SLD-実線
 62
   208
420
  4194368
370
    25
100
AcDbLine
 10
137.0362119835
 20
166.9641695598
 30
0.0
 11
136.7907367795
 21
167.3120895706
 31
0.0
  0
LINE
  5
C7
330
1F
100
AcDbEntity
  8
SLD-0
  6
SLD-実線
 62
   208
420
  4194368
370
    25
100
AcDbLine
 10
136.7907367795
 20
167.3120895706
 30
0.0
 11
136.5962385958
 21
167.7132856117
 31
0.0
  0
LINE
  5
C8
330
1F
100
AcDbEntity
  8
SLD-0
  6
SLD-実線
 62
   208
420
  4194368
370
    25
100
AcDbLine
 10
136.5962385958
 20
167.7132856117
 30
0.0
 11
136.4684745184
 21
168.1352551659
 31
0.0
  0
LINE
  5
C9
330
1F
100
AcDbEntity
  8
SLD-0
  6
SLD-実線
 62
   208
420
  4194368
370
    25
100
AcDbLine
 10
136.4684745184
 20
168.1352551659
 30
0.0
 11
136.4177952331
 21
168.5438127694
 31
0.0
  0
LINE
  5
CA
330
1F
100
AcDbEntity
  8
SLD-0
  6
SLD-実線
 62
   208
420
  4194368
370
    25
100
AcDbLine
 10
136.4177952331
 20
168.5438127694
 30
0.0
 11
136.4483064741
 21
168.905859515
 31
0.0
  0
LINE
  5
CB
330
1F
100
AcDbEntity
  8
SLD-0
  6
SLD-実線
 62
   208
420
  4194368
370
    25
100
AcDbLine
 10
136.4483064741
 20
168.905859515
 30
0.0
 11
136.5575364022
 21
169.1920645285
 31
0.0
  0
LINE
  5
CC
330
1F
100
AcDbEntity
  8
SLD-0
  6
SLD-実線
 62
   208
420
  4194368
370
    25
100
AcDbLine
 10
136.5575364022
 20
169.1920645285
 30
0.0
 11
136.7366358582
 21
169.3792411818
 31
0.0
  0
LINE
  5
CD
330
1F
100
AcDbEntity
  8
SLD-0
  6
SLD-実線
 62
   208
420
  4194368
370
    25
100
AcDbLine
 10
136.7366358582
 20
169.3792411818
 30
0.0
 11
136.9710952693
 21
169.4522255358
 31
0.0
  0
LINE
  5
CE
330
1F
100
AcDbEntity
  8
SLD-0
  6
SLD-実線
 62
   208
420
  4194368
370
    25
100
AcDbLine
 10
136.9710952693
 20
169.4522255358
 30
0.0
 11
137.2419201285
 21
169.4051048319
 31
0.0
  0
LINE
  5
CF
330
1F
100
AcDbEntity
  8
SLD-0
  6
SLD-実線
 62
   208
420
  4194368
370
    25
100
AcDbLine
 10
137.2419201285
 20
169.4051048319
 30
0.0
 11
137.5271698163
 21
169.2416965096
 31
0.0
  0
LINE
  5
D0
330
1F
100
AcDbEntity
  8
SLD-0
  6
SLD-実線
 62
   208
420
  4194368
370
    25
100
AcDbLine
 10
137.5271698163
 20
169.2416965096
 30
0.0
 11
137.8037350994
 21
168.9752389392
 31
0.0
  0
LINE
  5
D1
330
1F
100
AcDbEntity
  8
SLD-0
  6
SLD-実線
 62
   208
420
  4194368
370
    25
100
AcDbLine
 10
138.9302536775
 20
166.7224467687
 30
0.0
 11
138.7716570202
 21
166.4476309911
 31
0.0
  0
LINE
  5
D2
330
1F
100
AcDbEntity
  8
SLD-0
  6
SLD-実線
 62
   208
420
  4194368
370
    25
100
AcDbLine
 10
138.7716570202
 20
166.4476309911
 30
0.0
 11
138.5488948624
 21
166.2773256486
 31
0.0
  0
LINE
  5
D3
330
1F
100
AcDbEntity
  8
SLD-0
  6
SLD-実線
 62
   208
420
  4194368
370
    25
100
AcDbLine
 10
138.5488948624
 20
166.2773256486
 30
0.0
 11
138.2759641658
 21
166.2222316545
 31
0.0
  0
LINE
  5
D4
330
1F
100
AcDbEntity
  8
SLD-0
  6
SLD-実線
 62
   208
420
  4194368
370
    25
100
AcDbLine
 10
138.2759641658
 20
166.2222316545
 30
0.0
 11
137.9700141698
 21
166.2858107669
 31
0.0
  0
LINE
  5
D5
330
1F
100
AcDbEntity
  8
SLD-0
  6
SLD-実線
 62
   208
420
  4194368
370
    25
100
AcDbLine
 10
137.9700141698
 20
166.2858107669
 30
0.0
 11
137.6867681662
 21
166.4382580247
 31
0.0
  0
LINE
  5
D6
330
1F
100
AcDbEntity
  8
SLD-0
  6
SLD-実線
 62
   208
420
  4194368
370
    25
100
AcDbLine
 10
136.4977016744
 20
169.2210720871
 30
0.0
 11
136.5187226843
 21
169.3279566288
 31
0.0
  0
LINE
  5
D7
330
1F
100
AcDbEntity
  8
SLD-0
  6
SLD-実線
 62
   208
420
  4194368
370
    25
100
AcDbLine
 10
136.5187226843
 20
169.3279566288
 30
0.0
 11
136.6412199117
 21
169.6489247117
 31
0.0
  0
LINE
  5
D8
330
1F
100
AcDbEntity
  8
SLD-0
  6
SLD-実線
 62
   208
420
  4194368
370
    25
100
AcDbLine
 10
136.6412199117
 20
169.6489247117
 30
0.0
 11
136.8334148348
 21
169.8732541749
 31
0.0
  0
LINE
  5
D9
330
1F
100
AcDbEntity
  8
SLD-0
  6
SLD-実線
 62
   208
420
  4194368
370
    25
100
AcDbLine
 10
136.8334148348
 20
169.8732541749
 30
0.0
 11
137.0832311398
 21
169.9868495732
 31
0.0
  0
LINE
  5
DA
330
1F
100
AcDbEntity
  8
SLD-0
  6
SLD-実線
 62
   208
420
  4194368
370
    25
100
AcDbLine
 10
137.0832311398
 20
169.9868495732
 30
0.0
 11
137.3749719495
 21
169.98257329
 31
0.0
  0
LINE
  5
DB
330
1F
100
AcDbEntity
  8
SLD-0
  6
SLD-実線
 62
   208
420
  4194368
370
    25
100
AcDbLine
 10
137.3749719495
 20
169.98257329
 30
0.0
 11
137.6903061159
 21
169.8606940199
 31
0.0
  0
LINE
  5
DC
330
1F
100
AcDbEntity
  8
SLD-0
  6
SLD-実線
 62
   208
420
  4194368
370
    25
100
AcDbLine
 10
137.6903061159
 20
169.8606940199
 30
0.0
 11
138.0094200336
 21
169.6288698856
 31
0.0
  0
LINE
  5
DD
330
1F
100
AcDbEntity
  8
SLD-0
  6
SLD-実線
 62
   208
420
  4194368
370
    25
100
AcDbLine
 10
138.0094200336
 20
169.6288698856
 30
0.0
 11
138.3122626014
 21
169.3016672501
 31
0.0
  0
LINE
  5
DE
330
1F
100
AcDbEntity
  8
SLD-0
  6
SLD-実線
 62
   208
420
  4194368
370
    25
100
AcDbLine
 10
138.3122626014
 20
169.3016672501
 30
0.0
 11
138.5798051071
 21
168.8996454583
 31
0.0
  0
LINE
  5
DF
330
1F
100
AcDbEntity
  8
SLD-0
  6
SLD-実線
 62
   208
420
  4194368
370
    25
100
AcDbLine
 10
138.5798051071
 20
168.8996454583
 30
0.0
 11
138.7952368712
 21
168.448065018
 31
0.0
  0
LINE
  5
E0
330
1F
100
AcDbEntity
  8
SLD-0
  6
SLD-実線
 62
   208
420
  4194368
370
    25
100
AcDbLine
 10
138.7952368712
 20
168.448065018
 30
0.0
 11
138.9450215235
 21
167.975300389
 31
0.0
  0
LINE
  5
E1
330
1F
100
AcDbEntity
  8
SLD-0
  6
SLD-実線
 62
   208
420
  4194368
370
    25
100
AcDbLine
 10
138.9450215235
 20
167.975300389
 30
0.0
 11
139.0197475435
 21
167.5110571117
 31
0.0
  0
LINE
  5
E2
330
1F
100
AcDbEntity
  8
SLD-0
  6
SLD-実線
 62
   208
420
  4194368
370
    25
100
AcDbLine
 10
139.0197475435
 20
167.5110571117
 30
0.0
 11
139.0147196205
 21
167.0845052985
 31
0.0
  0
LINE
  5
E3
330
1F
100
AcDbEntity
  8
SLD-0
  6
SLD-実線
 62
   208
420
  4194368
370
    25
100
AcDbLine
 10
139.0147196205
 20
167.0845052985
 30
0.0
 11
138.9302536775
 21
166.7224467687
 31
0.0
  0
LINE
  5
E4
330
1F
100
AcDbEntity
  8
SLD-0
  6
SLD-実線
 62
   208
420
  4194368
370
    25
100
AcDbLine
 10
58.7161440618
 20
150.4840398538
 30
0.0
 11
58.7161440618
 21
142.5123839573
 31
0.0
  0
LINE
  5
E5
330
1F
100
AcDbEntity
  8
SLD-0
  6
SLD-実線
 62
   208
420
  4194368
370
    25
100
AcDbLine
 10
61.9086400993
 20
152.7879519542
 30
0.0
 11
58.7161440618
 21
150.4840398538
 31
0.0
  0
LINE
  5
E6
330
1F
100
AcDbEntity
  8
SLD-0
  6
SLD-実線
 62
   208
420
  4194368
370
    25
100
AcDbLine
 10
79.7866179092
 20
141.6891752972
 30
0.0
 11
61.9086400993
 21
152.7879519542
 31
0.0
  0
LINE
  5
E7
330
1F
100
AcDbEntity
  8
SLD-0
  6
SLD-実線
 62
   208
420
  4194368
370
    25
100
AcDbLine
 10
82.9791139466
 20
135.4214143906
 30
0.0
 11
79.7866179092
 21
141.6891752972
 31
0.0
  0
LINE
  5
E8
330
1F
100
AcDbEntity
  8
SLD-0
  6
SLD-実線
 62
   208
420
  4194368
370
    25
100
AcDbLine
 10
82.9791139466
 20
127.4497584941
 30
0.0
 11
82.9791139466
 21
135.4214143906
 31
0.0
  0
LINE
  5
E9
330
1F
100
AcDbEntity
  8
SLD-0
  6
SLD-実線
 62
   208
420
  4194368
370
    25
100
AcDbLine
 10
79.7866179092
 20
141.6891752972
 30
0.0
 11
80.7101648854
 21
142.0837969804
 31
0.0
  0
LINE
  5
EA
330
1F
100
AcDbEntity
  8
SLD-0
  6
SLD-実線
 62
   208
420
  4194368
370
    25
100
AcDbLine
 10
80.7101648854
 20
142.0837969804
 30
0.0
 11
83.9026609229
 21
135.8160360738
 31
0.0
  0
LINE
  5
EB
330
1F
100
AcDbEntity
  8
SLD-0
  6
SLD-実線
 62
   208
420
  4194368
370
    25
100
AcDbLine
 10
83.9026609229
 20
135.8160360738
 30
0.0
 11
82.9791139466
 21
135.4214143906
 31
0.0
  0
LINE
  5
EC
330
1F
100
AcDbEntity
  8
SLD-0
  6
SLD-実線
 62
   208
420
  4194368
370
    25
100
AcDbLine
 10
83.9026609229
 20
127.8443801773
 30
0.0
 11
82.9791139466
 21
127.4497584941
 31
0.0
  0
LINE
  5
ED
330
1F
100
AcDbEntity
  8
SLD-0
  6
SLD-実線
 62
   208
420
  4194368
370
    25
100
AcDbLine
 10
83.9026609229
 20
127.8443801773
 30
0.0
 11
83.9026609229
 21
135.8160360738
 31
0.0
  0
LINE
  5
EE
330
1F
100
AcDbEntity
  8
SLD-0
  6
SLD-実線
 62
   208
420
  4194368
370
    25
100
AcDbLine
 10
62.8321870755
 20
153.1825736374
 30
0.0
 11
61.9086400993
 21
152.7879519542
 31
0.0
  0
LINE
  5
EF
330
1F
100
AcDbEntity
  8
SLD-0
  6
SLD-実線
 62
   208
420
  4194368
370
    25
100
AcDbLine
 10
80.7101648854
 20
142.0837969804
 30
0.0
 11
62.8321870755
 21
153.1825736374
 31
0.0
  0
LINE
  5
F0
330
1F
100
AcDbEntity
  8
SLD-0
  6
SLD-実線
 62
   208
420
  4194368
370
    25
100
AcDbLine
 10
85.0570946432
 20
126.0233055694
 30
0.0
 11
85.0570946432
 21
127.0519063302
 31
0.0
  0
LINE
  5
F1
330
1F
100
AcDbEntity
  8
SLD-0
  6
SLD-実線
 62
   208
420
  4194368
370
    25
100
AcDbLine
 10
85.0570946432
 20
127.0519063302
 30
0.0
 11
152.4760239086
 21
155.8592892032
 31
0.0
  0
LINE
  5
F2
330
1F
100
AcDbEntity
  8
SLD-0
  6
SLD-実線
 62
   208
420
  4194368
370
    25
100
AcDbLine
 10
152.4760239086
 20
154.8306884424
 30
0.0
 11
152.4760239086
 21
155.8592892032
 31
0.0
  0
LINE
  5
F3
330
1F
100
AcDbEntity
  8
SLD-0
  6
SLD-実線
 62
   208
420
  4194368
370
    25
100
AcDbLine
 10
85.0570946432
 20
126.0233055694
 30
0.0
 11
152.4760239086
 21
154.8306884424
 31
0.0
  0
LINE
  5
F4
330
1F
100
AcDbEntity
  8
SLD-0
  6
SLD-実線
 62
   208
420
  4194368
370
    25
100
AcDbLine
 10
128.2130540238
 20
170.9219146664
 30
0.0
 11
72.5614445766
 21
147.1425809049
 31
0.0
  0
LINE
  5
F5
330
1F
100
AcDbEntity
  8
SLD-0
  6
SLD-実線
 62
   208
420
  4194368
370
    25
100
AcDbLine
 10
152.4760239086
 20
155.8592892032
 30
0.0
 11
128.2130540238
 21
170.9219146664
 31
0.0
  0
LINE
  5
F6
330
1F
100
AcDbEntity
  8
SLD-0
  6
SLD-実線
 62
   208
420
  4194368
370
    25
100
AcDbLine
 10
104.0810775035
 20
150.5724500207
 30
0.0
 11
104.6544526189
 21
150.7767798999
 31
0.0
  0
LINE
  5
F7
330
1F
100
AcDbEntity
  8
SLD-0
  6
SLD-実線
 62
   208
420
  4194368
370
    25
100
AcDbLine
 10
104.6544526189
 20
150.7767798999
 30
0.0
 11
105.2880079228
 21
150.926725503
 31
0.0
  0
LINE
  5
F8
330
1F
100
AcDbEntity
  8
SLD-0
  6
SLD-実線
 62
   208
420
  4194368
370
    25
100
AcDbLine
 10
105.2880079228
 20
150.926725503
 30
0.0
 11
105.962493158
 21
151.0177308088
 31
0.0
  0
LINE
  5
F9
330
1F
100
AcDbEntity
  8
SLD-0
  6
SLD-実線
 62
   208
420
  4194368
370
    25
100
AcDbLine
 10
105.962493158
 20
151.0177308088
 30
0.0
 11
106.6574144318
 21
151.047030667
 31
0.0
  0
LINE
  5
FA
330
1F
100
AcDbEntity
  8
SLD-0
  6
SLD-実線
 62
   208
420
  4194368
370
    25
100
AcDbLine
 10
106.6574144318
 20
151.047030667
 30
0.0
 11
107.351656913
 21
151.0137348165
 31
0.0
  0
LINE
  5
FB
330
1F
100
AcDbEntity
  8
SLD-0
  6
SLD-実線
 62
   208
420
  4194368
370
    25
100
AcDbLine
 10
107.351656913
 20
151.0137348165
 30
0.0
 11
108.0241263952
 21
150.9188549346
 31
0.0
  0
LINE
  5
FC
330
1F
100
AcDbEntity
  8
SLD-0
  6
SLD-実線
 62
   208
420
  4194368
370
    25
100
AcDbLine
 10
108.0241263952
 20
150.9188549346
 30
0.0
 11
108.6543902334
 21
150.7652738987
 31
0.0
  0
LINE
  5
FD
330
1F
100
AcDbEntity
  8
SLD-0
  6
SLD-実線
 62
   208
420
  4194368
370
    25
100
AcDbLine
 10
108.6543902334
 20
150.7652738987
 30
0.0
 11
109.2232981798
 21
150.5576581907
 31
0.0
  0
LINE
  5
FE
330
1F
100
AcDbEntity
  8
SLD-0
  6
SLD-実線
 62
   208
420
  4194368
370
    25
100
AcDbLine
 10
109.2232981798
 20
150.5576581907
 30
0.0
 11
109.7135642543
 21
150.3023161089
 31
0.0
  0
LINE
  5
FF
330
1F
100
AcDbEntity
  8
SLD-0
  6
SLD-実線
 62
   208
420
  4194368
370
    25
100
AcDbLine
 10
109.7135642543
 20
150.3023161089
 30
0.0
 11
110.1102919704
 21
150.0070060933
 31
0.0
  0
LINE
  5
100
330
1F
100
AcDbEntity
  8
SLD-0
  6
SLD-実線
 62
   208
420
  4194368
370
    25
100
AcDbLine
 10
110.1102919704
 20
150.0070060933
 30
0.0
 11
110.4014269571
 21
149.6807009893
 31
0.0
  0
LINE
  5
101
330
1F
100
AcDbEntity
  8
SLD-0
  6
SLD-実線
 62
   208
420
  4194368
370
    25
100
AcDbLine
 10
110.4014269571
 20
149.6807009893
 30
0.0
 11
110.5781232252
 21
149.3333154122
 31
0.0
  0
LINE
  5
102
330
1F
100
AcDbEntity
  8
SLD-0
  6
SLD-実線
 62
   208
420
  4194368
370
    25
100
AcDbLine
 10
110.5781232252
 20
149.3333154122
 30
0.0
 11
110.635011948
 21
148.9754044971
 31
0.0
  0
LINE
  5
103
330
1F
100
AcDbEntity
  8
SLD-0
  6
SLD-実線
 62
   208
420
  4194368
370
    25
100
AcDbLine
 10
110.635011948
 20
148.9754044971
 30
0.0
 11
110.5703645905
 21
148.617843186
 31
0.0
  0
LINE
  5
104
330
1F
100
AcDbEntity
  8
SLD-0
  6
SLD-実線
 62
   208
420
  4194368
370
    25
100
AcDbLine
 10
110.5703645905
 20
148.617843186
 30
0.0
 11
110.3861454298
 21
148.2714957985
 31
0.0
  0
LINE
  5
105
330
1F
100
AcDbEntity
  8
SLD-0
  6
SLD-実線
 62
   208
420
  4194368
370
    25
100
AcDbLine
 10
110.3861454298
 20
148.2714957985
 30
0.0
 11
110.0879518721
 21
147.9468859246
 31
0.0
  0
LINE
  5
106
330
1F
100
AcDbEntity
  8
SLD-0
  6
SLD-実線
 62
   208
420
  4194368
370
    25
100
AcDbLine
 10
110.0879518721
 20
147.9468859246
 30
0.0
 11
109.6848443775
 21
147.6538766711
 31
0.0
  0
LINE
  5
107
330
1F
100
AcDbEntity
  8
SLD-0
  6
SLD-実線
 62
   208
420
  4194368
370
    25
100
AcDbLine
 10
109.6848443775
 20
147.6538766711
 30
0.0
 11
109.1890711635
 21
147.4013709759
 31
0.0
  0
LINE
  5
108
330
1F
100
AcDbEntity
  8
SLD-0
  6
SLD-実線
 62
   208
420
  4194368
370
    25
100
AcDbLine
 10
109.1890711635
 20
147.4013709759
 30
0.0
 11
108.6156960481
 21
147.1970410967
 31
0.0
  0
LINE
  5
109
330
1F
100
AcDbEntity
  8
SLD-0
  6
SLD-実線
 62
   208
420
  4194368
370
    25
100
AcDbLine
 10
108.6156960481
 20
147.1970410967
 30
0.0
 11
107.9821407442
 21
147.0470954936
 31
0.0
  0
LINE
  5
10A
330
1F
100
AcDbEntity
  8
SLD-0
  6
SLD-実線
 62
   208
420
  4194368
370
    25
100
AcDbLine
 10
107.9821407442
 20
147.0470954936
 30
0.0
 11
107.3076555091
 21
146.9560901879
 31
0.0
  0
LINE
  5
10B
330
1F
100
AcDbEntity
  8
SLD-0
  6
SLD-実線
 62
   208
420
  4194368
370
    25
100
AcDbLine
 10
107.3076555091
 20
146.9560901879
 30
0.0
 11
106.6127342352
 21
146.9267903296
 31
0.0
  0
LINE
  5
10C
330
1F
100
AcDbEntity
  8
SLD-0
  6
SLD-実線
 62
   208
420
  4194368
370
    25
100
AcDbLine
 10
106.6127342352
 20
146.9267903296
 30
0.0
 11
105.918491754
 21
146.9600861801
 31
0.0
  0
LINE
  5
10D
330
1F
100
AcDbEntity
  8
SLD-0
  6
SLD-実線
 62
   208
420
  4194368
370
    25
100
AcDbLine
 10
105.918491754
 20
146.9600861801
 30
0.0
 11
105.2460222718
 21
147.054966062
 31
0.0
  0
LINE
  5
10E
330
1F
100
AcDbEntity
  8
SLD-0
  6
SLD-実線
 62
   208
420
  4194368
370
    25
100
AcDbLine
 10
105.2460222718
 20
147.054966062
 30
0.0
 11
104.6157584336
 21
147.2085470979
 31
0.0
  0
LINE
  5
10F
330
1F
100
AcDbEntity
  8
SLD-0
  6
SLD-実線
 62
   208
420
  4194368
370
    25
100
AcDbLine
 10
104.6157584336
 20
147.2085470979
 30
0.0
 11
104.0468504872
 21
147.4161628059
 31
0.0
  0
LINE
  5
110
330
1F
100
AcDbEntity
  8
SLD-0
  6
SLD-実線
 62
   208
420
  4194368
370
    25
100
AcDbLine
 10
104.0468504872
 20
147.4161628059
 30
0.0
 11
103.5565844127
 21
147.6715048877
 31
0.0
  0
LINE
  5
111
330
1F
100
AcDbEntity
  8
SLD-0
  6
SLD-実線
 62
   208
420
  4194368
370
    25
100
AcDbLine
 10
103.5565844127
 20
147.6715048877
 30
0.0
 11
103.1598566966
 21
147.9668149033
 31
0.0
  0
LINE
  5
112
330
1F
100
AcDbEntity
  8
SLD-0
  6
SLD-実線
 62
   208
420
  4194368
370
    25
100
AcDbLine
 10
103.1598566966
 20
147.9668149033
 30
0.0
 11
102.8687217099
 21
148.2931200074
 31
0.0
  0
LINE
  5
113
330
1F
100
AcDbEntity
  8
SLD-0
  6
SLD-実線
 62
   208
420
  4194368
370
    25
100
AcDbLine
 10
102.8687217099
 20
148.2931200074
 30
0.0
 11
102.6920254418
 21
148.6405055844
 31
0.0
  0
LINE
  5
114
330
1F
100
AcDbEntity
  8
SLD-0
  6
SLD-実線
 62
   208
420
  4194368
370
    25
100
AcDbLine
 10
102.6920254418
 20
148.6405055844
 30
0.0
 11
102.635136719
 21
148.9984164995
 31
0.0
  0
LINE
  5
115
330
1F
100
AcDbEntity
  8
SLD-0
  6
SLD-実線
 62
   208
420
  4194368
370
    25
100
AcDbLine
 10
102.635136719
 20
148.9984164995
 30
0.0
 11
102.6997840765
 21
149.3559778106
 31
0.0
  0
LINE
  5
116
330
1F
100
AcDbEntity
  8
SLD-0
  6
SLD-実線
 62
   208
420
  4194368
370
    25
100
AcDbLine
 10
102.6997840765
 20
149.3559778106
 30
0.0
 11
102.8840032372
 21
149.7023251981
 31
0.0
  0
LINE
  5
117
330
1F
100
AcDbEntity
  8
SLD-0
  6
SLD-実線
 62
   208
420
  4194368
370
    25
100
AcDbLine
 10
102.8840032372
 20
149.7023251981
 30
0.0
 11
103.1821967949
 21
150.026935072
 31
0.0
  0
LINE
  5
118
330
1F
100
AcDbEntity
  8
SLD-0
  6
SLD-実線
 62
   208
420
  4194368
370
    25
100
AcDbLine
 10
103.1821967949
 20
150.026935072
 30
0.0
 11
103.5853042895
 21
150.3199443255
 31
0.0
  0
LINE
  5
119
330
1F
100
AcDbEntity
  8
SLD-0
  6
SLD-実線
 62
   208
420
  4194368
370
    25
100
AcDbLine
 10
103.5853042895
 20
150.3199443255
 30
0.0
 11
104.0810775035
 21
150.5724500207
 31
0.0
  0
LINE
  5
11A
330
1F
100
AcDbEntity
  8
SLD-0
  6
SLD-実線
 62
   208
420
  4194368
370
    25
100
AcDbLine
 10
81.630902305
 20
140.3105230603
 30
0.0
 11
82.1348842528
 21
140.484772897
 31
0.0
  0
LINE
  5
11B
330
1F
100
AcDbEntity
  8
SLD-0
  6
SLD-実線
 62
   208
420
  4194368
370
    25
100
AcDbLine
 10
82.1348842528
 20
140.484772897
 30
0.0
 11
82.6966538181
 21
140.6032047941
 31
0.0
  0
LINE
  5
11C
330
1F
100
AcDbEntity
  8
SLD-0
  6
SLD-実線
 62
   208
420
  4194368
370
    25
100
AcDbLine
 10
82.6966538181
 20
140.6032047941
 30
0.0
 11
83.2932120889
 21
140.660970136
 31
0.0
  0
LINE
  5
11D
330
1F
100
AcDbEntity
  8
SLD-0
  6
SLD-実線
 62
   208
420
  4194368
370
    25
100
AcDbLine
 10
83.2932120889
 20
140.660970136
 30
0.0
 11
83.9001358997
 21
140.6557040026
 31
0.0
  0
LINE
  5
11E
330
1F
100
AcDbEntity
  8
SLD-0
  6
SLD-実線
 62
   208
420
  4194368
370
    25
100
AcDbLine
 10
83.9001358997
 20
140.6557040026
 30
0.0
 11
84.4925777181
 21
140.5876219901
 31
0.0
  0
LINE
  5
11F
330
1F
100
AcDbEntity
  8
SLD-0
  6
SLD-実線
 62
   208
420
  4194368
370
    25
100
AcDbLine
 10
84.4925777181
 20
140.5876219901
 30
0.0
 11
85.0462829067
 21
140.4595113841
 31
0.0
  0
LINE
  5
120
330
1F
100
AcDbEntity
  8
SLD-0
  6
SLD-実線
 62
   208
420
  4194368
370
    25
100
AcDbLine
 10
85.0462829067
 20
140.4595113841
 30
0.0
 11
85.5385827098
 21
140.2766170479
 31
0.0
  0
LINE
  5
121
330
1F
100
AcDbEntity
  8
SLD-0
  6
SLD-実線
 62
   208
420
  4194368
370
    25
100
AcDbLine
 10
85.5385827098
 20
140.2766170479
 30
0.0
 11
85.9493223158
 21
140.046426697
 31
0.0
  0
LINE
  5
122
330
1F
100
AcDbEntity
  8
SLD-0
  6
SLD-実線
 62
   208
420
  4194368
370
    25
100
AcDbLine
 10
85.9493223158
 20
140.046426697
 30
0.0
 11
86.2616859969
 21
139.7783643516
 31
0.0
  0
LINE
  5
123
330
1F
100
AcDbEntity
  8
SLD-0
  6
SLD-実線
 62
   208
420
  4194368
370
    25
100
AcDbLine
 10
86.2616859969
 20
139.7783643516
 30
0.0
 11
86.4628855472
 21
139.4834045154
 31
0.0
  0
LINE
  5
124
330
1F
100
AcDbEntity
  8
SLD-0
  6
SLD-実線
 62
   208
420
  4194368
370
    25
100
AcDbLine
 10
86.4628855472
 20
139.4834045154
 30
0.0
 11
86.5446838336
 21
139.1736228789
 31
0.0
  0
LINE
  5
125
330
1F
100
AcDbEntity
  8
SLD-0
  6
SLD-実線
 62
   208
420
  4194368
370
    25
100
AcDbLine
 10
86.5446838336
 20
139.1736228789
 30
0.0
 11
86.5037320246
 21
138.8617019387
 31
0.0
  0
LINE
  5
126
330
1F
100
AcDbEntity
  8
SLD-0
  6
SLD-実線
 62
   208
420
  4194368
370
    25
100
AcDbLine
 10
86.5037320246
 20
138.8617019387
 30
0.0
 11
86.3417066921
 21
138.5604117746
 31
0.0
  0
LINE
  5
127
330
1F
100
AcDbEntity
  8
SLD-0
  6
SLD-実線
 62
   208
420
  4194368
370
    25
100
AcDbLine
 10
86.3417066921
 20
138.5604117746
 30
0.0
 11
86.0652411722
 21
138.2820872415
 31
0.0
  0
LINE
  5
128
330
1F
100
AcDbEntity
  8
SLD-0
  6
SLD-実線
 62
   208
420
  4194368
370
    25
100
AcDbLine
 10
86.0652411722
 20
138.2820872415
 30
0.0
 11
85.6856539958
 21
138.0381229784
 31
0.0
  0
LINE
  5
129
330
1F
100
AcDbEntity
  8
SLD-0
  6
SLD-実線
 62
   208
420
  4194368
370
    25
100
AcDbLine
 10
85.6856539958
 20
138.0381229784
 30
0.0
 11
85.2184855065
 21
137.8385069108
 31
0.0
  0
LINE
  5
12A
330
1F
100
AcDbEntity
  8
SLD-0
  6
SLD-実線
 62
   208
420
  4194368
370
    25
100
AcDbLine
 10
85.2184855065
 20
137.8385069108
 30
0.0
 11
84.6828616371
 21
137.6914113441
 31
0.0
  0
LINE
  5
12B
330
1F
100
AcDbEntity
  8
SLD-0
  6
SLD-実線
 62
   208
420
  4194368
370
    25
100
AcDbLine
 10
84.6828616371
 20
137.6914113441
 30
0.0
 11
84.1007108918
 21
137.6028583881
 31
0.0
  0
LINE
  5
12C
330
1F
100
AcDbEntity
  8
SLD-0
  6
SLD-実線
 62
   208
420
  4194368
370
    25
100
AcDbLine
 10
84.1007108918
 20
137.6028583881
 30
0.0
 11
83.4958665905
 21
137.5764734111
 31
0.0
  0
LINE
  5
12D
330
1F
100
AcDbEntity
  8
SLD-0
  6
SLD-実線
 62
   208
420
  4194368
370
    25
100
AcDbLine
 10
83.4958665905
 20
137.5764734111
 30
0.0
 11
82.992562916
 21
137.6028125151
 31
0.0
  0
LINE
  5
12E
330
1F
100
AcDbEntity
  8
SLD-0
  6
SLD-実線
 62
   208
420
  4194368
370
    25
100
AcDbLine
 10
127.808251117
 20
160.0416072199
 30
0.0
 11
128.3122330647
 21
160.2158570566
 31
0.0
  0
LINE
  5
12F
330
1F
100
AcDbEntity
  8
SLD-0
  6
SLD-実線
 62
   208
420
  4194368
370
    25
100
AcDbLine
 10
128.3122330647
 20
160.2158570566
 30
0.0
 11
128.87400263
 21
160.3342889537
 31
0.0
  0
LINE
  5
130
330
1F
100
AcDbEntity
  8
SLD-0
  6
SLD-実線
 62
   208
420
  4194368
370
    25
100
AcDbLine
 10
128.87400263
 20
160.3342889537
 30
0.0
 11
129.4705609009
 21
160.3920542955
 31
0.0
  0
LINE
  5
131
330
1F
100
AcDbEntity
  8
SLD-0
  6
SLD-実線
 62
   208
420
  4194368
370
    25
100
AcDbLine
 10
129.4705609009
 20
160.3920542955
 30
0.0
 11
130.0774847116
 21
160.3867881621
 31
0.0
  0
LINE
  5
132
330
1F
100
AcDbEntity
  8
SLD-0
  6
SLD-実線
 62
   208
420
  4194368
370
    25
100
AcDbLine
 10
130.0774847116
 20
160.3867881621
 30
0.0
 11
130.6699265301
 21
160.3187061497
 31
0.0
  0
LINE
  5
133
330
1F
100
AcDbEntity
  8
SLD-0
  6
SLD-実線
 62
   208
420
  4194368
370
    25
100
AcDbLine
 10
130.6699265301
 20
160.3187061497
 30
0.0
 11
131.2236317186
 21
160.1905955437
 31
0.0
  0
LINE
  5
134
330
1F
100
AcDbEntity
  8
SLD-0
  6
SLD-実線
 62
   208
420
  4194368
370
    25
100
AcDbLine
 10
131.2236317186
 20
160.1905955437
 30
0.0
 11
131.7159315218
 21
160.0077012074
 31
0.0
  0
LINE
  5
135
330
1F
100
AcDbEntity
  8
SLD-0
  6
SLD-実線
 62
   208
420
  4194368
370
    25
100
AcDbLine
 10
131.7159315218
 20
160.0077012074
 30
0.0
 11
132.1266711278
 21
159.7775108566
 31
0.0
  0
LINE
  5
136
330
1F
100
AcDbEntity
  8
SLD-0
  6
SLD-実線
 62
   208
420
  4194368
370
    25
100
AcDbLine
 10
132.1266711278
 20
159.7775108566
 30
0.0
 11
132.4390348088
 21
159.5094485111
 31
0.0
  0
LINE
  5
137
330
1F
100
AcDbEntity
  8
SLD-0
  6
SLD-実線
 62
   208
420
  4194368
370
    25
100
AcDbLine
 10
132.4390348088
 20
159.5094485111
 30
0.0
 11
132.6402343592
 21
159.214488675
 31
0.0
  0
LINE
  5
138
330
1F
100
AcDbEntity
  8
SLD-0
  6
SLD-実線
 62
   208
420
  4194368
370
    25
100
AcDbLine
 10
132.6402343592
 20
159.214488675
 30
0.0
 11
132.7220326456
 21
158.9047070385
 31
0.0
  0
LINE
  5
139
330
1F
100
AcDbEntity
  8
SLD-0
  6
SLD-実線
 62
   208
420
  4194368
370
    25
100
AcDbLine
 10
132.7220326456
 20
158.9047070385
 30
0.0
 11
132.6810808366
 21
158.5927860983
 31
0.0
  0
LINE
  5
13A
330
1F
100
AcDbEntity
  8
SLD-0
  6
SLD-実線
 62
   208
420
  4194368
370
    25
100
AcDbLine
 10
132.6810808366
 20
158.5927860983
 30
0.0
 11
132.5190555041
 21
158.2914959342
 31
0.0
  0
LINE
  5
13B
330
1F
100
AcDbEntity
  8
SLD-0
  6
SLD-実線
 62
   208
420
  4194368
370
    25
100
AcDbLine
 10
132.5190555041
 20
158.2914959342
 30
0.0
 11
132.2425899842
 21
158.0131714011
 31
0.0
  0
LINE
  5
13C
330
1F
100
AcDbEntity
  8
SLD-0
  6
SLD-実線
 62
   208
420
  4194368
370
    25
100
AcDbLine
 10
132.2425899842
 20
158.0131714011
 30
0.0
 11
131.8630028078
 21
157.769207138
 31
0.0
  0
LINE
  5
13D
330
1F
100
AcDbEntity
  8
SLD-0
  6
SLD-実線
 62
   208
420
  4194368
370
    25
100
AcDbLine
 10
131.8630028078
 20
157.769207138
 30
0.0
 11
131.3958343185
 21
157.5695910704
 31
0.0
  0
LINE
  5
13E
330
1F
100
AcDbEntity
  8
SLD-0
  6
SLD-実線
 62
   208
420
  4194368
370
    25
100
AcDbLine
 10
131.3958343185
 20
157.5695910704
 30
0.0
 11
130.8602104491
 21
157.4224955037
 31
0.0
  0
LINE
  5
13F
330
1F
100
AcDbEntity
  8
SLD-0
  6
SLD-実線
 62
   208
420
  4194368
370
    25
100
AcDbLine
 10
130.8602104491
 20
157.4224955037
 30
0.0
 11
130.2780597038
 21
157.3339425477
 31
0.0
  0
LINE
  5
140
330
1F
100
AcDbEntity
  8
SLD-0
  6
SLD-実線
 62
   208
420
  4194368
370
    25
100
AcDbLine
 10
130.2780597038
 20
157.3339425477
 30
0.0
 11
129.6732154025
 21
157.3075575707
 31
0.0
  0
LINE
  5
141
330
1F
100
AcDbEntity
  8
SLD-0
  6
SLD-実線
 62
   208
420
  4194368
370
    25
100
AcDbLine
 10
129.6732154025
 20
157.3075575707
 30
0.0
 11
129.0704399419
 21
157.3444207768
 31
0.0
  0
LINE
  5
142
330
1F
100
AcDbEntity
  8
SLD-0
  6
SLD-実線
 62
   208
420
  4194368
370
    25
100
AcDbLine
 10
129.0704399419
 20
157.3444207768
 30
0.0
 11
128.4944110203
 21
157.4430229821
 31
0.0
  0
LINE
  5
143
330
1F
100
AcDbEntity
  8
SLD-0
  6
SLD-実線
 62
   208
420
  4194368
370
    25
100
AcDbLine
 10
128.4944110203
 20
157.4430229821
 30
0.0
 11
127.9687113294
 21
157.5993274006
 31
0.0
  0
LINE
  5
144
330
1F
100
AcDbEntity
  8
SLD-0
  6
SLD-実線
 62
   208
420
  4194368
370
    25
100
AcDbLine
 10
127.9687113294
 20
157.5993274006
 30
0.0
 11
127.5148630762
 21
157.8069349111
 31
0.0
  0
LINE
  5
145
330
1F
100
AcDbEntity
  8
SLD-0
  6
SLD-実線
 62
   208
420
  4194368
370
    25
100
AcDbLine
 10
127.5148630762
 20
157.8069349111
 30
0.0
 11
127.1514468616
 21
158.0573460378
 31
0.0
  0
LINE
  5
146
330
1F
100
AcDbEntity
  8
SLD-0
  6
SLD-実線
 62
   208
420
  4194368
370
    25
100
AcDbLine
 10
127.1514468616
 20
158.0573460378
 30
0.0
 11
126.8933409881
 21
158.3403089196
 31
0.0
  0
LINE
  5
147
330
1F
100
AcDbEntity
  8
SLD-0
  6
SLD-実線
 62
   208
420
  4194368
370
    25
100
AcDbLine
 10
126.8933409881
 20
158.3403089196
 30
0.0
 11
126.7511123405
 21
158.644239023
 31
0.0
  0
LINE
  5
148
330
1F
100
AcDbEntity
  8
SLD-0
  6
SLD-実線
 62
   208
420
  4194368
370
    25
100
AcDbLine
 10
126.7511123405
 20
158.644239023
 30
0.0
 11
126.7305837764
 21
158.9566934138
 31
0.0
  0
LINE
  5
149
330
1F
100
AcDbEntity
  8
SLD-0
  6
SLD-実線
 62
   208
420
  4194368
370
    25
100
AcDbLine
 10
126.7305837764
 20
158.9566934138
 30
0.0
 11
126.8325957375
 21
159.2648801726
 31
0.0
  0
LINE
  5
14A
330
1F
100
AcDbEntity
  8
SLD-0
  6
SLD-実線
 62
   208
420
  4194368
370
    25
100
AcDbLine
 10
126.8325957375
 20
159.2648801726
 30
0.0
 11
127.0529718423
 21
159.5561820971
 31
0.0
  0
LINE
  5
14B
330
1F
100
AcDbEntity
  8
SLD-0
  6
SLD-実線
 62
   208
420
  4194368
370
    25
100
AcDbLine
 10
127.0529718423
 20
159.5561820971
 30
0.0
 11
127.382689867
 21
159.8186732525
 31
0.0
  0
LINE
  5
14C
330
1F
100
AcDbEntity
  8
SLD-0
  6
SLD-実線
 62
   208
420
  4194368
370
    25
100
AcDbLine
 10
127.382689867
 20
159.8186732525
 30
0.0
 11
127.808251117
 21
160.0416072199
 31
0.0
  0
LINE
  5
14D
330
1F
100
AcDbEntity
  8
SLD-0
  6
SLD-実線
 62
   208
420
  4194368
370
    25
100
AcDbLine
 10
104.0810775035
 20
149.5438492599
 30
0.0
 11
104.6544526189
 21
149.748179139
 31
0.0
  0
LINE
  5
14E
330
1F
100
AcDbEntity
  8
SLD-0
  6
SLD-実線
 62
   208
420
  4194368
370
    25
100
AcDbLine
 10
104.6544526189
 20
149.748179139
 30
0.0
 11
105.2880079228
 21
149.8981247421
 31
0.0
  0
LINE
  5
14F
330
1F
100
AcDbEntity
  8
SLD-0
  6
SLD-実線
 62
   208
420
  4194368
370
    25
100
AcDbLine
 10
105.2880079228
 20
149.8981247421
 30
0.0
 11
105.962493158
 21
149.9891300479
 31
0.0
  0
LINE
  5
150
330
1F
100
AcDbEntity
  8
SLD-0
  6
SLD-実線
 62
   208
420
  4194368
370
    25
100
AcDbLine
 10
105.962493158
 20
149.9891300479
 30
0.0
 11
106.6574144318
 21
150.0184299062
 31
0.0
  0
LINE
  5
151
330
1F
100
AcDbEntity
  8
SLD-0
  6
SLD-実線
 62
   208
420
  4194368
370
    25
100
AcDbLine
 10
106.6574144318
 20
150.0184299062
 30
0.0
 11
107.351656913
 21
149.9851340556
 31
0.0
  0
LINE
  5
152
330
1F
100
AcDbEntity
  8
SLD-0
  6
SLD-実線
 62
   208
420
  4194368
370
    25
100
AcDbLine
 10
107.351656913
 20
149.9851340556
 30
0.0
 11
108.0241263952
 21
149.8902541738
 31
0.0
  0
LINE
  5
153
330
1F
100
AcDbEntity
  8
SLD-0
  6
SLD-実線
 62
   208
420
  4194368
370
    25
100
AcDbLine
 10
108.0241263952
 20
149.8902541738
 30
0.0
 11
108.6543902334
 21
149.7366731378
 31
0.0
  0
LINE
  5
154
330
1F
100
AcDbEntity
  8
SLD-0
  6
SLD-実線
 62
   208
420
  4194368
370
    25
100
AcDbLine
 10
108.6543902334
 20
149.7366731378
 30
0.0
 11
109.2232981798
 21
149.5290574299
 31
0.0
  0
LINE
  5
155
330
1F
100
AcDbEntity
  8
SLD-0
  6
SLD-実線
 62
   208
420
  4194368
370
    25
100
AcDbLine
 10
109.2232981798
 20
149.5290574299
 30
0.0
 11
109.7135642543
 21
149.2737153481
 31
0.0
  0
LINE
  5
156
330
1F
100
AcDbEntity
  8
SLD-0
  6
SLD-実線
 62
   208
420
  4194368
370
    25
100
AcDbLine
 10
109.7135642543
 20
149.2737153481
 30
0.0
 11
110.1102919704
 21
148.9784053325
 31
0.0
  0
LINE
  5
157
330
1F
100
AcDbEntity
  8
SLD-0
  6
SLD-実線
 62
   208
420
  4194368
370
    25
100
AcDbLine
 10
110.1102919704
 20
148.9784053325
 30
0.0
 11
110.4014269571
 21
148.6521002284
 31
0.0
  0
LINE
  5
158
330
1F
100
AcDbEntity
  8
SLD-0
  6
SLD-実線
 62
   208
420
  4194368
370
    25
100
AcDbLine
 10
110.4014269571
 20
148.6521002284
 30
0.0
 11
110.5084272182
 21
148.4726101179
 31
0.0
  0
LINE
  5
159
330
1F
100
AcDbEntity
  8
SLD-0
  6
SLD-実線
 62
   208
420
  4194368
370
    25
100
AcDbLine
 10
153.6304576289
 20
165.6099731548
 30
0.0
 11
150.4379615915
 21
171.8777340614
 31
0.0
  0
LINE
  5
15A
330
1F
100
AcDbEntity
  8
SLD-0
  6
SLD-実線
 62
   208
420
  4194368
370
    25
100
AcDbLine
 10
153.6304576289
 20
165.6099731548
 30
0.0
 11
153.6304576289
 21
157.6383172583
 31
0.0
  0
LINE
  5
15B
330
1F
100
AcDbEntity
  8
SLD-0
  6
SLD-実線
 62
   208
420
  4194368
370
    25
100
AcDbLine
 10
129.3674877441
 20
172.7009427214
 30
0.0
 11
129.3674877441
 21
180.672598618
 31
0.0
  0
LINE
  5
15C
330
1F
100
AcDbEntity
  8
SLD-0
  6
SLD-実線
 62
   208
420
  4194368
370
    25
100
AcDbLine
 10
132.5599837816
 20
182.9765107184
 30
0.0
 11
129.3674877441
 21
180.672598618
 31
0.0
  0
LINE
  5
15D
330
1F
100
AcDbEntity
  8
SLD-0
  6
SLD-実線
 62
   208
420
  4194368
370
    25
100
AcDbLine
 10
132.5599837816
 20
182.9765107184
 30
0.0
 11
150.4379615915
 21
171.8777340614
 31
0.0
  0
LINE
  5
15E
330
1F
100
AcDbEntity
  8
SLD-0
  6
SLD-実線
 62
   208
420
  4194368
370
    25
100
AcDbLine
 10
154.5540046052
 20
166.004594838
 30
0.0
 11
153.6304576289
 21
165.6099731548
 31
0.0
  0
LINE
  5
15F
330
1F
100
AcDbEntity
  8
SLD-0
  6
SLD-実線
 62
   208
420
  4194368
370
    25
100
AcDbLine
 10
150.4379615915
 20
171.8777340614
 30
0.0
 11
151.3615085677
 21
172.2723557446
 31
0.0
  0
LINE
  5
160
330
1F
100
AcDbEntity
  8
SLD-0
  6
SLD-実線
 62
   208
420
  4194368
370
    25
100
AcDbLine
 10
151.3615085677
 20
172.2723557446
 30
0.0
 11
154.5540046052
 21
166.004594838
 31
0.0
  0
LINE
  5
161
330
1F
100
AcDbEntity
  8
SLD-0
  6
SLD-実線
 62
   208
420
  4194368
370
    25
100
AcDbLine
 10
153.6304576289
 20
157.6383172583
 30
0.0
 11
154.5540046052
 21
158.0329389415
 31
0.0
  0
LINE
  5
162
330
1F
100
AcDbEntity
  8
SLD-0
  6
SLD-実線
 62
   208
420
  4194368
370
    25
100
AcDbLine
 10
154.5540046052
 20
166.004594838
 30
0.0
 11
154.5540046052
 21
158.0329389415
 31
0.0
  0
LINE
  5
163
330
1F
100
AcDbEntity
  8
SLD-0
  6
SLD-実線
 62
   208
420
  4194368
370
    25
100
AcDbLine
 10
133.4835307578
 20
183.3711324016
 30
0.0
 11
132.5599837816
 21
182.9765107184
 31
0.0
  0
LINE
  5
164
330
1F
100
AcDbEntity
  8
SLD-0
  6
SLD-実線
 62
   208
420
  4194368
370
    25
100
AcDbLine
 10
133.4835307578
 20
183.3711324016
 30
0.0
 11
151.3615085677
 21
172.2723557446
 31
0.0
  0
LINE
  5
165
330
1F
100
AcDbEntity
  8
SLD-0
  6
SLD-実線
 62
   208
420
  4194368
370
    25
100
AcDbLine
 10
82.9791139466
 20
127.4497584941
 30
0.0
 11
71.389649843
 21
134.6445808073
 31
0.0
  0
LINE
  5
166
330
1F
100
AcDbEntity
  8
SLD-0
  6
SLD-実線
 62
   208
420
  4194368
370
    25
100
AcDbLine
 10
67.1132040376
 20
137.299428989
 30
0.0
 11
58.7161440618
 21
142.5123839573
 31
0.0
  0
LINE
  5
167
330
1F
100
AcDbEntity
  8
SLD-0
  6
SLD-実線
 62
   208
420
  4194368
370
    25
100
AcDbLine
 10
83.9047884273
 20
127.7672662813
 30
0.0
 11
85.0570946432
 21
127.0519063302
 31
0.0
  0
LINE
  5
168
330
1F
100
AcDbEntity
  8
SLD-0
  6
SLD-実線
 62
   208
420
  4194368
370
    25
100
AcDbLine
 10
153.6304576289
 20
157.6383172583
 30
0.0
 11
139.2395808924
 21
166.5722765962
 31
0.0
  0
LINE
  5
169
330
1F
100
AcDbEntity
  8
SLD-0
  6
SLD-実線
 62
   208
420
  4194368
370
    25
100
AcDbLine
 10
136.437197667
 20
168.3120161718
 30
0.0
 11
129.3674877441
 21
172.7009427214
 31
0.0
  0
ARC
  5
16A
330
1F
100
AcDbEntity
  8
SLD-0
  6
SLD-実線
 62
   208
420
  4194368
370
    25
100
AcDbCircle
 10
73.6766094297
 20
139.4896224118
 30
0.0
 40
5.839035307449251
100
AcDbArc
 50
211.8976935413
 51
213.0545225805
  0
ARC
  5
16B
330
1F
100
AcDbEntity
  8
SLD-0
  6
SLD-実線
 62
   208
420
  4194368
370
    25
100
AcDbCircle
 10
75.2754152155
 20
140.0325128705
 30
0.0
 40
7.547024421344827
100
AcDbArc
 50
177.5876319082
 51
178.5625729949
  0
ARC
  5
16C
330
1F
100
AcDbEntity
  8
SLD-0
  6
SLD-実線
 62
   208
420
  4194368
370
    25
100
AcDbCircle
 10
74.9079101741
 20
140.0563040641
 30
0.0
 40
7.547024806291002
100
AcDbArc
 50
177.5876318342
 51
178.562572872
  0
ARC
  5
16D
330
1F
100
AcDbEntity
  8
SLD-0
  6
SLD-実線
 62
   208
420
  4194368
370
    25
100
AcDbCircle
 10
73.3091042239
 20
139.5134137725
 30
0.0
 40
5.839035568727295
100
AcDbArc
 50
211.8976935773
 51
213.0545225648
  0
ARC
  5
16E
330
1F
100
AcDbEntity
  8
SLD-0
  6
SLD-実線
 62
   208
420
  4194368
370
    25
100
AcDbCircle
 10
84.3848171165
 20
127.2707397516
 30
0.0
 40
1.417056495673349
100
AcDbArc
 50
172.7423505835
 51
298.3214820371
  0
ARC
  5
16F
330
1F
100
AcDbEntity
  8
SLD-0
  6
SLD-実線
 62
   208
420
  4194368
370
    25
100
AcDbCircle
 10
84.6836071284
 20
127.7449253204
 30
0.0
 40
0.787253608735822
100
AcDbArc
 50
172.7423505855
 51
298.3214820307
  0
ARC
  5
170
330
1F
100
AcDbEntity
  8
SLD-0
  6
SLD-実線
 62
   208
420
  4194368
370
    25
100
AcDbCircle
 10
60.2825256671
 20
142.3858126917
 30
0.0
 40
1.571487072379687
100
AcDbArc
 50
175.3802591593
 51
234.504118858
  0
ARC
  5
171
330
1F
100
AcDbEntity
  8
SLD-0
  6
SLD-実線
 62
   208
420
  4194368
370
    25
100
AcDbCircle
 10
83.5290314152
 20
135.4314249287
 30
0.0
 40
4.264521322764705
100
AcDbArc
 50
48.1304002367
 51
110.1575199904
  0
ARC
  5
172
330
1F
100
AcDbEntity
  8
SLD-0
  6
SLD-実線
 62
   208
420
  4194368
370
    25
100
AcDbCircle
 10
104.8912647136
 20
147.1979190638
 30
0.0
 40
2.48189278582736
100
AcDbArc
 50
109.0527941029
 51
149.0963214484
  0
ARC
  5
173
330
1F
100
AcDbEntity
  8
SLD-0
  6
SLD-実線
 62
   208
420
  4194368
370
    25
100
AcDbCircle
 10
127.3124444596
 20
172.770408881
 30
0.0
 40
2.056217023691364
100
AcDbArc
 50
295.9759245373
 51
358.0639809869
  0
ARC
  5
174
330
1F
100
AcDbEntity
  8
SLD-0
  6
SLD-実線
 62
   208
420
  4194368
370
    25
100
AcDbCircle
 10
151.5754143443
 20
157.7077834178
 30
0.0
 40
2.056217023761571
100
AcDbArc
 50
295.9759245385
 51
358.0639809886
  0
ARC
  5
175
330
1F
100
AcDbEntity
  8
SLD-0
  6
SLD-実線
 62
   208
420
  4194368
370
    25
100
AcDbCircle
 10
150.854926693
 20
158.1579780287
 30
0.0
 40
3.701190642710794
100
AcDbArc
 50
295.9759245369
 51
358.0639809874
  0
ARC
  5
176
330
1F
100
AcDbEntity
  8
SLD-0
  6
SLD-実線
 62
   208
420
  4194368
370
    25
100
AcDbCircle
 10
129.676919419
 20
155.1354902778
 30
0.0
 40
4.304306327300732
100
AcDbArc
 50
48.0784185622
 51
115.7305353834
  0
ARC
  5
177
330
1F
100
AcDbEntity
  8
SLD-0
  6
SLD-実線
 62
   208
420
  4194368
370
    25
100
AcDbCircle
 10
128.5121544341
 20
157.1046438932
 30
0.0
 40
2.034042173301236
100
AcDbArc
 50
110.2465960777
 51
142.6680404722
  0
SPLINE
  5
178
330
1F
100
AcDbEntity
  8
SLD-0
  6
SLD-実線
 62
   208
420
  4194368
370
    25
100
AcDbSpline
210
0.0
220
0.0
230
1.0
 70
     8
 71
     3
 72
    10
 73
     6
 74
     0
 42
0.000000001
 43
0.00000001
 40
0.0
 40
0.0
 40
0.0
 40
0.0
 40
0.0697856794478224
 40
0.4013571888894517
 40
1.0
 40
1.0
 40
1.0
 40
1.0
 10
66.62972484854271
 20
141.9835575230325
 30
0.0
 10
66.61918416389032
 20
141.9527231518068
 30
0.0
 10
66.55856170388809
 20
141.7753859580696
 30
0.0
 10
66.45369180382724
 20
141.318752010974
 30
0.0
 10
66.40677308926027
 20
140.8867399529078
 30
0.0
 10
66.37657837976
 20
140.6087170208152
 30
0.0
  0
SPLINE
  5
179
330
1F
100
AcDbEntity
  8
SLD-0
  6
SLD-実線
 62
   208
420
  4194368
370
    25
100
AcDbSpline
210
0.0
220
0.0
230
1.0
 70
     8
 71
     3
 72
    18
 73
    14
 74
     0
 42
0.000000001
 43
0.00000001
 40
0.0
 40
0.0
 40
0.0
 40
0.0
 40
0.1147754229185979
 40
0.1617370506219939
 40
0.2399529204581198
 40
0.3219239563294043
 40
0.4105885838428027
 40
0.5039611166623925
 40
0.601185519402389
 40
0.701537884515939
 40
0.8044591553897384
 40
0.9095096717012943
 40
1.0
 40
1.0
 40
1.0
 40
1.0
 10
66.37657837976
 20
140.6087170208152
 30
0.0
 10
66.36893353195897
 20
140.3351429815694
 30
0.0
 10
66.35816071052774
 20
139.9496331127387
 30
0.0
 10
66.4159992401357
 20
139.3807816945252
 30
0.0
 10
66.49913343325953
 20
138.8941214262627
 30
0.0
 10
66.65442178111921
 20
138.3214440497252
 30
0.0
 10
66.87870892780379
 20
137.7331658496835
 30
0.0
 10
67.18095476808855
 20
137.1395388436407
 30
0.0
 10
67.56289539764967
 20
136.5600398586808
 30
0.0
 10
68.02363473786122
 20
136.0104228558983
 30
0.0
 10
68.56114583823201
 20
135.5088000657858
 30
0.0
 10
69.13276238776874
 20
135.0818866296717
 30
0.0
 10
69.54547779501449
 20
134.8654164031793
 30
0.0
 10
69.73646987531383
 20
134.7652405964253
 30
0.0
  0
SPLINE
  5
17A
330
1F
100
AcDbEntity
  8
SLD-0
  6
SLD-実線
 62
   208
420
  4194368
370
    25
100
AcDbSpline
210
0.0
220
0.0
230
1.0
 70
     8
 71
     3
 72
    10
 73
     6
 74
     0
 42
0.000000001
 43
0.00000001
 40
0.0
 40
0.0
 40
0.0
 40
0.0
 40
0.3399300155210825
 40
0.8431262790867987
 40
1.0
 40
1.0
 40
1.0
 40
1.0
 10
69.31349126539551
 20
138.3582540089211
 30
0.0
 10
69.2350597157507
 20
138.282995376518
 30
0.0
 10
69.04052643655886
 20
138.0963318640008
 30
0.0
 10
68.87201533696496
 20
137.8821810485483
 30
0.0
 10
68.77472421124367
 20
137.7789952987392
 30
0.0
 10
68.7516017829215
 20
137.7544719407645
 30
0.0
  0
SPLINE
  5
17B
330
1F
100
AcDbEntity
  8
SLD-0
  6
SLD-実線
 62
   208
420
  4194368
370
    25
100
AcDbSpline
210
0.0
220
0.0
230
1.0
 70
     8
 71
     3
 72
     9
 73
     5
 74
     0
 42
0.000000001
 43
0.00000001
 40
0.0
 40
0.0
 40
0.0
 40
0.0
 40
0.4005293498502243
 40
1.0
 40
1.0
 40
1.0
 40
1.0
 10
66.94163047628003
 20
138.6994332620913
 30
0.0
 10
67.09486700711271
 20
138.7415778785641
 30
0.0
 10
67.4774520308819
 20
138.8468001712339
 30
0.0
 10
67.88700261299249
 20
138.9255044004775
 30
0.0
 10
68.13251616671955
 20
138.9726852759518
 30
0.0
  0
SPLINE
  5
17C
330
1F
100
AcDbEntity
  8
SLD-0
  6
SLD-実線
 62
   208
420
  4194368
370
    25
100
AcDbSpline
210
0.0
220
0.0
230
1.0
 70
     8
 71
     3
 72
    16
 73
    12
 74
     0
 42
0.000000001
 43
0.00000001
 40
0.0
 40
0.0
 40
0.0
 40
0.0
 40
0.000724785811082
 40
0.0036239362041242
 40
0.0152209921183367
 40
0.0616376982341325
 40
0.249166226122208
 40
0.4371971226095013
 40
0.6281778311510713
 40
0.8080860399958293
 40
1.0
 40
1.0
 40
1.0
 40
1.0
 10
69.31067577563894
 20
137.9537537124135
 30
0.0
 10
69.31013821983896
 20
137.9537050725054
 30
0.0
 10
69.30745043553702
 20
137.9534618724859
 30
0.0
 10
69.29617939337727
 20
137.9524059078934
 30
0.0
 10
69.25133110658865
 20
137.9476876234586
 30
0.0
 10
69.07496475931397
 20
137.9206730067239
 30
0.0
 10
68.80398674433512
 20
137.8212288151786
 30
0.0
 10
68.54826586826051
 20
137.5746672696379
 30
0.0
 10
68.45096666470296
 20
137.2247536778906
 30
0.0
 10
68.50282086995597
 20
136.8155898112238
 30
0.0
 10
68.64560983038179
 20
136.5442845735056
 30
0.0
 10
68.71930956411484
 20
136.4042518726542
 30
0.0
  0
SPLINE
  5
17D
330
1F
100
AcDbEntity
  8
SLD-0
  6
SLD-実線
 62
   208
420
  4194368
370
    25
100
AcDbSpline
210
0.0
220
0.0
230
1.0
 70
     8
 71
     3
 72
    30
 73
    26
 74
     0
 42
0.000000001
 43
0.00000001
 40
0.0
 40
0.0
 40
0.0
 40
0.0
 40
0.0091199889506053
 40
0.0456139503334195
 40
0.0821075973417645
 40
0.1187186932031152
 40
0.155691565758426
 40
0.1927874359410983
 40
0.2425429434229057
 40
0.2926260585615222
 40
0.343819474897502
 40
0.3954270089155177
 40
0.4442440357839471
 40
0.4934813153751614
 40
0.5440433093354752
 40
0.5950665036659994
 40
0.6391616780605707
 40
0.6835332693979541
 40
0.7287317844257616
 40
0.7741993255490849
 40
0.8220527121370114
 40
0.8701772317497725
 40
0.9191391526112127
 40
0.9683853312474284
 40
1.0
 40
1.0
 40
1.0
 40
1.0
 10
67.73076571594825
 20
140.2218315053602
 30
0.0
 10
67.73058740698663
 20
140.2134734245352
 30
0.0
 10
67.72969558834922
 20
140.1716701848928
 30
0.0
 10
67.73057842813527
 20
140.0963338058846
 30
0.0
 10
67.73633756666581
 20
139.9959875291423
 30
0.0
 10
67.74687336663771
 20
139.8957180738176
 30
0.0
 10
67.76221820247514
 20
139.7957564887605
 30
0.0
 10
67.78468298064615
 20
139.6852624352042
 30
0.0
 10
67.81631630423443
 20
139.5652511213307
 30
0.0
 10
67.85992000313695
 20
139.436668755101
 30
0.0
 10
67.91305168422318
 20
139.3115481555926
 30
0.0
 10
67.97445981652896
 20
139.1935679626559
 30
0.0
 10
68.04337930817097
 20
139.0843695960446
 30
0.0
 10
68.11947601686097
 20
138.9841500900231
 30
0.0
 10
68.20375725516901
 20
138.8915207958718
 30
0.0
 10
68.29148708589837
 20
138.8119686703655
 30
0.0
 10
68.38036819658592
 20
138.7452787335407
 30
0.0
 10
68.46920411363189
 20
138.6897200349861
 30
0.0
 10
68.56212710332028
 20
138.6422967508374
 30
0.0
 10
68.66014106029563
 20
138.6028631375085
 30
0.0
 10
68.76242584397559
 20
138.5719347525445
 30
0.0
 10
68.86895889745934
 20
138.5498885683839
 30
0.0
 10
68.97765848194972
 20
138.5378275597973
 30
0.0
 10
69.07461440207202
 20
138.5356142426569
 30
0.0
 10
69.13488548409484
 20
138.5399335354345
 30
0.0
 10
69.15845004413895
 20
138.5416222762135
 30
0.0
  0
SPLINE
  5
17E
330
1F
100
AcDbEntity
  8
SLD-0
  6
SLD-実線
 62
   208
420
  4194368
370
    25
100
AcDbSpline
210
0.0
220
0.0
230
1.0
 70
     8
 71
     3
 72
    15
 73
    11
 74
     0
 42
0.000000001
 43
0.00000001
 40
0.0
 40
0.0
 40
0.0
 40
0.0
 40
0.0091537961470995
 40
0.0457830382336491
 40
0.1932006980150116
 40
0.3956485763094678
 40
0.5949309917832318
 40
0.7740536706792138
 40
0.968268137759058
 40
1.0
 40
1.0
 40
1.0
 40
1.0
 10
66.7718940786
 20
138.6961208851
 30
0.0
 10
66.77441320049766
 20
138.6949441994325
 30
0.0
 10
66.78701267860517
 20
138.6890589640572
 30
0.0
 10
66.84070008918808
 20
138.6711719021621
 30
0.0
 10
66.95133563107696
 20
138.6848970155152
 30
0.0
 10
67.10808363251368
 20
138.8417618604276
 30
0.0
 10
67.24214760845165
 20
139.1863854216146
 30
0.0
 10
67.32568467295152
 20
139.6443955864343
 30
0.0
 10
67.35625705283512
 20
140.0105614192254
 30
0.0
 10
67.36239787425747
 20
140.2166760261754
 30
0.0
 10
67.36326029012412
 20
140.2456227248593
 30
0.0
  0
SPLINE
  5
17F
330
1F
100
AcDbEntity
  8
SLD-0
  6
SLD-実線
 62
   208
420
  4194368
370
    25
100
AcDbSpline
210
0.0
220
0.0
230
1.0
 70
     8
 71
     3
 72
    27
 73
    23
 74
     0
 42
0.000000001
 43
0.00000001
 40
0.0
 40
0.0
 40
0.0
 40
0.0
 40
0.0440708297426865
 40
0.0883526363893622
 40
0.1332892471204914
 40
0.1784513617496028
 40
0.2313428079890446
 40
0.2846267777133956
 40
0.3392437481851295
 40
0.3943568951744348
 40
0.4434385978191298
 40
0.4929389034423469
 40
0.5437578736374131
 40
0.5950357172000577
 40
0.6395725990371041
 40
0.7299822225469592
 40
0.7759210758843249
 40
0.8239343580971947
 40
0.8722274736611179
 40
0.9213835078949535
 40
0.9708306317634565
 40
1.0
 40
1.0
 40
1.0
 40
1.0
 10
68.35180413839062
 20
136.4280430921532
 30
0.0
 10
68.3318952307964
 20
136.4597822941647
 30
0.0
 10
68.29198210722116
 20
136.5234126408359
 30
0.0
 10
68.22844841864496
 20
136.6215750210862
 30
0.0
 10
68.16231886518727
 20
136.7215658727564
 30
0.0
 10
68.0897301088453
 20
136.8287251837228
 30
0.0
 10
68.0108619579403
 20
136.9423631311338
 30
0.0
 10
67.92511956116454
 20
137.0624264587228
 30
0.0
 10
67.83662982755078
 20
137.1822835574117
 30
0.0
 10
67.74961241132071
 20
137.2961585712054
 30
0.0
 10
67.66522921738625
 20
137.4023846556105
 30
0.0
 10
67.58365586814436
 20
137.5009072647099
 30
0.0
 10
67.50212597211998
 20
137.5953642806906
 30
0.0
 10
67.4251475873151
 20
137.6803441969818
 30
0.0
 10
67.33053333635958
 20
137.7797574497272
 30
0.0
 10
67.24358777609737
 20
137.8648273030169
 30
0.0
 10
67.16197584760822
 20
137.9381594691844
 30
0.0
 10
67.1029128343341
 20
137.9878737106666
 30
0.0
 10
67.0469094917422
 20
138.031483048559
 30
0.0
 10
66.99526906615507
 20
138.0677335456617
 30
0.0
 10
66.95457398916294
 20
138.0928244054918
 30
0.0
 10
66.93236142146232
 20
138.1040771673799
 30
0.0
 10
66.9241198102
 20
138.1082523213
 30
0.0
  0
SPLINE
  5
180
330
1F
100
AcDbEntity
  8
SLD-0
  6
SLD-実線
 62
   208
420
  4194368
370
    25
100
AcDbSpline
210
0.0
220
0.0
230
1.0
 70
     8
 71
     3
 72
     9
 73
     5
 74
     0
 42
0.000000001
 43
0.00000001
 40
0.0
 40
0.0
 40
0.0
 40
0.0
 40
0.7231000994379266
 40
1.0
 40
1.0
 40
1.0
 40
1.0
 10
69.31067577563894
 20
137.9537537124135
 30
0.0
 10
69.33865512428619
 20
137.9891525028692
 30
0.0
 10
69.37734872793665
 20
138.0381067078031
 30
0.0
 10
69.38153865927887
 20
138.0795195037724
 30
0.0
 10
69.38269885085091
 20
138.0909867028581
 30
0.0
  0
SPLINE
  5
181
330
1F
100
AcDbEntity
  8
SLD-0
  6
SLD-実線
 62
   208
420
  4194368
370
    25
100
AcDbSpline
210
0.0
220
0.0
230
1.0
 70
     8
 71
     3
 72
     9
 73
     5
 74
     0
 42
0.000000001
 43
0.00000001
 40
0.0
 40
0.0
 40
0.0
 40
0.0
 40
0.2646930023725534
 40
1.0
 40
1.0
 40
1.0
 40
1.0
 10
67.73532866359753
 20
140.0272098218884
 30
0.0
 10
67.70457915237823
 20
140.0512839827483
 30
0.0
 10
67.58840867962799
 20
140.1422352381429
 30
0.0
 10
67.45866311310189
 20
140.2018140255608
 30
0.0
 10
67.36326029012412
 20
140.2456227248593
 30
0.0
  0
SPLINE
  5
182
330
1F
100
AcDbEntity
  8
SLD-0
  6
SLD-実線
 62
   208
420
  4194368
370
    25
100
AcDbSpline
210
0.0
220
0.0
230
1.0
 70
     8
 71
     3
 72
     9
 73
     5
 74
     0
 42
0.000000001
 43
0.00000001
 40
0.0
 40
0.0
 40
0.0
 40
0.0
 40
0.7340093146282056
 40
0.9999999999999999
 40
0.9999999999999999
 40
0.9999999999999999
 40
0.9999999999999999
 10
67.80985140047241
 20
138.9056209661712
 30
0.0
 10
67.88971474409027
 20
138.9199162629146
 30
0.0
 10
67.99851900859517
 20
138.9393918968861
 30
0.0
 10
68.10886181309144
 20
138.9607483798802
 30
0.0
 10
68.13821197128523
 20
138.9664290054289
 30
0.0
  0
SPLINE
  5
183
330
1F
100
AcDbEntity
  8
SLD-0
  6
SLD-実線
 62
   208
420
  4194368
370
    25
100
AcDbSpline
210
0.0
220
0.0
230
1.0
 70
     8
 71
     3
 72
    13
 73
     9
 74
     0
 42
0.000000001
 43
0.00000001
 40
0.0
 40
0.0
 40
0.0
 40
0.0
 40
0.0898643500863198
 40
0.2186122794935161
 40
0.3897465985098518
 40
0.6168481806940485
 40
0.8279204357749776
 40
1.0
 40
1.0
 40
1.0
 40
1.0
 10
69.02523864482998
 20
138.538572590292
 30
0.0
 10
68.96116265817022
 20
138.521436770065
 30
0.0
 10
68.80528552234237
 20
138.4797505984384
 30
0.0
 10
68.52912818155885
 20
138.4237578850694
 30
0.0
 10
68.16290276221433
 20
138.3534648881998
 30
0.0
 10
67.74396898379203
 20
138.2782514863622
 30
0.0
 10
67.32064762154168
 20
138.200485179416
 30
0.0
 10
67.04701331910947
 20
138.1368375030865
 30
0.0
 10
66.9241198102
 20
138.1082523213
 30
0.0
  0
SPLINE
  5
184
330
1F
100
AcDbEntity
  8
SLD-0
  6
SLD-実線
 62
   208
420
  4194368
370
    25
100
AcDbSpline
210
0.0
220
0.0
230
1.0
 70
     8
 71
     3
 72
     9
 73
     5
 74
     0
 42
0.000000001
 43
0.00000001
 40
0.0
 40
0.0
 40
0.0
 40
0.0
 40
0.8473964445315223
 40
1.0
 40
1.0
 40
1.0
 40
1.0
 10
68.35180413839062
 20
136.4280430921532
 30
0.0
 10
68.4084795945874
 20
136.5361244248283
 30
0.0
 10
68.47536146146622
 20
136.663669605567
 30
0.0
 10
68.52012115389898
 20
136.8039509478694
 30
0.0
 10
68.52695164210589
 20
136.8253583794706
 30
0.0
  0
SPLINE
  5
185
330
1F
100
AcDbEntity
  8
SLD-0
  6
SLD-実線
 62
   208
420
  4194368
370
    25
100
AcDbSpline
210
0.0
220
0.0
230
1.0
 70
     8
 71
     3
 72
    11
 73
     7
 74
     0
 42
0.000000001
 43
0.00000001
 40
0.0
 40
0.0
 40
0.0
 40
0.0
 40
0.2147202435957883
 40
0.5712719325355434
 40
0.9242240792774098
 40
1.0
 40
1.0
 40
1.0
 40
1.0
 10
68.85202009216555
 20
137.8648368272315
 30
0.0
 10
68.86900825106511
 20
137.9184715867185
 30
0.0
 10
68.91420593807524
 20
138.0611690436054
 30
0.0
 10
69.00573987639451
 20
138.2809186231707
 30
0.0
 10
69.10218119125824
 20
138.4615333671788
 30
0.0
 10
69.17617807890156
 20
138.5320451258524
 30
0.0
 10
69.18925672412523
 20
138.54450778888
 30
0.0
  0
SPLINE
  5
186
330
1F
100
AcDbEntity
  8
SLD-0
 62
   208
420
  4194368
370
    25
100
AcDbSpline
210
0.0
220
0.0
230
1.0
 70
     8
 71
     3
 72
    20
 73
    16
 74
     0
 42
0.000000001
 43
0.00000001
 40
0.0906334128872185
 40
0.0906334128872185
 40
0.0906334128872185
 40
0.0906334128872185
 40
0.1113302506921228
 40
0.1599553733652695
 40
0.2134595193640113
 40
0.2819386384383669
 40
0.3532745963134761
 40
0.4366826862147672
 40
0.5217950771709463
 40
0.602697648677878
 40
0.6810617112525822
 40
0.7537417999062972
 40
0.8140748746255068
 40
0.8669536235160454
 40
0.9159157050397048
 40
0.9159157050397048
 40
0.9159157050397048
 40
0.9159157050397048
 10
136.9646150598
 20
169.9500607617
 30
0.0
 10
137.0034153832113
 20
169.9653696310719
 30
0.0
 10
137.1353152746895
 20
170.0086673605333
 30
0.0
 10
137.3899968786992
 20
169.9984388691169
 30
0.0
 10
137.7075853917199
 20
169.864318031128
 30
0.0
 10
138.0239670904208
 20
169.6360602550851
 30
0.0
 10
138.323588870683
 20
169.3021890703807
 30
0.0
 10
138.5929504196246
 20
168.9031914141874
 30
0.0
 10
138.8051967098899
 20
168.449726311634
 30
0.0
 10
138.9550252862334
 20
167.9830709266799
 30
0.0
 10
139.0319861005064
 20
167.5236576130573
 30
0.0
 10
139.0286870688371
 20
167.0980070177344
 30
0.0
 10
138.9509336483327
 20
166.7323869440845
 30
0.0
 10
138.7945206133664
 20
166.4372300009943
 30
0.0
 10
138.625503244927
 20
166.3168994164472
 30
0.0
 10
138.5363068978
 20
166.2717751874
 30
0.0
  0
SPLINE
  5
187
330
1F
100
AcDbEntity
  8
SLD-0
 62
   208
420
  4194368
370
    25
100
AcDbSpline
210
0.0
220
0.0
230
1.0
 70
     8
 71
     3
 72
    22
 73
    18
 74
     0
 42
0.000000001
 43
0.00000001
 40
0.0314911094050378
 40
0.0314911094050378
 40
0.0314911094050378
 40
0.0314911094050378
 40
0.0906334128858063
 40
0.1113302506921228
 40
0.1599553733652695
 40
0.2134595193640113
 40
0.2819386384383669
 40
0.3532745963134761
 40
0.4366826862147672
 40
0.5217950771709463
 40
0.602697648677878
 40
0.6810617112525822
 40
0.7537417999062972
 40
0.8140748746255068
 40
0.8669536235160454
 40
0.9159157050395826
 40
0.9286844992666857
 40
0.9286844992666857
 40
0.9286844992666857
 40
0.9286844992666857
 10
137.0940508593694
 20
170.0053672857914
 30
0.0
 10
137.2065519225246
 20
170.0415256004599
 30
0.0
 10
137.3498344595207
 20
170.1268359213894
 30
0.0
 10
137.5942652626331
 20
170.2070732791807
 30
0.0
 10
137.8489468666582
 20
170.1968447877691
 30
0.0
 10
138.1665353796741
 20
170.0627239497784
 30
0.0
 10
138.4829170783767
 20
169.8344661737361
 30
0.0
 10
138.7825388586384
 20
169.5005949890315
 30
0.0
 10
139.0519004075801
 20
169.1015973328384
 30
0.0
 10
139.2641466978455
 20
168.6481322302846
 30
0.0
 10
139.4139752741886
 20
168.1814768453315
 30
0.0
 10
139.4909360884628
 20
167.7220635317056
 30
0.0
 10
139.4876370567897
 20
167.2964129363936
 30
0.0
 10
139.4098836362964
 20
166.9307928627113
 30
0.0
 10
139.2534706012961
 20
166.6356359197207
 30
0.0
 10
139.0632618503757
 20
166.5002182969694
 30
0.0
 10
138.9481940974541
 20
166.447510850762
 30
0.0
 10
138.9240023615581
 20
166.4374332864559
 30
0.0
  0
SPLINE
  5
188
330
1F
100
AcDbEntity
  8
SLD-0
 62
   208
420
  4194368
370
    25
100
AcDbSpline
210
0.0
220
0.0
230
1.0
 70
     8
 71
     3
 72
    22
 73
    18
 74
     0
 42
0.000000001
 43
0.00000001
 40
0.0361900740332629
 40
0.0361900740332629
 40
0.0361900740332629
 40
0.0361900740332629
 40
0.0906334128858063
 40
0.1113302506921228
 40
0.1599553733652695
 40
0.2134595193640113
 40
0.2819386384383669
 40
0.3532745963134761
 40
0.4366826862147672
 40
0.5217950771709463
 40
0.602697648677878
 40
0.6810617112525822
 40
0.7537417999062972
 40
0.8140748746255068
 40
0.8669536235160454
 40
0.9159157050395826
 40
0.9698681489167805
 40
0.9698681489167805
 40
0.9698681489167805
 40
0.9698681489167805
 10
137.5797011807225
 20
170.2128804412496
 30
0.0
 10
137.6823977015729
 20
170.2498506898913
 30
0.0
 10
137.8177252350731
 20
170.3281767613522
 30
0.0
 10
138.0532152505886
 20
170.4054791978316
 30
0.0
 10
138.3078968546136
 20
170.39525070642
 30
0.0
 10
138.6254853676295
 20
170.2611298684292
 30
0.0
 10
138.9418670663321
 20
170.032872092387
 30
0.0
 10
139.2414888465938
 20
169.6990009076824
 30
0.0
 10
139.5108503955355
 20
169.3000032514892
 30
0.0
 10
139.7230966858008
 20
168.8465381489358
 30
0.0
 10
139.8729252621445
 20
168.3798827639814
 30
0.0
 10
139.9498860764167
 20
167.9204694503598
 30
0.0
 10
139.9465870447499
 20
167.4948188550336
 30
0.0
 10
139.868833624238
 20
167.1291987813933
 30
0.0
 10
139.7124205892948
 20
166.8340418382738
 30
0.0
 10
139.4538625125166
 20
166.6499634516655
 30
0.0
 10
139.2479935622732
 20
166.5845939553422
 30
0.0
 10
139.141702909664
 20
166.562698616107
 30
0.0
  0
SPLINE
  5
189
330
1F
100
AcDbEntity
  8
SLD-0
 62
   208
420
  4194368
370
    25
100
AcDbSpline
210
0.0
220
0.0
230
1.0
 70
     8
 71
     3
 72
    21
 73
    17
 74
     0
 42
0.000000001
 43
0.00000001
 40
0.1046783687529648
 40
0.1046783687529648
 40
0.1046783687529648
 40
0.1046783687529648
 40
0.1113302506921228
 40
0.1599553733652695
 40
0.2134595193640113
 40
0.2819386384383669
 40
0.3532745963134761
 40
0.4366826862147672
 40
0.5217950771709463
 40
0.602697648677878
 40
0.6810617112525822
 40
0.7537417999062972
 40
0.8140748746255068
 40
0.8669536235160454
 40
0.9159157050395826
 40
0.9698681489563695
 40
0.9698681489563695
 40
0.9698681489563695
 40
0.9698681489563695
 10
138.4214048625518
 20
170.5725313655823
 30
0.0
 10
138.4341984493149
 20
170.5761177494373
 30
0.0
 10
138.5412876414695
 20
170.6027155161369
 30
0.0
 10
138.7668468445505
 20
170.5936566203482
 30
0.0
 10
139.0844353548601
 20
170.4595357888077
 30
0.0
 10
139.4008170545103
 20
170.2312780105071
 30
0.0
 10
139.700438834477
 20
169.8974068265053
 30
0.0
 10
139.9698003835121
 20
169.4984091700897
 30
0.0
 10
140.1820466737508
 20
169.0449440675995
 30
0.0
 10
140.3318752501013
 20
168.5782886826289
 30
0.0
 10
140.4088360643715
 20
168.1188753690118
 30
0.0
 10
140.4055370327062
 20
167.6932247736833
 30
0.0
 10
140.327783612191
 20
167.3276047000473
 30
0.0
 10
140.1713705772579
 20
167.0324477569148
 30
0.0
 10
139.9128125003789
 20
166.8483693703049
 30
0.0
 10
139.7069435501355
 20
166.7829998738579
 30
0.0
 10
139.6006528974507
 20
166.7611045346248
 30
0.0
  0
SPLINE
  5
18A
330
1F
100
AcDbEntity
  8
SLD-0
 62
   208
420
  4194368
370
    25
100
AcDbSpline
210
0.0
220
0.0
230
1.0
 70
     8
 71
     3
 72
    21
 73
    17
 74
     0
 42
0.000000001
 43
0.00000001
 40
0.1071758073476727
 40
0.1071758073476727
 40
0.1071758073476727
 40
0.1071758073476727
 40
0.1113302506921228
 40
0.1599553733652695
 40
0.2134595193640113
 40
0.2819386384383669
 40
0.3532745963134761
 40
0.4366826862147672
 40
0.5217950771709463
 40
0.602697648677878
 40
0.6810617112525822
 40
0.7537417999062972
 40
0.8140748746255068
 40
0.8669536235160454
 40
0.9159157050395826
 40
0.969868148959154
 40
0.969868148959154
 40
0.969868148959154
 40
0.969868148959154
 10
138.8948051064072
 20
170.7748101947683
 30
0.0
 10
138.9028404741561
 20
170.7768633781073
 30
0.0
 10
139.0054161096925
 20
170.8009134402395
 30
0.0
 10
139.2257968290614
 20
170.7920625471414
 30
0.0
 10
139.5433853440756
 20
170.65794170448
 30
0.0
 10
139.8597670420785
 20
170.4296839300731
 30
0.0
 10
140.159388822558
 20
170.0958127448596
 30
0.0
 10
140.4287503714309
 20
169.6968150888273
 30
0.0
 10
140.6409966617156
 20
169.2433499862282
 30
0.0
 10
140.7908252380544
 20
168.7766946012854
 30
0.0
 10
140.8677860523275
 20
168.3172812876614
 30
0.0
 10
140.8644870206616
 20
167.8916306923343
 30
0.0
 10
140.7867336001464
 20
167.5260106186985
 30
0.0
 10
140.6303205652137
 20
167.2308536755648
 30
0.0
 10
140.3717624883283
 20
167.0467752889554
 30
0.0
 10
140.1658935380834
 20
166.9814057924985
 30
0.0
 10
140.0596028853933
 20
166.9595104532655
 30
0.0
  0
SPLINE
  5
18B
330
1F
100
AcDbEntity
  8
SLD-0
 62
   208
420
  4194368
370
    25
100
AcDbSpline
210
0.0
220
0.0
230
1.0
 70
     8
 71
     3
 72
    21
 73
    17
 74
     0
 42
0.000000001
 43
0.00000001
 40
0.1093383696479593
 40
0.1093383696479593
 40
0.1093383696479593
 40
0.1093383696479593
 40
0.1113302506921228
 40
0.1599553733652695
 40
0.2134595193640113
 40
0.2819386384383669
 40
0.3532745963134761
 40
0.4366826862147672
 40
0.5217950771709463
 40
0.602697648677878
 40
0.6810617112525822
 40
0.7537417999062972
 40
0.8140748746255068
 40
0.8669536235160454
 40
0.9159157050395826
 40
0.9698681489631088
 40
0.9698681489631088
 40
0.9698681489631088
 40
0.9698681489631088
 10
139.3663353175949
 20
170.9762899791217
 30
0.0
 10
139.370207745087
 20
170.9771923722749
 30
0.0
 10
139.4688502050041
 20
170.9991392572426
 30
0.0
 10
139.6847468145117
 20
170.9904684716614
 30
0.0
 10
140.0023353329474
 20
170.8563476209839
 30
0.0
 10
140.3187170297525
 20
170.6280898493836
 30
0.0
 10
140.6183388106047
 20
170.2942186632966
 30
0.0
 10
140.8877003593596
 20
169.8952210075407
 30
0.0
 10
141.0999466496779
 20
169.4417559048631
 30
0.0
 10
141.2497752260082
 20
168.9751005199403
 30
0.0
 10
141.3267360402834
 20
168.5156872063112
 30
0.0
 10
141.3234370086171
 20
168.0900366109853
 30
0.0
 10
141.2456835881015
 20
167.7244165373496
 30
0.0
 10
141.0892705531701
 20
167.4292595942149
 30
0.0
 10
140.8307124762736
 20
167.2451812076044
 30
0.0
 10
140.6248435260317
 20
167.1798117111375
 30
0.0
 10
140.518552873334
 20
167.1579163719047
 30
0.0
  0
SPLINE
  5
18C
330
1F
100
AcDbEntity
  8
SLD-0
 62
   208
420
  4194368
370
    25
100
AcDbSpline
210
0.0
220
0.0
230
1.0
 70
     8
 71
     3
 72
    21
 73
    17
 74
     0
 42
0.000000001
 43
0.00000001
 40
0.1112626050525362
 40
0.1112626050525362
 40
0.1112626050525362
 40
0.1112626050525362
 40
0.1113302506921228
 40
0.1599553733652695
 40
0.2134595193640113
 40
0.2819386384383669
 40
0.3532745963134761
 40
0.4366826862147672
 40
0.5217950771709463
 40
0.602697648677878
 40
0.6810617112525822
 40
0.7537417999062972
 40
0.8140748746255068
 40
0.8669536235160454
 40
0.9159157050395826
 40
0.9698681489671287
 40
0.9698681489671287
 40
0.9698681489671287
 40
0.9698681489671287
 10
139.8365346219528
 20
171.1772010813109
 30
0.0
 10
139.8366667592738
 20
171.1772291291169
 30
0.0
 10
139.9317900510269
 20
171.1973851010337
 30
0.0
 10
140.143696838006
 20
171.1888743052298
 30
0.0
 10
140.4612853079026
 20
171.0547535707584
 30
0.0
 10
140.7776670217022
 20
170.8264957584719
 30
0.0
 10
141.0772887972656
 20
170.4926245850468
 30
0.0
 10
141.3466503476936
 20
170.0936269252854
 30
0.0
 10
141.5588966375365
 20
169.6401618237457
 30
0.0
 10
141.7087252139882
 20
169.1735064385323
 30
0.0
 10
141.7856860282328
 20
168.7140931249765
 30
0.0
 10
141.7823869965739
 20
168.2884425296331
 30
0.0
 10
141.7046335760564
 20
167.9228224560013
 30
0.0
 10
141.5482205411268
 20
167.6276655128649
 30
0.0
 10
141.2896624642183
 20
167.4435871262532
 30
0.0
 10
141.0837935139807
 20
167.3782176297771
 30
0.0
 10
140.9775028612754
 20
167.3563222905445
 30
0.0
  0
SPLINE
  5
18D
330
1F
100
AcDbEntity
  8
SLD-0
 62
   208
420
  4194368
370
    25
100
AcDbSpline
210
0.0
220
0.0
230
1.0
 70
     8
 71
     3
 72
    20
 73
    16
 74
     0
 42
0.000000001
 43
0.00000001
 40
0.1130078242701822
 40
0.1130078242701822
 40
0.1130078242701822
 40
0.1130078242701822
 40
0.1599553733652695
 40
0.2134595193640113
 40
0.2819386384383669
 40
0.3532745963134761
 40
0.4366826862147672
 40
0.5217950771709463
 40
0.602697648677878
 40
0.6810617112525822
 40
0.7537417999062972
 40
0.8140748746255068
 40
0.8669536235160454
 40
0.9159157050395826
 40
0.9698681489700659
 40
0.9698681489700659
 40
0.9698681489700659
 40
0.9698681489700659
 10
140.3057338853802
 20
171.3776848767734
 30
0.0
 10
140.3978314668435
 20
171.3954864648238
 30
0.0
 10
140.6057696073055
 20
171.3859615044805
 30
0.0
 10
140.9202353074535
 20
171.2531594615699
 30
0.0
 10
141.236617006095
 20
171.0249016856763
 30
0.0
 10
141.5362387863757
 20
170.6910305009254
 30
0.0
 10
141.8056003353115
 20
170.2920328447468
 30
0.0
 10
142.0178466255783
 20
169.8385677421893
 30
0.0
 10
142.1676752019217
 20
169.3719123572358
 30
0.0
 10
142.2446360161936
 20
168.9124990436146
 30
0.0
 10
142.2413369845283
 20
168.4868484482866
 30
0.0
 10
142.1635835640118
 20
168.1212283746517
 30
0.0
 10
142.0071705290829
 20
167.8260714315153
 30
0.0
 10
141.7486124521665
 20
167.6419930449029
 30
0.0
 10
141.5427435019303
 20
167.5766235484187
 30
0.0
 10
141.4364528492194
 20
167.5547282091863
 30
0.0
  0
SPLINE
  5
18E
330
1F
100
AcDbEntity
  8
SLD-0
 62
   208
420
  4194368
370
    25
100
AcDbSpline
210
0.0
220
0.0
230
1.0
 70
     8
 71
     3
 72
    19
 73
    15
 74
     0
 42
0.000000001
 43
0.00000001
 40
0.1036134633283092
 40
0.1036134633283092
 40
0.1036134633283092
 40
0.1036134633283092
 40
0.1688007807063132
 40
0.2121922337151862
 40
0.2806304390971664
 40
0.3519237764264033
 40
0.4352820331379869
 40
0.5203435726488204
 40
0.6011978079188415
 40
0.6795150509200347
 40
0.7521517159604033
 40
0.8124487439416803
 40
0.8652958997729836
 40
0.9029660652834709
 40
0.9029660652834709
 40
0.9029660652834709
 40
0.9029660652834709
 10
140.7131267675
 20
171.5517594707
 30
0.0
 10
140.8424762067828
 20
171.5732177961871
 30
0.0
 10
141.0679581141003
 20
171.5864908229262
 30
0.0
 10
141.3961780563905
 20
171.4389862439083
 30
0.0
 10
141.6954067863455
 20
171.2235286505126
 30
0.0
 10
141.9952418190061
 20
170.8893635001619
 30
0.0
 10
142.2645297359012
 20
170.490465871657
 30
0.0
 10
142.4768206828891
 20
170.0369452954449
 30
0.0
 10
142.6265539915929
 20
169.5703996623338
 30
0.0
 10
142.7038318145036
 20
169.1106247360703
 30
0.0
 10
142.6995032967512
 20
168.6861475926613
 30
0.0
 10
142.6247942580332
 20
168.3170575959881
 30
0.0
 10
142.4705384302465
 20
168.0523405508495
 30
0.0
 10
142.3434602180109
 20
167.9203834066566
 30
0.0
 10
142.2848186055
 20
167.8734738964
 30
0.0
  0
MTEXT
  5
190
330
1F
100
AcDbEntity
  8
SLD-0
 62
   208
420
  4194368
100
AcDbMText
 10
147.3144251097
 20
114.4109128084
 30
0.0
 40
3.5
 41
0.0
 46
0.0
 71
     1
 72
     1
  1
HEC-092S
  7
SLDTEXTSTYLE0
 73
     1
 44
1.0
  0
ENDSEC
  0
SECTION
  2
OBJECTS
  0
DICTIONARY
  5
C
330
0
100
AcDbDictionary
281
     1
  3
ACAD_DETAILVIEWSTYLE
350
198
  3
ACAD_GROUP
350
D
  3
ACAD_LAYOUT
350
1A
  3
ACAD_MATERIAL
350
43
  3
ACAD_MLEADERSTYLE
350
6B
  3
ACAD_MLINESTYLE
350
17
  3
ACAD_PLOTSETTINGS
350
19
  3
ACAD_PLOTSTYLENAME
350
E
  3
ACAD_SCALELIST
350
47
  3
ACAD_SECTIONVIEWSTYLE
350
199
  3
ACAD_TABLESTYLE
350
69
  3
ACAD_VISUALSTYLE
350
2A
  3
ACDB_RECOMPOSE_DATA
350
195
  3
AcDbVariableDictionary
350
191
  0
SUN
  5
6D
330
29
100
AcDbSun
 90
        1
290
     0
 63
     7
421
 16777215
 40
1.0
291
     1
 91
  2455826
 92
 54000000
292
     0
 70
     2
 71
   256
280
     1
  0
DICTIONARY
  5
198
102
{ACAD_REACTORS
330
C
102
}
330
C
100
AcDbDictionary
281
     1
  0
DICTIONARY
  5
D
102
{ACAD_REACTORS
330
C
102
}
330
C
100
AcDbDictionary
281
     1
  0
DICTIONARY
  5
1A
102
{ACAD_REACTORS
330
C
102
}
330
C
100
AcDbDictionary
281
     1
  3
Layout1
350
1E
  3
Layout2
350
26
  3
Model
350
22
  0
DICTIONARY
  5
43
102
{ACAD_REACTORS
330
C
102
}
330
C
100
AcDbDictionary
281
     1
  3
ByBlock
350
45
  3
ByLayer
350
44
  3
Global
350
46
  0
DICTIONARY
  5
6B
102
{ACAD_REACTORS
330
C
102
}
330
C
100
AcDbDictionary
281
     1
  3
Standard
350
6C
  0
DICTIONARY
  5
17
102
{ACAD_REACTORS
330
C
102
}
330
C
100
AcDbDictionary
281
     1
  3
Standard
350
18
  0
DICTIONARY
  5
19
102
{ACAD_REACTORS
330
C
102
}
330
C
100
AcDbDictionary
281
     1
  0
ACDBDICTIONARYWDFLT
  5
E
102
{ACAD_REACTORS
330
C
102
}
330
C
100
AcDbDictionary
281
     1
  3
Normal
350
F
100
AcDbDictionaryWithDefault
340
F
  0
DICTIONARY
  5
47
102
{ACAD_REACTORS
330
C
102
}
330
C
100
AcDbDictionary
281
     1
  3
A0
350
48
  3
A1
350
49
  3
A2
350
4A
  3
A3
350
4B
  3
A4
350
4C
  3
A5
350
4D
  3
A6
350
4E
  3
A7
350
4F
  3
A8
350
50
  3
A9
350
51
  3
B0
350
52
  3
B1
350
53
  3
B2
350
54
  3
B3
350
55
  3
B4
350
56
  3
B5
350
57
  3
B6
350
58
  3
B7
350
59
  3
B8
350
5A
  3
B9
350
5B
  3
C0
350
5C
  3
C1
350
5D
  3
C2
350
5E
  3
C3
350
5F
  3
C4
350
60
  3
C5
350
61
  3
C6
350
62
  3
C7
350
63
  3
C8
350
64
  3
C9
350
65
  3
D0
350
66
  3
D1
350
67
  3
D2
350
68
  0
DICTIONARY
  5
199
102
{ACAD_REACTORS
330
C
102
}
330
C
100
AcDbDictionary
281
     1
  0
DICTIONARY
  5
69
102
{ACAD_REACTORS
330
C
102
}
330
C
100
AcDbDictionary
281
     1
  3
Standard
350
6A
  0
DICTIONARY
  5
2A
102
{ACAD_REACTORS
330
C
102
}
330
C
100
AcDbDictionary
281
     1
  3
2dWireframe
350
2F
  3
Basic
350
32
  3
Brighten
350
36
  3
ColorChange
350
3A
  3
Conceptual
350
34
  3
Dim
350
35
  3
EdgeColorOff
350
3D
  3
Facepattern
350
39
  3
Flat
350
2B
  3
FlatWithEdges
350
2C
  3
Gouraud
350
2D
  3
GouraudWithEdges
350
2E
  3
Hidden
350
31
  3
JitterOff
350
3B
  3
Linepattern
350
38
  3
OverhangOff
350
3C
  3
Realistic
350
33
  3
Shaded
350
42
  3
Shaded with edges
350
41
  3
Shades of Gray
350
3E
  3
Sketchy
350
3F
  3
Thicken
350
37
  3
Wireframe
350
30
  3
X-Ray
350
40
  0
XRECORD
  5
195
102
{ACAD_REACTORS
330
C
102
}
330
C
100
AcDbXrecord
280
     1
 90
        1
330
6A
  0
DICTIONARY
  5
191
102
{ACAD_REACTORS
330
C
102
}
330
C
100
AcDbDictionary
281
     1
  3
CANNOSCALE
350
192
  3
CMLEADERSTYLE
350
197
  3
CTABLESTYLE
350
196
  3
SECTIONTHICKNESSINC
350
19A
  0
LAYOUT
  5
1E
102
{ACAD_REACTORS
330
1A
102
}
330
1A
100
AcDbPlotSettings
  1

  2
none_device
  4

  6

 40
0.0
 41
0.0
 42
0.0
 43
0.0
 44
0.0
 45
0.0
 46
0.0
 47
0.0
 48
0.0
 49
0.0
140
0.0
141
0.0
142
1.0
143
1.0
 70
   688
 72
     1
 73
     0
 74
     5
  7

 75
    16
 76
     0
 77
     2
 78
   300
147
1.0
148
0.0
149
0.0
100
AcDbLayout
  1
Layout1
 70
     1
 71
     1
 10
0.0
 20
0.0
 11
420.0
 21
297.0
 12
0.0
 22
0.0
 32
0.0
 14
1.0000000000E+20
 24
1.0000000000E+20
 34
1.0000000000E+20
 15
-1.0000000000E+20
 25
-1.0000000000E+20
 35
-1.0000000000E+20
146
0.0
 13
0.0
 23
0.0
 33
0.0
 16
1.0
 26
0.0
 36
0.0
 17
0.0
 27
1.0
 37
0.0
 76
     0
330
1B
  0
LAYOUT
  5
26
102
{ACAD_REACTORS
330
1A
102
}
330
1A
100
AcDbPlotSettings
  1

  2
none_device
  4

  6

 40
0.0
 41
0.0
 42
0.0
 43
0.0
 44
0.0
 45
0.0
 46
0.0
 47
0.0
 48
0.0
 49
0.0
140
0.0
141
0.0
142
1.0
143
1.0
 70
   688
 72
     1
 73
     0
 74
     5
  7

 75
    16
 76
     0
 77
     2
 78
   300
147
1.0
148
0.0
149
0.0
100
AcDbLayout
  1
Layout2
 70
     1
 71
     2
 10
0.0
 20
0.0
 11
0.0
 21
0.0
 12
0.0
 22
0.0
 32
0.0
 14
0.0
 24
0.0
 34
0.0
 15
0.0
 25
0.0
 35
0.0
146
0.0
 13
0.0
 23
0.0
 33
0.0
 16
1.0
 26
0.0
 36
0.0
 17
0.0
 27
1.0
 37
0.0
 76
     0
330
23
  0
LAYOUT
  5
22
102
{ACAD_REACTORS
330
1A
102
}
330
1A
100
AcDbPlotSettings
  1

  2
none_device
  4
Letter_(8.50_x_11.00_Inches)
  6

 40
6.35
 41
6.35
 42
6.35000508
 43
6.35000508
 44
215.9
 45
279.4
 46
0.0
 47
0.0
 48
0.0
 49
0.0
140
0.0
141
0.0
142
1.0
143
1.0
 70
  1712
 72
     1
 73
     0
 74
     0
  7

 75
     0
 76
     0
 77
     2
 78
   300
147
1.0
148
0.0
149
0.0
100
AcDbLayout
  1
Model
 70
     1
 71
     0
 10
0.0
 20
0.0
 11
210.0
 21
297.0
 12
0.0
 22
0.0
 32
0.0
 14
0.0
 24
0.0
 34
0.0
 15
210.0
 25
297.0
 35
0.0
146
0.0
 13
0.0
 23
0.0
 33
0.0
 16
1.0
 26
0.0
 36
0.0
 17
0.0
 27
1.0
 37
0.0
 76
     0
330
1F
331
29
  0
MATERIAL
  5
45
102
{ACAD_REACTORS
330
43
102
}
330
43
100
AcDbMaterial
  1
ByBlock
 72
     1
 94
      127
  0
MATERIAL
  5
44
102
{ACAD_REACTORS
330
43
102
}
330
43
100
AcDbMaterial
  1
ByLayer
 72
     1
 94
      127
  0
MATERIAL
  5
46
102
{ACAD_REACTORS
330
43
102
}
330
43
100
AcDbMaterial
  1
Global
 72
     1
 94
      127
  0
MLEADERSTYLE
  5
6C
102
{ACAD_REACTORS
330
6B
102
}
330
6B
100
AcDbMLeaderStyle
179
     2
170
     2
171
     1
172
     0
 90
        2
 40
0.0
 41
0.0
173
     1
 91
-1056964608
340
14
 92
       -2
290
     1
 42
2.0
291
     1
 43
8.0
  3
Standard
341
0
 44
4.0
300

342
11
174
     1
178
     6
175
     1
176
     0
 93
-1056964608
 45
4.0
292
     0
297
     0
 46
4.0
343
0
 94
-1056964608
 47
1.0
 49
1.0
140
1.0
293
     1
141
0.0
294
     1
177
     0
142
1.0
295
     0
296
     0
143
3.75
271
     0
272
     9
273
     9
298
     0
  0
MLINESTYLE
  5
18
102
{ACAD_REACTORS
330
17
102
}
330
17
100
AcDbMlineStyle
  2
Standard
 70
     0
  3

 62
   256
 51
90.0
 52
90.0
 71
     2
 49
0.5
 62
   256
  6
BYLAYER
 49
-0.5
 62
   256
  6
BYLAYER
  0
ACDBPLACEHOLDER
  5
F
102
{ACAD_REACTORS
330
E
102
}
330
E
  0
SCALE
  5
48
102
{ACAD_REACTORS
330
47
102
}
330
47
100
AcDbScale
 70
     0
300
1:1
140
1.0
141
1.0
290
     1
  0
SCALE
  5
49
102
{ACAD_REACTORS
330
47
102
}
330
47
100
AcDbScale
 70
     0
300
1:2
140
1.0
141
2.0
290
     0
  0
SCALE
  5
4A
102
{ACAD_REACTORS
330
47
102
}
330
47
100
AcDbScale
 70
     0
300
1:4
140
1.0
141
4.0
290
     0
  0
SCALE
  5
4B
102
{ACAD_REACTORS
330
47
102
}
330
47
100
AcDbScale
 70
     0
300
1:5
140
1.0
141
5.0
290
     0
  0
SCALE
  5
4C
102
{ACAD_REACTORS
330
47
102
}
330
47
100
AcDbScale
 70
     0
300
1:8
140
1.0
141
8.0
290
     0
  0
SCALE
  5
4D
102
{ACAD_REACTORS
330
47
102
}
330
47
100
AcDbScale
 70
     0
300
1:10
140
1.0
141
10.0
290
     0
  0
SCALE
  5
4E
102
{ACAD_REACTORS
330
47
102
}
330
47
100
AcDbScale
 70
     0
300
1:16
140
1.0
141
16.0
290
     0
  0
SCALE
  5
4F
102
{ACAD_REACTORS
330
47
102
}
330
47
100
AcDbScale
 70
     0
300
1:20
140
1.0
141
20.0
290
     0
  0
SCALE
  5
50
102
{ACAD_REACTORS
330
47
102
}
330
47
100
AcDbScale
 70
     0
300
1:30
140
1.0
141
30.0
290
     0
  0
SCALE
  5
51
102
{ACAD_REACTORS
330
47
102
}
330
47
100
AcDbScale
 70
     0
300
1:40
140
1.0
141
40.0
290
     0
  0
SCALE
  5
52
102
{ACAD_REACTORS
330
47
102
}
330
47
100
AcDbScale
 70
     0
300
1:50
140
1.0
141
50.0
290
     0
  0
SCALE
  5
53
102
{ACAD_REACTORS
330
47
102
}
330
47
100
AcDbScale
 70
     0
300
1:100
140
1.0
141
100.0
290
     0
  0
SCALE
  5
54
102
{ACAD_REACTORS
330
47
102
}
330
47
100
AcDbScale
 70
     0
300
2:1
140
2.0
141
1.0
290
     0
  0
SCALE
  5
55
102
{ACAD_REACTORS
330
47
102
}
330
47
100
AcDbScale
 70
     0
300
4:1
140
4.0
141
1.0
290
     0
  0
SCALE
  5
56
102
{ACAD_REACTORS
330
47
102
}
330
47
100
AcDbScale
 70
     0
300
8:1
140
8.0
141
1.0
290
     0
  0
SCALE
  5
57
102
{ACAD_REACTORS
330
47
102
}
330
47
100
AcDbScale
 70
     0
300
10:1
140
10.0
141
1.0
290
     0
  0
SCALE
  5
58
102
{ACAD_REACTORS
330
47
102
}
330
47
100
AcDbScale
 70
     0
300
100:1
140
100.0
141
1.0
290
     0
  0
SCALE
  5
59
102
{ACAD_REACTORS
330
47
102
}
330
47
100
AcDbScale
 70
     0
300
1/128" = 1'-0"
140
0.0078125
141
12.0
290
     0
  0
SCALE
  5
5A
102
{ACAD_REACTORS
330
47
102
}
330
47
100
AcDbScale
 70
     0
300
1/64" = 1'-0"
140
0.015625
141
12.0
290
     0
  0
SCALE
  5
5B
102
{ACAD_REACTORS
330
47
102
}
330
47
100
AcDbScale
 70
     0
300
1/32" = 1'-0"
140
0.03125
141
12.0
290
     0
  0
SCALE
  5
5C
102
{ACAD_REACTORS
330
47
102
}
330
47
100
AcDbScale
 70
     0
300
1/16" = 1'-0"
140
0.0625
141
12.0
290
     0
  0
SCALE
  5
5D
102
{ACAD_REACTORS
330
47
102
}
330
47
100
AcDbScale
 70
     0
300
3/32" = 1'-0"
140
0.09375
141
12.0
290
     0
  0
SCALE
  5
5E
102
{ACAD_REACTORS
330
47
102
}
330
47
100
AcDbScale
 70
     0
300
1/8" = 1'-0"
140
0.125
141
12.0
290
     0
  0
SCALE
  5
5F
102
{ACAD_REACTORS
330
47
102
}
330
47
100
AcDbScale
 70
     0
300
3/16" = 1'-0"
140
0.1875
141
12.0
290
     0
  0
SCALE
  5
60
102
{ACAD_REACTORS
330
47
102
}
330
47
100
AcDbScale
 70
     0
300
1/4" = 1'-0"
140
0.25
141
12.0
290
     0
  0
SCALE
  5
61
102
{ACAD_REACTORS
330
47
102
}
330
47
100
AcDbScale
 70
     0
300
3/8" = 1'-0"
140
0.375
141
12.0
290
     0
  0
SCALE
  5
62
102
{ACAD_REACTORS
330
47
102
}
330
47
100
AcDbScale
 70
     0
300
1/2" = 1'-0"
140
0.5
141
12.0
290
     0
  0
SCALE
  5
63
102
{ACAD_REACTORS
330
47
102
}
330
47
100
AcDbScale
 70
     0
300
3/4" = 1'-0"
140
0.75
141
12.0
290
     0
  0
SCALE
  5
64
102
{ACAD_REACTORS
330
47
102
}
330
47
100
AcDbScale
 70
     0
300
1" = 1'-0"
140
1.0
141
12.0
290
     0
  0
SCALE
  5
65
102
{ACAD_REACTORS
330
47
102
}
330
47
100
AcDbScale
 70
     0
300
1-1/2" = 1'-0"
140
1.5
141
12.0
290
     0
  0
SCALE
  5
66
102
{ACAD_REACTORS
330
47
102
}
330
47
100
AcDbScale
 70
     0
300
3" = 1'-0"
140
3.0
141
12.0
290
     0
  0
SCALE
  5
67
102
{ACAD_REACTORS
330
47
102
}
330
47
100
AcDbScale
 70
     0
300
6" = 1'-0"
140
6.0
141
12.0
290
     0
  0
SCALE
  5
68
102
{ACAD_REACTORS
330
47
102
}
330
47
100
AcDbScale
 70
     0
300
1'-0" = 1'-0"
140
12.0
141
12.0
290
     0
  0
TABLESTYLE
  5
6A
102
{ACAD_REACTORS
330
69
102
}
102
{ACAD_XDICTIONARY
360
193
102
}
330
69
100
AcDbTableStyle
  3
Standard
 70
     0
 71
     0
 40
0.06
 41
0.06
280
     0
281
     0
  7
STANDARD
140
4.5
170
     2
 62
     0
 63
   257
283
     0
 90
        4
 91
        0
  1

274
    -2
284
     1
 64
     0
275
    -2
285
     1
 65
     0
276
    -2
286
     1
 66
     0
277
    -2
287
     1
 67
     0
278
    -2
288
     1
 68
     0
279
    -2
289
     1
 69
     0
  7
STANDARD
140
6.0
170
     5
 62
     0
 63
   257
283
     0
 90
        4
 91
        0
  1

274
    -2
284
     1
 64
     0
275
    -2
285
     1
 65
     0
276
    -2
286
     1
 66
     0
277
    -2
287
     1
 67
     0
278
    -2
288
     1
 68
     0
279
    -2
289
     1
 69
     0
  7
STANDARD
140
4.5
170
     5
 62
     0
 63
   257
283
     0
 90
        4
 91
        0
  1

274
    -2
284
     1
 64
     0
275
    -2
285
     1
 65
     0
276
    -2
286
     1
 66
     0
277
    -2
287
     1
 67
     0
278
    -2
288
     1
 68
     0
279
    -2
289
     1
 69
     0
  0
VISUALSTYLE
  5
2F
102
{ACAD_REACTORS
330
2A
102
}
330
2A
100
AcDbVisualStyle
  2
2dWireframe
 70
     4
177
     3
291
     0
 70
    58
 90
        0
176
     1
 90
        2
176
     1
 90
        0
176
     1
 90
        0
176
     1
 40
0.6
176
     1
 40
30.0
176
     1
 62
     7
420
 16777215
176
     1
 90
        1
176
     1
 90
        4
176
     1
 62
     7
176
     1
 62
   257
176
     1
 90
        1
176
     1
 90
        1
176
     1
 40
1.0
176
     1
 90
        0
176
     1
 62
   257
176
     1
 40
1.0
176
     1
 90
        1
176
     1
 90
        6
176
     1
 90
        2
176
     1
 62
     7
176
     1
 90
        5
176
     1
 90
        0
176
     1
 90
        0
176
     1
290
     0
176
     1
 90
        1
176
     1
 40
0.0
176
     1
 90
        0
176
     1
290
     1
176
     1
290
     1
176
     1
290
     0
176
     1
290
     0
176
     1
290
     0
176
     1
290
     0
176
     1
290
     0
176
     1
290
     0
176
     1
290
     0
176
     1
 90
       50
176
     1
 40
0.0
176
     1
 40
1.0
176
     1
 90
        0
176
     1
 62
    18
420
        0
176
     1
 90
       50
176
     1
 90
        3
176
     1
 62
     5
420
      255
176
     1
290
     0
176
     1
 90
       50
176
     1
 90
       50
176
     1
 90
       50
176
     1
290
     0
176
     1
 90
       50
176
     1
 62
   256
176
     0
 40
1.0
176
     0
 90
        2
176
     1
  1
strokes_ogs.tif
176
     1
290
     0
176
     1
 40
1.0
176
     1
 40
1.0
176
     1
  0
VISUALSTYLE
  5
32
102
{ACAD_REACTORS
330
2A
102
}
330
2A
100
AcDbVisualStyle
  2
Basic
 70
     7
177
     3
291
     1
 70
    58
 90
        1
176
     1
 90
        0
176
     1
 90
        1
176
     1
 90
        0
176
     1
 40
0.6
176
     1
 40
30.0
176
     1
 62
     7
420
 16777215
176
     1
 90
        0
176
     1
 90
        4
176
     1
 62
     7
176
     1
 62
   257
176
     1
 90
        1
176
     1
 90
        1
176
     1
 40
1.0
176
     1
 90
        8
176
     1
 62
     7
176
     1
 40
1.0
176
     1
 90
        1
176
     1
 90
        6
176
     1
 90
        2
176
     1
 62
     7
176
     1
 90
        5
176
     1
 90
        0
176
     1
 90
        0
176
     1
290
     0
176
     1
 90
        1
176
     1
 40
0.0
176
     1
 90
        0
176
     1
290
     0
176
     1
290
     1
176
     1
290
     1
176
     1
290
     0
176
     1
290
     0
176
     1
290
     0
176
     1
290
     0
176
     1
290
     0
176
     1
290
     0
176
     1
 90
       50
176
     1
 40
0.0
176
     1
 40
1.0
176
     1
 90
        0
176
     1
 62
    18
420
        0
176
     1
 90
       50
176
     1
 90
        3
176
     1
 62
     5
420
      255
176
     1
290
     0
176
     1
 90
       50
176
     1
 90
       50
176
     1
 90
       50
176
     1
290
     0
176
     1
 90
       50
176
     1
 62
   256
176
     0
 40
1.0
176
     0
 90
        2
176
     1
  1
strokes_ogs.tif
176
     1
290
     0
176
     1
 40
1.0
176
     1
 40
1.0
176
     1
  0
VISUALSTYLE
  5
36
102
{ACAD_REACTORS
330
2A
102
}
330
2A
100
AcDbVisualStyle
  2
Brighten
 70
    12
177
     3
291
     1
 70
    58
 90
        2
176
     1
 90
        2
176
     1
 90
        0
176
     1
 90
        0
176
     1
 40
0.6
176
     1
 40
30.0
176
     1
 62
     7
420
 16777215
176
     1
 90
        1
176
     1
 90
        4
176
     1
 62
     7
176
     1
 62
   257
176
     1
 90
        1
176
     1
 90
        1
176
     1
 40
1.0
176
     1
 90
        8
176
     1
 62
     7
176
     1
 40
1.0
176
     1
 90
        1
176
     1
 90
        6
176
     1
 90
        2
176
     1
 62
     7
176
     1
 90
        5
176
     1
 90
        0
176
     1
 90
        0
176
     1
290
     0
176
     1
 90
        1
176
     1
 40
50.0
176
     1
 90
        0
176
     1
290
     0
176
     1
290
     1
176
     1
290
     1
176
     1
290
     0
176
     1
290
     0
176
     1
290
     0
176
     1
290
     0
176
     1
290
     0
176
     1
290
     0
176
     1
 90
       50
176
     1
 40
0.0
176
     1
 40
1.0
176
     1
 90
        0
176
     1
 62
    18
420
        0
176
     1
 90
       50
176
     1
 90
        3
176
     1
 62
     5
420
      255
176
     1
290
     0
176
     1
 90
       50
176
     1
 90
       50
176
     1
 90
       50
176
     1
290
     0
176
     1
 90
       50
176
     1
 62
   256
176
     0
 40
1.0
176
     0
 90
        2
176
     1
  1
strokes_ogs.tif
176
     1
290
     0
176
     1
 40
1.0
176
     1
 40
1.0
176
     1
  0
VISUALSTYLE
  5
3A
102
{ACAD_REACTORS
330
2A
102
}
330
2A
100
AcDbVisualStyle
  2
ColorChange
 70
    16
177
     3
291
     1
 70
    58
 90
        2
176
     1
 90
        2
176
     1
 90
        3
176
     1
 90
        0
176
     1
 40
0.6
176
     1
 40
30.0
176
     1
 62
     8
420
  8421504
176
     1
 90
        1
176
     1
 90
        4
176
     1
 62
     7
176
     1
 62
   257
176
     1
 90
        1
176
     1
 90
        1
176
     1
 40
1.0
176
     1
 90
        8
176
     1
 62
     8
420
  8421504
176
     1
 40
1.0
176
     1
 90
        1
176
     1
 90
        6
176
     1
 90
        2
176
     1
 62
     7
176
     1
 90
        5
176
     1
 90
        0
176
     1
 90
        0
176
     1
290
     0
176
     1
 90
        1
176
     1
 40
0.0
176
     1
 90
        0
176
     1
290
     0
176
     1
290
     1
176
     1
290
     1
176
     1
290
     0
176
     1
290
     0
176
     1
290
     0
176
     1
290
     0
176
     1
290
     0
176
     1
290
     0
176
     1
 90
       50
176
     1
 40
0.0
176
     1
 40
1.0
176
     1
 90
        0
176
     1
 62
    18
420
        0
176
     1
 90
       50
176
     1
 90
        3
176
     1
 62
     5
420
      255
176
     1
290
     0
176
     1
 90
       50
176
     1
 90
       50
176
     1
 90
       50
176
     1
290
     0
176
     1
 90
       50
176
     1
 62
   256
176
     0
 40
1.0
176
     0
 90
        2
176
     1
  1
strokes_ogs.tif
176
     1
290
     0
176
     1
 40
1.0
176
     1
 40
1.0
176
     1
  0
VISUALSTYLE
  5
34
102
{ACAD_REACTORS
330
2A
102
}
330
2A
100
AcDbVisualStyle
  2
Conceptual
 70
     9
177
     3
291
     0
 70
    58
 90
        3
176
     1
 90
        2
176
     1
 90
        0
176
     1
 90
        0
176
     1
 40
0.6
176
     1
 40
30.0
176
     1
 62
     7
420
 16777215
176
     1
 90
        2
176
     1
 90
        2
176
     1
 62
     7
176
     1
 62
   257
176
     1
 90
        1
176
     1
 90
        1
176
     1
 40
179.0
176
     1
 90
        8
176
     1
 62
     7
176
     1
 40
1.0
176
     1
 90
        1
176
     1
 90
        6
176
     1
 90
        2
176
     1
 62
     7
176
     1
 90
        3
176
     1
 90
        0
176
     1
 90
        0
176
     1
290
     0
176
     1
 90
        1
176
     1
 40
0.0
176
     1
 90
        0
176
     1
290
     0
176
     1
290
     1
176
     1
290
     1
176
     1
290
     0
176
     1
290
     0
176
     1
290
     0
176
     1
290
     0
176
     1
290
     0
176
     1
290
     0
176
     1
 90
       50
176
     1
 40
0.0
176
     1
 40
1.0
176
     1
 90
        0
176
     1
 62
    18
420
        0
176
     1
 90
       50
176
     1
 90
        3
176
     1
 62
     5
420
      255
176
     1
290
     0
176
     1
 90
       50
176
     1
 90
       50
176
     1
 90
       50
176
     1
290
     0
176
     1
 90
       50
176
     1
 62
   256
176
     0
 40
1.0
176
     0
 90
        2
176
     1
  1
strokes_ogs.tif
176
     1
290
     0
176
     1
 40
1.0
176
     1
 40
1.0
176
     1
  0
VISUALSTYLE
  5
35
102
{ACAD_REACTORS
330
2A
102
}
330
2A
100
AcDbVisualStyle
  2
Dim
 70
    11
177
     3
291
     1
 70
    58
 90
        2
176
     1
 90
        2
176
     1
 90
        0
176
     1
 90
        0
176
     1
 40
0.6
176
     1
 40
30.0
176
     1
 62
     7
420
 16777215
176
     1
 90
        1
176
     1
 90
        4
176
     1
 62
     7
176
     1
 62
   257
176
     1
 90
        1
176
     1
 90
        1
176
     1
 40
1.0
176
     1
 90
        8
176
     1
 62
     7
176
     1
 40
1.0
176
     1
 90
        1
176
     1
 90
        6
176
     1
 90
        2
176
     1
 62
     7
176
     1
 90
        5
176
     1
 90
        0
176
     1
 90
        0
176
     1
290
     0
176
     1
 90
        1
176
     1
 40
-50.0
176
     1
 90
        0
176
     1
290
     0
176
     1
290
     1
176
     1
290
     1
176
     1
290
     0
176
     1
290
     0
176
     1
290
     0
176
     1
290
     0
176
     1
290
     0
176
     1
290
     0
176
     1
 90
       50
176
     1
 40
0.0
176
     1
 40
1.0
176
     1
 90
        0
176
     1
 62
    18
420
        0
176
     1
 90
       50
176
     1
 90
        3
176
     1
 62
     5
420
      255
176
     1
290
     0
176
     1
 90
       50
176
     1
 90
       50
176
     1
 90
       50
176
     1
290
     0
176
     1
 90
       50
176
     1
 62
   256
176
     0
 40
1.0
176
     0
 90
        2
176
     1
  1
strokes_ogs.tif
176
     1
290
     0
176
     1
 40
1.0
176
     1
 40
1.0
176
     1
  0
VISUALSTYLE
  5
3D
102
{ACAD_REACTORS
330
2A
102
}
330
2A
100
AcDbVisualStyle
  2
EdgeColorOff
 70
    22
177
     3
291
     1
 70
    58
 90
        2
176
     0
 90
        2
176
     0
 90
        0
176
     0
 90
        0
176
     0
 40
0.6
176
     0
 40
30.0
176
     0
 62
     7
420
 16777215
176
     0
 90
        1
176
     0
 90
        4
176
     0
 62
     7
176
     0
 62
   257
176
     0
 90
        1
176
     0
 90
        1
176
     0
 40
1.0
176
     0
 90
        8
176
     2
 62
     7
176
     0
 40
1.0
176
     0
 90
        1
176
     0
 90
        6
176
     0
 90
        2
176
     0
 62
     7
176
     0
 90
        5
176
     0
 90
        0
176
     0
 90
        0
176
     0
290
     0
176
     0
 90
        1
176
     0
 40
0.0
176
     0
 90
        0
176
     0
290
     0
176
     0
290
     1
176
     0
290
     1
176
     0
290
     0
176
     0
290
     0
176
     0
290
     0
176
     0
290
     0
176
     0
290
     0
176
     0
290
     0
176
     0
 90
       50
176
     0
 40
0.0
176
     0
 40
1.0
176
     0
 90
        0
176
     0
 62
    18
420
        0
176
     0
 90
       50
176
     0
 90
        3
176
     0
 62
     5
420
      255
176
     0
290
     0
176
     0
 90
       50
176
     0
 90
       50
176
     0
 90
       50
176
     0
290
     0
176
     0
 90
       50
176
     0
 62
   256
176
     0
 40
1.0
176
     0
 90
        2
176
     0
  1
strokes_ogs.tif
176
     0
290
     0
176
     0
 40
1.0
176
     0
 40
1.0
176
     0
  0
VISUALSTYLE
  5
39
102
{ACAD_REACTORS
330
2A
102
}
330
2A
100
AcDbVisualStyle
  2
Facepattern
 70
    15
177
     3
291
     1
 70
    58
 90
        2
176
     1
 90
        2
176
     1
 90
        0
176
     1
 90
        0
176
     1
 40
0.6
176
     1
 40
30.0
176
     1
 62
     7
420
 16777215
176
     1
 90
        1
176
     1
 90
        4
176
     1
 62
     7
176
     1
 62
   257
176
     1
 90
        1
176
     1
 90
        1
176
     1
 40
1.0
176
     1
 90
        8
176
     1
 62
     7
176
     1
 40
1.0
176
     1
 90
        1
176
     1
 90
        6
176
     1
 90
        2
176
     1
 62
     7
176
     1
 90
        5
176
     1
 90
        0
176
     1
 90
        0
176
     1
290
     0
176
     1
 90
        1
176
     1
 40
0.0
176
     1
 90
        0
176
     1
290
     0
176
     1
290
     1
176
     1
290
     1
176
     1
290
     0
176
     1
290
     0
176
     1
290
     0
176
     1
290
     0
176
     1
290
     0
176
     1
290
     0
176
     1
 90
       50
176
     1
 40
0.0
176
     1
 40
1.0
176
     1
 90
        0
176
     1
 62
    18
420
        0
176
     1
 90
       50
176
     1
 90
        3
176
     1
 62
     5
420
      255
176
     1
290
     0
176
     1
 90
       50
176
     1
 90
       50
176
     1
 90
       50
176
     1
290
     0
176
     1
 90
       50
176
     1
 62
   256
176
     0
 40
1.0
176
     0
 90
        2
176
     1
  1
strokes_ogs.tif
176
     1
290
     0
176
     1
 40
1.0
176
     1
 40
1.0
176
     1
  0
VISUALSTYLE
  5
2B
102
{ACAD_REACTORS
330
2A
102
}
330
2A
100
AcDbVisualStyle
  2
Flat
 70
     0
177
     3
291
     1
 70
    58
 90
        2
176
     1
 90
        1
176
     1
 90
        1
176
     1
 90
        2
176
     1
 40
0.6
176
     1
 40
30.0
176
     1
 62
     7
420
 16777215
176
     1
 90
        0
176
     1
 90
        0
176
     1
 62
     7
176
     1
 62
   257
176
     1
 90
        1
176
     1
 90
        1
176
     1
 40
1.0
176
     1
 90
        8
176
     1
 62
     7
176
     1
 40
1.0
176
     1
 90
        1
176
     1
 90
        6
176
     1
 90
        2
176
     1
 62
     7
176
     1
 90
        5
176
     1
 90
        0
176
     1
 90
        0
176
     1
290
     0
176
     1
 90
       13
176
     1
 40
0.0
176
     1
 90
        0
176
     1
290
     0
176
     1
290
     1
176
     1
290
     1
176
     1
290
     0
176
     1
290
     0
176
     1
290
     0
176
     1
290
     0
176
     1
290
     0
176
     1
290
     0
176
     1
 90
       50
176
     1
 40
0.0
176
     1
 40
1.0
176
     1
 90
        0
176
     1
 62
    18
420
        0
176
     1
 90
       50
176
     1
 90
        3
176
     1
 62
     5
420
      255
176
     1
290
     0
176
     1
 90
       50
176
     1
 90
       50
176
     1
 90
       50
176
     1
290
     0
176
     1
 90
       50
176
     1
 62
   256
176
     0
 40
1.0
176
     0
 90
        2
176
     1
  1
strokes_ogs.tif
176
     1
290
     0
176
     1
 40
1.0
176
     1
 40
1.0
176
     1
  0
VISUALSTYLE
  5
2C
102
{ACAD_REACTORS
330
2A
102
}
330
2A
100
AcDbVisualStyle
  2
FlatWithEdges
 70
     1
177
     3
291
     1
 70
    58
 90
        2
176
     1
 90
        1
176
     1
 90
        1
176
     1
 90
        2
176
     1
 40
0.6
176
     1
 40
30.0
176
     1
 62
     7
420
 16777215
176
     1
 90
        1
176
     1
 90
        0
176
     1
 62
     7
176
     1
 62
   257
176
     1
 90
        1
176
     1
 90
        1
176
     1
 40
1.0
176
     1
 90
        0
176
     1
 62
   257
176
     1
 40
1.0
176
     1
 90
        1
176
     1
 90
        6
176
     1
 90
        2
176
     1
 62
     7
176
     1
 90
        5
176
     1
 90
        0
176
     1
 90
        0
176
     1
290
     0
176
     1
 90
       13
176
     1
 40
0.0
176
     1
 90
        0
176
     1
290
     0
176
     1
290
     1
176
     1
290
     1
176
     1
290
     0
176
     1
290
     0
176
     1
290
     0
176
     1
290
     0
176
     1
290
     0
176
     1
290
     0
176
     1
 90
       50
176
     1
 40
0.0
176
     1
 40
1.0
176
     1
 90
        0
176
     1
 62
    18
420
        0
176
     1
 90
       50
176
     1
 90
        3
176
     1
 62
     5
420
      255
176
     1
290
     0
176
     1
 90
       50
176
     1
 90
       50
176
     1
 90
       50
176
     1
290
     0
176
     1
 90
       50
176
     1
 62
   256
176
     0
 40
1.0
176
     0
 90
        2
176
     1
  1
strokes_ogs.tif
176
     1
290
     0
176
     1
 40
1.0
176
     1
 40
1.0
176
     1
  0
VISUALSTYLE
  5
2D
102
{ACAD_REACTORS
330
2A
102
}
330
2A
100
AcDbVisualStyle
  2
Gouraud
 70
     2
177
     3
291
     1
 70
    58
 90
        2
176
     1
 90
        2
176
     1
 90
        1
176
     1
 90
        2
176
     1
 40
0.6
176
     1
 40
30.0
176
     1
 62
     7
420
 16777215
176
     1
 90
        0
176
     1
 90
        0
176
     1
 62
     7
176
     1
 62
   257
176
     1
 90
        1
176
     1
 90
        1
176
     1
 40
1.0
176
     1
 90
        0
176
     1
 62
     7
176
     1
 40
1.0
176
     1
 90
        1
176
     1
 90
        6
176
     1
 90
        2
176
     1
 62
     7
176
     1
 90
        5
176
     1
 90
        0
176
     1
 90
        0
176
     1
290
     0
176
     1
 90
       13
176
     1
 40
0.0
176
     1
 90
        0
176
     1
290
     0
176
     1
290
     1
176
     1
290
     1
176
     1
290
     0
176
     1
290
     0
176
     1
290
     0
176
     1
290
     0
176
     1
290
     0
176
     1
290
     0
176
     1
 90
       50
176
     1
 40
0.0
176
     1
 40
1.0
176
     1
 90
        0
176
     1
 62
    18
420
        0
176
     1
 90
       50
176
     1
 90
        3
176
     1
 62
     5
420
      255
176
     1
290
     0
176
     1
 90
       50
176
     1
 90
       50
176
     1
 90
       50
176
     1
290
     0
176
     1
 90
       50
176
     1
 62
   256
176
     0
 40
1.0
176
     0
 90
        2
176
     1
  1
strokes_ogs.tif
176
     1
290
     0
176
     1
 40
1.0
176
     1
 40
1.0
176
     1
  0
VISUALSTYLE
  5
2E
102
{ACAD_REACTORS
330
2A
102
}
330
2A
100
AcDbVisualStyle
  2
GouraudWithEdges
 70
     3
177
     3
291
     1
 70
    58
 90
        2
176
     1
 90
        2
176
     1
 90
        1
176
     1
 90
        2
176
     1
 40
0.6
176
     1
 40
30.0
176
     1
 62
     7
420
 16777215
176
     1
 90
        1
176
     1
 90
        0
176
     1
 62
     7
176
     1
 62
   257
176
     1
 90
        1
176
     1
 90
        1
176
     1
 40
1.0
176
     1
 90
        0
176
     1
 62
   257
176
     1
 40
1.0
176
     1
 90
        1
176
     1
 90
        6
176
     1
 90
        2
176
     1
 62
     7
176
     1
 90
        5
176
     1
 90
        0
176
     1
 90
        0
176
     1
290
     0
176
     1
 90
       13
176
     1
 40
0.0
176
     1
 90
        0
176
     1
290
     0
176
     1
290
     1
176
     1
290
     1
176
     1
290
     0
176
     1
290
     0
176
     1
290
     0
176
     1
290
     0
176
     1
290
     0
176
     1
290
     0
176
     1
 90
       50
176
     1
 40
0.0
176
     1
 40
1.0
176
     1
 90
        0
176
     1
 62
    18
420
        0
176
     1
 90
       50
176
     1
 90
        3
176
     1
 62
     5
420
      255
176
     1
290
     0
176
     1
 90
       50
176
     1
 90
       50
176
     1
 90
       50
176
     1
290
     0
176
     1
 90
       50
176
     1
 62
   256
176
     0
 40
1.0
176
     0
 90
        2
176
     1
  1
strokes_ogs.tif
176
     1
290
     0
176
     1
 40
1.0
176
     1
 40
1.0
176
     1
  0
VISUALSTYLE
  5
31
102
{ACAD_REACTORS
330
2A
102
}
330
2A
100
AcDbVisualStyle
  2
Hidden
 70
     6
177
     3
291
     0
 70
    58
 90
        1
176
     1
 90
        2
176
     1
 90
        2
176
     1
 90
        0
176
     1
 40
0.6
176
     1
 40
30.0
176
     1
 62
     7
420
 16777215
176
     1
 90
        2
176
     1
 90
        2
176
     1
 62
     7
176
     1
 62
   257
176
     1
 90
        2
176
     1
 90
        1
176
     1
 40
40.0
176
     1
 90
        0
176
     1
 62
   257
176
     1
 40
1.0
176
     1
 90
        1
176
     1
 90
        6
176
     1
 90
        2
176
     1
 62
     7
176
     1
 90
        3
176
     1
 90
        0
176
     1
 90
        0
176
     1
290
     0
176
     1
 90
        1
176
     1
 40
0.0
176
     1
 90
        0
176
     1
290
     0
176
     1
290
     1
176
     1
290
     1
176
     1
290
     0
176
     1
290
     0
176
     1
290
     0
176
     1
290
     0
176
     1
290
     0
176
     1
290
     0
176
     1
 90
       50
176
     1
 40
0.0
176
     1
 40
1.0
176
     1
 90
        0
176
     1
 62
    18
420
        0
176
     1
 90
       50
176
     1
 90
        3
176
     1
 62
     5
420
      255
176
     1
290
     0
176
     1
 90
       50
176
     1
 90
       50
176
     1
 90
       50
176
     1
290
     0
176
     1
 90
       50
176
     1
 62
   256
176
     0
 40
1.0
176
     0
 90
        2
176
     1
  1
strokes_ogs.tif
176
     1
290
     0
176
     1
 40
1.0
176
     1
 40
1.0
176
     1
  0
VISUALSTYLE
  5
3B
102
{ACAD_REACTORS
330
2A
102
}
330
2A
100
AcDbVisualStyle
  2
JitterOff
 70
    20
177
     3
291
     1
 70
    58
 90
        2
176
     0
 90
        2
176
     0
 90
        0
176
     0
 90
        0
176
     0
 40
0.6
176
     0
 40
30.0
176
     0
 62
     7
420
 16777215
176
     0
 90
        1
176
     0
 90
        4
176
     0
 62
     7
176
     0
 62
   257
176
     0
 90
        1
176
     0
 90
        1
176
     0
 40
1.0
176
     0
 90
       10
176
     2
 62
     7
176
     0
 40
1.0
176
     0
 90
        1
176
     0
 90
        6
176
     0
 90
        2
176
     0
 62
     7
176
     0
 90
        5
176
     0
 90
        0
176
     0
 90
        0
176
     0
290
     0
176
     0
 90
        1
176
     0
 40
0.0
176
     0
 90
        0
176
     0
290
     0
176
     0
290
     1
176
     0
290
     1
176
     0
290
     0
176
     0
290
     0
176
     0
290
     0
176
     0
290
     0
176
     0
290
     0
176
     0
290
     0
176
     0
 90
       50
176
     0
 40
0.0
176
     0
 40
1.0
176
     0
 90
        0
176
     0
 62
    18
420
        0
176
     0
 90
       50
176
     0
 90
        3
176
     0
 62
     5
420
      255
176
     0
290
     0
176
     0
 90
       50
176
     0
 90
       50
176
     0
 90
       50
176
     0
290
     0
176
     0
 90
       50
176
     0
 62
   256
176
     0
 40
1.0
176
     0
 90
        2
176
     0
  1
strokes_ogs.tif
176
     0
290
     0
176
     0
 40
1.0
176
     0
 40
1.0
176
     0
  0
VISUALSTYLE
  5
38
102
{ACAD_REACTORS
330
2A
102
}
330
2A
100
AcDbVisualStyle
  2
Linepattern
 70
    14
177
     3
291
     1
 70
    58
 90
        2
176
     1
 90
        2
176
     1
 90
        0
176
     1
 90
        0
176
     1
 40
0.6
176
     1
 40
30.0
176
     1
 62
     7
420
 16777215
176
     1
 90
        1
176
     1
 90
        4
176
     1
 62
     7
176
     1
 62
   257
176
     1
 90
        7
176
     1
 90
        7
176
     1
 40
1.0
176
     1
 90
        8
176
     1
 62
     7
176
     1
 40
1.0
176
     1
 90
        1
176
     1
 90
        6
176
     1
 90
        2
176
     1
 62
     7
176
     1
 90
        5
176
     1
 90
        0
176
     1
 90
        0
176
     1
290
     0
176
     1
 90
        1
176
     1
 40
0.0
176
     1
 90
        0
176
     1
290
     0
176
     1
290
     1
176
     1
290
     1
176
     1
290
     0
176
     1
290
     0
176
     1
290
     0
176
     1
290
     0
176
     1
290
     0
176
     1
290
     0
176
     1
 90
       50
176
     1
 40
0.0
176
     1
 40
1.0
176
     1
 90
        0
176
     1
 62
    18
420
        0
176
     1
 90
       50
176
     1
 90
        3
176
     1
 62
     5
420
      255
176
     1
290
     0
176
     1
 90
       50
176
     1
 90
       50
176
     1
 90
       50
176
     1
290
     0
176
     1
 90
       50
176
     1
 62
   256
176
     0
 40
1.0
176
     0
 90
        2
176
     1
  1
strokes_ogs.tif
176
     1
290
     0
176
     1
 40
1.0
176
     1
 40
1.0
176
     1
  0
VISUALSTYLE
  5
3C
102
{ACAD_REACTORS
330
2A
102
}
330
2A
100
AcDbVisualStyle
  2
OverhangOff
 70
    21
177
     3
291
     1
 70
    58
 90
        2
176
     0
 90
        2
176
     0
 90
        0
176
     0
 90
        0
176
     0
 40
0.6
176
     0
 40
30.0
176
     0
 62
     7
420
 16777215
176
     0
 90
        1
176
     0
 90
        4
176
     0
 62
     7
176
     0
 62
   257
176
     0
 90
        1
176
     0
 90
        1
176
     0
 40
1.0
176
     0
 90
        9
176
     2
 62
     7
176
     0
 40
1.0
176
     0
 90
        1
176
     0
 90
        6
176
     0
 90
        2
176
     0
 62
     7
176
     0
 90
        5
176
     0
 90
        0
176
     0
 90
        0
176
     0
290
     0
176
     0
 90
        1
176
     0
 40
0.0
176
     0
 90
        0
176
     0
290
     0
176
     0
290
     1
176
     0
290
     1
176
     0
290
     0
176
     0
290
     0
176
     0
290
     0
176
     0
290
     0
176
     0
290
     0
176
     0
290
     0
176
     0
 90
       50
176
     0
 40
0.0
176
     0
 40
1.0
176
     0
 90
        0
176
     0
 62
    18
420
        0
176
     0
 90
       50
176
     0
 90
        3
176
     0
 62
     5
420
      255
176
     0
290
     0
176
     0
 90
       50
176
     0
 90
       50
176
     0
 90
       50
176
     0
290
     0
176
     0
 90
       50
176
     0
 62
   256
176
     0
 40
1.0
176
     0
 90
        2
176
     0
  1
strokes_ogs.tif
176
     0
290
     0
176
     0
 40
1.0
176
     0
 40
1.0
176
     0
  0
VISUALSTYLE
  5
33
102
{ACAD_REACTORS
330
2A
102
}
330
2A
100
AcDbVisualStyle
  2
Realistic
 70
     8
177
     3
291
     0
 70
    58
 90
        2
176
     1
 90
        3
176
     1
 90
        0
176
     1
 90
        2
176
     1
 40
0.6
176
     1
 40
30.0
176
     1
 62
     7
420
 16777215
176
     1
 90
        0
176
     1
 90
        0
176
     1
 62
     7
176
     1
 62
   257
176
     1
 90
        1
176
     1
 90
        1
176
     1
 40
1.0
176
     1
 90
        8
176
     1
 62
   257
176
     1
 40
1.0
176
     1
 90
        1
176
     1
 90
        6
176
     1
 90
        2
176
     1
 62
     7
176
     1
 90
        3
176
     1
 90
        0
176
     1
 90
        0
176
     1
290
     0
176
     1
 90
       13
176
     1
 40
0.0
176
     1
 90
        0
176
     1
290
     0
176
     1
290
     1
176
     1
290
     1
176
     1
290
     0
176
     1
290
     0
176
     1
290
     0
176
     1
290
     0
176
     1
290
     0
176
     1
290
     0
176
     1
 90
       50
176
     1
 40
0.0
176
     1
 40
1.0
176
     1
 90
        0
176
     1
 62
    18
420
        0
176
     1
 90
       50
176
     1
 90
        3
176
     1
 62
     5
420
      255
176
     1
290
     0
176
     1
 90
       50
176
     1
 90
       50
176
     1
 90
       50
176
     1
290
     0
176
     1
 90
       50
176
     1
 62
   256
176
     0
 40
1.0
176
     0
 90
        2
176
     1
  1
strokes_ogs.tif
176
     1
290
     0
176
     1
 40
1.0
176
     1
 40
1.0
176
     1
  0
VISUALSTYLE
  5
42
102
{ACAD_REACTORS
330
2A
102
}
330
2A
100
AcDbVisualStyle
  2
Shaded
 70
    27
177
     3
291
     0
 70
    58
 90
        2
176
     1
 90
        2
176
     1
 90
        1
176
     1
 90
        2
176
     1
 40
0.6
176
     1
 40
30.0
176
     1
 62
     7
420
 16777215
176
     1
 90
        0
176
     1
 90
        4
176
     1
 62
     7
176
     1
 62
   257
176
     1
 90
        1
176
     1
 90
        1
176
     1
 40
1.0
176
     1
 90
        8
176
     1
 62
   257
176
     1
 40
1.0
176
     1
 90
        1
176
     1
 90
        6
176
     1
 90
        2
176
     1
 62
     8
420
  7895160
176
     1
 90
        3
176
     1
 90
        0
176
     1
 90
        0
176
     1
290
     0
176
     1
 90
        5
176
     1
 40
0.0
176
     1
 90
        0
176
     1
290
     0
176
     1
290
     1
176
     1
290
     1
176
     1
290
     0
176
     1
290
     0
176
     1
290
     0
176
     1
290
     0
176
     1
290
     0
176
     1
290
     0
176
     1
 90
       50
176
     1
 40
0.0
176
     1
 40
1.0
176
     1
 90
        0
176
     1
 62
    18
420
        0
176
     1
 90
       50
176
     1
 90
        3
176
     1
 62
     5
420
      255
176
     1
290
     0
176
     1
 90
       50
176
     1
 90
       50
176
     1
 90
       50
176
     1
290
     0
176
     1
 90
       50
176
     1
 62
   256
176
     0
 40
1.0
176
     0
 90
        2
176
     1
  1
strokes_ogs.tif
176
     1
290
     0
176
     1
 40
1.0
176
     1
 40
1.0
176
     1
  0
VISUALSTYLE
  5
41
102
{ACAD_REACTORS
330
2A
102
}
330
2A
100
AcDbVisualStyle
  2
Shaded with edges
 70
    26
177
     3
291
     0
 70
    58
 90
        2
176
     1
 90
        2
176
     1
 90
        1
176
     1
 90
        2
176
     1
 40
0.6
176
     1
 40
30.0
176
     1
 62
     7
420
 16777215
176
     1
 90
        1
176
     1
 90
       10
176
     1
 62
     7
176
     1
 62
   257
176
     1
 90
        2
176
     1
 90
        1
176
     1
 40
1.0
176
     1
 90
        8
176
     1
 62
   257
176
     1
 40
1.0
176
     1
 90
        1
176
     1
 90
        6
176
     1
 90
        2
176
     1
 62
     7
176
     1
 90
        3
176
     1
 90
        0
176
     1
 90
        0
176
     1
290
     0
176
     1
 90
        5
176
     1
 40
0.0
176
     1
 90
        0
176
     1
290
     0
176
     1
290
     1
176
     1
290
     1
176
     1
290
     0
176
     1
290
     0
176
     1
290
     0
176
     1
290
     0
176
     1
290
     0
176
     1
290
     0
176
     1
 90
       50
176
     1
 40
0.0
176
     1
 40
1.0
176
     1
 90
        0
176
     1
 62
    18
420
        0
176
     1
 90
       50
176
     1
 90
        3
176
     1
 62
     5
420
      255
176
     1
290
     0
176
     1
 90
       50
176
     1
 90
       50
176
     1
 90
       50
176
     1
290
     0
176
     1
 90
       50
176
     1
 62
   256
176
     0
 40
1.0
176
     0
 90
        2
176
     1
  1
strokes_ogs.tif
176
     1
290
     0
176
     1
 40
1.0
176
     1
 40
1.0
176
     1
  0
VISUALSTYLE
  5
3E
102
{ACAD_REACTORS
330
2A
102
}
330
2A
100
AcDbVisualStyle
  2
Shades of Gray
 70
    23
177
     3
291
     0
 70
    58
 90
        2
176
     1
 90
        2
176
     1
 90
        3
176
     1
 90
        0
176
     1
 40
0.6
176
     1
 40
30.0
176
     1
 62
     7
420
 16777215
176
     1
 90
        2
176
     1
 90
        2
176
     1
 62
     7
176
     1
 62
     7
176
     1
 90
        1
176
     1
 90
        1
176
     1
 40
40.0
176
     1
 90
        8
176
     1
 62
     7
176
     1
 40
1.0
176
     1
 90
        1
176
     1
 90
        6
176
     1
 90
        2
176
     1
 62
     7
176
     1
 90
        3
176
     1
 90
        0
176
     1
 90
        0
176
     1
290
     0
176
     1
 90
        1
176
     1
 40
0.0
176
     1
 90
        0
176
     1
290
     0
176
     1
290
     1
176
     1
290
     1
176
     1
290
     0
176
     1
290
     0
176
     1
290
     0
176
     1
290
     0
176
     1
290
     0
176
     1
290
     0
176
     1
 90
       50
176
     1
 40
0.0
176
     1
 40
1.0
176
     1
 90
        0
176
     1
 62
    18
420
        0
176
     1
 90
       50
176
     1
 90
        3
176
     1
 62
     5
420
      255
176
     1
290
     0
176
     1
 90
       50
176
     1
 90
       50
176
     1
 90
       50
176
     1
290
     0
176
     1
 90
       50
176
     1
 62
   256
176
     0
 40
1.0
176
     0
 90
        2
176
     1
  1
strokes_ogs.tif
176
     1
290
     0
176
     1
 40
1.0
176
     1
 40
1.0
176
     1
  0
VISUALSTYLE
  5
3F
102
{ACAD_REACTORS
330
2A
102
}
330
2A
100
AcDbVisualStyle
  2
Sketchy
 70
    24
177
     3
291
     0
 70
    58
 90
        1
176
     1
 90
        2
176
     1
 90
        2
176
     1
 90
        0
176
     1
 40
0.6
176
     1
 40
30.0
176
     1
 62
     7
420
 16777215
176
     1
 90
        2
176
     1
 90
        2
176
     1
 62
     7
176
     1
 62
     7
176
     1
 90
        1
176
     1
 90
        1
176
     1
 40
40.0
176
     1
 90
       11
176
     1
 62
     7
176
     1
 40
1.0
176
     1
 90
        1
176
     1
 90
        6
176
     1
 90
        2
176
     1
 62
     7
176
     1
 90
        6
176
     1
 90
        0
176
     1
 90
        0
176
     1
290
     0
176
     1
 90
        1
176
     1
 40
0.0
176
     1
 90
        0
176
     1
290
     0
176
     1
290
     1
176
     1
290
     1
176
     1
290
     0
176
     1
290
     0
176
     1
290
     0
176
     1
290
     0
176
     1
290
     0
176
     1
290
     0
176
     1
 90
       50
176
     1
 40
0.0
176
     1
 40
1.0
176
     1
 90
        0
176
     1
 62
    18
420
        0
176
     1
 90
       50
176
     1
 90
        3
176
     1
 62
     5
420
      255
176
     1
290
     0
176
     1
 90
       50
176
     1
 90
       50
176
     1
 90
       50
176
     1
290
     0
176
     1
 90
       50
176
     1
 62
   256
176
     0
 40
1.0
176
     0
 90
        2
176
     1
  1
strokes_ogs.tif
176
     1
290
     0
176
     1
 40
1.0
176
     1
 40
1.0
176
     1
  0
VISUALSTYLE
  5
37
102
{ACAD_REACTORS
330
2A
102
}
330
2A
100
AcDbVisualStyle
  2
Thicken
 70
    13
177
     3
291
     1
 70
    58
 90
        2
176
     1
 90
        2
176
     1
 90
        0
176
     1
 90
        0
176
     1
 40
0.6
176
     1
 40
30.0
176
     1
 62
     7
420
 16777215
176
     1
 90
        1
176
     1
 90
        4
176
     1
 62
     7
176
     1
 62
   257
176
     1
 90
        1
176
     1
 90
        1
176
     1
 40
1.0
176
     1
 90
       12
176
     1
 62
     7
176
     1
 40
1.0
176
     1
 90
        1
176
     1
 90
        6
176
     1
 90
        2
176
     1
 62
     7
176
     1
 90
        5
176
     1
 90
        0
176
     1
 90
        0
176
     1
290
     0
176
     1
 90
        1
176
     1
 40
0.0
176
     1
 90
        0
176
     1
290
     0
176
     1
290
     1
176
     1
290
     1
176
     1
290
     0
176
     1
290
     0
176
     1
290
     0
176
     1
290
     0
176
     1
290
     0
176
     1
290
     0
176
     1
 90
       50
176
     1
 40
0.0
176
     1
 40
1.0
176
     1
 90
        0
176
     1
 62
    18
420
        0
176
     1
 90
       50
176
     1
 90
        3
176
     1
 62
     5
420
      255
176
     1
290
     0
176
     1
 90
       50
176
     1
 90
       50
176
     1
 90
       50
176
     1
290
     0
176
     1
 90
       50
176
     1
 62
   256
176
     0
 40
1.0
176
     0
 90
        2
176
     1
  1
strokes_ogs.tif
176
     1
290
     0
176
     1
 40
1.0
176
     1
 40
1.0
176
     1
  0
VISUALSTYLE
  5
30
102
{ACAD_REACTORS
330
2A
102
}
330
2A
100
AcDbVisualStyle
  2
Wireframe
 70
     5
177
     3
291
     0
 70
    58
 90
        0
176
     1
 90
        2
176
     1
 90
        0
176
     1
 90
        0
176
     1
 40
0.6
176
     1
 40
30.0
176
     1
 62
     7
420
 16777215
176
     1
 90
        1
176
     1
 90
        4
176
     1
 62
     7
176
     1
 62
   257
176
     1
 90
        1
176
     1
 90
        1
176
     1
 40
1.0
176
     1
 90
        0
176
     1
 62
   257
176
     1
 40
1.0
176
     1
 90
        1
176
     1
 90
        6
176
     1
 90
        2
176
     1
 62
     7
176
     1
 90
        3
176
     1
 90
        0
176
     1
 90
        0
176
     1
290
     0
176
     1
 90
        1
176
     1
 40
0.0
176
     1
 90
        0
176
     1
290
     0
176
     1
290
     1
176
     1
290
     1
176
     1
290
     0
176
     1
290
     0
176
     1
290
     0
176
     1
290
     0
176
     1
290
     0
176
     1
290
     0
176
     1
 90
       50
176
     1
 40
0.0
176
     1
 40
1.0
176
     1
 90
        0
176
     1
 62
    18
420
        0
176
     1
 90
       50
176
     1
 90
        3
176
     1
 62
     5
420
      255
176
     1
290
     0
176
     1
 90
       50
176
     1
 90
       50
176
     1
 90
       50
176
     1
290
     0
176
     1
 90
       50
176
     1
 62
   256
176
     0
 40
1.0
176
     0
 90
        2
176
     1
  1
strokes_ogs.tif
176
     1
290
     0
176
     1
 40
1.0
176
     1
 40
1.0
176
     1
  0
VISUALSTYLE
  5
40
102
{ACAD_REACTORS
330
2A
102
}
330
2A
100
AcDbVisualStyle
  2
X-Ray
 70
    25
177
     3
291
     0
 70
    58
 90
        2
176
     1
 90
        2
176
     1
 90
        1
176
     1
 90
        1
176
     1
 40
0.5
176
     1
 40
30.0
176
     1
 62
     7
420
 16777215
176
     1
 90
        1
176
     1
 90
        0
176
     1
 62
     7
176
     1
 62
   257
176
     1
 90
        1
176
     1
 90
        1
176
     1
 40
1.0
176
     1
 90
        8
176
     1
 62
     7
176
     1
 40
1.0
176
     1
 90
        1
176
     1
 90
        6
176
     1
 90
        2
176
     1
 62
     7
176
     1
 90
        3
176
     1
 90
        0
176
     1
 90
        0
176
     1
290
     0
176
     1
 90
       13
176
     1
 40
0.0
176
     1
 90
        0
176
     1
290
     0
176
     1
290
     1
176
     1
290
     1
176
     1
290
     0
176
     1
290
     0
176
     1
290
     0
176
     1
290
     0
176
     1
290
     0
176
     1
290
     0
176
     1
 90
       50
176
     1
 40
0.0
176
     1
 40
1.0
176
     1
 90
        0
176
     1
 62
    18
420
        0
176
     1
 90
       50
176
     1
 90
        3
176
     1
 62
     5
420
      255
176
     1
290
     0
176
     1
 90
       50
176
     1
 90
       50
176
     1
 90
       50
176
     1
290
     0
176
     1
 90
       50
176
     1
 62
   256
176
     0
 40
1.0
176
     0
 90
        2
176
     1
  1
strokes_ogs.tif
176
     1
290
     0
176
     1
 40
1.0
176
     1
 40
1.0
176
     1
  0
DICTIONARYVAR
  5
192
102
{ACAD_REACTORS
330
191
102
}
330
191
100
DictionaryVariables
280
     0
  1
1:1
  0
DICTIONARYVAR
  5
197
102
{ACAD_REACTORS
330
191
102
}
330
191
100
DictionaryVariables
280
     0
  1
Standard
  0
DICTIONARYVAR
  5
196
102
{ACAD_REACTORS
330
191
102
}
330
191
100
DictionaryVariables
280
     0
  1
Standard
  0
DICTIONARYVAR
  5
19A
102
{ACAD_REACTORS
330
191
102
}
330
191
100
DictionaryVariables
280
     0
  1
6.000000
  0
DICTIONARY
  5
193
330
6A
100
AcDbDictionary
280
     1
281
     1
  3
ACAD_ROUNDTRIP_2008_TABLESTYLE_CELLSTYLEMAP
360
194
  0
CELLSTYLEMAP
  5
194
102
{ACAD_REACTORS
330
193
102
}
330
193
100
AcDbCellStyleMap
 90
        3
300
CELLSTYLE
  1
TABLEFORMAT_BEGIN
 90
        5
170
     1
 91
        0
 92
    32768
 62
   257
 93
        1
300
CONTENTFORMAT
  1
CONTENTFORMAT_BEGIN
 90
        0
 91
        0
 92
        4
 93
        0
300

 40
0.0
140
1.0
 94
        5
 62
     0
340
11
144
6.0
309
CONTENTFORMAT_END
171
     1
301
MARGIN
  1
CELLMARGIN_BEGIN
 40
1.5
 40
1.5
 40
1.5
 40
1.5
 40
1.5
 40
1.5
309
CELLMARGIN_END
 94
        6
 95
        1
302
GRIDFORMAT
  1
GRIDFORMAT_BEGIN
 90
        0
 91
        1
 62
     0
 92
       -2
340
14
 93
        0
 40
0.045
309
GRIDFORMAT_END
 95
        2
302
GRIDFORMAT
  1
GRIDFORMAT_BEGIN
 90
        0
 91
        1
 62
     0
 92
       -2
340
14
 93
        0
 40
0.045
309
GRIDFORMAT_END
 95
        4
302
GRIDFORMAT
  1
GRIDFORMAT_BEGIN
 90
        0
 91
        1
 62
     0
 92
       -2
340
14
 93
        0
 40
0.045
309
GRIDFORMAT_END
 95
        8
302
GRIDFORMAT
  1
GRIDFORMAT_BEGIN
 90
        0
 91
        1
 62
     0
 92
       -2
340
14
 93
        0
 40
0.045
309
GRIDFORMAT_END
 95
       16
302
GRIDFORMAT
  1
GRIDFORMAT_BEGIN
 90
        0
 91
        1
 62
     0
 92
       -2
340
14
 93
        0
 40
0.045
309
GRIDFORMAT_END
 95
       32
302
GRIDFORMAT
  1
GRIDFORMAT_BEGIN
 90
        0
 91
        1
 62
     0
 92
       -2
340
14
 93
        0
 40
0.045
309
GRIDFORMAT_END
309
TABLEFORMAT_END
  1
CELLSTYLE_BEGIN
 90
        1
 91
        1
300
_TITLE
309
CELLSTYLE_END
300
CELLSTYLE
  1
TABLEFORMAT_BEGIN
 90
        5
170
     1
 91
        0
 92
        0
 62
   257
 93
        1
300
CONTENTFORMAT
  1
CONTENTFORMAT_BEGIN
 90
        0
 91
        0
 92
        4
 93
        0
300

 40
0.0
140
1.0
 94
        5
 62
     0
340
11
144
4.5
309
CONTENTFORMAT_END
171
     1
301
MARGIN
  1
CELLMARGIN_BEGIN
 40
1.5
 40
1.5
 40
1.5
 40
1.5
 40
1.5
 40
1.5
309
CELLMARGIN_END
 94
        6
 95
        1
302
GRIDFORMAT
  1
GRIDFORMAT_BEGIN
 90
        0
 91
        1
 62
     0
 92
       -2
340
14
 93
        0
 40
0.045
309
GRIDFORMAT_END
 95
        2
302
GRIDFORMAT
  1
GRIDFORMAT_BEGIN
 90
        0
 91
        1
 62
     0
 92
       -2
340
14
 93
        0
 40
0.045
309
GRIDFORMAT_END
 95
        4
302
GRIDFORMAT
  1
GRIDFORMAT_BEGIN
 90
        0
 91
        1
 62
     0
 92
       -2
340
14
 93
        0
 40
0.045
309
GRIDFORMAT_END
 95
        8
302
GRIDFORMAT
  1
GRIDFORMAT_BEGIN
 90
        0
 91
        1
 62
     0
 92
       -2
340
14
 93
        0
 40
0.045
309
GRIDFORMAT_END
 95
       16
302
GRIDFORMAT
  1
GRIDFORMAT_BEGIN
 90
        0
 91
        1
 62
     0
 92
       -2
340
14
 93
        0
 40
0.045
309
GRIDFORMAT_END
 95
       32
302
GRIDFORMAT
  1
GRIDFORMAT_BEGIN
 90
        0
 91
        1
 62
     0
 92
       -2
340
14
 93
        0
 40
0.045
309
GRIDFORMAT_END
309
TABLEFORMAT_END
  1
CELLSTYLE_BEGIN
 90
        2
 91
        1
300
_HEADER
309
CELLSTYLE_END
300
CELLSTYLE
  1
TABLEFORMAT_BEGIN
 90
        5
170
     1
 91
        0
 92
        0
 62
   257
 93
        1
300
CONTENTFORMAT
  1
CONTENTFORMAT_BEGIN
 90
        0
 91
        0
 92
        4
 93
        0
300

 40
0.0
140
1.0
 94
        2
 62
     0
340
11
144
4.5
309
CONTENTFORMAT_END
171
     1
301
MARGIN
  1
CELLMARGIN_BEGIN
 40
1.5
 40
1.5
 40
1.5
 40
1.5
 40
1.5
 40
1.5
309
CELLMARGIN_END
 94
        6
 95
        1
302
GRIDFORMAT
  1
GRIDFORMAT_BEGIN
 90
        0
 91
        1
 62
     0
 92
       -2
340
14
 93
        0
 40
0.045
309
GRIDFORMAT_END
 95
        2
302
GRIDFORMAT
  1
GRIDFORMAT_BEGIN
 90
        0
 91
        1
 62
     0
 92
       -2
340
14
 93
        0
 40
0.045
309
GRIDFORMAT_END
 95
        4
302
GRIDFORMAT
  1
GRIDFORMAT_BEGIN
 90
        0
 91
        1
 62
     0
 92
       -2
340
14
 93
        0
 40
0.045
309
GRIDFORMAT_END
 95
        8
302
GRIDFORMAT
  1
GRIDFORMAT_BEGIN
 90
        0
 91
        1
 62
     0
 92
       -2
340
14
 93
        0
 40
0.045
309
GRIDFORMAT_END
 95
       16
302
GRIDFORMAT
  1
GRIDFORMAT_BEGIN
 90
        0
 91
        1
 62
     0
 92
       -2
340
14
 93
        0
 40
0.045
309
GRIDFORMAT_END
 95
       32
302
GRIDFORMAT
  1
GRIDFORMAT_BEGIN
 90
        0
 91
        1
 62
     0
 92
       -2
340
14
 93
        0
 40
0.045
309
GRIDFORMAT_END
309
TABLEFORMAT_END
  1
CELLSTYLE_BEGIN
 90
        3
 91
        2
300
_DATA
309
CELLSTYLE_END
  0
ENDSEC
  0
EOF
