  0
SECTION
  2
HEADER
  9
$ACADVER
  1
AC1015
  9
$ACADMAINTVER
 70
     6
  9
$DWGCODEPAGE
  3
DOS932
  9
$INSBASE
 10
0.0
 20
0.0
 30
0.0
  9
$EXTMIN
 10
0.0
 20
0.0
 30
0.0
  9
$EXTMAX
 10
210.0
 20
297.0
 30
0.0
  9
$LIMMIN
 10
0.0
 20
0.0
  9
$LIMMAX
 10
210.0
 20
297.0
  9
$ORTHOMODE
 70
     0
  9
$REGENMODE
 70
     1
  9
$FILLMODE
 70
     1
  9
$QTEXTMODE
 70
     0
  9
$MIRRTEXT
 70
     1
  9
$LTSCALE
 40
1.0
  9
$ATTMODE
 70
     1
  9
$TEXTSIZE
 40
3.5
  9
$TRACEWID
 40
1.0
  9
$TEXTSTYLE
  7
Standard
  9
$CLAYER
  8
0
  9
$CELTYPE
  6
ByLayer
  9
$CECOLOR
 62
   256
  9
$CELTSCALE
 40
1.0
  9
$DISPSILH
 70
     0
  9
$DIMSCALE
 40
1.0
  9
$DIMASZ
 40
3.5
  9
$DIMEXO
 40
1.0
  9
$DIMDLI
 40
3.75
  9
$DIMRND
 40
0.0
  9
$DIMDLE
 40
0.0
  9
$DIMEXE
 40
1.0
  9
$DIMTP
 40
0.0
  9
$DIMTM
 40
0.0
  9
$DIMTXT
 40
3.5
  9
$DIMCEN
 40
2.5
  9
$DIMTSZ
 40
0.0
  9
$DIMTOL
 70
     0
  9
$DIMLIM
 70
     0
  9
$DIMTIH
 70
     1
  9
$DIMTOH
 70
     1
  9
$DIMSE1
 70
     0
  9
$DIMSE2
 70
     0
  9
$DIMTAD
 70
     1
  9
$DIMZIN
 70
     1
  9
$DIMBLK
  1

  9
$DIMASO
 70
     1
  9
$DIMSHO
 70
     1
  9
$DIMPOST
  1

  9
$DIMAPOST
  1

  9
$DIMALT
 70
     0
  9
$DIMALTD
 70
     3
  9
$DIMALTF
 40
0.0393700787
  9
$DIMLFAC
 40
20.0
  9
$DIMTOFL
 70
     1
  9
$DIMTVP
 40
0.0
  9
$DIMTIX
 70
     0
  9
$DIMSOXD
 70
     0
  9
$DIMSAH
 70
     0
  9
$DIMBLK1
  1

  9
$DIMBLK2
  1

  9
$DIMSTYLE
  2
ISO-25
  9
$DIMCLRD
 70
     0
  9
$DIMCLRE
 70
     0
  9
$DIMCLRT
 70
     0
  9
$DIMTFAC
 40
1.0
  9
$DIMGAP
 40
1.524
  9
$DIMJUST
 70
     0
  9
$DIMSD1
 70
     0
  9
$DIMSD2
 70
     0
  9
$DIMTOLJ
 70
     0
  9
$DIMTZIN
 70
     1
  9
$DIMALTZ
 70
     0
  9
$DIMALTTZ
 70
     0
  9
$DIMUPT
 70
     0
  9
$DIMDEC
 70
     2
  9
$DIMTDEC
 70
     2
  9
$DIMALTU
 70
     2
  9
$DIMALTTD
 70
     3
  9
$DIMTXSTY
  7
Standard
  9
$DIMAUNIT
 70
     0
  9
$DIMADEC
 70
     2
  9
$DIMALTRND
 40
0.0
  9
$DIMAZIN
 70
     0
  9
$DIMDSEP
 70
    44
  9
$DIMATFIT
 70
     3
  9
$DIMFRAC
 70
     0
  9
$DIMLDRBLK
  1

  9
$DIMLUNIT
 70
     2
  9
$DIMLWD
 70
    -2
  9
$DIMLWE
 70
    -2
  9
$DIMTMOVE
 70
     0
  9
$LUNITS
 70
     2
  9
$LUPREC
 70
     2
  9
$SKETCHINC
 40
1.0
  9
$FILLETRAD
 40
10.0
  9
$AUNITS
 70
     0
  9
$AUPREC
 70
     2
  9
$MENU
  1
.
  9
$ELEVATION
 40
0.0
  9
$PELEVATION
 40
0.0
  9
$THICKNESS
 40
0.0
  9
$LIMCHECK
 70
     0
  9
$CHAMFERA
 40
0.0
  9
$CHAMFERB
 40
0.0
  9
$CHAMFERC
 40
0.0
  9
$CHAMFERD
 40
0.0
  9
$SKPOLY
 70
     0
  9
$TDCREATE
 40
2459242.789949884
  9
$TDUCREATE
 40
2459242.414949884
  9
$TDUPDATE
 40
2459242.789950116
  9
$TDUUPDATE
 40
2459242.414950116
  9
$TDINDWG
 40
0.0000000116
  9
$TDUSRTIMER
 40
0.0000000116
  9
$USRTIMER
 70
     1
  9
$ANGBASE
 50
0.0
  9
$ANGDIR
 70
     0
  9
$PDMODE
 70
     0
  9
$PDSIZE
 40
-1.0
  9
$PLINEWID
 40
0.0
  9
$SPLFRAME
 70
     0
  9
$SPLINETYPE
 70
     6
  9
$SPLINESEGS
 70
     8
  9
$HANDSEED
  5
D5
  9
$SURFTAB1
 70
     6
  9
$SURFTAB2
 70
     6
  9
$SURFTYPE
 70
     6
  9
$SURFU
 70
     6
  9
$SURFV
 70
     6
  9
$UCSBASE
  2

  9
$UCSNAME
  2

  9
$UCSORG
 10
0.0
 20
0.0
 30
0.0
  9
$UCSXDIR
 10
1.0
 20
0.0
 30
0.0
  9
$UCSYDIR
 10
0.0
 20
1.0
 30
0.0
  9
$UCSORTHOREF
  2

  9
$UCSORTHOVIEW
 70
     0
  9
$UCSORGTOP
 10
0.0
 20
0.0
 30
0.0
  9
$UCSORGBOTTOM
 10
0.0
 20
0.0
 30
0.0
  9
$UCSORGLEFT
 10
0.0
 20
0.0
 30
0.0
  9
$UCSORGRIGHT
 10
0.0
 20
0.0
 30
0.0
  9
$UCSORGFRONT
 10
0.0
 20
0.0
 30
0.0
  9
$UCSORGBACK
 10
0.0
 20
0.0
 30
0.0
  9
$PUCSBASE
  2

  9
$PUCSNAME
  2

  9
$PUCSORG
 10
0.0
 20
0.0
 30
0.0
  9
$PUCSXDIR
 10
1.0
 20
0.0
 30
0.0
  9
$PUCSYDIR
 10
0.0
 20
1.0
 30
0.0
  9
$PUCSORTHOREF
  2

  9
$PUCSORTHOVIEW
 70
     0
  9
$PUCSORGTOP
 10
0.0
 20
0.0
 30
0.0
  9
$PUCSORGBOTTOM
 10
0.0
 20
0.0
 30
0.0
  9
$PUCSORGLEFT
 10
0.0
 20
0.0
 30
0.0
  9
$PUCSORGRIGHT
 10
0.0
 20
0.0
 30
0.0
  9
$PUCSORGFRONT
 10
0.0
 20
0.0
 30
0.0
  9
$PUCSORGBACK
 10
0.0
 20
0.0
 30
0.0
  9
$USERI1
 70
     0
  9
$USERI2
 70
     0
  9
$USERI3
 70
     0
  9
$USERI4
 70
     0
  9
$USERI5
 70
     0
  9
$USERR1
 40
0.0
  9
$USERR2
 40
0.0
  9
$USERR3
 40
0.0
  9
$USERR4
 40
0.0
  9
$USERR5
 40
0.0
  9
$WORLDVIEW
 70
     1
  9
$SHADEDGE
 70
     3
  9
$SHADEDIF
 70
    70
  9
$TILEMODE
 70
     1
  9
$MAXACTVP
 70
    64
  9
$PINSBASE
 10
0.0
 20
0.0
 30
0.0
  9
$PLIMCHECK
 70
     0
  9
$PEXTMIN
 10
1.0000000000E+20
 20
1.0000000000E+20
 30
1.0000000000E+20
  9
$PEXTMAX
 10
-1.0000000000E+20
 20
-1.0000000000E+20
 30
-1.0000000000E+20
  9
$PLIMMIN
 10
0.0
 20
0.0
  9
$PLIMMAX
 10
420.0
 20
297.0
  9
$UNITMODE
 70
     0
  9
$VISRETAIN
 70
     1
  9
$PLINEGEN
 70
     0
  9
$PSLTSCALE
 70
     1
  9
$TREEDEPTH
 70
  3020
  9
$CMLSTYLE
  2
Standard
  9
$CMLJUST
 70
     0
  9
$CMLSCALE
 40
20.0
  9
$PROXYGRAPHICS
 70
     1
  9
$MEASUREMENT
 70
     1
  9
$CELWEIGHT
370
    -1
  9
$ENDCAPS
280
     0
  9
$JOINSTYLE
280
     0
  9
$LWDISPLAY
290
     1
  9
$INSUNITS
 70
     4
  9
$HYPERLINKBASE
  1

  9
$STYLESHEET
  1

  9
$XEDIT
290
     1
  9
$CEPSNTYPE
380
     0
  9
$PSTYLEMODE
290
     1
  9
$FINGERPRINTGUID
  2
{5a2391e2-2553-4499-afa0-210f5a85fea7}
  9
$VERSIONGUID
  2
{FAEB1C32-E019-11D5-929B-00C0DF256EC4}
  9
$EXTNAMES
290
     1
  9
$PSVPSCALE
 40
0.0
  9
$OLESTARTUP
290
     0
  0
ENDSEC
  0
SECTION
  2
CLASSES
  0
CLASS
  1
ACDBDICTIONARYWDFLT
  2
AcDbDictionaryWithDefault
  3
ObjectDBX Classes
 90
        0
280
     0
281
     0
  0
CLASS
  1
VISUALSTYLE
  2
AcDbVisualStyle
  3
ObjectDBX Classes
 90
     4095
280
     0
281
     0
  0
CLASS
  1
MATERIAL
  2
AcDbMaterial
  3
ObjectDBX Classes
 90
     1153
280
     0
281
     0
  0
CLASS
  1
SCALE
  2
AcDbScale
  3
ObjectDBX Classes
 90
     1153
280
     0
281
     0
  0
CLASS
  1
TABLESTYLE
  2
AcDbTableStyle
  3
ObjectDBX Classes
 90
     4095
280
     0
281
     0
  0
CLASS
  1
MLEADERSTYLE
  2
AcDbMLeaderStyle
  3
ACDB_MLEADERSTYLE_CLASS
 90
     4095
280
     0
281
     0
  0
CLASS
  1
SUN
  2
AcDbSun
  3
SCENEOE
 90
     1153
280
     0
281
     0
  0
CLASS
  1
ACDBPLACEHOLDER
  2
AcDbPlaceHolder
  3
ObjectDBX Classes
 90
        0
280
     0
281
     0
  0
CLASS
  1
LAYOUT
  2
AcDbLayout
  3
ObjectDBX Classes
 90
        0
280
     0
281
     0
  0
ENDSEC
  0
SECTION
  2
TABLES
  0
TABLE
  2
VPORT
  5
8
330
0
100
AcDbSymbolTable
 70
     1
  0
VPORT
  5
29
330
8
100
AcDbSymbolTableRecord
100
AcDbViewportTableRecord
  2
*Active
 70
     0
 10
0.0
 20
0.0
 11
1.0
 21
1.0
 12
105.0
 22
148.5
 13
0.0
 23
0.0
 14
10.0
 24
10.0
 15
10.0
 25
10.0
 16
0.0
 26
0.0
 36
1.0
 17
0.0
 27
0.0
 37
0.0
 40
297.0
 41
0.7070707071
 42
50.0
 43
0.0
 44
0.0
 50
0.0
 51
0.0
 71
     0
 72
  2000
 73
     1
 74
     3
 75
     0
 76
     0
 77
     0
 78
     0
281
     0
 65
     1
110
0.0
120
0.0
130
0.0
111
1.0
121
0.0
131
0.0
112
0.0
122
1.0
132
0.0
 79
     0
146
0.0
  0
ENDTAB
  0
TABLE
  2
LTYPE
  5
5
330
0
100
AcDbSymbolTable
 70
     6
  0
LTYPE
  5
14
330
5
100
AcDbSymbolTableRecord
100
AcDbLinetypeTableRecord
  2
ByBlock
 70
     0
  3

 72
    65
 73
     0
 40
0.0
  0
LTYPE
  5
15
330
5
100
AcDbSymbolTableRecord
100
AcDbLinetypeTableRecord
  2
ByLayer
 70
     0
  3

 72
    65
 73
     0
 40
0.0
  0
LTYPE
  5
16
330
5
100
AcDbSymbolTableRecord
100
AcDbLinetypeTableRecord
  2
Continuous
 70
     0
  3
Solid line
 72
    65
 73
     0
 40
0.0
  0
LTYPE
  5
6E
330
5
100
AcDbSymbolTableRecord
100
AcDbLinetypeTableRecord
  2
HIDDEN
 70
     0
  3
Hidden __ __ __ __ __ __ __ __ __ __ __ __ __ __
 72
    65
 73
     2
 40
1.905
 49
1.27
 74
     0
 49
-0.635
 74
     0
  0
LTYPE
  5
6F
330
5
100
AcDbSymbolTableRecord
100
AcDbLinetypeTableRecord
  2
PHANTOM
 70
     0
  3
Phantom ______  __  __  ______  __  __  ______
 72
    65
 73
     6
 40
12.7
 49
6.35
 74
     0
 49
-1.27
 74
     0
 49
1.27
 74
     0
 49
-1.27
 74
     0
 49
1.27
 74
     0
 49
-1.27
 74
     0
  0
LTYPE
  5
70
330
5
100
AcDbSymbolTableRecord
100
AcDbLinetypeTableRecord
  2
CENTER
 70
     0
  3
Center ____ _ ____ _ ____ _ ____ _ ____ _ ____
 72
    65
 73
     4
 40
10.16
 49
6.35
 74
     0
 49
-1.27
 74
     0
 49
1.27
 74
     0
 49
-1.27
 74
     0
  0
LTYPE
  5
71
330
5
100
AcDbSymbolTableRecord
100
AcDbLinetypeTableRecord
  2
CENTERX2
 70
     0
  3
Center (2x) ________  __  ________  __  _____
 72
    65
 73
     4
 40
20.32
 49
12.7
 74
     0
 49
-2.54
 74
     0
 49
2.54
 74
     0
 49
-2.54
 74
     0
  0
LTYPE
  5
72
330
5
100
AcDbSymbolTableRecord
100
AcDbLinetypeTableRecord
  2
DOT2
 70
     0
  3
Dot (.5x) ........................................
 72
    65
 73
     2
 40
0.635
 49
0.0
 74
     0
 49
-0.635
 74
     0
  0
ENDTAB
  0
TABLE
  2
LAYER
  5
2
330
0
100
AcDbSymbolTable
 70
     2
  0
LAYER
  5
10
330
2
100
AcDbSymbolTableRecord
100
AcDbLayerTableRecord
  2
0
 70
     0
 62
     7
  6
Continuous
370
    -3
390
F
  0
LAYER
  5
73
330
2
100
AcDbSymbolTableRecord
100
AcDbLayerTableRecord
  2
FORMAT
 70
     0
 62
     7
  6
Continuous
370
    -3
390
F
  0
ENDTAB
  0
TABLE
  2
STYLE
  5
3
330
0
100
AcDbSymbolTable
 70
     2
  0
STYLE
  5
11
330
3
100
AcDbSymbolTableRecord
100
AcDbTextStyleTableRecord
  2
Standard
 70
     0
 40
0.0
 41
1.0
 50
0.0
 71
     0
 42
3.5
  3
txt
  4
bigfont
  0
STYLE
  5
74
330
3
100
AcDbSymbolTableRecord
100
AcDbTextStyleTableRecord
  2
SLDTEXTSTYLE0
 70
     0
 40
0.0
 41
0.7
 50
0.0
 71
     0
 42
3.5
  3
TXT
  4
bigfont
  0
ENDTAB
  0
TABLE
  2
VIEW
  5
6
330
0
100
AcDbSymbolTable
 70
     0
  0
ENDTAB
  0
TABLE
  2
UCS
  5
7
330
0
100
AcDbSymbolTable
 70
     0
  0
ENDTAB
  0
TABLE
  2
APPID
  5
9
330
0
100
AcDbSymbolTable
 70
     1
  0
APPID
  5
12
330
9
100
AcDbSymbolTableRecord
100
AcDbRegAppTableRecord
  2
ACAD
 70
     0
  0
ENDTAB
  0
TABLE
  2
DIMSTYLE
  5
A
330
0
100
AcDbSymbolTable
 70
     1
100
AcDbDimStyleTable
  0
DIMSTYLE
105
27
330
A
100
AcDbSymbolTableRecord
100
AcDbDimStyleTableRecord
  2
ISO-25
 70
     0
 41
2.5
 42
0.625
 43
3.75
 44
1.25
 73
     0
 74
     0
 77
     1
 78
     8
140
2.5
141
2.5
143
0.0393700787
147
0.625
171
     3
172
     1
178
     0
271
     2
272
     2
274
     3
278
    44
283
     0
284
     8
340
11
  0
ENDTAB
  0
TABLE
  2
BLOCK_RECORD
  5
1
330
0
100
AcDbSymbolTable
 70
     1
  0
BLOCK_RECORD
  5
1F
330
1
100
AcDbSymbolTableRecord
100
AcDbBlockTableRecord
  2
*Model_Space
340
22
  0
BLOCK_RECORD
  5
1B
330
1
100
AcDbSymbolTableRecord
100
AcDbBlockTableRecord
  2
*Paper_Space
340
1E
  0
BLOCK_RECORD
  5
23
330
1
100
AcDbSymbolTableRecord
100
AcDbBlockTableRecord
  2
*Paper_Space0
340
26
  0
ENDTAB
  0
ENDSEC
  0
SECTION
  2
BLOCKS
  0
BLOCK
  5
20
330
1F
100
AcDbEntity
  8
0
100
AcDbBlockBegin
  2
*Model_Space
 70
     0
 10
0.0
 20
0.0
 30
0.0
  3
*Model_Space
  1

  0
ENDBLK
  5
21
330
1F
100
AcDbEntity
  8
0
100
AcDbBlockEnd
  0
BLOCK
  5
1C
330
1B
100
AcDbEntity
 67
     1
  8
0
100
AcDbBlockBegin
  2
*Paper_Space
 70
     0
 10
0.0
 20
0.0
 30
0.0
  3
*Paper_Space
  1

  0
ENDBLK
  5
1D
330
1B
100
AcDbEntity
 67
     1
  8
0
100
AcDbBlockEnd
  0
BLOCK
  5
24
330
23
100
AcDbEntity
  8
0
100
AcDbBlockBegin
  2
*Paper_Space0
 70
     0
 10
0.0
 20
0.0
 30
0.0
  3
*Paper_Space0
  1

  0
ENDBLK
  5
25
330
23
100
AcDbEntity
  8
0
100
AcDbBlockEnd
  0
ENDSEC
  0
SECTION
  2
ENTITIES
  0
MTEXT
  5
75
330
1F
100
AcDbEntity
  8
0
  6
Continuous
 62
     7
370
     0
100
AcDbMText
 10
144.4186353666
 20
132.2574813876
 30
0.0
 40
3.5
 41
0.0
 71
     1
 72
     1
  1
HEC-098S/C
  7
SLDTEXTSTYLE0
 73
     1
 44
1.0
  0
LINE
  5
76
330
1F
100
AcDbEntity
  8
0
  6
Continuous
 62
     7
370
    25
100
AcDbLine
 10
112.5353333107
 20
140.9143972701
 30
0.0
 11
112.5353333107
 21
137.9143972701
 31
0.0
  0
LINE
  5
77
330
1F
100
AcDbEntity
  8
0
  6
Continuous
 62
     7
370
    25
100
AcDbLine
 10
120.5353333107
 20
137.9143972701
 30
0.0
 11
120.5353333107
 21
140.9143972701
 31
0.0
  0
LINE
  5
78
330
1F
100
AcDbEntity
  8
0
  6
Continuous
 62
     7
370
    25
100
AcDbLine
 10
112.5353333107
 20
137.9143972701
 30
0.0
 11
113.5353333107
 21
136.9143972701
 31
0.0
  0
LINE
  5
79
330
1F
100
AcDbEntity
  8
0
  6
Continuous
 62
     7
370
    25
100
AcDbLine
 10
119.5353333107
 20
136.9143972701
 30
0.0
 11
120.5353333107
 21
137.9143972701
 31
0.0
  0
LINE
  5
7A
330
1F
100
AcDbEntity
  8
0
  6
Continuous
 62
     7
370
    25
100
AcDbLine
 10
98.3487998312
 20
143.9143972701
 30
0.0
 11
98.4779016485
 21
143.9143972701
 31
0.0
  0
LINE
  5
7B
330
1F
100
AcDbEntity
  8
0
  6
Continuous
 62
     7
370
    25
100
AcDbLine
 10
98.4779016485
 20
202.9143972701
 30
0.0
 11
98.3487998312
 21
202.9143972701
 31
0.0
  0
LINE
  5
7C
330
1F
100
AcDbEntity
  8
0
  6
Continuous
 62
     7
370
    25
100
AcDbLine
 10
98.9664912848
 20
177.0143972701
 30
0.0
 11
98.3487998312
 21
177.0143972701
 31
0.0
  0
LINE
  5
7D
330
1F
100
AcDbEntity
  8
0
  6
Continuous
 62
     7
370
    25
100
AcDbLine
 10
88.1080494315
 20
181.6393972701
 30
0.0
 11
88.7257408851
 21
181.6393972701
 31
0.0
  0
LINE
  5
7E
330
1F
100
AcDbEntity
  8
0
  6
Continuous
 62
     7
370
    25
100
AcDbLine
 10
121.7314857334
 20
204.9143972701
 30
0.0
 11
95.7507236199
 21
204.9143972701
 31
0.0
  0
LINE
  5
7F
330
1F
100
AcDbEntity
  8
0
  6
Continuous
 62
     7
370
    25
100
AcDbLine
 10
95.7507236199
 20
141.9143972701
 30
0.0
 11
113.0815016828
 21
141.9143972701
 31
0.0
  0
LINE
  5
80
330
1F
100
AcDbEntity
  8
0
  6
Continuous
 62
     7
370
    25
100
AcDbLine
 10
96.4780928818
 20
145.8983395738
 30
0.0
 11
98.2099677827
 21
145.8634312167
 31
0.0
  0
LINE
  5
81
330
1F
100
AcDbEntity
  8
0
  6
Continuous
 62
     7
370
    25
100
AcDbLine
 10
98.2099677827
 20
200.9653633235
 30
0.0
 11
96.4780928818
 21
200.9304549664
 31
0.0
  0
LINE
  5
82
330
1F
100
AcDbEntity
  8
0
  6
Continuous
 62
     7
370
    25
100
AcDbLine
 10
112.5353333107
 20
141.9143972701
 30
0.0
 11
112.5353333107
 21
140.9143972701
 31
0.0
  0
LINE
  5
83
330
1F
100
AcDbEntity
  8
0
  6
Continuous
 62
     7
370
    25
100
AcDbLine
 10
118.5353333107
 20
140.9143972701
 30
0.0
 11
112.5353333107
 21
140.9143972701
 31
0.0
  0
LINE
  5
84
330
1F
100
AcDbEntity
  8
0
  6
Continuous
 62
     7
370
    25
100
AcDbLine
 10
112.5353333107
 20
137.9143972701
 30
0.0
 11
120.5353333107
 21
137.9143972701
 31
0.0
  0
LINE
  5
85
330
1F
100
AcDbEntity
  8
0
  6
Continuous
 62
     7
370
    25
100
AcDbLine
 10
119.5353333107
 20
136.9143972701
 30
0.0
 11
113.5353333107
 21
136.9143972701
 31
0.0
  0
LWPOLYLINE
  5
86
330
1F
100
AcDbEntity
  8
0
  6
Continuous
 62
     7
370
    25
100
AcDbPolyline
 90
       28
 70
   128
 43
0.0
 10
99.1487998312
 20
173.4143972701
 10
99.1272357277
 20
173.0454118769
 10
99.0637059435
 20
172.6963185818
 10
98.9616353857
 20
172.3859370946
 10
98.8265267046
 20
172.1310001617
 10
98.6656636441
 20
171.9452514991
 10
98.4877183734
 20
171.8387048653
 10
98.3022839681
 20
171.8171042169
 10
98.1193572451
 20
171.8816140504
 10
97.9487998312
 20
172.0287566241
 10
97.7998065209
 20
172.2505994436
 10
97.6804095821
 20
172.5351829052
 10
97.5970457346
 20
172.8671650408
 10
97.554209145
 20
173.2286486075
 10
97.554209145
 20
173.6001459327
 10
97.5970457346
 20
173.9616294994
 10
97.6804095821
 20
174.293611635
 10
97.7998065209
 20
174.5781950966
 10
97.9487998312
 20
174.8000379162
 10
98.1193572451
 20
174.9471804898
 10
98.3022839681
 20
175.0116903233
 10
98.4877183734
 20
174.9900896749
 10
98.6656636441
 20
174.8835430411
 10
98.8265267046
 20
174.6977943785
 10
98.9616353857
 20
174.4428574456
 10
99.0637059435
 20
174.1324759584
 10
99.1272357277
 20
173.7833826633
 10
99.1487998312
 20
173.4143972701
  0
LINE
  5
87
330
1F
100
AcDbEntity
  8
0
  6
Continuous
 62
     7
370
    25
100
AcDbLine
 10
100.0954615449
 20
172.5445171453
 30
0.0
 11
107.9042205269
 21
181.5612953459
 31
0.0
  0
ARC
  5
88
330
1F
100
AcDbEntity
  8
0
  6
Continuous
 62
     7
370
    25
100
AcDbCircle
 10
94.9397706765
 20
173.1009066349
 30
0.0
 40
5.185626056175232
100
AcDbArc
 50
333.9551549141
 51
353.840617582
  0
LINE
  5
89
330
1F
100
AcDbEntity
  8
0
  6
Continuous
 62
     7
370
    25
100
AcDbLine
 10
99.5987998312
 20
152.3547640395
 30
0.0
 11
99.5987998312
 21
170.8240305007
 31
0.0
  0
ARC
  5
8A
330
1F
100
AcDbEntity
  8
0
  6
Continuous
 62
     7
370
    25
100
AcDbCircle
 10
95.1576698609
 20
150.1573388563
 30
0.0
 40
4.955029046263268
100
AcDbArc
 50
8.7594742148
 51
26.3257293432
  0
LWPOLYLINE
  5
8B
330
1F
100
AcDbEntity
  8
0
  6
Continuous
 62
     7
370
    25
100
AcDbPolyline
 90
        3
 70
   128
 43
0.0
 10
100.1569037724
 20
150.4825587608
 10
100.1299893327
 20
150.5731121984
 10
100.054905145
 20
150.9119244522
  0
LINE
  5
8C
330
1F
100
AcDbEntity
  8
0
  6
Continuous
 62
     7
370
    25
100
AcDbLine
 10
97.0987998312
 20
170.8240305007
 30
0.0
 11
97.0987998312
 21
152.3547640395
 31
0.0
  0
ARC
  5
8D
330
1F
100
AcDbEntity
  8
0
  6
Continuous
 62
     7
370
    25
100
AcDbCircle
 10
101.7578289859
 20
173.1009066349
 30
0.0
 40
5.18562605617596
100
AcDbArc
 50
186.159382418
 51
206.0448450859
  0
LINE
  5
8E
330
1F
100
AcDbEntity
  8
0
  6
Continuous
 62
     7
370
    25
100
AcDbLine
 10
88.6047111452
 20
181.7791503759
 30
0.0
 11
96.6021381175
 21
172.5445171453
 31
0.0
  0
ARC
  5
8F
330
1F
100
AcDbEntity
  8
0
  6
Continuous
 62
     7
370
    25
100
AcDbCircle
 10
88.1102763033
 20
182.5908024686
 30
0.0
 40
0.9503919888282691
100
AcDbArc
 50
247.8462992319
 51
301.348557279
  0
ARC
  5
90
330
1F
100
AcDbEntity
  8
0
  6
Continuous
 62
     7
370
    25
100
AcDbCircle
 10
87.5543704061
 20
181.1299651111
 30
0.0
 40
0.6132856451579843
100
AcDbArc
 50
71.2119124533
 51
146.1037391765
  0
ARC
  5
91
330
1F
100
AcDbEntity
  8
0
  6
Continuous
 62
     7
370
    25
100
AcDbCircle
 10
94.4060152581
 20
151.1898904817
 30
0.0
 40
2.253885361526454
100
AcDbArc
 50
322.1652618044
 51
352.9158191875
  0
ARC
  5
92
330
1F
100
AcDbEntity
  8
0
  6
Continuous
 62
     7
370
    25
100
AcDbCircle
 10
101.5399298016
 20
150.1573388563
 30
0.0
 40
4.95502904626357
100
AcDbArc
 50
153.6742706568
 51
171.2405257852
  0
LWPOLYLINE
  5
93
330
1F
100
AcDbEntity
  8
0
  6
Continuous
 62
     7
370
    25
100
AcDbPolyline
 90
       16
 70
   128
 43
0.0
 10
97.5607591264
 20
149.4887754453
 10
97.554209145
 20
149.5786486075
 10
97.554209145
 20
149.9501459327
 10
97.5970457346
 20
150.3116294994
 10
97.6804095821
 20
150.643611635
 10
97.7998065209
 20
150.9281950966
 10
97.9487998312
 20
151.1500379162
 10
98.1193572451
 20
151.2971804898
 10
98.3022839681
 20
151.3616903233
 10
98.4877183734
 20
151.3400896749
 10
98.6656636441
 20
151.2335430411
 10
98.8265267046
 20
151.0477943785
 10
98.9616353857
 20
150.7928574456
 10
99.0637059435
 20
150.4824759584
 10
99.1272357277
 20
150.1333826633
 10
99.1432600584
 20
149.9523647928
  0
ARC
  5
94
330
1F
100
AcDbEntity
  8
0
  6
Continuous
 62
     7
370
    25
100
AcDbCircle
 10
98.8141134057
 20
193.2353765002
 30
0.0
 40
9.683561380128397
100
AcDbArc
 50
91.9707103043
 51
141.8609116228
  0
ARC
  5
95
330
1F
100
AcDbEntity
  8
0
  6
Continuous
 62
     7
370
    25
100
AcDbCircle
 10
98.8141134057
 20
153.59341804
 30
0.0
 40
9.683561380128516
100
AcDbArc
 50
218.1390883772
 51
268.0292896957
  0
LINE
  5
96
330
1F
100
AcDbEntity
  8
0
  6
Continuous
 62
     7
370
    25
100
AcDbLine
 10
91.3118895555
 20
148.024552896
 30
0.0
 11
91.1978579326
 21
147.6131159095
 31
0.0
  0
LINE
  5
97
330
1F
100
AcDbEntity
  8
0
  6
Continuous
 62
     7
370
    25
100
AcDbLine
 10
91.1978579326
 20
199.2156786307
 30
0.0
 11
91.3118895555
 21
198.8042416442
 31
0.0
  0
LWPOLYLINE
  5
98
330
1F
100
AcDbEntity
  8
0
  6
Continuous
 62
     7
370
    25
100
AcDbPolyline
 90
       11
 70
   128
 43
0.0
 10
88.9080494315
 20
185.2393972701
 10
88.8864853279
 20
184.8704118769
 10
88.8229555437
 20
184.5213185818
 10
88.720884986
 20
184.2109370946
 10
88.5857763048
 20
183.9560001617
 10
88.4249132443
 20
183.7702514991
 10
88.2469679736
 20
183.6637048653
 10
88.0615335683
 20
183.6421042169
 10
87.8786068453
 20
183.7066140504
 10
87.7080494315
 20
183.8537566241
 10
87.5858305362
 20
184.0273124126
  0
ARC
  5
99
330
1F
100
AcDbEntity
  8
0
  6
Continuous
 62
     7
370
    25
100
AcDbCircle
 10
87.0807217607
 20
185.4411425627
 30
0.0
 40
1.838430738282476
100
AcDbArc
 50
353.6998005197
 51
45.3909560623
  0
ARC
  5
9A
330
1F
100
AcDbEntity
  8
0
  6
Continuous
 62
     7
370
    25
100
AcDbCircle
 10
98.3487998312
 20
176.0532124851
 30
0.0
 40
0.9599077359123582
100
AcDbArc
 50
58.8416101021
 51
121.1583898979
  0
LINE
  5
9B
330
1F
100
AcDbEntity
  8
0
  6
Continuous
 62
     7
370
    25
100
AcDbLine
 10
101.2608629531
 20
179.6637094707
 30
0.0
 11
98.8454615449
 21
176.8746441643
 31
0.0
  0
ARC
  5
9C
330
1F
100
AcDbEntity
  8
0
  6
Continuous
 62
     7
370
    25
100
AcDbCircle
 10
99.9145251149
 20
180.5378221769
 30
0.0
 40
1.605209829839799
100
AcDbArc
 50
327.0062657063
 51
29.5877009651
  0
ARC
  5
9D
330
1F
100
AcDbEntity
  8
0
  6
Continuous
 62
     7
370
    25
100
AcDbCircle
 10
98.3487998312
 20
179.9425257156
 30
0.0
 40
3.270684920092804
100
AcDbArc
 50
25.1087929528
 51
154.8912070472
  0
ARC
  5
9E
330
1F
100
AcDbEntity
  8
0
  6
Continuous
 62
     7
370
    25
100
AcDbCircle
 10
96.7830745476
 20
180.5378221769
 30
0.0
 40
1.605209829839739
100
AcDbArc
 50
150.4122990349
 51
212.9937342937
  0
LINE
  5
9F
330
1F
100
AcDbEntity
  8
0
  6
Continuous
 62
     7
370
    25
100
AcDbLine
 10
97.8521381175
 20
176.8746441643
 30
0.0
 11
95.4367367093
 21
179.6637094707
 31
0.0
  0
LINE
  5
A0
330
1F
100
AcDbEntity
  8
0
  6
Continuous
 62
     7
370
    25
100
AcDbLine
 10
101.481102191
 20
172.5445171453
 30
0.0
 11
100.0954615449
 21
172.5445171453
 31
0.0
  0
LINE
  5
A1
330
1F
100
AcDbEntity
  8
0
  6
Continuous
 62
     7
370
    25
100
AcDbLine
 10
101.481102191
 20
172.5445171453
 30
0.0
 11
108.1247746733
 21
180.2159693375
 31
0.0
  0
LINE
  5
A2
330
1F
100
AcDbEntity
  8
0
  6
Continuous
 62
     7
370
    25
100
AcDbLine
 10
95.3871825732
 20
181.3304028945
 30
0.0
 11
96.7728232193
 21
181.3304028945
 31
0.0
  0
ARC
  5
A3
330
1F
100
AcDbEntity
  8
0
  6
Continuous
 62
     7
370
    25
100
AcDbCircle
 10
100.4080739705
 20
179.2379260819
 30
0.0
 40
4.194461495317738
100
AcDbArc
 50
109.0125798491
 51
150.0749557877
  0
LINE
  5
A4
330
1F
100
AcDbEntity
  8
0
  6
Continuous
 62
     7
370
    25
100
AcDbLine
 10
100.9844404773
 20
170.8240305007
 30
0.0
 11
99.5987998312
 21
170.8240305007
 31
0.0
  0
ARC
  5
A5
330
1F
100
AcDbEntity
  8
0
  6
Continuous
 62
     7
370
    25
100
AcDbCircle
 10
96.3254113226
 20
173.1009066349
 30
0.0
 40
5.185626056175651
100
AcDbArc
 50
333.9551549141
 51
353.840617582
  0
LINE
  5
A6
330
1F
100
AcDbEntity
  8
0
  6
Continuous
 62
     7
370
    25
100
AcDbLine
 10
100.9844404773
 20
152.3547640395
 30
0.0
 11
99.5987998312
 21
152.3547640395
 31
0.0
  0
ARC
  5
A7
330
1F
100
AcDbEntity
  8
0
  6
Continuous
 62
     7
370
    25
100
AcDbCircle
 10
96.91188833
 20
150.3025744224
 30
0.0
 40
4.560390686837271
100
AcDbArc
 50
13.3915082012
 51
26.7438782118
  0
LINE
  5
A8
330
1F
100
AcDbEntity
  8
0
  6
Continuous
 62
     7
370
    25
100
AcDbLine
 10
100.9844404773
 20
152.3547640395
 30
0.0
 11
100.9844404773
 21
170.8240305007
 31
0.0
  0
LWPOLYLINE
  5
A9
330
1F
100
AcDbEntity
  8
0
  6
Continuous
 62
     7
370
    25
100
AcDbPolyline
 90
       14
 70
   128
 43
0.0
 10
98.5653061822
 20
171.87410509
 10
98.5523699469
 20
171.8816140504
 10
98.3818125331
 20
172.0287566241
 10
98.2328192228
 20
172.2505994436
 10
98.113422284
 20
172.5351829052
 10
98.0300584365
 20
172.8671650408
 10
97.9872218469
 20
173.2286486075
 10
97.9872218469
 20
173.6001459327
 10
98.0300584365
 20
173.9616294994
 10
98.113422284
 20
174.293611635
 10
98.2328192228
 20
174.5781950966
 10
98.3818125331
 20
174.8000379162
 10
98.5523699469
 20
174.9471804898
 10
98.5653061822
 20
174.9546894502
  0
ARC
  5
AA
330
1F
100
AcDbEntity
  8
0
  6
Continuous
 62
     7
370
    25
100
AcDbCircle
 10
99.9019869642
 20
149.8963280339
 30
0.0
 40
1.941699614240544
100
AcDbArc
 50
133.5041888585
 51
189.6295790814
  0
LINE
  5
AB
330
1F
100
AcDbEntity
  8
0
  6
Continuous
 62
     7
370
    25
100
AcDbLine
 10
96.8223773554
 20
179.6637094707
 30
0.0
 11
95.4367367093
 21
179.6637094707
 31
0.0
  0
LINE
  5
AC
330
1F
100
AcDbEntity
  8
0
  6
Continuous
 62
     7
370
    25
100
AcDbLine
 10
99.0416201543
 20
177.1011486161
 30
0.0
 11
96.8223773554
 21
179.6637094707
 31
0.0
  0
LWPOLYLINE
  5
AD
330
1F
100
AcDbEntity
  8
0
  6
Continuous
 62
     7
370
    25
100
AcDbPolyline
 90
       28
 70
   128
 43
0.0
 10
96.2706334976
 20
149.914223551
 10
96.1367930542
 20
149.9947958201
 10
95.4419103515
 20
150.4677909747
 10
94.762439797
 20
151.023174951
 10
94.1008210013
 20
151.6589536663
 10
93.4594294785
 20
152.3728443839
 10
92.840568118
 20
153.1622839094
 10
92.2464589153
 20
154.0244377933
 10
91.6792349945
 20
154.9562105087
 10
91.1409329491
 20
155.9542565648
 10
90.6334855298
 20
157.0149925194
 10
90.1587147054
 20
158.1346098448
 10
89.7183251202
 20
159.3090886022
 10
89.3138979747
 20
160.5342118753
 10
88.9468853473
 20
161.8055809106
 10
88.6186049814
 20
163.1186309112
 10
88.3302355539
 20
164.4686474265
 10
88.082812443
 20
165.8507832791
 10
87.8772240109
 20
167.2600759687
 10
87.7142084143
 20
168.6914654892
 10
87.5943509537
 20
170.139812497
 10
87.5180819723
 20
171.5999167633
 10
87.4856753106
 20
173.0665358453
 10
87.4972473235
 20
174.534403909
 10
87.5527564621
 20
175.9982506362
 10
87.6520034231
 20
177.4528201469
 10
87.7946318646
 20
178.8928898706
 10
87.9801296852
 20
180.3132892978
  0
ARC
  5
AE
330
1F
100
AcDbEntity
  8
0
  6
Continuous
 62
     7
370
    25
100
AcDbCircle
 10
98.1687151936
 20
180.5378221769
 30
0.0
 40
1.605209829839755
100
AcDbArc
 50
150.4122990349
 51
212.9937342937
  0
ARC
  5
AF
330
1F
100
AcDbEntity
  8
0
  6
Continuous
 62
     7
370
    25
100
AcDbCircle
 10
89.2445176032
 20
184.845680092
 30
0.0
 40
1.47002176404365
100
AcDbArc
 50
183.0207328497
 51
231.2579611622
  0
ARC
  5
B0
330
1F
100
AcDbEntity
  8
0
  6
Continuous
 62
     7
370
    25
100
AcDbCircle
 10
89.8718829841
 20
180.2259072892
 30
0.0
 40
1.893770355557878
100
AcDbArc
 50
131.7214292312
 51
177.3553295106
  0
LWPOLYLINE
  5
B1
330
1F
100
AcDbEntity
  8
0
  6
Continuous
 62
     7
370
    25
100
AcDbPolyline
 90
      118
 70
   128
 43
0.0
 10
110.7507236199
 20
173.4143972701
 10
110.7290991783
 20
175.0246961612
 10
110.6642882026
 20
176.6303521437
 10
110.5564775594
 20
178.2267356958
 10
110.4059780949
 20
179.8092440305
 10
110.2132237379
 20
181.3733143665
 10
109.9787702491
 20
182.9144370842
 10
109.7032936186
 20
184.4281687277
 10
109.3875881169
 20
185.9101448171
 10
109.0325640047
 20
187.3560924314
 10
108.6392449083
 20
188.7618425295
 10
108.2087648686
 20
190.1233419699
 10
107.7423650709
 20
191.4366651972
 10
107.2413902667
 20
192.6980255607
 10
106.7072848958
 20
193.9037862318
 10
106.1415889225
 20
195.0504706904
 10
105.5459333946
 20
196.1347727484
 10
104.9220357413
 20
197.1535660822
 10
104.2716948208
 20
198.1039132469
 10
103.5967857346
 20
198.9830741457
 10
102.8992544202
 20
199.78851393
 10
102.1811120409
 20
200.5179103084
 10
101.4444291872
 20
201.1691602425
 10
100.6913299064
 20
201.7403860099
 10
99.9239855786
 20
202.2299406191
 10
99.1446086563
 20
202.6364125572
 10
98.3554462849
 20
202.9586298605
 10
97.5587738237
 20
203.1956634931
 10
96.7568882857
 20
203.3468300256
 10
95.9521017146
 20
203.4116936058
 10
95.1467345182
 20
203.3900672153
 10
94.3431087788
 20
203.2820132084
 10
93.5435415574
 20
203.0878431329
 10
92.7503382132
 20
202.8081168314
 10
91.9657857569
 20
202.4436408272
 10
91.1921462563
 20
201.9954659989
 10
90.4316503142
 20
201.4648845507
 10
89.6864906375
 20
200.8534262861
 10
88.9588157143
 20
200.1628541978
 10
88.2507236199
 20
199.3951593836
 10
87.564255967
 20
198.5525553067
 10
86.9013920195
 20
197.6374714125
 10
86.2640429859
 20
196.6525461249
 10
85.6540465085
 20
195.6006192385
 10
85.0731613648
 20
194.4847237308
 10
84.5230623973
 20
193.3080770173
 10
84.0053356836
 20
192.0740716753
 10
83.5214739639
 20
190.7862656614
 10
83.0728723367
 20
189.4483720539
 10
82.6608242367
 20
188.0642483464
 10
82.2865177053
 20
186.6378853258
 10
81.951031965
 20
185.1733955659
 10
81.6553343081
 20
183.6750015699
 10
81.4002773075
 20
182.1470235955
 10
81.1865963585
 20
180.5938671987
 10
81.0149075586
 20
179.0200105316
 10
80.8857059312
 20
177.4299914304
 10
80.7993639979
 20
175.8283943316
 10
80.7561307048
 20
174.2198370544
 10
80.7561307048
 20
172.6089574858
 10
80.7993639979
 20
171.0004002086
 10
80.8857059312
 20
169.3988031099
 10
81.0149075586
 20
167.8087840086
 10
81.1865963585
 20
166.2349273415
 10
81.4002773075
 20
164.6817709447
 10
81.6553343081
 20
163.1537929703
 10
81.951031965
 20
161.6553989743
 10
82.2865177053
 20
160.1909092144
 10
82.6608242367
 20
158.7645461938
 10
83.0728723367
 20
157.3804224863
 10
83.5214739639
 20
156.0425288788
 10
84.0053356836
 20
154.7547228649
 10
84.5230623973
 20
153.5207175229
 10
85.0731613648
 20
152.3440708094
 10
85.6540465085
 20
151.2281753017
 10
86.2640429859
 20
150.1762484153
 10
86.9013920195
 20
149.1913231277
 10
87.564255967
 20
148.2762392336
 10
88.2507236199
 20
147.4336351566
 10
88.9588157143
 20
146.6659403425
 10
89.6864906375
 20
145.9753682541
 10
90.4316503142
 20
145.3639099895
 10
91.1921462563
 20
144.8333285413
 10
91.9657857569
 20
144.3851537131
 10
92.7503382132
 20
144.0206777088
 10
93.5435415574
 20
143.7409514073
 10
94.3431087788
 20
143.5467813318
 10
95.1467345182
 20
143.438727325
 10
95.9521017146
 20
143.4171009344
 10
96.7568882857
 20
143.4819645146
 10
97.5587738237
 20
143.6331310472
 10
98.3554462849
 20
143.8701646797
 10
99.1446086563
 20
144.192381983
 10
99.9239855786
 20
144.5988539212
 10
100.6913299064
 20
145.0884085303
 10
101.4444291872
 20
145.6596342978
 10
102.1811120409
 20
146.3108842318
 10
102.8992544202
 20
147.0402806103
 10
103.5967857346
 20
147.8457203946
 10
104.2716948208
 20
148.7248812933
 10
104.9220357413
 20
149.675228458
 10
105.5459333946
 20
150.6940217918
 10
106.1415889225
 20
151.7783238498
 10
106.7072848958
 20
152.9250083084
 10
107.2413902667
 20
154.1307689795
 10
107.7423650709
 20
155.392129343
 10
108.2087648686
 20
156.7054525703
 10
108.6392449083
 20
158.0669520107
 10
109.0325640047
 20
159.4727021088
 10
109.3875881169
 20
160.9186497231
 10
109.7032936186
 20
162.4006258125
 10
109.9787702491
 20
163.9143574561
 10
110.2132237379
 20
165.4554801737
 10
110.4059780949
 20
167.0195505097
 10
110.5564775594
 20
168.6020588444
 10
110.6642882026
 20
170.1984423965
 10
110.7290991783
 20
171.804098379
 10
110.7507236199
 20
173.4143972701
  0
LWPOLYLINE
  5
B2
330
1F
100
AcDbEntity
  8
0
  6
Continuous
 62
     7
370
    25
100
AcDbPolyline
 90
      121
 70
   128
 43
0.0
 10
111.5007236199
 20
173.4143972701
 10
111.4791387923
 20
175.0629798918
 10
111.4144434719
 20
176.707043863
 10
111.3068149842
 20
178.3420829189
 10
111.1565483314
 20
179.9636155309
 10
110.9640553839
 20
181.5671971908
 10
110.7298637515
 20
183.1484325929
 10
110.4546153372
 20
184.7029876808
 10
110.1390645777
 20
186.226601527
 10
109.7840763758
 20
187.7150980119
 10
109.3906237295
 20
189.1643972701
 10
108.959785065
 20
190.5705268731
 10
108.4927412813
 20
191.9296327173
 10
107.9907725128
 20
193.2379895882
 10
107.4552546211
 20
194.4920113704
 10
106.8876554236
 20
195.6882608775
 10
106.28953067
 20
196.8234592726
 10
105.6625197789
 20
197.894495056
 10
105.0083413435
 20
198.8984325929
 10
104.3287884214
 20
199.8325201604
 10
103.6257236199
 20
200.6941974893
 10
102.9010739908
 20
201.481102782
 10
102.1568257483
 20
202.1910791859
 10
101.3950188252
 20
202.8221807048
 10
100.6177412813
 20
203.3726775334
 10
99.8271235802
 20
203.8410607982
 10
99.0253327503
 20
204.2260466932
 10
98.2145664443
 20
204.5265799989
 10
97.3970469163
 20
204.7418369742
 10
96.5750149307
 20
204.8712276149
 10
95.7507236199
 20
204.9143972701
 10
94.926432309
 20
204.8712276149
 10
94.1044003234
 20
204.7418369742
 10
93.2868807955
 20
204.5265799989
 10
92.4761144895
 20
204.2260466932
 10
91.6743236595
 20
203.8410607982
 10
90.8837059585
 20
203.3726775334
 10
90.1064284145
 20
202.8221807048
 10
89.3446214914
 20
202.1910791859
 10
88.600373249
 20
201.481102782
 10
87.8757236199
 20
200.6941974893
 10
87.1726588184
 20
199.8325201604
 10
86.4931058963
 20
198.8984325929
 10
85.8389274608
 20
197.894495056
 10
85.2119165697
 20
196.8234592726
 10
84.6137918162
 20
195.6882608775
 10
84.0461926186
 20
194.4920113704
 10
83.5106747269
 20
193.2379895882
 10
83.0087059585
 20
191.9296327173
 10
82.5416621747
 20
190.5705268731
 10
82.1108235103
 20
189.1643972701
 10
81.7173708639
 20
187.7150980119
 10
81.362382662
 20
186.226601527
 10
81.0468319025
 20
184.7029876808
 10
80.7715834882
 20
183.1484325929
 10
80.5373918558
 20
181.5671971908
 10
80.3448989083
 20
179.9636155309
 10
80.1946322555
 20
178.3420829189
 10
80.0870037678
 20
176.707043863
 10
80.0223084475
 20
175.0629798918
 10
80.0007236199
 20
173.4143972701
 10
80.0223084475
 20
171.7658146485
 10
80.0870037678
 20
170.1217506772
 10
80.1946322555
 20
168.4867116213
 10
80.3448989083
 20
166.8651790093
 10
80.5373918558
 20
165.2615973494
 10
80.7715834882
 20
163.6803619473
 10
81.0468319025
 20
162.1258068594
 10
81.362382662
 20
160.6021930132
 10
81.7173708639
 20
159.1136965283
 10
82.1108235103
 20
157.6643972701
 10
82.5416621747
 20
156.2582676671
 10
83.0087059585
 20
154.8991618229
 10
83.5106747269
 20
153.590804952
 10
84.0461926186
 20
152.3367831698
 10
84.6137918162
 20
151.1405336627
 10
85.2119165697
 20
150.0053352676
 10
85.8389274608
 20
148.9342994842
 10
86.4931058963
 20
147.9303619473
 10
87.1726588184
 20
146.9962743798
 10
87.8757236199
 20
146.1345970509
 10
88.600373249
 20
145.3476917582
 10
89.3446214914
 20
144.6377153544
 10
90.1064284145
 20
144.0066138354
 10
90.8837059585
 20
143.4561170068
 10
91.6743236595
 20
142.987733742
 10
92.4761144895
 20
142.602747847
 10
93.2868807955
 20
142.3022145414
 10
94.1044003234
 20
142.086957566
 10
94.926432309
 20
141.9575669253
 10
95.7507236199
 20
141.9143972701
 10
96.5750149307
 20
141.9575669253
 10
97.3970469163
 20
142.086957566
 10
98.2145664443
 20
142.3022145414
 10
99.0253327503
 20
142.602747847
 10
99.8271235802
 20
142.987733742
 10
100.6177412813
 20
143.4561170068
 10
101.3950188252
 20
144.0066138354
 10
102.1568257483
 20
144.6377153544
 10
102.9010739908
 20
145.3476917582
 10
103.6257236199
 20
146.1345970509
 10
104.3287884214
 20
146.9962743798
 10
105.0083413435
 20
147.9303619473
 10
105.6625197789
 20
148.9342994842
 10
106.28953067
 20
150.0053352676
 10
106.8876554236
 20
151.1405336627
 10
107.4552546211
 20
152.3367831698
 10
107.9907725128
 20
153.590804952
 10
108.4927412813
 20
154.8991618229
 10
108.959785065
 20
156.2582676671
 10
109.3906237295
 20
157.6643972701
 10
109.7840763758
 20
159.1136965283
 10
110.1390645777
 20
160.6021930132
 10
110.4546153372
 20
162.1258068594
 10
110.7298637515
 20
163.6803619473
 10
110.9640553839
 20
165.2615973494
 10
111.1565483314
 20
166.8651790094
 10
111.3068149842
 20
168.4867116213
 10
111.4144434719
 20
170.1217506772
 10
111.4791387923
 20
171.7658146485
 10
111.5007236199
 20
173.4143972701
  0
SPLINE
  5
B3
330
1F
100
AcDbEntity
  8
0
  6
Continuous
 62
     7
370
    25
100
AcDbSpline
210
0.0
220
0.0
230
1.0
 70
     8
 71
     3
 72
    17
 73
    13
 74
     0
 42
0.00000001
 43
0.00000001
 40
0.0
 40
0.0
 40
0.0
 40
0.0
 40
0.0713924145232098
 40
0.176343861922298
 40
0.2843234235762762
 40
0.3895908649255085
 40
0.4978685802072633
 40
0.6038707472893865
 40
0.7129432371843721
 40
0.8189580372797699
 40
0.9280886685642177
 40
1.0
 40
1.0
 40
1.0
 40
1.0
 10
118.5353333106989
 20
142.1693976701735
 30
0.0
 10
118.4033205307178
 20
142.1687589180192
 30
0.0
 10
118.0772404618418
 20
142.1671811590591
 30
0.0
 10
117.508950337131
 20
142.1519252489674
 30
0.0
 10
116.8494183010572
 20
142.1234541214634
 30
0.0
 10
116.1739901002384
 20
142.0854129957417
 30
0.0
 10
115.513001289167
 20
142.0428156392784
 30
0.0
 10
114.8735728432248
 20
141.9996992721012
 30
0.0
 10
114.2841045614641
 20
141.9614407586295
 30
0.0
 10
113.7567796249704
 20
141.9324875563366
 30
0.0
 10
113.3476505763061
 20
141.9160301521219
 30
0.0
 10
113.1571622867735
 20
141.9159367038172
 30
0.0
 10
113.081498797948
 20
141.915899585395
 30
0.0
  0
LWPOLYLINE
  5
B4
330
1F
100
AcDbEntity
  8
0
  6
Continuous
 62
     7
370
    25
100
AcDbPolyline
 90
       59
 70
   128
 43
0.0
 10
123.7314857334
 20
142.1693976702
 10
124.5473258732
 20
142.4219114513
 10
125.3554296714
 20
142.7595751154
 10
126.1535769142
 20
143.181460953
 10
126.9395747429
 20
143.6864098596
 10
127.7112636783
 20
144.2730345202
 10
128.4665235543
 20
144.9397232209
 10
129.2032793423
 20
145.6846442769
 10
129.9195068529
 20
146.505751065
 10
130.6132382963
 20
147.4007876466
 10
131.2825676896
 20
148.3672949654
 10
131.925656093
 20
149.4026176043
 10
132.5407366619
 20
150.5039110801
 10
133.1261195016
 20
151.6681496591
 10
133.6801963099
 20
152.8921346698
 10
134.2014447962
 20
154.1725032913
 10
134.6884328633
 20
155.5057377923
 10
135.1398225426
 20
156.8881751958
 10
135.5543736695
 20
158.316017343
 10
135.9309472913
 20
159.7853413284
 10
136.2685087959
 20
161.2921102779
 10
136.5661307545
 20
162.8321844397
 10
136.8229954698
 20
164.4013325579
 10
137.0383972222
 20
165.995243498
 10
137.2117442092
 20
167.609538091
 10
137.3425601709
 20
169.2397811653
 10
137.4304856989
 20
170.8814937318
 10
137.4752792233
 20
172.5301652896
 10
137.4768176767
 20
174.1812662184
 10
137.4350968324
 20
175.8302602237
 10
137.3502313157
 20
177.4726167992
 10
137.2224542892
 20
179.1038236747
 10
137.0521168122
 20
180.7193992131
 10
136.8396868761
 20
182.3149047235
 10
136.5857481186
 20
183.8859566559
 10
136.2909982202
 20
185.4282386452
 10
135.9562469876
 20
186.9375133696
 10
135.5824141285
 20
188.409634193
 10
135.1705267249
 20
189.8405565569
 10
134.7217164112
 20
191.2263490933
 10
134.2372162652
 20
192.5632044253
 10
133.7183574202
 20
193.847449628
 10
133.1665654079
 20
195.0755563193
 10
132.5833562417
 20
196.2441503543
 10
131.9703322517
 20
197.3500210953
 10
131.3291776824
 20
198.3901302326
 10
130.661654065
 20
199.3616201326
 10
129.9695953784
 20
200.2618216887
 10
129.2549030096
 20
201.0882616543
 10
128.5195405305
 20
201.8386694382
 10
127.7655283027
 20
202.5109833428
 10
126.9949379269
 20
203.1033562284
 10
126.2098865511
 20
203.6141605881
 10
125.412531054
 20
204.0419930196
 10
124.605062119
 20
204.3856780803
 10
123.7896982157
 20
204.6442715175
 10
122.9686795046
 20
204.8170628622
 10
122.1442616824
 20
204.9035773811
 10
121.7314857334
 20
204.9143972701
  0
LINE
  5
B5
330
1F
100
AcDbEntity
  8
0
  6
Continuous
 62
     7
370
    25
100
AcDbLine
 10
123.7314857334
 20
142.1693976702
 30
0.0
 11
118.5353333107
 21
142.1693976702
 31
0.0
  0
ARC
  5
B6
330
1F
100
AcDbEntity
  8
0
  6
Continuous
 62
     7
370
    25
100
AcDbCircle
 10
111.8186968431
 20
165.6589253872
 30
0.0
 40
29.09923391521635
100
AcDbArc
 50
194.3674693673
 51
218.7626329869
  0
LINE
  5
B7
330
1F
100
AcDbEntity
  8
0
  6
Continuous
 62
     7
370
    25
100
AcDbLine
 10
91.3592487832
 20
147.4563279988
 30
0.0
 11
89.128672325
 21
147.440028554
 31
0.0
  0
LWPOLYLINE
  5
B8
330
1F
100
AcDbEntity
  8
0
  6
Continuous
 62
     7
370
    25
100
AcDbPolyline
 90
        3
 70
   128
 43
0.0
 10
97.4451674544
 20
143.9698087332
 10
98.0379164351
 20
143.7820369716
 10
98.0667325425
 20
143.7741474284
  0
LWPOLYLINE
  5
B9
330
1F
100
AcDbEntity
  8
0
  6
Continuous
 62
     7
370
    25
100
AcDbPolyline
 90
        3
 70
   128
 43
0.0
 10
98.0667325425
 20
203.0546471119
 10
98.0379164351
 20
203.0467575686
 10
97.4451674544
 20
202.8589858071
  0
LINE
  5
BA
330
1F
100
AcDbEntity
  8
0
  6
Continuous
 62
     7
370
    25
100
AcDbLine
 10
91.3464404412
 20
199.3725601355
 30
0.0
 11
89.128672325
 21
199.3887659862
 31
0.0
  0
ARC
  5
BB
330
1F
100
AcDbEntity
  8
0
  6
Continuous
 62
     7
370
    25
100
AcDbCircle
 10
112.1276927894
 20
181.0153711798
 30
0.0
 40
29.43699337630944
100
AcDbArc
 50
141.3794372449
 51
165.490460401
  0
LINE
  5
BC
330
1F
100
AcDbEntity
  8
0
  6
Continuous
 62
     7
370
    25
100
AcDbLine
 10
109.0669187432
 20
159.6746555886
 30
0.0
 11
108.5365179595
 21
159.6707890354
 31
0.0
  0
ARC
  5
BD
330
1F
100
AcDbEntity
  8
0
  6
Continuous
 62
     7
370
    25
100
AcDbCircle
 10
58.6756253906
 20
173.4143972701
 30
0.0
 40
51.72035745320184
100
AcDbArc
 50
344.5897146459
 51
15.4102853541
  0
LINE
  5
BE
330
1F
100
AcDbEntity
  8
0
  6
Continuous
 62
     7
370
    25
100
AcDbLine
 10
109.0611259133
 20
187.1541811806
 30
0.0
 11
108.5365179595
 21
187.1580055049
 31
0.0
  0
LWPOLYLINE
  5
BF
330
1F
100
AcDbEntity
  8
0
  6
Continuous
 62
     7
370
    25
100
AcDbPolyline
 90
      106
 70
   128
 43
0.0
 10
84.6167490237
 20
173.4143972701
 10
84.6382274664
 20
174.8496969648
 10
84.7025859076
 20
176.2798586591
 10
84.8095939605
 20
177.6997627453
 10
84.9588685641
 20
179.1043263353
 10
85.1498753542
 20
180.488521456
 10
85.381930576
 20
181.8473930481
 10
85.6542035319
 20
183.1760767039
 10
85.9657195556
 20
184.4698160809
 10
86.3153635004
 20
185.7239799279
 10
86.7018837319
 20
186.9340786636
 10
87.1238966078
 20
188.0957804489
 10
87.5798914316
 20
189.2049266927
 10
88.0682358602
 20
190.2575469393
 10
88.5871817474
 20
191.2498730816
 10
89.1348714014
 20
192.1783528493
 10
89.7093442354
 20
193.0396625261
 10
90.3085437859
 20
193.8307188466
 10
90.930325074
 20
194.5486900347
 10
91.5724622839
 20
195.1910059397
 10
92.2326567313
 20
195.7553672376
 10
92.9085450912
 20
196.2397536612
 10
93.5977078587
 20
196.6424312329
 10
94.2976780101
 20
196.9619584716
 10
95.0059498338
 20
197.1971915525
 10
95.7199879006
 20
197.3472884025
 10
96.4372361395
 20
197.4117117136
 10
97.1551269879
 20
197.3902308671
 10
97.8710905829
 20
197.2829227589
 10
98.5825639606
 20
197.0901715243
 10
99.2870002311
 20
196.8126671625
 10
99.9818776953
 20
196.4514030671
 10
100.6647088723
 20
196.00767247
 10
101.3330494035
 20
195.4830638113
 10
101.9845068034
 20
194.8794550541
 10
102.6167490237
 20
194.1990069609
 10
103.2275128011
 20
193.4441553594
 10
103.8146117599
 20
192.6176024224
 10
104.3759442382
 20
191.7223069948
 10
104.9095008115
 20
190.761474002
 10
105.4133714856
 20
189.7385429766
 10
105.8857525344
 20
188.6571757463
 10
106.3249529562
 20
187.5212433251
 10
106.7294005275
 20
186.3348120563
 10
107.0976474311
 20
185.1021290558
 10
107.4283754385
 20
183.8276070089
 10
107.7204006293
 20
182.5158083738
 10
107.9726776292
 20
181.171429049
 10
108.184303352
 20
179.7992815637
 10
108.3545202325
 20
178.4042778497
 10
108.4827189384
 20
176.9914116583
 10
108.5684405516
 20
175.5657406838
 10
108.6113782111
 20
174.1323684582
 10
108.6113782111
 20
172.696426082
 10
108.5684405516
 20
171.2630538564
 10
108.4827189384
 20
169.8373828819
 10
108.3545202325
 20
168.4245166905
 10
108.184303352
 20
167.0295129765
 10
107.9726776292
 20
165.6573654912
 10
107.7204006293
 20
164.3129861664
 10
107.4283754385
 20
163.0011875313
 10
107.0976474311
 20
161.7266654844
 10
106.7294005275
 20
160.4939824839
 10
106.3249529562
 20
159.3075512151
 10
105.8857525344
 20
158.1716187939
 10
105.4133714856
 20
157.0902515636
 10
104.9095008115
 20
156.0673205383
 10
104.3759442382
 20
155.1064875454
 10
103.8146117599
 20
154.2111921178
 10
103.2275128011
 20
153.3846391808
 10
102.6167490237
 20
152.6297875793
 10
101.9845068034
 20
151.9493394861
 10
101.3330494035
 20
151.3457307289
 10
100.6647088723
 20
150.8211220702
 10
99.9818776953
 20
150.3773914731
 10
99.2870002311
 20
150.0161273777
 10
98.5825639606
 20
149.7386230159
 10
97.8710905829
 20
149.5458717813
 10
97.1551269879
 20
149.4385636731
 10
96.4372361395
 20
149.4170828267
 10
95.7199879006
 20
149.4815061378
 10
95.0059498338
 20
149.6316029877
 10
94.2976780101
 20
149.8668360686
 10
93.5977078587
 20
150.1863633073
 10
92.9085450912
 20
150.589040879
 10
92.2326567313
 20
151.0734273026
 10
91.5724622839
 20
151.6377886005
 10
90.930325074
 20
152.2801045055
 10
90.3085437859
 20
152.9980756936
 10
89.7093442354
 20
153.7891320142
 10
89.1348714014
 20
154.6504416909
 10
88.5871817474
 20
155.5789214587
 10
88.0682358602
 20
156.5712476009
 10
87.5798914316
 20
157.6238678476
 10
87.1238966078
 20
158.7330140913
 10
86.7018837319
 20
159.8947158766
 10
86.3153635004
 20
161.1048146124
 10
85.9657195556
 20
162.3589784593
 10
85.6542035319
 20
163.6527178363
 10
85.381930576
 20
164.9814014922
 10
85.1498753542
 20
166.3402730842
 10
84.9588685641
 20
167.7244682049
 10
84.8095939605
 20
169.1290317949
 10
84.7025859076
 20
170.5489358811
 10
84.6382274664
 20
171.9790975754
 10
84.6167490237
 20
173.4143972701
  0
LINE
  5
C0
330
1F
100
AcDbEntity
  8
0
  6
Continuous
 62
     7
370
    25
100
AcDbLine
 10
89.128672325
 20
199.3887659862
 30
0.0
 11
89.7449449063
 21
197.2539351419
 31
0.0
  0
LWPOLYLINE
  5
C1
330
1F
100
AcDbEntity
  8
0
  6
Continuous
 62
     7
370
    25
100
AcDbPolyline
 90
       19
 70
   128
 43
0.0
 10
89.7449449063
 20
197.2539351419
 10
90.4487769974
 20
198.0118527804
 10
91.1734290301
 20
198.686741899
 10
91.9164549472
 20
199.2763244147
 10
92.6753466705
 20
199.7786101962
 10
93.4475425667
 20
200.1919037818
 10
94.2304360948
 20
200.5148101022
 10
95.0213846035
 20
200.7462391897
 10
95.8177182525
 20
200.8854098572
 10
96.6167490237
 20
200.931852335
 10
97.4157797948
 20
200.8854098572
 10
98.2121134438
 20
200.7462391897
 10
99.0030619526
 20
200.5148101022
 10
99.7859554806
 20
200.1919037818
 10
100.5581513768
 20
199.7786101962
 10
101.3170431001
 20
199.2763244147
 10
102.0600690172
 20
198.686741899
 10
102.7847210499
 20
198.0118527804
 10
103.488553141
 20
197.2539351419
  0
LINE
  5
C2
330
1F
100
AcDbEntity
  8
0
  6
Continuous
 62
     7
370
    25
100
AcDbLine
 10
103.488553141
 20
197.2539351419
 30
0.0
 11
103.8835207285
 21
198.6221429995
 31
0.0
  0
LINE
  5
C3
330
1F
100
AcDbEntity
  8
0
  6
Continuous
 62
     7
370
    25
100
AcDbLine
 10
108.956340526
 20
187.6427748484
 30
0.0
 11
108.5365179595
 21
187.1580055049
 31
0.0
  0
LINE
  5
C4
330
1F
100
AcDbEntity
  8
0
  6
Continuous
 62
     7
370
    25
100
AcDbLine
 10
108.5365179595
 20
159.6707890354
 30
0.0
 11
108.956340526
 21
159.1860196918
 31
0.0
  0
LINE
  5
C5
330
1F
100
AcDbEntity
  8
0
  6
Continuous
 62
     7
370
    25
100
AcDbLine
 10
103.8835207285
 20
148.2066515407
 30
0.0
 11
103.488553141
 21
149.5748593983
 31
0.0
  0
LWPOLYLINE
  5
C6
330
1F
100
AcDbEntity
  8
0
  6
Continuous
 62
     7
370
    25
100
AcDbPolyline
 90
       19
 70
   128
 43
0.0
 10
103.488553141
 20
149.5748593983
 10
102.7847210499
 20
148.8169417598
 10
102.0600690172
 20
148.1420526412
 10
101.3170431001
 20
147.5524701255
 10
100.5581513768
 20
147.050184344
 10
99.7859554806
 20
146.6368907584
 10
99.0030619526
 20
146.313984438
 10
98.2121134438
 20
146.0825553505
 10
97.4157797948
 20
145.9433846831
 10
96.6167490237
 20
145.8969422052
 10
95.8177182525
 20
145.9433846831
 10
95.0213846035
 20
146.0825553505
 10
94.2304360948
 20
146.313984438
 10
93.4475425667
 20
146.6368907584
 10
92.6753466705
 20
147.050184344
 10
91.9164549472
 20
147.5524701255
 10
91.1734290301
 20
148.1420526412
 10
90.4487769974
 20
148.8169417598
 10
89.7449449063
 20
149.5748593983
  0
LINE
  5
C7
330
1F
100
AcDbEntity
  8
0
  6
Continuous
 62
     7
370
    25
100
AcDbLine
 10
89.7449449063
 20
149.5748593983
 30
0.0
 11
89.128672325
 21
147.440028554
 31
0.0
  0
LINE
  5
C8
330
1F
100
AcDbEntity
  8
0
  6
Continuous
 62
     7
370
    25
100
AcDbLine
 10
83.6295646656
 20
158.4382438727
 30
0.0
 11
84.6969800878
 21
159.6707890354
 31
0.0
  0
ARC
  5
C9
330
1F
100
AcDbEntity
  8
0
  6
Continuous
 62
     7
370
    25
100
AcDbCircle
 10
134.5578726568
 20
173.4143972701
 30
0.0
 40
51.72035745320182
100
AcDbArc
 50
164.5897146459
 51
195.4102853541
  0
LINE
  5
CA
330
1F
100
AcDbEntity
  8
0
  6
Continuous
 62
     7
370
    25
100
AcDbLine
 10
84.6969800878
 20
187.1580055049
 30
0.0
 11
83.6295646656
 21
188.3905506675
 31
0.0
  0
LWPOLYLINE
  5
CB
330
1F
100
AcDbEntity
  8
0
  6
Continuous
 62
     7
370
    25
100
AcDbPolyline
 90
       27
 70
   128
 43
0.0
 10
86.3487998312
 20
173.4143972701
 10
86.370278274
 20
174.8496969648
 10
86.4346367151
 20
176.2798586591
 10
86.541644768
 20
177.6997627453
 10
86.6909193717
 20
179.1043263353
 10
86.8819261618
 20
180.488521456
 10
87.1139813835
 20
181.8473930481
 10
87.3862543395
 20
183.1760767039
 10
87.6977703632
 20
184.4698160809
 10
88.047414308
 20
185.7239799279
 10
88.4339345394
 20
186.9340786636
 10
88.8559474153
 20
188.0957804489
 10
89.3119422392
 20
189.2049266927
 10
89.8002866678
 20
190.2575469393
 10
90.3192325549
 20
191.2498730816
 10
90.8669222089
 20
192.1783528493
 10
91.441395043
 20
193.0396625261
 10
92.0405945935
 20
193.8307188466
 10
92.6623758815
 20
194.5486900347
 10
93.3045130915
 20
195.1910059397
 10
93.9647075388
 20
195.7553672376
 10
94.6405958987
 20
196.2397536612
 10
95.3297586663
 20
196.6424312329
 10
96.0297288177
 20
196.9619584716
 10
96.7380006414
 20
197.1971915525
 10
97.4520387082
 20
197.3472884025
 10
97.4827744274
 20
197.3518156773
  0
LWPOLYLINE
  5
CC
330
1F
100
AcDbEntity
  8
0
  6
Continuous
 62
     7
370
    25
100
AcDbPolyline
 90
       27
 70
   128
 43
0.0
 10
97.4827744274
 20
149.4769788629
 10
97.4520387082
 20
149.4815061378
 10
96.7380006414
 20
149.6316029877
 10
96.0297288177
 20
149.8668360686
 10
95.3297586663
 20
150.1863633073
 10
94.6405958987
 20
150.589040879
 10
93.9647075388
 20
151.0734273026
 10
93.3045130915
 20
151.6377886005
 10
92.6623758815
 20
152.2801045055
 10
92.0405945935
 20
152.9980756936
 10
91.441395043
 20
153.7891320142
 10
90.8669222089
 20
154.6504416909
 10
90.3192325549
 20
155.5789214587
 10
89.8002866678
 20
156.5712476009
 10
89.3119422392
 20
157.6238678476
 10
88.8559474153
 20
158.7330140913
 10
88.4339345394
 20
159.8947158766
 10
88.047414308
 20
161.1048146124
 10
87.6977703632
 20
162.3589784593
 10
87.3862543395
 20
163.6527178363
 10
87.1139813835
 20
164.9814014922
 10
86.8819261618
 20
166.3402730842
 10
86.6909193717
 20
167.7244682049
 10
86.541644768
 20
169.1290317949
 10
86.4346367151
 20
170.5489358811
 10
86.370278274
 20
171.9790975754
 10
86.3487998312
 20
173.4143972701
  0
ARC
  5
CD
330
1F
100
AcDbEntity
  8
0
  6
Continuous
 62
     7
370
    25
100
AcDbCircle
 10
98.100050545
 20
154.2180673574
 30
0.0
 40
8.355359169009077
100
AcDbArc
 50
270.7537647822
 51
313.2710565363
  0
ARC
  5
CE
330
1F
100
AcDbEntity
  8
0
  6
Continuous
 62
     7
370
    25
100
AcDbCircle
 10
98.0690781089
 20
192.5341154952
 30
0.0
 40
8.432424908760561
100
AcDbArc
 50
46.9325259934
 51
89.0426526882
  0
LINE
  5
CF
330
1F
100
AcDbEntity
  8
0
  6
Continuous
 62
     7
370
    25
100
AcDbLine
 10
118.5353333107
 20
142.1693976702
 30
0.0
 11
118.5353333107
 21
140.9143972701
 31
0.0
  0
LINE
  5
D0
330
1F
100
AcDbEntity
  8
0
  6
Continuous
 62
     7
370
    25
100
AcDbLine
 10
118.5353333107
 20
140.9143972701
 30
0.0
 11
123.7314857334
 21
140.9143972701
 31
0.0
  0
LINE
  5
D1
330
1F
100
AcDbEntity
  8
0
  6
Continuous
 62
     7
370
    25
100
AcDbLine
 10
123.7314857334
 20
142.1693976702
 30
0.0
 11
123.7314857334
 21
140.9143972701
 31
0.0
  0
LINE
  5
D2
330
1F
100
AcDbEntity
  8
0
  6
Continuous
 62
     8
370
    25
100
AcDbLine
 10
100.054905145
 20
150.9119244522
 30
0.0
 11
100.789239799
 21
150.9119244522
 31
0.0
  0
LINE
  5
D3
330
1F
100
AcDbEntity
  8
0
  6
Continuous
 62
     8
370
    25
100
AcDbLine
 10
87.9801296852
 20
180.3132892978
 30
0.0
 11
86.8552659013
 21
180.3132892978
 31
0.0
  0
ENDSEC
  0
SECTION
  2
OBJECTS
  0
DICTIONARY
  5
C
330
0
100
AcDbDictionary
281
     1
  3
ACAD_GROUP
350
D
  3
ACAD_LAYOUT
350
1A
  3
ACAD_MLINESTYLE
350
17
  3
ACAD_PLOTSETTINGS
350
19
  3
ACAD_PLOTSTYLENAME
350
E
  3
ACAD_SCALELIST
350
47
  3
DWGPROPS
350
D4
  0
DICTIONARY
  5
D
102
{ACAD_REACTORS
330
C
102
}
330
C
100
AcDbDictionary
281
     1
  0
DICTIONARY
  5
1A
102
{ACAD_REACTORS
330
C
102
}
330
C
100
AcDbDictionary
281
     1
  3
Layout1
350
1E
  3
Layout2
350
26
  3
Model
350
22
  0
DICTIONARY
  5
17
102
{ACAD_REACTORS
330
C
102
}
330
C
100
AcDbDictionary
281
     1
  3
Standard
350
18
  0
DICTIONARY
  5
19
102
{ACAD_REACTORS
330
C
102
}
330
C
100
AcDbDictionary
281
     1
  0
ACDBDICTIONARYWDFLT
  5
E
102
{ACAD_REACTORS
330
C
102
}
330
C
100
AcDbDictionary
281
     1
  3
Normal
350
F
100
AcDbDictionaryWithDefault
340
F
  0
DICTIONARY
  5
47
102
{ACAD_REACTORS
330
C
102
}
330
C
100
AcDbDictionary
281
     1
  3
A0
350
48
  3
A1
350
49
  3
A2
350
4A
  3
A3
350
4B
  3
A4
350
4C
  3
A5
350
4D
  3
A6
350
4E
  3
A7
350
4F
  3
A8
350
50
  3
A9
350
51
  3
B0
350
52
  3
B1
350
53
  3
B2
350
54
  3
B3
350
55
  3
B4
350
56
  3
B5
350
57
  3
B6
350
58
  3
B7
350
59
  3
B8
350
5A
  3
B9
350
5B
  3
C0
350
5C
  3
C1
350
5D
  3
C2
350
5E
  3
C3
350
5F
  3
C4
350
60
  3
C5
350
61
  3
C6
350
62
  3
C7
350
63
  3
C8
350
64
  3
C9
350
65
  3
D0
350
66
  3
D1
350
67
  3
D2
350
68
  0
XRECORD
  5
D4
102
{ACAD_REACTORS
330
C
102
}
330
C
100
AcDbXrecord
280
     1
  1
DWGPROPS COOKIE
  2

  3

  4

  6

  7

  8
9128
  9

300
=
301
=
302
=
303
=
304
=
305
=
306
=
307
=
308
=
309
=
 40
0.0
 41
2459242.414949884
 42
2459242.414950116
  1

 90
        0
  0
LAYOUT
  5
1E
102
{ACAD_REACTORS
330
1A
102
}
330
1A
100
AcDbPlotSettings
  1

  2
none_device
  4

  6

 40
0.0
 41
0.0
 42
0.0
 43
0.0
 44
0.0
 45
0.0
 46
0.0
 47
0.0
 48
0.0
 49
0.0
140
0.0
141
0.0
142
1.0
143
1.0
 70
   688
 72
     1
 73
     0
 74
     5
  7

 75
    16
147
1.0
148
0.0
149
0.0
100
AcDbLayout
  1
Layout1
 70
     1
 71
     1
 10
0.0
 20
0.0
 11
420.0
 21
297.0
 12
0.0
 22
0.0
 32
0.0
 14
1.0000000000E+20
 24
1.0000000000E+20
 34
1.0000000000E+20
 15
-1.0000000000E+20
 25
-1.0000000000E+20
 35
-1.0000000000E+20
146
0.0
 13
0.0
 23
0.0
 33
0.0
 16
1.0
 26
0.0
 36
0.0
 17
0.0
 27
1.0
 37
0.0
 76
     0
330
1B
  0
LAYOUT
  5
26
102
{ACAD_REACTORS
330
1A
102
}
330
1A
100
AcDbPlotSettings
  1

  2
none_device
  4

  6

 40
0.0
 41
0.0
 42
0.0
 43
0.0
 44
0.0
 45
0.0
 46
0.0
 47
0.0
 48
0.0
 49
0.0
140
0.0
141
0.0
142
1.0
143
1.0
 70
   688
 72
     1
 73
     0
 74
     5
  7

 75
    16
147
1.0
148
0.0
149
0.0
100
AcDbLayout
  1
Layout2
 70
     1
 71
     2
 10
0.0
 20
0.0
 11
0.0
 21
0.0
 12
0.0
 22
0.0
 32
0.0
 14
0.0
 24
0.0
 34
0.0
 15
0.0
 25
0.0
 35
0.0
146
0.0
 13
0.0
 23
0.0
 33
0.0
 16
1.0
 26
0.0
 36
0.0
 17
0.0
 27
1.0
 37
0.0
 76
     0
330
23
  0
LAYOUT
  5
22
102
{ACAD_REACTORS
330
1A
102
}
330
1A
100
AcDbPlotSettings
  1

  2
none_device
  4
Letter_(8.50_x_11.00_Inches)
  6

 40
6.35
 41
6.35
 42
6.35000508
 43
6.35000508
 44
215.9
 45
279.4
 46
0.0
 47
0.0
 48
0.0
 49
0.0
140
0.0
141
0.0
142
1.0
143
1.0
 70
  1712
 72
     1
 73
     0
 74
     0
  7

 75
     0
147
1.0
148
0.0
149
0.0
100
AcDbLayout
  1
Model
 70
     1
 71
     0
 10
0.0
 20
0.0
 11
210.0
 21
297.0
 12
0.0
 22
0.0
 32
0.0
 14
0.0
 24
0.0
 34
0.0
 15
210.0
 25
297.0
 35
0.0
146
0.0
 13
0.0
 23
0.0
 33
0.0
 16
1.0
 26
0.0
 36
0.0
 17
0.0
 27
1.0
 37
0.0
 76
     0
330
1F
331
29
  0
MLINESTYLE
  5
18
102
{ACAD_REACTORS
330
17
102
}
330
17
100
AcDbMlineStyle
  2
Standard
 70
     0
  3

 62
   256
 51
90.0
 52
90.0
 71
     2
 49
0.5
 62
   256
  6
BYLAYER
 49
-0.5
 62
   256
  6
BYLAYER
  0
ACDBPLACEHOLDER
  5
F
102
{ACAD_REACTORS
330
E
102
}
330
E
  0
SCALE
  5
48
102
{ACAD_REACTORS
330
47
102
}
330
47
100
AcDbScale
 70
     0
300
1:1
140
1.0
141
1.0
290
     1
  0
SCALE
  5
49
102
{ACAD_REACTORS
330
47
102
}
330
47
100
AcDbScale
 70
     0
300
1:2
140
1.0
141
2.0
290
     0
  0
SCALE
  5
4A
102
{ACAD_REACTORS
330
47
102
}
330
47
100
AcDbScale
 70
     0
300
1:4
140
1.0
141
4.0
290
     0
  0
SCALE
  5
4B
102
{ACAD_REACTORS
330
47
102
}
330
47
100
AcDbScale
 70
     0
300
1:5
140
1.0
141
5.0
290
     0
  0
SCALE
  5
4C
102
{ACAD_REACTORS
330
47
102
}
330
47
100
AcDbScale
 70
     0
300
1:8
140
1.0
141
8.0
290
     0
  0
SCALE
  5
4D
102
{ACAD_REACTORS
330
47
102
}
330
47
100
AcDbScale
 70
     0
300
1:10
140
1.0
141
10.0
290
     0
  0
SCALE
  5
4E
102
{ACAD_REACTORS
330
47
102
}
330
47
100
AcDbScale
 70
     0
300
1:16
140
1.0
141
16.0
290
     0
  0
SCALE
  5
4F
102
{ACAD_REACTORS
330
47
102
}
330
47
100
AcDbScale
 70
     0
300
1:20
140
1.0
141
20.0
290
     0
  0
SCALE
  5
50
102
{ACAD_REACTORS
330
47
102
}
330
47
100
AcDbScale
 70
     0
300
1:30
140
1.0
141
30.0
290
     0
  0
SCALE
  5
51
102
{ACAD_REACTORS
330
47
102
}
330
47
100
AcDbScale
 70
     0
300
1:40
140
1.0
141
40.0
290
     0
  0
SCALE
  5
52
102
{ACAD_REACTORS
330
47
102
}
330
47
100
AcDbScale
 70
     0
300
1:50
140
1.0
141
50.0
290
     0
  0
SCALE
  5
53
102
{ACAD_REACTORS
330
47
102
}
330
47
100
AcDbScale
 70
     0
300
1:100
140
1.0
141
100.0
290
     0
  0
SCALE
  5
54
102
{ACAD_REACTORS
330
47
102
}
330
47
100
AcDbScale
 70
     0
300
2:1
140
2.0
141
1.0
290
     0
  0
SCALE
  5
55
102
{ACAD_REACTORS
330
47
102
}
330
47
100
AcDbScale
 70
     0
300
4:1
140
4.0
141
1.0
290
     0
  0
SCALE
  5
56
102
{ACAD_REACTORS
330
47
102
}
330
47
100
AcDbScale
 70
     0
300
8:1
140
8.0
141
1.0
290
     0
  0
SCALE
  5
57
102
{ACAD_REACTORS
330
47
102
}
330
47
100
AcDbScale
 70
     0
300
10:1
140
10.0
141
1.0
290
     0
  0
SCALE
  5
58
102
{ACAD_REACTORS
330
47
102
}
330
47
100
AcDbScale
 70
     0
300
100:1
140
100.0
141
1.0
290
     0
  0
SCALE
  5
59
102
{ACAD_REACTORS
330
47
102
}
330
47
100
AcDbScale
 70
     0
300
1/128" = 1'-0"
140
0.0078125
141
12.0
290
     0
  0
SCALE
  5
5A
102
{ACAD_REACTORS
330
47
102
}
330
47
100
AcDbScale
 70
     0
300
1/64" = 1'-0"
140
0.015625
141
12.0
290
     0
  0
SCALE
  5
5B
102
{ACAD_REACTORS
330
47
102
}
330
47
100
AcDbScale
 70
     0
300
1/32" = 1'-0"
140
0.03125
141
12.0
290
     0
  0
SCALE
  5
5C
102
{ACAD_REACTORS
330
47
102
}
330
47
100
AcDbScale
 70
     0
300
1/16" = 1'-0"
140
0.0625
141
12.0
290
     0
  0
SCALE
  5
5D
102
{ACAD_REACTORS
330
47
102
}
330
47
100
AcDbScale
 70
     0
300
3/32" = 1'-0"
140
0.09375
141
12.0
290
     0
  0
SCALE
  5
5E
102
{ACAD_REACTORS
330
47
102
}
330
47
100
AcDbScale
 70
     0
300
1/8" = 1'-0"
140
0.125
141
12.0
290
     0
  0
SCALE
  5
5F
102
{ACAD_REACTORS
330
47
102
}
330
47
100
AcDbScale
 70
     0
300
3/16" = 1'-0"
140
0.1875
141
12.0
290
     0
  0
SCALE
  5
60
102
{ACAD_REACTORS
330
47
102
}
330
47
100
AcDbScale
 70
     0
300
1/4" = 1'-0"
140
0.25
141
12.0
290
     0
  0
SCALE
  5
61
102
{ACAD_REACTORS
330
47
102
}
330
47
100
AcDbScale
 70
     0
300
3/8" = 1'-0"
140
0.375
141
12.0
290
     0
  0
SCALE
  5
62
102
{ACAD_REACTORS
330
47
102
}
330
47
100
AcDbScale
 70
     0
300
1/2" = 1'-0"
140
0.5
141
12.0
290
     0
  0
SCALE
  5
63
102
{ACAD_REACTORS
330
47
102
}
330
47
100
AcDbScale
 70
     0
300
3/4" = 1'-0"
140
0.75
141
12.0
290
     0
  0
SCALE
  5
64
102
{ACAD_REACTORS
330
47
102
}
330
47
100
AcDbScale
 70
     0
300
1" = 1'-0"
140
1.0
141
12.0
290
     0
  0
SCALE
  5
65
102
{ACAD_REACTORS
330
47
102
}
330
47
100
AcDbScale
 70
     0
300
1-1/2" = 1'-0"
140
1.5
141
12.0
290
     0
  0
SCALE
  5
66
102
{ACAD_REACTORS
330
47
102
}
330
47
100
AcDbScale
 70
     0
300
3" = 1'-0"
140
3.0
141
12.0
290
     0
  0
SCALE
  5
67
102
{ACAD_REACTORS
330
47
102
}
330
47
100
AcDbScale
 70
     0
300
6" = 1'-0"
140
6.0
141
12.0
290
     0
  0
SCALE
  5
68
102
{ACAD_REACTORS
330
47
102
}
330
47
100
AcDbScale
 70
     0
300
1'-0" = 1'-0"
140
12.0
141
12.0
290
     0
  0
ENDSEC
  0
EOF
