  0
SECTION
  2
HEADER
  9
$ACADVER
  1
AC1015
  9
$ACADMAINTVER
 70
     6
  9
$DWGCODEPAGE
  3
DOS932
  9
$INSBASE
 10
0.0
 20
0.0
 30
0.0
  9
$EXTMIN
 10
0.0
 20
0.0
 30
0.0
  9
$EXTMAX
 10
210.0
 20
297.0
 30
0.0
  9
$LIMMIN
 10
0.0
 20
0.0
  9
$LIMMAX
 10
210.0
 20
297.0
  9
$ORTHOMODE
 70
     0
  9
$REGENMODE
 70
     1
  9
$FILLMODE
 70
     1
  9
$QTEXTMODE
 70
     0
  9
$MIRRTEXT
 70
     1
  9
$LTSCALE
 40
1.0
  9
$ATTMODE
 70
     1
  9
$TEXTSIZE
 40
3.5
  9
$TRACEWID
 40
1.0
  9
$TEXTSTYLE
  7
Standard
  9
$CLAYER
  8
0
  9
$CELTYPE
  6
ByLayer
  9
$CECOLOR
 62
   256
  9
$CELTSCALE
 40
1.0
  9
$DISPSILH
 70
     0
  9
$DIMSCALE
 40
1.0
  9
$DIMASZ
 40
3.5
  9
$DIMEXO
 40
1.0
  9
$DIMDLI
 40
3.75
  9
$DIMRND
 40
0.0
  9
$DIMDLE
 40
0.0
  9
$DIMEXE
 40
1.0
  9
$DIMTP
 40
0.0
  9
$DIMTM
 40
0.0
  9
$DIMTXT
 40
3.5
  9
$DIMCEN
 40
2.5
  9
$DIMTSZ
 40
0.0
  9
$DIMTOL
 70
     0
  9
$DIMLIM
 70
     0
  9
$DIMTIH
 70
     1
  9
$DIMTOH
 70
     1
  9
$DIMSE1
 70
     0
  9
$DIMSE2
 70
     0
  9
$DIMTAD
 70
     1
  9
$DIMZIN
 70
     1
  9
$DIMBLK
  1

  9
$DIMASO
 70
     1
  9
$DIMSHO
 70
     1
  9
$DIMPOST
  1

  9
$DIMAPOST
  1

  9
$DIMALT
 70
     0
  9
$DIMALTD
 70
     3
  9
$DIMALTF
 40
0.0393700787
  9
$DIMLFAC
 40
20.0
  9
$DIMTOFL
 70
     1
  9
$DIMTVP
 40
0.0
  9
$DIMTIX
 70
     0
  9
$DIMSOXD
 70
     0
  9
$DIMSAH
 70
     0
  9
$DIMBLK1
  1

  9
$DIMBLK2
  1

  9
$DIMSTYLE
  2
ISO-25
  9
$DIMCLRD
 70
     0
  9
$DIMCLRE
 70
     0
  9
$DIMCLRT
 70
     0
  9
$DIMTFAC
 40
1.0
  9
$DIMGAP
 40
1.524
  9
$DIMJUST
 70
     0
  9
$DIMSD1
 70
     0
  9
$DIMSD2
 70
     0
  9
$DIMTOLJ
 70
     0
  9
$DIMTZIN
 70
     1
  9
$DIMALTZ
 70
     0
  9
$DIMALTTZ
 70
     0
  9
$DIMUPT
 70
     0
  9
$DIMDEC
 70
     2
  9
$DIMTDEC
 70
     2
  9
$DIMALTU
 70
     2
  9
$DIMALTTD
 70
     3
  9
$DIMTXSTY
  7
Standard
  9
$DIMAUNIT
 70
     0
  9
$DIMADEC
 70
     2
  9
$DIMALTRND
 40
0.0
  9
$DIMAZIN
 70
     0
  9
$DIMDSEP
 70
    44
  9
$DIMATFIT
 70
     3
  9
$DIMFRAC
 70
     0
  9
$DIMLDRBLK
  1

  9
$DIMLUNIT
 70
     2
  9
$DIMLWD
 70
    -2
  9
$DIMLWE
 70
    -2
  9
$DIMTMOVE
 70
     0
  9
$LUNITS
 70
     2
  9
$LUPREC
 70
     2
  9
$SKETCHINC
 40
1.0
  9
$FILLETRAD
 40
10.0
  9
$AUNITS
 70
     0
  9
$AUPREC
 70
     2
  9
$MENU
  1
.
  9
$ELEVATION
 40
0.0
  9
$PELEVATION
 40
0.0
  9
$THICKNESS
 40
0.0
  9
$LIMCHECK
 70
     0
  9
$CHAMFERA
 40
0.0
  9
$CHAMFERB
 40
0.0
  9
$CHAMFERC
 40
0.0
  9
$CHAMFERD
 40
0.0
  9
$SKPOLY
 70
     0
  9
$TDCREATE
 40
2459242.79111213
  9
$TDUCREATE
 40
2459242.41611213
  9
$TDUPDATE
 40
2459242.791112338
  9
$TDUUPDATE
 40
2459242.416112338
  9
$TDINDWG
 40
0.0000000116
  9
$TDUSRTIMER
 40
0.0000000116
  9
$USRTIMER
 70
     1
  9
$ANGBASE
 50
0.0
  9
$ANGDIR
 70
     0
  9
$PDMODE
 70
     0
  9
$PDSIZE
 40
-1.0
  9
$PLINEWID
 40
0.0
  9
$SPLFRAME
 70
     0
  9
$SPLINETYPE
 70
     6
  9
$SPLINESEGS
 70
     8
  9
$HANDSEED
  5
DD
  9
$SURFTAB1
 70
     6
  9
$SURFTAB2
 70
     6
  9
$SURFTYPE
 70
     6
  9
$SURFU
 70
     6
  9
$SURFV
 70
     6
  9
$UCSBASE
  2

  9
$UCSNAME
  2

  9
$UCSORG
 10
0.0
 20
0.0
 30
0.0
  9
$UCSXDIR
 10
1.0
 20
0.0
 30
0.0
  9
$UCSYDIR
 10
0.0
 20
1.0
 30
0.0
  9
$UCSORTHOREF
  2

  9
$UCSORTHOVIEW
 70
     0
  9
$UCSORGTOP
 10
0.0
 20
0.0
 30
0.0
  9
$UCSORGBOTTOM
 10
0.0
 20
0.0
 30
0.0
  9
$UCSORGLEFT
 10
0.0
 20
0.0
 30
0.0
  9
$UCSORGRIGHT
 10
0.0
 20
0.0
 30
0.0
  9
$UCSORGFRONT
 10
0.0
 20
0.0
 30
0.0
  9
$UCSORGBACK
 10
0.0
 20
0.0
 30
0.0
  9
$PUCSBASE
  2

  9
$PUCSNAME
  2

  9
$PUCSORG
 10
0.0
 20
0.0
 30
0.0
  9
$PUCSXDIR
 10
1.0
 20
0.0
 30
0.0
  9
$PUCSYDIR
 10
0.0
 20
1.0
 30
0.0
  9
$PUCSORTHOREF
  2

  9
$PUCSORTHOVIEW
 70
     0
  9
$PUCSORGTOP
 10
0.0
 20
0.0
 30
0.0
  9
$PUCSORGBOTTOM
 10
0.0
 20
0.0
 30
0.0
  9
$PUCSORGLEFT
 10
0.0
 20
0.0
 30
0.0
  9
$PUCSORGRIGHT
 10
0.0
 20
0.0
 30
0.0
  9
$PUCSORGFRONT
 10
0.0
 20
0.0
 30
0.0
  9
$PUCSORGBACK
 10
0.0
 20
0.0
 30
0.0
  9
$USERI1
 70
     0
  9
$USERI2
 70
     0
  9
$USERI3
 70
     0
  9
$USERI4
 70
     0
  9
$USERI5
 70
     0
  9
$USERR1
 40
0.0
  9
$USERR2
 40
0.0
  9
$USERR3
 40
0.0
  9
$USERR4
 40
0.0
  9
$USERR5
 40
0.0
  9
$WORLDVIEW
 70
     1
  9
$SHADEDGE
 70
     3
  9
$SHADEDIF
 70
    70
  9
$TILEMODE
 70
     1
  9
$MAXACTVP
 70
    64
  9
$PINSBASE
 10
0.0
 20
0.0
 30
0.0
  9
$PLIMCHECK
 70
     0
  9
$PEXTMIN
 10
1.0000000000E+20
 20
1.0000000000E+20
 30
1.0000000000E+20
  9
$PEXTMAX
 10
-1.0000000000E+20
 20
-1.0000000000E+20
 30
-1.0000000000E+20
  9
$PLIMMIN
 10
0.0
 20
0.0
  9
$PLIMMAX
 10
420.0
 20
297.0
  9
$UNITMODE
 70
     0
  9
$VISRETAIN
 70
     1
  9
$PLINEGEN
 70
     0
  9
$PSLTSCALE
 70
     1
  9
$TREEDEPTH
 70
  3020
  9
$CMLSTYLE
  2
Standard
  9
$CMLJUST
 70
     0
  9
$CMLSCALE
 40
20.0
  9
$PROXYGRAPHICS
 70
     1
  9
$MEASUREMENT
 70
     1
  9
$CELWEIGHT
370
    -1
  9
$ENDCAPS
280
     0
  9
$JOINSTYLE
280
     0
  9
$LWDISPLAY
290
     1
  9
$INSUNITS
 70
     4
  9
$HYPERLINKBASE
  1

  9
$STYLESHEET
  1

  9
$XEDIT
290
     1
  9
$CEPSNTYPE
380
     0
  9
$PSTYLEMODE
290
     1
  9
$FINGERPRINTGUID
  2
{c893258c-865c-4596-a57e-8fc57fca305c}
  9
$VERSIONGUID
  2
{FAEB1C32-E019-11D5-929B-00C0DF256EC4}
  9
$EXTNAMES
290
     1
  9
$PSVPSCALE
 40
0.0
  9
$OLESTARTUP
290
     0
  0
ENDSEC
  0
SECTION
  2
CLASSES
  0
CLASS
  1
ACDBDICTIONARYWDFLT
  2
AcDbDictionaryWithDefault
  3
ObjectDBX Classes
 90
        0
280
     0
281
     0
  0
CLASS
  1
VISUALSTYLE
  2
AcDbVisualStyle
  3
ObjectDBX Classes
 90
     4095
280
     0
281
     0
  0
CLASS
  1
MATERIAL
  2
AcDbMaterial
  3
ObjectDBX Classes
 90
     1153
280
     0
281
     0
  0
CLASS
  1
SCALE
  2
AcDbScale
  3
ObjectDBX Classes
 90
     1153
280
     0
281
     0
  0
CLASS
  1
TABLESTYLE
  2
AcDbTableStyle
  3
ObjectDBX Classes
 90
     4095
280
     0
281
     0
  0
CLASS
  1
MLEADERSTYLE
  2
AcDbMLeaderStyle
  3
ACDB_MLEADERSTYLE_CLASS
 90
     4095
280
     0
281
     0
  0
CLASS
  1
SUN
  2
AcDbSun
  3
SCENEOE
 90
     1153
280
     0
281
     0
  0
CLASS
  1
ACDBPLACEHOLDER
  2
AcDbPlaceHolder
  3
ObjectDBX Classes
 90
        0
280
     0
281
     0
  0
CLASS
  1
LAYOUT
  2
AcDbLayout
  3
ObjectDBX Classes
 90
        0
280
     0
281
     0
  0
ENDSEC
  0
SECTION
  2
TABLES
  0
TABLE
  2
VPORT
  5
8
330
0
100
AcDbSymbolTable
 70
     1
  0
VPORT
  5
29
330
8
100
AcDbSymbolTableRecord
100
AcDbViewportTableRecord
  2
*Active
 70
     0
 10
0.0
 20
0.0
 11
1.0
 21
1.0
 12
105.0
 22
148.5
 13
0.0
 23
0.0
 14
10.0
 24
10.0
 15
10.0
 25
10.0
 16
0.0
 26
0.0
 36
1.0
 17
0.0
 27
0.0
 37
0.0
 40
297.0
 41
0.7070707071
 42
50.0
 43
0.0
 44
0.0
 50
0.0
 51
0.0
 71
     0
 72
  2000
 73
     1
 74
     3
 75
     0
 76
     0
 77
     0
 78
     0
281
     0
 65
     1
110
0.0
120
0.0
130
0.0
111
1.0
121
0.0
131
0.0
112
0.0
122
1.0
132
0.0
 79
     0
146
0.0
  0
ENDTAB
  0
TABLE
  2
LTYPE
  5
5
330
0
100
AcDbSymbolTable
 70
     6
  0
LTYPE
  5
14
330
5
100
AcDbSymbolTableRecord
100
AcDbLinetypeTableRecord
  2
ByBlock
 70
     0
  3

 72
    65
 73
     0
 40
0.0
  0
LTYPE
  5
15
330
5
100
AcDbSymbolTableRecord
100
AcDbLinetypeTableRecord
  2
ByLayer
 70
     0
  3

 72
    65
 73
     0
 40
0.0
  0
LTYPE
  5
16
330
5
100
AcDbSymbolTableRecord
100
AcDbLinetypeTableRecord
  2
Continuous
 70
     0
  3
Solid line
 72
    65
 73
     0
 40
0.0
  0
LTYPE
  5
6E
330
5
100
AcDbSymbolTableRecord
100
AcDbLinetypeTableRecord
  2
HIDDEN
 70
     0
  3
Hidden __ __ __ __ __ __ __ __ __ __ __ __ __ __
 72
    65
 73
     2
 40
1.905
 49
1.27
 74
     0
 49
-0.635
 74
     0
  0
LTYPE
  5
6F
330
5
100
AcDbSymbolTableRecord
100
AcDbLinetypeTableRecord
  2
PHANTOM
 70
     0
  3
Phantom ______  __  __  ______  __  __  ______
 72
    65
 73
     6
 40
12.7
 49
6.35
 74
     0
 49
-1.27
 74
     0
 49
1.27
 74
     0
 49
-1.27
 74
     0
 49
1.27
 74
     0
 49
-1.27
 74
     0
  0
LTYPE
  5
70
330
5
100
AcDbSymbolTableRecord
100
AcDbLinetypeTableRecord
  2
CENTER
 70
     0
  3
Center ____ _ ____ _ ____ _ ____ _ ____ _ ____
 72
    65
 73
     4
 40
10.16
 49
6.35
 74
     0
 49
-1.27
 74
     0
 49
1.27
 74
     0
 49
-1.27
 74
     0
  0
LTYPE
  5
71
330
5
100
AcDbSymbolTableRecord
100
AcDbLinetypeTableRecord
  2
CENTERX2
 70
     0
  3
Center (2x) ________  __  ________  __  _____
 72
    65
 73
     4
 40
20.32
 49
12.7
 74
     0
 49
-2.54
 74
     0
 49
2.54
 74
     0
 49
-2.54
 74
     0
  0
LTYPE
  5
72
330
5
100
AcDbSymbolTableRecord
100
AcDbLinetypeTableRecord
  2
DOT2
 70
     0
  3
Dot (.5x) ........................................
 72
    65
 73
     2
 40
0.635
 49
0.0
 74
     0
 49
-0.635
 74
     0
  0
ENDTAB
  0
TABLE
  2
LAYER
  5
2
330
0
100
AcDbSymbolTable
 70
     2
  0
LAYER
  5
10
330
2
100
AcDbSymbolTableRecord
100
AcDbLayerTableRecord
  2
0
 70
     0
 62
     7
  6
Continuous
370
    -3
390
F
  0
LAYER
  5
73
330
2
100
AcDbSymbolTableRecord
100
AcDbLayerTableRecord
  2
FORMAT
 70
     0
 62
     7
  6
Continuous
370
    -3
390
F
  0
ENDTAB
  0
TABLE
  2
STYLE
  5
3
330
0
100
AcDbSymbolTable
 70
     2
  0
STYLE
  5
11
330
3
100
AcDbSymbolTableRecord
100
AcDbTextStyleTableRecord
  2
Standard
 70
     0
 40
0.0
 41
1.0
 50
0.0
 71
     0
 42
3.5
  3
txt
  4
bigfont
  0
STYLE
  5
77
330
3
100
AcDbSymbolTableRecord
100
AcDbTextStyleTableRecord
  2
SLDTEXTSTYLE0
 70
     0
 40
0.0
 41
0.7
 50
0.0
 71
     0
 42
3.5
  3
TXT
  4
bigfont
  0
ENDTAB
  0
TABLE
  2
VIEW
  5
6
330
0
100
AcDbSymbolTable
 70
     0
  0
ENDTAB
  0
TABLE
  2
UCS
  5
7
330
0
100
AcDbSymbolTable
 70
     0
  0
ENDTAB
  0
TABLE
  2
APPID
  5
9
330
0
100
AcDbSymbolTable
 70
     1
  0
APPID
  5
12
330
9
100
AcDbSymbolTableRecord
100
AcDbRegAppTableRecord
  2
ACAD
 70
     0
  0
ENDTAB
  0
TABLE
  2
DIMSTYLE
  5
A
330
0
100
AcDbSymbolTable
 70
     1
100
AcDbDimStyleTable
  0
DIMSTYLE
105
27
330
A
100
AcDbSymbolTableRecord
100
AcDbDimStyleTableRecord
  2
ISO-25
 70
     0
 41
2.5
 42
0.625
 43
3.75
 44
1.25
 73
     0
 74
     0
 77
     1
 78
     8
140
2.5
141
2.5
143
0.0393700787
147
0.625
171
     3
172
     1
178
     0
271
     2
272
     2
274
     3
278
    44
283
     0
284
     8
340
11
  0
ENDTAB
  0
TABLE
  2
BLOCK_RECORD
  5
1
330
0
100
AcDbSymbolTable
 70
     2
  0
BLOCK_RECORD
  5
1F
330
1
100
AcDbSymbolTableRecord
100
AcDbBlockTableRecord
  2
*Model_Space
340
22
  0
BLOCK_RECORD
  5
1B
330
1
100
AcDbSymbolTableRecord
100
AcDbBlockTableRecord
  2
*Paper_Space
340
1E
  0
BLOCK_RECORD
  5
23
330
1
100
AcDbSymbolTableRecord
100
AcDbBlockTableRecord
  2
*Paper_Space0
340
26
  0
BLOCK_RECORD
  5
74
330
1
100
AcDbSymbolTableRecord
100
AcDbBlockTableRecord
  2
SW_NOTE_0
340
0
102
{BLKREFS
331
7C
102
}
  0
ENDTAB
  0
ENDSEC
  0
SECTION
  2
BLOCKS
  0
BLOCK
  5
20
330
1F
100
AcDbEntity
  8
0
100
AcDbBlockBegin
  2
*Model_Space
 70
     0
 10
0.0
 20
0.0
 30
0.0
  3
*Model_Space
  1

  0
ENDBLK
  5
21
330
1F
100
AcDbEntity
  8
0
100
AcDbBlockEnd
  0
BLOCK
  5
1C
330
1B
100
AcDbEntity
 67
     1
  8
0
100
AcDbBlockBegin
  2
*Paper_Space
 70
     0
 10
0.0
 20
0.0
 30
0.0
  3
*Paper_Space
  1

  0
ENDBLK
  5
1D
330
1B
100
AcDbEntity
 67
     1
  8
0
100
AcDbBlockEnd
  0
BLOCK
  5
24
330
23
100
AcDbEntity
  8
0
100
AcDbBlockBegin
  2
*Paper_Space0
 70
     0
 10
0.0
 20
0.0
 30
0.0
  3
*Paper_Space0
  1

  0
ENDBLK
  5
25
330
23
100
AcDbEntity
  8
0
100
AcDbBlockEnd
  0
BLOCK
  5
75
330
74
100
AcDbEntity
  8
0
100
AcDbBlockBegin
  2
SW_NOTE_0
 70
     0
 10
0.0
 20
0.0
 30
0.0
  3
SW_NOTE_0
  1

  0
MTEXT
  5
78
330
74
100
AcDbEntity
  8
0
  6
Continuous
 62
     0
370
     0
100
AcDbMText
 10
0.0
 20
4.5117370892
 30
0.0
 40
3.5
 41
0.0
 71
     1
 72
     1
  1
HEC-099S/C
  7
SLDTEXTSTYLE0
 73
     1
 44
1.0
  0
MTEXT
  5
79
330
74
100
AcDbEntity
  8
0
  6
Continuous
 62
     0
370
     0
100
AcDbMText
 10
0.0
 20
0.0117372829
 30
0.0
 40
3.5
 41
0.0
 71
     1
 72
     1
  1
HEC-100S/C
  7
SLDTEXTSTYLE0
 73
     1
 44
1.0
  0
MTEXT
  5
7A
330
74
100
AcDbEntity
  8
0
  6
Continuous
 62
     0
370
     0
100
AcDbMText
 10
0.0
 20
-4.4882625234
 30
0.0
 40
3.5
 41
0.0
 71
     1
 72
     1
  1
HEC-110S/C
  7
SLDTEXTSTYLE0
 73
     1
 44
1.0
  0
MTEXT
  5
7B
330
74
100
AcDbEntity
  8
0
  6
Continuous
 62
     0
370
     0
100
AcDbMText
 10
0.0
 20
-8.9882623297
 30
0.0
 40
3.5
 41
0.0
 71
     1
 72
     1
  1
HEC-101S/C
  7
SLDTEXTSTYLE0
 73
     1
 44
1.0
  0
ENDBLK
  5
76
330
74
100
AcDbEntity
  8
0
100
AcDbBlockEnd
  0
ENDSEC
  0
SECTION
  2
ENTITIES
  0
INSERT
  5
7C
330
1F
100
AcDbEntity
  8
0
  6
Continuous
 62
     7
370
     0
100
AcDbBlockReference
  2
SW_NOTE_0
 10
144.4186353666
 20
127.7457442984
 30
0.0
  0
LINE
  5
7D
330
1F
100
AcDbEntity
  8
0
  6
Continuous
 62
     7
370
    25
100
AcDbLine
 10
94.1815631617
 20
145.6093031598
 30
0.0
 11
94.310664979
 21
145.6093031598
 31
0.0
  0
LINE
  5
7E
330
1F
100
AcDbEntity
  8
0
  6
Continuous
 62
     7
370
    25
100
AcDbLine
 10
94.310664979
 20
204.6093031598
 30
0.0
 11
94.1815631617
 21
204.6093031598
 31
0.0
  0
LINE
  5
7F
330
1F
100
AcDbEntity
  8
0
  6
Continuous
 62
     7
370
    25
100
AcDbLine
 10
94.7992546153
 20
178.7093031598
 30
0.0
 11
94.1815631617
 21
178.7093031598
 31
0.0
  0
LINE
  5
80
330
1F
100
AcDbEntity
  8
0
  6
Continuous
 62
     7
370
    25
100
AcDbLine
 10
83.940812762
 20
183.3343031598
 30
0.0
 11
84.5585042156
 21
183.3343031598
 31
0.0
  0
LINE
  5
81
330
1F
100
AcDbEntity
  8
0
  6
Continuous
 62
     7
370
    25
100
AcDbLine
 10
108.3680966412
 20
139.6093031598
 30
0.0
 11
109.3680966412
 21
138.6093031598
 31
0.0
  0
LINE
  5
82
330
1F
100
AcDbEntity
  8
0
  6
Continuous
 62
     7
370
    25
100
AcDbLine
 10
115.3680966412
 20
138.6093031598
 30
0.0
 11
116.3680966412
 21
139.6093031598
 31
0.0
  0
LINE
  5
83
330
1F
100
AcDbEntity
  8
0
  6
Continuous
 62
     7
370
    25
100
AcDbLine
 10
108.3680966412
 20
142.6093031598
 30
0.0
 11
108.3680966412
 21
139.6093031598
 31
0.0
  0
LINE
  5
84
330
1F
100
AcDbEntity
  8
0
  6
Continuous
 62
     7
370
    25
100
AcDbLine
 10
116.3680966412
 20
139.6093031598
 30
0.0
 11
116.3680966412
 21
142.6093031598
 31
0.0
  0
LINE
  5
85
330
1F
100
AcDbEntity
  8
0
  6
Continuous
 62
     7
370
    25
100
AcDbLine
 10
117.5642490639
 20
206.6093031598
 30
0.0
 11
91.5834869504
 21
206.6093031598
 31
0.0
  0
LINE
  5
86
330
1F
100
AcDbEntity
  8
0
  6
Continuous
 62
     7
370
    25
100
AcDbLine
 10
91.5834869504
 20
143.6093031598
 30
0.0
 11
108.9142650133
 21
143.6093031598
 31
0.0
  0
LINE
  5
87
330
1F
100
AcDbEntity
  8
0
  6
Continuous
 62
     7
370
    25
100
AcDbLine
 10
92.3108562123
 20
147.5932454635
 30
0.0
 11
94.0427311132
 21
147.5583371064
 31
0.0
  0
LINE
  5
88
330
1F
100
AcDbEntity
  8
0
  6
Continuous
 62
     7
370
    25
100
AcDbLine
 10
94.0427311132
 20
202.6602692132
 30
0.0
 11
92.3108562123
 21
202.6253608561
 31
0.0
  0
LINE
  5
89
330
1F
100
AcDbEntity
  8
0
  6
Continuous
 62
     7
370
    25
100
AcDbLine
 10
108.3680966412
 20
143.6093031598
 30
0.0
 11
108.3680966412
 21
142.6093031598
 31
0.0
  0
LINE
  5
8A
330
1F
100
AcDbEntity
  8
0
  6
Continuous
 62
     7
370
    25
100
AcDbLine
 10
102.6445083829
 20
187.7682219089
 30
0.0
 11
94.6782248754
 21
178.569550054
 31
0.0
  0
ARC
  5
8B
330
1F
100
AcDbEntity
  8
0
  6
Continuous
 62
     7
370
    25
100
AcDbCircle
 10
88.4088638925
 20
190.5907588626
 30
0.0
 40
3.368769051941573
100
AcDbArc
 50
178.8440434036
 51
202.2422539744
  0
ARC
  5
8C
330
1F
100
AcDbEntity
  8
0
  6
Continuous
 62
     7
370
    25
100
AcDbCircle
 10
80.2671687547
 20
187.1892406265
 30
0.0
 40
5.455077321329085
100
AcDbArc
 50
6.4726254059
 51
22.9417233691
  0
LINE
  5
8D
330
1F
100
AcDbEntity
  8
0
  6
Continuous
 62
     7
370
    25
100
AcDbLine
 10
93.684901448
 20
178.569550054
 30
0.0
 11
85.6874744757
 21
187.8041832846
 31
0.0
  0
ARC
  5
8E
330
1F
100
AcDbEntity
  8
0
  6
Continuous
 62
     7
370
    25
100
AcDbCircle
 10
94.1815631617
 20
177.7481183748
 30
0.0
 40
0.9599077359123824
100
AcDbArc
 50
58.8416101021
 51
121.1583898979
  0
LWPOLYLINE
  5
8F
330
1F
100
AcDbEntity
  8
0
  6
Continuous
 62
     7
370
    25
100
AcDbPolyline
 90
       15
 70
   128
 43
0.0
 10
93.3935224569
 20
151.183681335
 10
93.3815631617
 20
151.4593031598
 10
93.4048097078
 20
151.8422082227
 10
93.4731983412
 20
152.2028602351
 10
93.5827545632
 20
152.520299413
 10
93.7271113643
 20
152.7760773452
 10
93.8978792521
 20
152.9553291481
 10
94.0851338175
 20
153.0476373584
 10
94.2779925059
 20
153.0476373584
 10
94.4652470714
 20
152.9553291481
 10
94.6360149591
 20
152.7760773452
 10
94.7803717603
 20
152.520299413
 10
94.8899279822
 20
152.2028602351
 10
94.9583166157
 20
151.8422082227
 10
94.9760233889
 20
151.6472706825
  0
LINE
  5
90
330
1F
100
AcDbEntity
  8
0
  6
Continuous
 62
     7
370
    25
100
AcDbLine
 10
92.9315631617
 20
172.5189363904
 30
0.0
 11
92.9315631617
 21
154.0496699292
 31
0.0
  0
ARC
  5
91
330
1F
100
AcDbEntity
  8
0
  6
Continuous
 62
     7
370
    25
100
AcDbCircle
 10
97.5905923164
 20
174.7958125246
 30
0.0
 40
5.185626056175829
100
AcDbArc
 50
186.159382418
 51
206.0448450859
  0
LINE
  5
92
330
1F
100
AcDbEntity
  8
0
  6
Continuous
 62
     7
370
    25
100
AcDbLine
 10
84.4374744757
 20
183.4740562657
 30
0.0
 11
92.434901448
 21
174.2394230351
 31
0.0
  0
ARC
  5
93
330
1F
100
AcDbEntity
  8
0
  6
Continuous
 62
     7
370
    25
100
AcDbCircle
 10
83.9430396337
 20
184.2857083583
 30
0.0
 40
0.9503919888280586
100
AcDbArc
 50
247.8462992319
 51
301.348557279
  0
ARC
  5
94
330
1F
100
AcDbEntity
  8
0
  6
Continuous
 62
     7
370
    25
100
AcDbCircle
 10
83.3871337366
 20
182.8248710008
 30
0.0
 40
0.6132856451580605
100
AcDbArc
 50
71.2119124533
 51
146.1037391765
  0
ARC
  5
95
330
1F
100
AcDbEntity
  8
0
  6
Continuous
 62
     7
370
    25
100
AcDbCircle
 10
90.2387785886
 20
152.8847963714
 30
0.0
 40
2.253885361526058
100
AcDbArc
 50
322.1652618044
 51
352.9158191875
  0
ARC
  5
96
330
1F
100
AcDbEntity
  8
0
  6
Continuous
 62
     7
370
    25
100
AcDbCircle
 10
97.3726931321
 20
151.852244746
 30
0.0
 40
4.955029046263719
100
AcDbArc
 50
153.6742706568
 51
171.2405257852
  0
LINE
  5
97
330
1F
100
AcDbEntity
  8
0
  6
Continuous
 62
     7
370
    25
100
AcDbLine
 10
95.9282248754
 20
174.2394230351
 30
0.0
 11
103.7369838574
 21
183.2562012356
 31
0.0
  0
ARC
  5
98
330
1F
100
AcDbEntity
  8
0
  6
Continuous
 62
     7
370
    25
100
AcDbCircle
 10
90.772534007
 20
174.7958125246
 30
0.0
 40
5.185626056174951
100
AcDbArc
 50
333.9551549141
 51
353.840617582
  0
LINE
  5
99
330
1F
100
AcDbEntity
  8
0
  6
Continuous
 62
     7
370
    25
100
AcDbLine
 10
95.4315631617
 20
154.0496699292
 30
0.0
 11
95.4315631617
 21
172.5189363904
 31
0.0
  0
ARC
  5
9A
330
1F
100
AcDbEntity
  8
0
  6
Continuous
 62
     7
370
    25
100
AcDbCircle
 10
90.9904331914
 20
151.852244746
 30
0.0
 40
4.955029046263865
100
AcDbArc
 50
8.7594742148
 51
26.3257293432
  0
LWPOLYLINE
  5
9B
330
1F
100
AcDbEntity
  8
0
  6
Continuous
 62
     7
370
    25
100
AcDbPolyline
 90
        3
 70
   128
 43
0.0
 10
95.9896671029
 20
152.1774646505
 10
95.9627526632
 20
152.2680180882
 10
95.8876684755
 20
152.6068303419
  0
LWPOLYLINE
  5
9C
330
1F
100
AcDbEntity
  8
0
  6
Continuous
 62
     7
370
    25
100
AcDbPolyline
 90
       27
 70
   128
 43
0.0
 10
94.9815631617
 20
175.1093031598
 10
94.9583166157
 20
174.726398097
 10
94.8899279822
 20
174.3657460845
 10
94.7803717603
 20
174.0483069066
 10
94.6360149591
 20
173.7925289744
 10
94.4652470714
 20
173.6132771715
 10
94.2779925059
 20
173.5209689613
 10
94.0851338175
 20
173.5209689613
 10
93.8978792521
 20
173.6132771715
 10
93.7271113643
 20
173.7925289744
 10
93.5827545632
 20
174.0483069066
 10
93.4731983412
 20
174.3657460845
 10
93.4048097078
 20
174.726398097
 10
93.3815631617
 20
175.1093031598
 10
93.4048097078
 20
175.4922082227
 10
93.4731983412
 20
175.8528602351
 10
93.5827545632
 20
176.170299413
 10
93.7271113643
 20
176.4260773452
 10
93.8978792521
 20
176.6053291481
 10
94.0851338175
 20
176.6976373584
 10
94.2779925059
 20
176.6976373584
 10
94.4652470714
 20
176.6053291481
 10
94.6360149591
 20
176.4260773452
 10
94.7803717603
 20
176.170299413
 10
94.8899279822
 20
175.8528602351
 10
94.9583166157
 20
175.4922082227
 10
94.9815631617
 20
175.1093031598
  0
LWPOLYLINE
  5
9D
330
1F
100
AcDbEntity
  8
0
  6
Continuous
 62
     7
370
    25
100
AcDbPolyline
 90
       11
 70
   128
 43
0.0
 10
84.740812762
 20
186.9343031598
 10
84.7175662159
 20
186.551398097
 10
84.6491775825
 20
186.1907460845
 10
84.5396213605
 20
185.8733069066
 10
84.3952645594
 20
185.6175289744
 10
84.2244966716
 20
185.4382771715
 10
84.0372421062
 20
185.3459689613
 10
83.8443834178
 20
185.3459689613
 10
83.6571288523
 20
185.4382771715
 10
83.4863609646
 20
185.6175289744
 10
83.4185938667
 20
185.7222183023
  0
ARC
  5
9E
330
1F
100
AcDbEntity
  8
0
  6
Continuous
 62
     7
370
    25
100
AcDbCircle
 10
82.9383913069
 20
187.1448904115
 30
0.0
 40
1.814681815664402
100
AcDbArc
 50
353.3360178082
 51
45.7547387738
  0
LINE
  5
9F
330
1F
100
AcDbEntity
  8
0
  6
Continuous
 62
     7
370
    25
100
AcDbLine
 10
87.0306212631
 20
200.9105845204
 30
0.0
 11
87.144652886
 21
200.4991475339
 31
0.0
  0
ARC
  5
A0
330
1F
100
AcDbEntity
  8
0
  6
Continuous
 62
     7
370
    25
100
AcDbCircle
 10
94.6468767362
 20
194.93028239
 30
0.0
 40
9.683561380128095
100
AcDbArc
 50
91.9707103043
 51
141.8609116228
  0
ARC
  5
A1
330
1F
100
AcDbEntity
  8
0
  6
Continuous
 62
     7
370
    25
100
AcDbCircle
 10
94.6468767362
 20
155.2883239297
 30
0.0
 40
9.683561380128356
100
AcDbArc
 50
218.1390883772
 51
268.0292896957
  0
LINE
  5
A2
330
1F
100
AcDbEntity
  8
0
  6
Continuous
 62
     7
370
    25
100
AcDbLine
 10
87.144652886
 20
149.7194587857
 30
0.0
 11
87.0306212631
 21
149.3080217992
 31
0.0
  0
LINE
  5
A3
330
1F
100
AcDbEntity
  8
0
  6
Continuous
 62
     7
370
    25
100
AcDbLine
 10
97.3138655215
 20
174.2394230351
 30
0.0
 11
95.9282248754
 21
174.2394230351
 31
0.0
  0
LINE
  5
A4
330
1F
100
AcDbEntity
  8
0
  6
Continuous
 62
     7
370
    25
100
AcDbLine
 10
97.3138655215
 20
174.2394230351
 30
0.0
 11
103.9575380038
 21
181.9108752272
 31
0.0
  0
ARC
  5
A5
330
1F
100
AcDbEntity
  8
0
  6
Continuous
 62
     7
370
    25
100
AcDbCircle
 10
99.6347593686
 20
186.8544873047
 30
0.0
 40
13.92510261559661
100
AcDbArc
 50
119.9308520947
 51
158.2305822779
  0
LINE
  5
A6
330
1F
100
AcDbEntity
  8
0
  6
Continuous
 62
     7
370
    25
100
AcDbLine
 10
96.8172038078
 20
172.5189363904
 30
0.0
 11
95.4315631617
 21
172.5189363904
 31
0.0
  0
ARC
  5
A7
330
1F
100
AcDbEntity
  8
0
  6
Continuous
 62
     7
370
    25
100
AcDbCircle
 10
92.1581746531
 20
174.7958125246
 30
0.0
 40
5.185626056175422
100
AcDbArc
 50
333.9551549141
 51
353.840617582
  0
LINE
  5
A8
330
1F
100
AcDbEntity
  8
0
  6
Continuous
 62
     7
370
    25
100
AcDbLine
 10
96.8172038078
 20
154.0496699292
 30
0.0
 11
95.4315631617
 21
154.0496699292
 31
0.0
  0
ARC
  5
A9
330
1F
100
AcDbEntity
  8
0
  6
Continuous
 62
     7
370
    25
100
AcDbCircle
 10
92.7446516605
 20
151.9974803121
 30
0.0
 40
4.560390686835859
100
AcDbArc
 50
13.3915082012
 51
26.7438782118
  0
LINE
  5
AA
330
1F
100
AcDbEntity
  8
0
  6
Continuous
 62
     7
370
    25
100
AcDbLine
 10
96.8172038078
 20
154.0496699292
 30
0.0
 11
96.8172038078
 21
172.5189363904
 31
0.0
  0
ARC
  5
AB
330
1F
100
AcDbEntity
  8
0
  6
Continuous
 62
     7
370
    25
100
AcDbCircle
 10
95.9381439886
 20
175.1093031598
 30
0.0
 40
2.178148156422217
100
AcDbArc
 50
134.9959506346
 51
225.0040493654
  0
ARC
  5
AC
330
1F
100
AcDbEntity
  8
0
  6
Continuous
 62
     7
370
    25
100
AcDbCircle
 10
95.6077639195
 20
151.633558202
 30
0.0
 40
1.824669290552562
100
AcDbArc
 50
131.5265006395
 51
191.6072673004
  0
LINE
  5
AD
330
1F
100
AcDbEntity
  8
0
  6
Continuous
 62
     7
370
    25
100
AcDbLine
 10
87.0731151217
 20
187.8041832846
 30
0.0
 11
85.6874744757
 21
187.8041832846
 31
0.0
  0
LINE
  5
AE
330
1F
100
AcDbEntity
  8
0
  6
Continuous
 62
     7
370
    25
100
AcDbLine
 10
94.8743834847
 20
178.7960545058
 30
0.0
 11
87.0731151217
 21
187.8041832846
 31
0.0
  0
LWPOLYLINE
  5
AF
330
1F
100
AcDbEntity
  8
0
  6
Continuous
 62
     7
370
    25
100
AcDbPolyline
 90
       27
 70
   128
 43
0.0
 10
92.1033968281
 20
151.6091294407
 10
91.9425751466
 20
151.706348896
 10
91.2218280858
 20
152.2025172801
 10
90.5179057433
 20
152.7873777002
 10
89.833533613
 20
153.4586656544
 10
89.1713614931
 20
154.2137820047
 10
88.5339532262
 20
155.0498030408
 10
87.9237767724
 20
155.9634918002
 10
87.3431946541
 20
156.9513106012
 10
86.7944548082
 20
158.0094347404
 10
86.2796818826
 20
159.1337673017
 10
85.8008690097
 20
160.3199550184
 10
85.3598700896
 20
161.563405129
 10
84.9583926114
 20
162.8593031598
 10
84.5979910428
 20
164.2026315655
 10
84.2800608108
 20
165.5881891566
 10
84.0058328991
 20
167.010611238
 10
83.7763690817
 20
168.4643903801
 10
83.5925578122
 20
169.943897743
 10
83.4551107833
 20
171.4434048704
 10
83.3645601718
 20
172.9571058696
 10
83.3212565776
 20
174.4791398912
 10
83.3253676665
 20
176.0036138214
 10
83.3768775208
 20
177.5246250994
 10
83.4755867013
 20
179.0362845712
 10
83.6211130191
 20
180.532739292
 10
83.8128930157
 20
182.0081951875
  0
LINE
  5
B0
330
1F
100
AcDbEntity
  8
0
  6
Continuous
 62
     7
370
    25
100
AcDbLine
 10
86.6763999105
 20
189.3156006552
 30
0.0
 11
85.2907592645
 21
189.3156006552
 31
0.0
  0
ARC
  5
B1
330
1F
100
AcDbEntity
  8
0
  6
Continuous
 62
     7
370
    25
100
AcDbCircle
 10
81.6528094008
 20
187.1892406265
 30
0.0
 40
5.45507732132879
100
AcDbArc
 50
6.4726254059
 51
22.9417233691
  0
ARC
  5
B2
330
1F
100
AcDbEntity
  8
0
  6
Continuous
 62
     7
370
    25
100
AcDbCircle
 10
89.9621286903
 20
190.6353734773
 30
0.0
 40
3.54087756304764
100
AcDbArc
 50
156.999717291
 51
201.8837601786
  0
ARC
  5
B3
330
1F
100
AcDbEntity
  8
0
  6
Continuous
 62
     7
370
    25
100
AcDbCircle
 10
85.0849770321
 20
186.5445309458
 30
0.0
 40
1.47791928307812
100
AcDbArc
 50
183.1577354833
 51
231.1209585286
  0
ARC
  5
B4
330
1F
100
AcDbEntity
  8
0
  6
Continuous
 62
     7
370
    25
100
AcDbCircle
 10
85.7046463146
 20
181.9208131789
 30
0.0
 40
1.89377035555787
100
AcDbArc
 50
131.7214292312
 51
177.3553295106
  0
LINE
  5
B5
330
1F
100
AcDbEntity
  8
0
  6
Continuous
 62
     7
370
    25
100
AcDbLine
 10
115.3680966412
 20
138.6093031598
 30
0.0
 11
109.3680966412
 21
138.6093031598
 31
0.0
  0
LINE
  5
B6
330
1F
100
AcDbEntity
  8
0
  6
Continuous
 62
     7
370
    25
100
AcDbLine
 10
108.3680966412
 20
139.6093031598
 30
0.0
 11
116.3680966412
 21
139.6093031598
 31
0.0
  0
LINE
  5
B7
330
1F
100
AcDbEntity
  8
0
  6
Continuous
 62
     7
370
    25
100
AcDbLine
 10
114.3680966412
 20
142.6093031598
 30
0.0
 11
108.3680966412
 21
142.6093031598
 31
0.0
  0
SPLINE
  5
B8
330
1F
100
AcDbEntity
  8
0
  6
Continuous
 62
     7
370
    25
100
AcDbSpline
210
0.0
220
0.0
230
1.0
 70
     8
 71
     3
 72
    17
 73
    13
 74
     0
 42
0.00000001
 43
0.00000001
 40
0.0
 40
0.0
 40
0.0
 40
0.0
 40
0.0713924145232098
 40
0.176343861922298
 40
0.2843234235762762
 40
0.3895908649255085
 40
0.4978685802072633
 40
0.6038707472893865
 40
0.7129432371843721
 40
0.8189580372797699
 40
0.9280886685642177
 40
1.0
 40
1.0
 40
1.0
 40
1.0
 10
114.3680966411947
 20
143.8643035598833
 30
0.0
 10
114.2360838612136
 20
143.863664807729
 30
0.0
 10
113.9100037923376
 20
143.8620870487689
 30
0.0
 10
113.3417136676268
 20
143.8468311386773
 30
0.0
 10
112.682181631553
 20
143.8183600111733
 30
0.0
 10
112.0067534307342
 20
143.7803188854515
 30
0.0
 10
111.3457646196628
 20
143.7377215289883
 30
0.0
 10
110.7063361737206
 20
143.694605161811
 30
0.0
 10
110.11686789196
 20
143.6563466483393
 30
0.0
 10
109.5895429554662
 20
143.6273934460464
 30
0.0
 10
109.1804139068019
 20
143.6109360418318
 30
0.0
 10
108.9899256172693
 20
143.6108425935271
 30
0.0
 10
108.9142621284439
 20
143.6108054751048
 30
0.0
  0
LWPOLYLINE
  5
B9
330
1F
100
AcDbEntity
  8
0
  6
Continuous
 62
     7
370
    25
100
AcDbPolyline
 90
       57
 70
   128
 43
0.0
 10
119.5642490639
 20
143.8643035599
 10
120.4093578189
 20
144.1275113348
 10
121.2460764391
 20
144.4820834245
 10
122.0719374679
 20
144.9269742071
 10
122.8845054676
 20
145.460871714
 10
123.681384201
 20
146.0822014984
 10
124.4602236982
 20
146.7891312788
 10
125.2187271864
 20
147.5795763416
 10
125.9546578631
 20
148.4512056897
 10
126.6658454922
 20
149.4014489159
 10
127.3501928041
 20
150.4275037834
 10
128.0056816803
 20
151.5263444891
 10
128.6303791053
 20
152.6947305868
 10
129.2224428661
 20
153.9292165433
 10
129.7801269856
 20
155.2261618988
 10
130.3017868713
 20
156.581742003
 10
130.7858841647
 20
157.9919592933
 10
131.2309912784
 20
159.4526550842
 10
131.6357956058
 20
160.9595218302
 10
131.9991033918
 20
162.5081158295
 10
132.3198432533
 20
164.0938703279
 10
132.5970693387
 20
165.7121089859
 10
132.8299641172
 20
167.3580596694
 10
133.0178407895
 20
169.0268685225
 10
133.1601453132
 20
170.7136142811
 10
133.256458037
 20
172.4133227859
 10
133.3064949376
 20
174.1209816506
 10
133.3101084578
 20
175.8315550439
 10
133.2672879415
 20
177.5399985395
 10
133.178159665
 20
179.2412739921
 10
133.0429864648
 20
180.9303643946
 10
132.8621669622
 20
182.6022886734
 10
132.6362343883
 20
184.2521163772
 10
132.3658550109
 20
185.8749822168
 10
132.0518261703
 20
187.4661004126
 10
131.6950739274
 20
189.0207788079
 10
131.2966503333
 20
190.5344327058
 10
130.8577303263
 20
192.0025983892
 10
130.3796082676
 20
193.4209462845
 10
129.8636941238
 20
194.7852937289
 10
129.3115093093
 20
196.0916173055
 10
128.7246821995
 20
197.3360647077
 10
128.1049433287
 20
198.5149660998
 10
127.4541202872
 20
199.6248449394
 10
126.7741323313
 20
200.6624282291
 10
126.0669847237
 20
201.624656169
 10
125.3347628201
 20
202.5086911796
 10
124.5796259196
 20
203.3119262699
 10
123.8038008968
 20
204.0319927252
 10
123.0095756349
 20
204.6667670926
 10
122.1992922789
 20
205.2143774428
 10
121.3753403284
 20
205.6732088902
 10
120.5401495914
 20
206.0419083556
 10
119.6961830189
 20
206.3193885562
 10
118.8459294411
 20
206.5048312115
 10
117.9918962289
 20
206.5976894571
 10
117.5642490639
 20
206.6093031598
  0
LINE
  5
BA
330
1F
100
AcDbEntity
  8
0
  6
Continuous
 62
     7
370
    25
100
AcDbLine
 10
119.5642490639
 20
143.8643035599
 30
0.0
 11
114.3680966412
 21
143.8643035599
 31
0.0
  0
LWPOLYLINE
  5
BB
330
1F
100
AcDbEntity
  8
0
  6
Continuous
 62
     7
370
    25
100
AcDbPolyline
 90
      117
 70
   128
 43
0.0
 10
107.3334869504
 20
175.1093031598
 10
107.3103882185
 20
176.8146787803
 10
107.2411597755
 20
178.5150522402
 10
107.1260046804
 20
180.2054360512
 10
106.9652607028
 20
181.8808720265
 10
106.7593993325
 20
183.5364458235
 10
106.5090243965
 20
185.1673013591
 10
106.2148702875
 20
186.768655053
 10
105.8777998102
 20
188.335809859
 10
105.4988016504
 20
189.8641690419
 10
105.078987475
 20
191.3492496609
 10
104.6195886713
 20
192.7866957187
 10
104.1219527352
 20
194.1722909384
 10
103.5875393186
 20
195.5019711304
 10
103.0179159482
 20
196.7718361137
 10
102.4147534273
 20
197.9781611554
 10
101.7798209357
 20
199.1174078963
 10
101.1149808397
 20
200.1862347295
 10
100.4221832298
 20
201.1815066018
 10
99.7034602009
 20
202.1003042091
 10
98.9609198914
 20
202.9399325599
 10
98.1967402999
 20
203.6979288795
 10
97.413162897
 20
204.372069834
 10
96.61248605
 20
204.9603780521
 10
95.7970582822
 20
205.4611279242
 10
94.9692713837
 20
205.8728506647
 10
94.1315533961
 20
206.1943386199
 10
93.2863614905
 20
206.4246488102
 10
92.4361747606
 20
206.5631056961
 10
91.5834869504
 20
206.6093031598
 10
90.7307991401
 20
206.5631056961
 10
89.8806124102
 20
206.4246488102
 10
89.0354205047
 20
206.1943386199
 10
88.197702517
 20
205.8728506647
 10
87.3699156185
 20
205.4611279242
 10
86.5544878507
 20
204.9603780521
 10
85.7538110038
 20
204.372069834
 10
84.9702336008
 20
203.6979288795
 10
84.2060540093
 20
202.9399325599
 10
83.4635136998
 20
202.1003042091
 10
82.7447906709
 20
201.1815066018
 10
82.0519930611
 20
200.1862347295
 10
81.3871529651
 20
199.1174078963
 10
80.7522204734
 20
197.9781611554
 10
80.1490579526
 20
196.7718361137
 10
79.5794345821
 20
195.5019711304
 10
79.0450211655
 20
194.1722909384
 10
78.5473852294
 20
192.7866957187
 10
78.0879864257
 20
191.3492496609
 10
77.6681722503
 20
189.8641690419
 10
77.2891740906
 20
188.335809859
 10
76.9521036133
 20
186.768655053
 10
76.6579495042
 20
185.1673013591
 10
76.4075745682
 20
183.5364458235
 10
76.2017131979
 20
181.8808720265
 10
76.0409692203
 20
180.2054360512
 10
75.9258141252
 20
178.5150522402
 10
75.8565856822
 20
176.8146787803
 10
75.8334869504
 20
175.1093031598
 10
75.8565856822
 20
173.4039275394
 10
75.9258141252
 20
171.7035540795
 10
76.0409692203
 20
170.0131702684
 10
76.2017131979
 20
168.3377342932
 10
76.4075745682
 20
166.6821604961
 10
76.6579495042
 20
165.0513049605
 10
76.9521036133
 20
163.4499512666
 10
77.2891740906
 20
161.8827964607
 10
77.6681722503
 20
160.3544372778
 10
78.0879864257
 20
158.8693566587
 10
78.5473852294
 20
157.4319106009
 10
79.0450211655
 20
156.0463153812
 10
79.5794345821
 20
154.7166351892
 10
80.1490579526
 20
153.4467702059
 10
80.7522204734
 20
152.2404451642
 10
81.3871529651
 20
151.1011984233
 10
82.0519930611
 20
150.0323715901
 10
82.7447906709
 20
149.0370997179
 10
83.4635136998
 20
148.1183021105
 10
84.2060540093
 20
147.2786737598
 10
84.9702336008
 20
146.5206774402
 10
85.7538110038
 20
145.8465364856
 10
86.5544878507
 20
145.2582282676
 10
87.3699156185
 20
144.7574783955
 10
88.197702517
 20
144.345755655
 10
89.0354205047
 20
144.0242676998
 10
89.8806124102
 20
143.7939575095
 10
90.7307991401
 20
143.6555006235
 10
91.5834869504
 20
143.6093031598
 10
92.4361747606
 20
143.6555006235
 10
93.2863614905
 20
143.7939575095
 10
94.1315533961
 20
144.0242676998
 10
94.9692713837
 20
144.345755655
 10
95.7970582822
 20
144.7574783955
 10
96.61248605
 20
145.2582282676
 10
97.413162897
 20
145.8465364856
 10
98.1967402999
 20
146.5206774402
 10
98.9609198914
 20
147.2786737598
 10
99.7034602009
 20
148.1183021105
 10
100.4221832298
 20
149.0370997179
 10
101.1149808397
 20
150.0323715901
 10
101.7798209357
 20
151.1011984233
 10
102.4147534273
 20
152.2404451642
 10
103.0179159482
 20
153.4467702059
 10
103.5875393186
 20
154.7166351892
 10
104.1219527352
 20
156.0463153812
 10
104.6195886713
 20
157.4319106009
 10
105.078987475
 20
158.8693566587
 10
105.4988016504
 20
160.3544372778
 10
105.8777998102
 20
161.8827964607
 10
106.2148702875
 20
163.4499512666
 10
106.5090243965
 20
165.0513049605
 10
106.7593993325
 20
166.6821604961
 10
106.9652607028
 20
168.3377342932
 10
107.1260046804
 20
170.0131702684
 10
107.2411597755
 20
171.7035540795
 10
107.3103882185
 20
173.4039275394
 10
107.3334869504
 20
175.1093031598
  0
LWPOLYLINE
  5
BC
330
1F
100
AcDbEntity
  8
0
  6
Continuous
 62
     7
370
    25
100
AcDbPolyline
 90
      114
 70
   128
 43
0.0
 10
106.5834869504
 20
175.1093031598
 10
106.5603048802
 20
176.7765460304
 10
106.490830324
 20
178.4386355489
 10
106.3752780239
 20
180.0904342917
 10
106.2140051451
 20
181.7268366436
 10
106.0075101731
 20
183.3427845788
 10
105.7564313719
 20
184.9332832948
 10
105.4615448118
 20
186.4934166511
 10
105.1237619701
 20
188.0183623651
 10
104.7441269142
 20
189.5034069168
 10
104.3238130745
 20
190.9439601187
 10
103.8641196168
 20
192.3355693034
 10
103.3664674273
 20
193.6739330867
 10
102.8323947204
 20
194.9549146627
 10
102.2635522843
 20
196.1745545909
 10
101.6616983782
 20
197.3290830341
 10
101.0286932982
 20
198.4149314111
 10
100.3664936267
 20
199.4287434268
 10
99.6771461848
 20
200.3673854462
 10
98.9627817061
 20
201.2279561808
 10
98.2256082502
 20
202.0077956558
 10
97.467904378
 20
202.7044934319
 10
96.6920121087
 20
203.3158960563
 10
95.9003296809
 20
203.8401137185
 10
95.0953041397
 20
204.2755260918
 10
94.2794237727
 20
204.6207873414
 10
93.4552104196
 20
204.8748302847
 10
92.6252116765
 20
205.0368696894
 10
91.7919930219
 20
205.106404701
 10
90.958129887
 20
205.0832203909
 10
90.126199695
 20
204.9673884203
 10
89.2987738943
 20
204.7592668193
 10
88.4784100108
 20
204.4594988797
 10
87.6676437422
 20
204.0690111672
 10
86.8689811205
 20
203.5890106569
 10
86.0848907661
 20
203.0209810028
 10
85.3177962575
 20
202.366677952
 10
84.5700686397
 20
201.6281239178
 10
83.8440190959
 20
200.8076017284
 10
83.1418918038
 20
199.9076475708
 10
82.4658569985
 20
198.9310431518
 10
81.8180042649
 20
197.8808070996
 10
81.2003360787
 20
196.7601856338
 10
80.6147616167
 20
195.5726425309
 10
80.0630908561
 20
194.3218484188
 10
79.5470289797
 20
193.0116694303
 10
79.0681711051
 20
191.6461552536
 10
78.6279973545
 20
190.2295266148
 10
78.2278682799
 20
188.7661622318
 10
77.8690206571
 20
187.26058528
 10
77.5525636637
 20
185.7174494116
 10
77.2794754502
 20
184.141524371
 10
77.0506001164
 20
182.5376812523
 10
76.866645103
 20
180.9108774426
 10
76.7281790044
 20
179.2661412992
 10
76.6356298113
 20
177.6085566074
 10
76.5892835879
 20
175.9432468664
 10
76.5892835879
 20
174.2753594532
 10
76.6356298113
 20
172.6100497122
 10
76.7281790044
 20
170.9524650204
 10
76.866645103
 20
169.3077288771
 10
77.0506001164
 20
167.6809250674
 10
77.2794754502
 20
166.0770819487
 10
77.5525636637
 20
164.5011569081
 10
77.8690206571
 20
162.9580210396
 10
78.2278682799
 20
161.4524440879
 10
78.6279973545
 20
159.9890797048
 10
79.0681711051
 20
158.572451066
 10
79.5470289797
 20
157.2069368893
 10
80.0630908561
 20
155.8967579008
 10
80.6147616167
 20
154.6459637887
 10
81.2003360787
 20
153.4584206859
 10
81.8180042649
 20
152.33779922
 10
82.4658569985
 20
151.2875631678
 10
83.1418918038
 20
150.3109587488
 10
83.8440190959
 20
149.4110045912
 10
84.5700686397
 20
148.5904824018
 10
85.3177962575
 20
147.8519283676
 10
86.0848907661
 20
147.1976253168
 10
86.8689811205
 20
146.6295956627
 10
87.6676437422
 20
146.1495951524
 10
88.4784100108
 20
145.7591074399
 10
89.2987738943
 20
145.4593395004
 10
90.126199695
 20
145.2512178994
 10
90.958129887
 20
145.1353859288
 10
91.7919930219
 20
145.1122016186
 10
92.6252116765
 20
145.1817366303
 10
93.4552104196
 20
145.343776035
 10
94.2794237727
 20
145.5978189783
 10
95.0953041397
 20
145.9430802279
 10
95.9003296809
 20
146.3784926011
 10
96.6920121087
 20
146.9027102634
 10
97.467904378
 20
147.5141128878
 10
98.2256082502
 20
148.2108106639
 10
98.9627817061
 20
148.9906501388
 10
99.6771461848
 20
149.8512208734
 10
100.3664936267
 20
150.7898628929
 10
101.0286932982
 20
151.8036749085
 10
101.6616983782
 20
152.8895232855
 10
102.2635522843
 20
154.0440517287
 10
102.8323947204
 20
155.2636916569
 10
103.3664674273
 20
156.544673233
 10
103.8641196168
 20
157.8830370162
 10
104.3238130745
 20
159.2746462009
 10
104.7441269142
 20
160.7151994028
 10
105.1237619701
 20
162.2002439546
 10
105.4615448118
 20
163.7251896685
 10
105.7564313719
 20
165.2853230249
 10
106.0075101731
 20
166.8758217408
 10
106.2140051451
 20
168.491769676
 10
106.3752780239
 20
170.128172028
 10
106.490830324
 20
171.7799707708
 10
106.5603048802
 20
173.4420602892
 10
106.5834869504
 20
175.1093031598
  0
ARC
  5
BD
330
1F
100
AcDbEntity
  8
0
  6
Continuous
 62
     7
370
    25
100
AcDbCircle
 10
107.6514601736
 20
167.3538312769
 30
0.0
 40
29.09923391521663
100
AcDbArc
 50
194.3674693673
 51
218.7626329869
  0
LINE
  5
BE
330
1F
100
AcDbEntity
  8
0
  6
Continuous
 62
     7
370
    25
100
AcDbLine
 10
87.1927842375
 20
149.1512395306
 30
0.0
 11
84.9614356554
 21
149.1349344437
 31
0.0
  0
LWPOLYLINE
  5
BF
330
1F
100
AcDbEntity
  8
0
  6
Continuous
 62
     7
370
    25
100
AcDbPolyline
 90
        3
 70
   128
 43
0.0
 10
93.2779307849
 20
145.6647146229
 10
93.3307950539
 20
145.6459821775
 10
93.899495873
 20
145.4690533181
  0
LWPOLYLINE
  5
C0
330
1F
100
AcDbEntity
  8
0
  6
Continuous
 62
     7
370
    25
100
AcDbPolyline
 90
        3
 70
   128
 43
0.0
 10
93.899495873
 20
204.7495530016
 10
93.3307950539
 20
204.5726241421
 10
93.2779307849
 20
204.5538916968
  0
LINE
  5
C1
330
1F
100
AcDbEntity
  8
0
  6
Continuous
 62
     7
370
    25
100
AcDbLine
 10
87.1817999022
 20
201.0674470546
 30
0.0
 11
84.9614356554
 21
201.0836718759
 31
0.0
  0
ARC
  5
C2
330
1F
100
AcDbEntity
  8
0
  6
Continuous
 62
     7
370
    25
100
AcDbCircle
 10
107.9604561199
 20
182.7102770695
 30
0.0
 40
29.43699337630975
100
AcDbArc
 50
141.3794372449
 51
165.490460401
  0
LINE
  5
C3
330
1F
100
AcDbEntity
  8
0
  6
Continuous
 62
     7
370
    25
100
AcDbLine
 10
104.8926721981
 20
161.3695103772
 30
0.0
 11
104.36928129
 21
161.3656949251
 31
0.0
  0
ARC
  5
C4
330
1F
100
AcDbEntity
  8
0
  6
Continuous
 62
     7
370
    25
100
AcDbCircle
 10
54.508388721
 20
175.1093031598
 30
0.0
 40
51.72035745320199
100
AcDbArc
 50
344.5897146459
 51
15.4102853541
  0
LINE
  5
C5
330
1F
100
AcDbEntity
  8
0
  6
Continuous
 62
     7
370
    25
100
AcDbLine
 10
104.8960676643
 20
188.8490711899
 30
0.0
 11
104.36928129
 21
188.8529113946
 31
0.0
  0
LWPOLYLINE
  5
C6
330
1F
100
AcDbEntity
  8
0
  6
Continuous
 62
     7
370
    25
100
AcDbPolyline
 90
      102
 70
   128
 43
0.0
 10
80.4495123542
 20
175.1093031598
 10
80.4727251885
 20
176.6013744582
 10
80.5422738858
 20
178.0876732225
 10
80.6578893755
 20
179.5624492517
 10
80.8191243638
 20
181.0199969238
 10
81.0253550638
 20
182.4546772699
 10
81.275783609
 20
183.8609397906
 10
81.56944114
 20
185.2333439293
 10
81.905191553
 20
186.566580121
 10
82.2817358947
 20
187.855490334
 10
82.6976173882
 20
189.0950880249
 10
83.1512270689
 20
190.2805774312
 10
83.640810009
 20
191.4073721246
 10
84.1644721073
 20
192.4711127554
 10
84.7201874167
 20
193.4676839176
 10
85.3058059828
 20
194.3932300711
 10
85.9190621611
 20
195.2441704577
 10
86.5575833825
 20
196.0172129542
 10
87.2188993324
 20
196.7093668095
 10
87.9004515081
 20
197.3179542146
 10
88.5996031164
 20
197.8406206633
 10
89.3136492756
 20
198.2753440605
 10
90.0398274799
 20
198.6204425458
 10
90.7753282868
 20
198.8745810003
 10
91.5173061867
 20
199.0367762116
 10
92.2628906111
 20
199.1064006781
 10
93.0091970388
 20
199.083185036
 10
93.7533381552
 20
198.9672191024
 10
94.4924350228
 20
198.7589515267
 10
95.2236282195
 20
198.4591880559
 10
95.9440889009
 20
198.0690884166
 10
96.6510297444
 20
197.5901618284
 10
97.3417157335
 20
197.0242611653
 10
98.013474738
 20
196.3735757871
 10
98.6637078529
 20
195.640623069
 10
99.2898994527
 20
194.8282386627
 10
99.8896269237
 20
193.9395655257
 10
100.4605700367
 20
192.9780417618
 10
101.0005199239
 20
191.9473873195
 10
101.507387624
 20
190.8515896006
 10
101.9792121643
 20
189.6948880338
 10
102.4141681473
 20
188.4817576725
 10
102.8105728129
 20
187.2168918826
 10
103.1668925484
 20
185.905184184
 10
103.4817488219
 20
184.551709319
 10
103.7539235158
 20
183.161703619
 10
103.9823636389
 20
181.7405447458
 10
104.1661854009
 20
180.2937308873
 10
104.304677631
 20
178.826859485
 10
104.3973045298
 20
177.3456055794
 10
104.4437077417
 20
175.8556998543
 10
104.4437077417
 20
174.3629064653
 10
104.3973045298
 20
172.8730007402
 10
104.304677631
 20
171.3917468347
 10
104.1661854009
 20
169.9248754324
 10
103.9823636389
 20
168.4780615738
 10
103.7539235158
 20
167.0569027007
 10
103.4817488219
 20
165.6668970006
 10
103.1668925484
 20
164.3134221356
 10
102.8105728129
 20
163.0017144371
 10
102.4141681473
 20
161.7368486471
 10
101.9792121643
 20
160.5237182859
 10
101.507387624
 20
159.367016719
 10
101.0005199239
 20
158.2712190002
 10
100.4605700367
 20
157.2405645579
 10
99.8896269237
 20
156.2790407939
 10
99.2898994527
 20
155.3903676569
 10
98.6637078529
 20
154.5779832507
 10
98.013474738
 20
153.8450305326
 10
97.3417157335
 20
153.1943451543
 10
96.6510297444
 20
152.6284444913
 10
95.9440889009
 20
152.1495179031
 10
95.2236282195
 20
151.7594182637
 10
94.4924350228
 20
151.4596547929
 10
93.7533381552
 20
151.2513872173
 10
93.0091970388
 20
151.1354212836
 10
92.2628906111
 20
151.1122056416
 10
91.5173061867
 20
151.181830108
 10
90.7753282868
 20
151.3440253193
 10
90.0398274799
 20
151.5981637738
 10
89.3136492756
 20
151.9432622592
 10
88.5996031164
 20
152.3779856564
 10
87.9004515081
 20
152.900652105
 10
87.2188993324
 20
153.5092395102
 10
86.5575833825
 20
154.2013933654
 10
85.9190621611
 20
154.9744358619
 10
85.3058059828
 20
155.8253762485
 10
84.7201874167
 20
156.750922402
 10
84.1644721073
 20
157.7474935643
 10
83.640810009
 20
158.811234195
 10
83.1512270689
 20
159.9380288884
 10
82.6976173882
 20
161.1235182947
 10
82.2817358947
 20
162.3631159856
 10
81.905191553
 20
163.6520261986
 10
81.56944114
 20
164.9852623903
 10
81.275783609
 20
166.357666529
 10
81.0253550638
 20
167.7639290497
 10
80.8191243638
 20
169.1986093959
 10
80.6578893755
 20
170.6561570679
 10
80.5422738858
 20
172.1309330971
 10
80.4727251885
 20
173.6172318615
 10
80.4495123542
 20
175.1093031598
  0
LINE
  5
C7
330
1F
100
AcDbEntity
  8
0
  6
Continuous
 62
     7
370
    25
100
AcDbLine
 10
84.9614356554
 20
201.0836718759
 30
0.0
 11
85.5777082368
 21
198.9488410316
 31
0.0
  0
LWPOLYLINE
  5
C8
330
1F
100
AcDbEntity
  8
0
  6
Continuous
 62
     7
370
    25
100
AcDbPolyline
 90
       19
 70
   128
 43
0.0
 10
85.5777082368
 20
198.9488410316
 10
86.2815403279
 20
199.7067586701
 10
87.0061923606
 20
200.3816477887
 10
87.7492182777
 20
200.9712303044
 10
88.508110001
 20
201.4735160859
 10
89.2803058972
 20
201.8868096715
 10
90.0631994252
 20
202.2097159919
 10
90.854147934
 20
202.4411450794
 10
91.650481583
 20
202.5803157469
 10
92.4495123542
 20
202.6267582247
 10
93.2485431253
 20
202.5803157469
 10
94.0448767743
 20
202.4411450794
 10
94.8358252831
 20
202.2097159919
 10
95.6187188111
 20
201.8868096715
 10
96.3909147073
 20
201.4735160859
 10
97.1498064306
 20
200.9712303044
 10
97.8928323477
 20
200.3816477887
 10
98.6174843804
 20
199.7067586701
 10
99.3213164715
 20
198.9488410316
  0
LINE
  5
C9
330
1F
100
AcDbEntity
  8
0
  6
Continuous
 62
     7
370
    25
100
AcDbLine
 10
99.3213164715
 20
198.9488410316
 30
0.0
 11
99.716284059
 21
200.3170488893
 31
0.0
  0
LINE
  5
CA
330
1F
100
AcDbEntity
  8
0
  6
Continuous
 62
     7
370
    25
100
AcDbLine
 10
104.7891038565
 20
189.3376807381
 30
0.0
 11
104.36928129
 21
188.8529113946
 31
0.0
  0
LINE
  5
CB
330
1F
100
AcDbEntity
  8
0
  6
Continuous
 62
     7
370
    25
100
AcDbLine
 10
104.36928129
 20
161.3656949251
 30
0.0
 11
104.7891038565
 21
160.8809255815
 31
0.0
  0
LINE
  5
CC
330
1F
100
AcDbEntity
  8
0
  6
Continuous
 62
     7
370
    25
100
AcDbLine
 10
99.716284059
 20
149.9015574304
 30
0.0
 11
99.3213164715
 21
151.269765288
 31
0.0
  0
LWPOLYLINE
  5
CD
330
1F
100
AcDbEntity
  8
0
  6
Continuous
 62
     7
370
    25
100
AcDbPolyline
 90
       19
 70
   128
 43
0.0
 10
99.3213164715
 20
151.269765288
 10
98.6174843804
 20
150.5118476495
 10
97.8928323477
 20
149.8369585309
 10
97.1498064306
 20
149.2473760153
 10
96.3909147073
 20
148.7450902337
 10
95.6187188111
 20
148.3317966481
 10
94.8358252831
 20
148.0088903277
 10
94.0448767743
 20
147.7774612402
 10
93.2485431253
 20
147.6382905728
 10
92.4495123542
 20
147.5918480949
 10
91.650481583
 20
147.6382905728
 10
90.854147934
 20
147.7774612402
 10
90.0631994252
 20
148.0088903277
 10
89.2803058972
 20
148.3317966481
 10
88.508110001
 20
148.7450902337
 10
87.7492182777
 20
149.2473760153
 10
87.0061923606
 20
149.8369585309
 10
86.2815403279
 20
150.5118476495
 10
85.5777082368
 20
151.269765288
  0
LINE
  5
CE
330
1F
100
AcDbEntity
  8
0
  6
Continuous
 62
     7
370
    25
100
AcDbLine
 10
85.5777082368
 20
151.269765288
 30
0.0
 11
84.9614356554
 21
149.1349344437
 31
0.0
  0
LINE
  5
CF
330
1F
100
AcDbEntity
  8
0
  6
Continuous
 62
     7
370
    25
100
AcDbLine
 10
79.4623279961
 20
160.1331497624
 30
0.0
 11
80.5297434183
 21
161.3656949251
 31
0.0
  0
ARC
  5
D0
330
1F
100
AcDbEntity
  8
0
  6
Continuous
 62
     7
370
    25
100
AcDbCircle
 10
130.3906359873
 20
175.1093031598
 30
0.0
 40
51.72035745320164
100
AcDbArc
 50
164.5897146459
 51
195.4102853541
  0
LINE
  5
D1
330
1F
100
AcDbEntity
  8
0
  6
Continuous
 62
     7
370
    25
100
AcDbLine
 10
80.5297434183
 20
188.8529113946
 30
0.0
 11
79.4623279961
 21
190.0854565572
 31
0.0
  0
LWPOLYLINE
  5
D2
330
1F
100
AcDbEntity
  8
0
  6
Continuous
 62
     7
370
    25
100
AcDbPolyline
 90
       26
 70
   128
 43
0.0
 10
82.1815631617
 20
175.1093031598
 10
82.2047759961
 20
176.6013744582
 10
82.2743246934
 20
178.0876732225
 10
82.3899401831
 20
179.5624492517
 10
82.5511751713
 20
181.0199969238
 10
82.7574058713
 20
182.4546772699
 10
83.0078344165
 20
183.8609397906
 10
83.3014919476
 20
185.2333439293
 10
83.6372423605
 20
186.566580121
 10
84.0137867022
 20
187.855490334
 10
84.4296681958
 20
189.0950880249
 10
84.8832778765
 20
190.2805774312
 10
85.3728608166
 20
191.4073721246
 10
85.8965229149
 20
192.4711127554
 10
86.4522382243
 20
193.4676839176
 10
87.0378567904
 20
194.3932300711
 10
87.6511129686
 20
195.2441704577
 10
88.28963419
 20
196.0172129542
 10
88.95095014
 20
196.7093668095
 10
89.6325023156
 20
197.3179542146
 10
90.3316539239
 20
197.8406206633
 10
91.0457000832
 20
198.2753440605
 10
91.7718782875
 20
198.6204425458
 10
92.5073790944
 20
198.8745810003
 10
93.2493569943
 20
199.0367762116
 10
93.3155377579
 20
199.046721567
  0
LWPOLYLINE
  5
D3
330
1F
100
AcDbEntity
  8
0
  6
Continuous
 62
     7
370
    25
100
AcDbPolyline
 90
       26
 70
   128
 43
0.0
 10
93.3155377579
 20
151.1718847526
 10
93.2493569943
 20
151.181830108
 10
92.5073790944
 20
151.3440253193
 10
91.7718782875
 20
151.5981637738
 10
91.0457000832
 20
151.9432622592
 10
90.3316539239
 20
152.3779856564
 10
89.6325023156
 20
152.900652105
 10
88.95095014
 20
153.5092395102
 10
88.28963419
 20
154.2013933654
 10
87.6511129686
 20
154.9744358619
 10
87.0378567904
 20
155.8253762485
 10
86.4522382243
 20
156.750922402
 10
85.8965229149
 20
157.7474935643
 10
85.3728608166
 20
158.811234195
 10
84.8832778765
 20
159.9380288884
 10
84.4296681958
 20
161.1235182947
 10
84.0137867022
 20
162.3631159856
 10
83.6372423605
 20
163.6520261986
 10
83.3014919476
 20
164.9852623903
 10
83.0078344165
 20
166.357666529
 10
82.7574058713
 20
167.7639290497
 10
82.5511751713
 20
169.1986093959
 10
82.3899401831
 20
170.6561570679
 10
82.2743246934
 20
172.1309330971
 10
82.2047759961
 20
173.6172318615
 10
82.1815631617
 20
175.1093031598
  0
ARC
  5
D4
330
1F
100
AcDbEntity
  8
0
  6
Continuous
 62
     7
370
    25
100
AcDbCircle
 10
93.9328138755
 20
155.9129732471
 30
0.0
 40
8.355359169009482
100
AcDbArc
 50
270.7537647822
 51
313.2710565363
  0
ARC
  5
D5
330
1F
100
AcDbEntity
  8
0
  6
Continuous
 62
     7
370
    25
100
AcDbCircle
 10
93.9018414394
 20
194.229021385
 30
0.0
 40
8.432424908761144
100
AcDbArc
 50
46.9325259934
 51
89.0426526882
  0
LINE
  5
D6
330
1F
100
AcDbEntity
  8
0
  6
Continuous
 62
     7
370
    25
100
AcDbLine
 10
114.3680966412
 20
143.8643035599
 30
0.0
 11
114.3680966412
 21
142.6093031598
 31
0.0
  0
LINE
  5
D7
330
1F
100
AcDbEntity
  8
0
  6
Continuous
 62
     7
370
    25
100
AcDbLine
 10
114.3680966412
 20
142.6093031598
 30
0.0
 11
119.5642490639
 21
142.6093031598
 31
0.0
  0
LINE
  5
D8
330
1F
100
AcDbEntity
  8
0
  6
Continuous
 62
     7
370
    25
100
AcDbLine
 10
119.5642490639
 20
143.8643035599
 30
0.0
 11
119.5642490639
 21
142.6093031598
 31
0.0
  0
LINE
  5
D9
330
1F
100
AcDbEntity
  8
0
  6
Continuous
 62
     8
370
    25
100
AcDbLine
 10
85.6659181997
 20
192.0189206459
 30
0.0
 11
86.7027405347
 21
192.0189206459
 31
0.0
  0
LINE
  5
DA
330
1F
100
AcDbEntity
  8
0
  6
Continuous
 62
     8
370
    25
100
AcDbLine
 10
95.8876684755
 20
152.6068303419
 30
0.0
 11
96.6220031295
 21
152.6068303419
 31
0.0
  0
LINE
  5
DB
330
1F
100
AcDbEntity
  8
0
  6
Continuous
 62
     8
370
    25
100
AcDbLine
 10
83.8128930157
 20
182.0081951875
 30
0.0
 11
82.6880292318
 21
182.0081951875
 31
0.0
  0
ENDSEC
  0
SECTION
  2
OBJECTS
  0
DICTIONARY
  5
C
330
0
100
AcDbDictionary
281
     1
  3
ACAD_GROUP
350
D
  3
ACAD_LAYOUT
350
1A
  3
ACAD_MLINESTYLE
350
17
  3
ACAD_PLOTSETTINGS
350
19
  3
ACAD_PLOTSTYLENAME
350
E
  3
ACAD_SCALELIST
350
47
  3
DWGPROPS
350
DC
  0
DICTIONARY
  5
D
102
{ACAD_REACTORS
330
C
102
}
330
C
100
AcDbDictionary
281
     1
  0
DICTIONARY
  5
1A
102
{ACAD_REACTORS
330
C
102
}
330
C
100
AcDbDictionary
281
     1
  3
Layout1
350
1E
  3
Layout2
350
26
  3
Model
350
22
  0
DICTIONARY
  5
17
102
{ACAD_REACTORS
330
C
102
}
330
C
100
AcDbDictionary
281
     1
  3
Standard
350
18
  0
DICTIONARY
  5
19
102
{ACAD_REACTORS
330
C
102
}
330
C
100
AcDbDictionary
281
     1
  0
ACDBDICTIONARYWDFLT
  5
E
102
{ACAD_REACTORS
330
C
102
}
330
C
100
AcDbDictionary
281
     1
  3
Normal
350
F
100
AcDbDictionaryWithDefault
340
F
  0
DICTIONARY
  5
47
102
{ACAD_REACTORS
330
C
102
}
330
C
100
AcDbDictionary
281
     1
  3
A0
350
48
  3
A1
350
49
  3
A2
350
4A
  3
A3
350
4B
  3
A4
350
4C
  3
A5
350
4D
  3
A6
350
4E
  3
A7
350
4F
  3
A8
350
50
  3
A9
350
51
  3
B0
350
52
  3
B1
350
53
  3
B2
350
54
  3
B3
350
55
  3
B4
350
56
  3
B5
350
57
  3
B6
350
58
  3
B7
350
59
  3
B8
350
5A
  3
B9
350
5B
  3
C0
350
5C
  3
C1
350
5D
  3
C2
350
5E
  3
C3
350
5F
  3
C4
350
60
  3
C5
350
61
  3
C6
350
62
  3
C7
350
63
  3
C8
350
64
  3
C9
350
65
  3
D0
350
66
  3
D1
350
67
  3
D2
350
68
  0
XRECORD
  5
DC
102
{ACAD_REACTORS
330
C
102
}
330
C
100
AcDbXrecord
280
     1
  1
DWGPROPS COOKIE
  2

  3

  4

  6

  7

  8
9128
  9

300
=
301
=
302
=
303
=
304
=
305
=
306
=
307
=
308
=
309
=
 40
0.0
 41
2459242.41611213
 42
2459242.416112338
  1

 90
        0
  0
LAYOUT
  5
1E
102
{ACAD_REACTORS
330
1A
102
}
330
1A
100
AcDbPlotSettings
  1

  2
none_device
  4

  6

 40
0.0
 41
0.0
 42
0.0
 43
0.0
 44
0.0
 45
0.0
 46
0.0
 47
0.0
 48
0.0
 49
0.0
140
0.0
141
0.0
142
1.0
143
1.0
 70
   688
 72
     1
 73
     0
 74
     5
  7

 75
    16
147
1.0
148
0.0
149
0.0
100
AcDbLayout
  1
Layout1
 70
     1
 71
     1
 10
0.0
 20
0.0
 11
420.0
 21
297.0
 12
0.0
 22
0.0
 32
0.0
 14
1.0000000000E+20
 24
1.0000000000E+20
 34
1.0000000000E+20
 15
-1.0000000000E+20
 25
-1.0000000000E+20
 35
-1.0000000000E+20
146
0.0
 13
0.0
 23
0.0
 33
0.0
 16
1.0
 26
0.0
 36
0.0
 17
0.0
 27
1.0
 37
0.0
 76
     0
330
1B
  0
LAYOUT
  5
26
102
{ACAD_REACTORS
330
1A
102
}
330
1A
100
AcDbPlotSettings
  1

  2
none_device
  4

  6

 40
0.0
 41
0.0
 42
0.0
 43
0.0
 44
0.0
 45
0.0
 46
0.0
 47
0.0
 48
0.0
 49
0.0
140
0.0
141
0.0
142
1.0
143
1.0
 70
   688
 72
     1
 73
     0
 74
     5
  7

 75
    16
147
1.0
148
0.0
149
0.0
100
AcDbLayout
  1
Layout2
 70
     1
 71
     2
 10
0.0
 20
0.0
 11
0.0
 21
0.0
 12
0.0
 22
0.0
 32
0.0
 14
0.0
 24
0.0
 34
0.0
 15
0.0
 25
0.0
 35
0.0
146
0.0
 13
0.0
 23
0.0
 33
0.0
 16
1.0
 26
0.0
 36
0.0
 17
0.0
 27
1.0
 37
0.0
 76
     0
330
23
  0
LAYOUT
  5
22
102
{ACAD_REACTORS
330
1A
102
}
330
1A
100
AcDbPlotSettings
  1

  2
none_device
  4
Letter_(8.50_x_11.00_Inches)
  6

 40
6.35
 41
6.35
 42
6.35000508
 43
6.35000508
 44
215.9
 45
279.4
 46
0.0
 47
0.0
 48
0.0
 49
0.0
140
0.0
141
0.0
142
1.0
143
1.0
 70
  1712
 72
     1
 73
     0
 74
     0
  7

 75
     0
147
1.0
148
0.0
149
0.0
100
AcDbLayout
  1
Model
 70
     1
 71
     0
 10
0.0
 20
0.0
 11
210.0
 21
297.0
 12
0.0
 22
0.0
 32
0.0
 14
0.0
 24
0.0
 34
0.0
 15
210.0
 25
297.0
 35
0.0
146
0.0
 13
0.0
 23
0.0
 33
0.0
 16
1.0
 26
0.0
 36
0.0
 17
0.0
 27
1.0
 37
0.0
 76
     0
330
1F
331
29
  0
MLINESTYLE
  5
18
102
{ACAD_REACTORS
330
17
102
}
330
17
100
AcDbMlineStyle
  2
Standard
 70
     0
  3

 62
   256
 51
90.0
 52
90.0
 71
     2
 49
0.5
 62
   256
  6
BYLAYER
 49
-0.5
 62
   256
  6
BYLAYER
  0
ACDBPLACEHOLDER
  5
F
102
{ACAD_REACTORS
330
E
102
}
330
E
  0
SCALE
  5
48
102
{ACAD_REACTORS
330
47
102
}
330
47
100
AcDbScale
 70
     0
300
1:1
140
1.0
141
1.0
290
     1
  0
SCALE
  5
49
102
{ACAD_REACTORS
330
47
102
}
330
47
100
AcDbScale
 70
     0
300
1:2
140
1.0
141
2.0
290
     0
  0
SCALE
  5
4A
102
{ACAD_REACTORS
330
47
102
}
330
47
100
AcDbScale
 70
     0
300
1:4
140
1.0
141
4.0
290
     0
  0
SCALE
  5
4B
102
{ACAD_REACTORS
330
47
102
}
330
47
100
AcDbScale
 70
     0
300
1:5
140
1.0
141
5.0
290
     0
  0
SCALE
  5
4C
102
{ACAD_REACTORS
330
47
102
}
330
47
100
AcDbScale
 70
     0
300
1:8
140
1.0
141
8.0
290
     0
  0
SCALE
  5
4D
102
{ACAD_REACTORS
330
47
102
}
330
47
100
AcDbScale
 70
     0
300
1:10
140
1.0
141
10.0
290
     0
  0
SCALE
  5
4E
102
{ACAD_REACTORS
330
47
102
}
330
47
100
AcDbScale
 70
     0
300
1:16
140
1.0
141
16.0
290
     0
  0
SCALE
  5
4F
102
{ACAD_REACTORS
330
47
102
}
330
47
100
AcDbScale
 70
     0
300
1:20
140
1.0
141
20.0
290
     0
  0
SCALE
  5
50
102
{ACAD_REACTORS
330
47
102
}
330
47
100
AcDbScale
 70
     0
300
1:30
140
1.0
141
30.0
290
     0
  0
SCALE
  5
51
102
{ACAD_REACTORS
330
47
102
}
330
47
100
AcDbScale
 70
     0
300
1:40
140
1.0
141
40.0
290
     0
  0
SCALE
  5
52
102
{ACAD_REACTORS
330
47
102
}
330
47
100
AcDbScale
 70
     0
300
1:50
140
1.0
141
50.0
290
     0
  0
SCALE
  5
53
102
{ACAD_REACTORS
330
47
102
}
330
47
100
AcDbScale
 70
     0
300
1:100
140
1.0
141
100.0
290
     0
  0
SCALE
  5
54
102
{ACAD_REACTORS
330
47
102
}
330
47
100
AcDbScale
 70
     0
300
2:1
140
2.0
141
1.0
290
     0
  0
SCALE
  5
55
102
{ACAD_REACTORS
330
47
102
}
330
47
100
AcDbScale
 70
     0
300
4:1
140
4.0
141
1.0
290
     0
  0
SCALE
  5
56
102
{ACAD_REACTORS
330
47
102
}
330
47
100
AcDbScale
 70
     0
300
8:1
140
8.0
141
1.0
290
     0
  0
SCALE
  5
57
102
{ACAD_REACTORS
330
47
102
}
330
47
100
AcDbScale
 70
     0
300
10:1
140
10.0
141
1.0
290
     0
  0
SCALE
  5
58
102
{ACAD_REACTORS
330
47
102
}
330
47
100
AcDbScale
 70
     0
300
100:1
140
100.0
141
1.0
290
     0
  0
SCALE
  5
59
102
{ACAD_REACTORS
330
47
102
}
330
47
100
AcDbScale
 70
     0
300
1/128" = 1'-0"
140
0.0078125
141
12.0
290
     0
  0
SCALE
  5
5A
102
{ACAD_REACTORS
330
47
102
}
330
47
100
AcDbScale
 70
     0
300
1/64" = 1'-0"
140
0.015625
141
12.0
290
     0
  0
SCALE
  5
5B
102
{ACAD_REACTORS
330
47
102
}
330
47
100
AcDbScale
 70
     0
300
1/32" = 1'-0"
140
0.03125
141
12.0
290
     0
  0
SCALE
  5
5C
102
{ACAD_REACTORS
330
47
102
}
330
47
100
AcDbScale
 70
     0
300
1/16" = 1'-0"
140
0.0625
141
12.0
290
     0
  0
SCALE
  5
5D
102
{ACAD_REACTORS
330
47
102
}
330
47
100
AcDbScale
 70
     0
300
3/32" = 1'-0"
140
0.09375
141
12.0
290
     0
  0
SCALE
  5
5E
102
{ACAD_REACTORS
330
47
102
}
330
47
100
AcDbScale
 70
     0
300
1/8" = 1'-0"
140
0.125
141
12.0
290
     0
  0
SCALE
  5
5F
102
{ACAD_REACTORS
330
47
102
}
330
47
100
AcDbScale
 70
     0
300
3/16" = 1'-0"
140
0.1875
141
12.0
290
     0
  0
SCALE
  5
60
102
{ACAD_REACTORS
330
47
102
}
330
47
100
AcDbScale
 70
     0
300
1/4" = 1'-0"
140
0.25
141
12.0
290
     0
  0
SCALE
  5
61
102
{ACAD_REACTORS
330
47
102
}
330
47
100
AcDbScale
 70
     0
300
3/8" = 1'-0"
140
0.375
141
12.0
290
     0
  0
SCALE
  5
62
102
{ACAD_REACTORS
330
47
102
}
330
47
100
AcDbScale
 70
     0
300
1/2" = 1'-0"
140
0.5
141
12.0
290
     0
  0
SCALE
  5
63
102
{ACAD_REACTORS
330
47
102
}
330
47
100
AcDbScale
 70
     0
300
3/4" = 1'-0"
140
0.75
141
12.0
290
     0
  0
SCALE
  5
64
102
{ACAD_REACTORS
330
47
102
}
330
47
100
AcDbScale
 70
     0
300
1" = 1'-0"
140
1.0
141
12.0
290
     0
  0
SCALE
  5
65
102
{ACAD_REACTORS
330
47
102
}
330
47
100
AcDbScale
 70
     0
300
1-1/2" = 1'-0"
140
1.5
141
12.0
290
     0
  0
SCALE
  5
66
102
{ACAD_REACTORS
330
47
102
}
330
47
100
AcDbScale
 70
     0
300
3" = 1'-0"
140
3.0
141
12.0
290
     0
  0
SCALE
  5
67
102
{ACAD_REACTORS
330
47
102
}
330
47
100
AcDbScale
 70
     0
300
6" = 1'-0"
140
6.0
141
12.0
290
     0
  0
SCALE
  5
68
102
{ACAD_REACTORS
330
47
102
}
330
47
100
AcDbScale
 70
     0
300
1'-0" = 1'-0"
140
12.0
141
12.0
290
     0
  0
ENDSEC
  0
EOF
