  0
SECTION
  2
HEADER
  9
$ACADVER
  1
AC1015
  9
$ACADMAINTVER
 70
     6
  9
$DWGCODEPAGE
  3
DOS932
  9
$INSBASE
 10
0.0
 20
0.0
 30
0.0
  9
$EXTMIN
 10
0.0
 20
0.0
 30
0.0
  9
$EXTMAX
 10
1050.0
 20
1485.0
 30
0.0
  9
$LIMMIN
 10
0.0
 20
0.0
  9
$LIMMAX
 10
1050.0
 20
1485.0
  9
$ORTHOMODE
 70
     0
  9
$REGENMODE
 70
     1
  9
$FILLMODE
 70
     1
  9
$QTEXTMODE
 70
     0
  9
$MIRRTEXT
 70
     1
  9
$LTSCALE
 40
5.0
  9
$ATTMODE
 70
     1
  9
$TEXTSIZE
 40
17.5
  9
$TRACEWID
 40
1.0
  9
$TEXTSTYLE
  7
STANDARD
  9
$CLAYER
  8
0
  9
$CELTYPE
  6
ByLayer
  9
$CECOLOR
 62
   256
  9
$CELTSCALE
 40
1.0
  9
$DISPSILH
 70
     0
  9
$DIMSCALE
 40
1.0
  9
$DIMASZ
 40
16.51
  9
$DIMEXO
 40
5.0
  9
$DIMDLI
 40
3.75
  9
$DIMRND
 40
0.0
  9
$DIMDLE
 40
0.0
  9
$DIMEXE
 40
5.0
  9
$DIMTP
 40
0.0
  9
$DIMTM
 40
0.0
  9
$DIMTXT
 40
17.5
  9
$DIMCEN
 40
2.5
  9
$DIMTSZ
 40
0.0
  9
$DIMTOL
 70
     0
  9
$DIMLIM
 70
     0
  9
$DIMTIH
 70
     1
  9
$DIMTOH
 70
     1
  9
$DIMSE1
 70
     0
  9
$DIMSE2
 70
     0
  9
$DIMTAD
 70
     1
  9
$DIMZIN
 70
     1
  9
$DIMBLK
  1

  9
$DIMASO
 70
     1
  9
$DIMSHO
 70
     1
  9
$DIMPOST
  1

  9
$DIMAPOST
  1

  9
$DIMALT
 70
     0
  9
$DIMALTD
 70
     3
  9
$DIMALTF
 40
0.0393700787
  9
$DIMLFAC
 40
1.0
  9
$DIMTOFL
 70
     1
  9
$DIMTVP
 40
0.0
  9
$DIMTIX
 70
     0
  9
$DIMSOXD
 70
     0
  9
$DIMSAH
 70
     0
  9
$DIMBLK1
  1

  9
$DIMBLK2
  1

  9
$DIMSTYLE
  2
ISO-25
  9
$DIMCLRD
 70
     0
  9
$DIMCLRE
 70
     0
  9
$DIMCLRT
 70
     0
  9
$DIMTFAC
 40
1.0
  9
$DIMGAP
 40
7.62
  9
$DIMJUST
 70
     0
  9
$DIMSD1
 70
     0
  9
$DIMSD2
 70
     0
  9
$DIMTOLJ
 70
     0
  9
$DIMTZIN
 70
     1
  9
$DIMALTZ
 70
     0
  9
$DIMALTTZ
 70
     0
  9
$DIMUPT
 70
     0
  9
$DIMDEC
 70
     2
  9
$DIMTDEC
 70
     2
  9
$DIMALTU
 70
     2
  9
$DIMALTTD
 70
     3
  9
$DIMTXSTY
  7
STANDARD
  9
$DIMAUNIT
 70
     0
  9
$DIMADEC
 70
     2
  9
$DIMALTRND
 40
0.0
  9
$DIMAZIN
 70
     0
  9
$DIMDSEP
 70
    44
  9
$DIMATFIT
 70
     3
  9
$DIMFRAC
 70
     0
  9
$DIMLDRBLK
  1

  9
$DIMLUNIT
 70
     2
  9
$DIMLWD
 70
    -2
  9
$DIMLWE
 70
    -2
  9
$DIMTMOVE
 70
     0
  9
$LUNITS
 70
     2
  9
$LUPREC
 70
     2
  9
$SKETCHINC
 40
1.0
  9
$FILLETRAD
 40
10.0
  9
$AUNITS
 70
     0
  9
$AUPREC
 70
     2
  9
$MENU
  1
.
  9
$ELEVATION
 40
0.0
  9
$PELEVATION
 40
0.0
  9
$THICKNESS
 40
0.0
  9
$LIMCHECK
 70
     0
  9
$CHAMFERA
 40
0.0
  9
$CHAMFERB
 40
0.0
  9
$CHAMFERC
 40
0.0
  9
$CHAMFERD
 40
0.0
  9
$SKPOLY
 70
     0
  9
$TDCREATE
 40
2459195.674011123
  9
$TDUCREATE
 40
2459195.299011123
  9
$TDUPDATE
 40
2459195.674011609
  9
$TDUUPDATE
 40
2459195.299011609
  9
$TDINDWG
 40
0.0000000116
  9
$TDUSRTIMER
 40
0.0000000116
  9
$USRTIMER
 70
     1
  9
$ANGBASE
 50
0.0
  9
$ANGDIR
 70
     0
  9
$PDMODE
 70
     0
  9
$PDSIZE
 40
-1.0
  9
$PLINEWID
 40
0.0
  9
$SPLFRAME
 70
     0
  9
$SPLINETYPE
 70
     6
  9
$SPLINESEGS
 70
     8
  9
$HANDSEED
  5
12C
  9
$SURFTAB1
 70
     6
  9
$SURFTAB2
 70
     6
  9
$SURFTYPE
 70
     6
  9
$SURFU
 70
     6
  9
$SURFV
 70
     6
  9
$UCSBASE
  2

  9
$UCSNAME
  2

  9
$UCSORG
 10
0.0
 20
0.0
 30
0.0
  9
$UCSXDIR
 10
1.0
 20
0.0
 30
0.0
  9
$UCSYDIR
 10
0.0
 20
1.0
 30
0.0
  9
$UCSORTHOREF
  2

  9
$UCSORTHOVIEW
 70
     0
  9
$UCSORGTOP
 10
0.0
 20
0.0
 30
0.0
  9
$UCSORGBOTTOM
 10
0.0
 20
0.0
 30
0.0
  9
$UCSORGLEFT
 10
0.0
 20
0.0
 30
0.0
  9
$UCSORGRIGHT
 10
0.0
 20
0.0
 30
0.0
  9
$UCSORGFRONT
 10
0.0
 20
0.0
 30
0.0
  9
$UCSORGBACK
 10
0.0
 20
0.0
 30
0.0
  9
$PUCSBASE
  2

  9
$PUCSNAME
  2

  9
$PUCSORG
 10
0.0
 20
0.0
 30
0.0
  9
$PUCSXDIR
 10
1.0
 20
0.0
 30
0.0
  9
$PUCSYDIR
 10
0.0
 20
1.0
 30
0.0
  9
$PUCSORTHOREF
  2

  9
$PUCSORTHOVIEW
 70
     0
  9
$PUCSORGTOP
 10
0.0
 20
0.0
 30
0.0
  9
$PUCSORGBOTTOM
 10
0.0
 20
0.0
 30
0.0
  9
$PUCSORGLEFT
 10
0.0
 20
0.0
 30
0.0
  9
$PUCSORGRIGHT
 10
0.0
 20
0.0
 30
0.0
  9
$PUCSORGFRONT
 10
0.0
 20
0.0
 30
0.0
  9
$PUCSORGBACK
 10
0.0
 20
0.0
 30
0.0
  9
$USERI1
 70
     0
  9
$USERI2
 70
     0
  9
$USERI3
 70
     0
  9
$USERI4
 70
     0
  9
$USERI5
 70
     0
  9
$USERR1
 40
0.0
  9
$USERR2
 40
0.0
  9
$USERR3
 40
0.0
  9
$USERR4
 40
0.0
  9
$USERR5
 40
0.0
  9
$WORLDVIEW
 70
     1
  9
$SHADEDGE
 70
     3
  9
$SHADEDIF
 70
    70
  9
$TILEMODE
 70
     1
  9
$MAXACTVP
 70
    64
  9
$PINSBASE
 10
0.0
 20
0.0
 30
0.0
  9
$PLIMCHECK
 70
     0
  9
$PEXTMIN
 10
1.0000000000E+20
 20
1.0000000000E+20
 30
1.0000000000E+20
  9
$PEXTMAX
 10
-1.0000000000E+20
 20
-1.0000000000E+20
 30
-1.0000000000E+20
  9
$PLIMMIN
 10
0.0
 20
0.0
  9
$PLIMMAX
 10
420.0
 20
297.0
  9
$UNITMODE
 70
     0
  9
$VISRETAIN
 70
     1
  9
$PLINEGEN
 70
     0
  9
$PSLTSCALE
 70
     1
  9
$TREEDEPTH
 70
  3020
  9
$CMLSTYLE
  2
Standard
  9
$CMLJUST
 70
     0
  9
$CMLSCALE
 40
20.0
  9
$PROXYGRAPHICS
 70
     1
  9
$MEASUREMENT
 70
     1
  9
$CELWEIGHT
370
    -1
  9
$ENDCAPS
280
     0
  9
$JOINSTYLE
280
     0
  9
$LWDISPLAY
290
     1
  9
$INSUNITS
 70
     4
  9
$HYPERLINKBASE
  1

  9
$STYLESHEET
  1

  9
$XEDIT
290
     1
  9
$CEPSNTYPE
380
     0
  9
$PSTYLEMODE
290
     1
  9
$FINGERPRINTGUID
  2
{20A3A3FE-5A3A-472B-9D55-AB59D4D37809}
  9
$VERSIONGUID
  2
{FAEB1C32-E019-11D5-929B-00C0DF256EC4}
  9
$EXTNAMES
290
     1
  9
$PSVPSCALE
 40
0.0
  9
$OLESTARTUP
290
     0
  0
ENDSEC
  0
SECTION
  2
CLASSES
  0
CLASS
  1
ACDBDICTIONARYWDFLT
  2
AcDbDictionaryWithDefault
  3
ObjectDBX Classes
 90
        0
280
     0
281
     0
  0
CLASS
  1
VISUALSTYLE
  2
AcDbVisualStyle
  3
ObjectDBX Classes
 90
     4095
280
     0
281
     0
  0
CLASS
  1
MATERIAL
  2
AcDbMaterial
  3
ObjectDBX Classes
 90
     1153
280
     0
281
     0
  0
CLASS
  1
SCALE
  2
AcDbScale
  3
ObjectDBX Classes
 90
     1153
280
     0
281
     0
  0
CLASS
  1
TABLESTYLE
  2
AcDbTableStyle
  3
ObjectDBX Classes
 90
     4095
280
     0
281
     0
  0
CLASS
  1
MLEADERSTYLE
  2
AcDbMLeaderStyle
  3
ACDB_MLEADERSTYLE_CLASS
 90
     4095
280
     0
281
     0
  0
CLASS
  1
SUN
  2
AcDbSun
  3
SCENEOE
 90
     1153
280
     0
281
     0
  0
CLASS
  1
ACDBPLACEHOLDER
  2
AcDbPlaceHolder
  3
ObjectDBX Classes
 90
        0
280
     0
281
     0
  0
CLASS
  1
LAYOUT
  2
AcDbLayout
  3
ObjectDBX Classes
 90
        0
280
     0
281
     0
  0
ENDSEC
  0
SECTION
  2
TABLES
  0
TABLE
  2
VPORT
  5
8
330
0
100
AcDbSymbolTable
 70
     1
  0
VPORT
  5
29
330
8
100
AcDbSymbolTableRecord
100
AcDbViewportTableRecord
  2
*Active
 70
     0
 10
0.0
 20
0.0
 11
1.0
 21
1.0
 12
525.0
 22
742.5
 13
0.0
 23
0.0
 14
10.0
 24
10.0
 15
10.0
 25
10.0
 16
0.0
 26
0.0
 36
1.0
 17
0.0
 27
0.0
 37
0.0
 40
1485.0
 41
0.7070707071
 42
50.0
 43
0.0
 44
0.0
 50
0.0
 51
0.0
 71
     0
 72
  2000
 73
     1
 74
     3
 75
     0
 76
     0
 77
     0
 78
     0
281
     0
 65
     1
110
0.0
120
0.0
130
0.0
111
1.0
121
0.0
131
0.0
112
0.0
122
1.0
132
0.0
 79
     0
146
0.0
  0
ENDTAB
  0
TABLE
  2
LTYPE
  5
5
330
0
100
AcDbSymbolTable
 70
     8
  0
LTYPE
  5
14
330
5
100
AcDbSymbolTableRecord
100
AcDbLinetypeTableRecord
  2
ByBlock
 70
     0
  3

 72
    65
 73
     0
 40
0.0
  0
LTYPE
  5
15
330
5
100
AcDbSymbolTableRecord
100
AcDbLinetypeTableRecord
  2
ByLayer
 70
     0
  3

 72
    65
 73
     0
 40
0.0
  0
LTYPE
  5
16
330
5
100
AcDbSymbolTableRecord
100
AcDbLinetypeTableRecord
  2
Continuous
 70
     0
  3
Solid line
 72
    65
 73
     0
 40
0.0
  0
LTYPE
  5
6E
330
5
100
AcDbSymbolTableRecord
100
AcDbLinetypeTableRecord
  2
SLD-実線
 70
     0
  3
SolidWorks Line Style
 72
    65
 73
     0
 40
0.0
  0
LTYPE
  5
6F
330
5
100
AcDbSymbolTableRecord
100
AcDbLinetypeTableRecord
  2
SLD-破線
 70
     0
  3
SolidWorks Line Style
 72
    65
 73
     2
 40
1.905
 49
1.27
 74
     0
 49
-0.635
 74
     0
  0
LTYPE
  5
70
330
5
100
AcDbSymbolTableRecord
100
AcDbLinetypeTableRecord
  2
SLD-2点鎖線
 70
     0
  3
SolidWorks Line Style
 72
    65
 73
     6
 40
12.7
 49
6.35
 74
     0
 49
-1.27
 74
     0
 49
1.27
 74
     0
 49
-1.27
 74
     0
 49
1.27
 74
     0
 49
-1.27
 74
     0
  0
LTYPE
  5
71
330
5
100
AcDbSymbolTableRecord
100
AcDbLinetypeTableRecord
  2
SLD-鎖線
 70
     0
  3
SolidWorks Line Style
 72
    65
 73
     4
 40
10.16
 49
6.35
 74
     0
 49
-1.27
 74
     0
 49
1.27
 74
     0
 49
-1.27
 74
     0
  0
LTYPE
  5
72
330
5
100
AcDbSymbolTableRecord
100
AcDbLinetypeTableRecord
  2
SLD-1点鎖線(中心線)
 70
     0
  3
SolidWorks Line Style
 72
    65
 73
     4
 40
34.29
 49
30.48
 74
     0
 49
-1.27
 74
     0
 49
1.27
 74
     0
 49
-1.27
 74
     0
  0
LTYPE
  5
73
330
5
100
AcDbSymbolTableRecord
100
AcDbLinetypeTableRecord
  2
SLD-点線
 70
     0
  3
SolidWorks Line Style
 72
    65
 73
     2
 40
0.635
 49
0.0
 74
     0
 49
-0.635
 74
     0
  0
LTYPE
  5
74
330
5
100
AcDbSymbolTableRecord
100
AcDbLinetypeTableRecord
  2
SLD-細-太鎖線(切断面)
 70
     0
  3
SolidWorks Line Style
 72
    65
 73
     4
 40
10.16
 49
6.35
 74
     0
 49
-1.27
 74
     0
 49
1.27
 74
     0
 49
-1.27
 74
     0
  0
ENDTAB
  0
TABLE
  2
LAYER
  5
2
330
0
100
AcDbSymbolTable
 70
     1
  0
LAYER
  5
10
330
2
100
AcDbSymbolTableRecord
100
AcDbLayerTableRecord
  2
0
 70
     0
 62
     7
  6
Continuous
370
    -3
390
F
  0
ENDTAB
  0
TABLE
  2
STYLE
  5
3
330
0
100
AcDbSymbolTable
 70
     2
  0
STYLE
  5
11
330
3
100
AcDbSymbolTableRecord
100
AcDbTextStyleTableRecord
  2
STANDARD
 70
     0
 40
0.0
 41
1.0
 50
0.0
 71
     0
 42
17.5
  3
MSGOTHIC.TTC
  4

1001
ACAD
1000
ＭＳ Ｐゴシック
1071
    32818
  0
STYLE
  5
12A
330
3
100
AcDbSymbolTableRecord
100
AcDbTextStyleTableRecord
  2
SLDTEXTSTYLE0
 70
     0
 40
0.0
 41
1.0
 50
0.0
 71
     0
 42
17.5
  3
MSGOTHIC.TTC
  4

1001
ACAD
1000
ＭＳ Ｐゴシック
1071
      306
  0
ENDTAB
  0
TABLE
  2
VIEW
  5
6
330
0
100
AcDbSymbolTable
 70
     0
  0
ENDTAB
  0
TABLE
  2
UCS
  5
7
330
0
100
AcDbSymbolTable
 70
     0
  0
ENDTAB
  0
TABLE
  2
APPID
  5
9
330
0
100
AcDbSymbolTable
 70
     1
  0
APPID
  5
12
330
9
100
AcDbSymbolTableRecord
100
AcDbRegAppTableRecord
  2
ACAD
 70
     0
  0
ENDTAB
  0
TABLE
  2
DIMSTYLE
  5
A
330
0
100
AcDbSymbolTable
 70
     1
100
AcDbDimStyleTable
  0
DIMSTYLE
105
27
330
A
100
AcDbSymbolTableRecord
100
AcDbDimStyleTableRecord
  2
ISO-25
 70
     0
 41
2.5
 42
0.625
 43
3.75
 44
1.25
 73
     0
 74
     0
 77
     1
 78
     8
140
2.5
141
2.5
143
0.0393700787
147
0.625
171
     3
172
     1
178
     0
271
     2
272
     2
274
     3
278
    44
283
     0
284
     8
340
11
  0
ENDTAB
  0
TABLE
  2
BLOCK_RECORD
  5
1
330
0
100
AcDbSymbolTable
 70
     1
  0
BLOCK_RECORD
  5
1F
330
1
100
AcDbSymbolTableRecord
100
AcDbBlockTableRecord
  2
*Model_Space
340
22
  0
BLOCK_RECORD
  5
1B
330
1
100
AcDbSymbolTableRecord
100
AcDbBlockTableRecord
  2
*Paper_Space
340
1E
  0
BLOCK_RECORD
  5
23
330
1
100
AcDbSymbolTableRecord
100
AcDbBlockTableRecord
  2
*Paper_Space0
340
26
  0
ENDTAB
  0
ENDSEC
  0
SECTION
  2
BLOCKS
  0
BLOCK
  5
20
330
1F
100
AcDbEntity
  8
0
100
AcDbBlockBegin
  2
*Model_Space
 70
     0
 10
0.0
 20
0.0
 30
0.0
  3
*Model_Space
  1

  0
ENDBLK
  5
21
330
1F
100
AcDbEntity
  8
0
100
AcDbBlockEnd
  0
BLOCK
  5
1C
330
1B
100
AcDbEntity
 67
     1
  8
0
100
AcDbBlockBegin
  2
*Paper_Space
 70
     0
 10
0.0
 20
0.0
 30
0.0
  3
*Paper_Space
  1

  0
ENDBLK
  5
1D
330
1B
100
AcDbEntity
 67
     1
  8
0
100
AcDbBlockEnd
  0
BLOCK
  5
24
330
23
100
AcDbEntity
  8
0
100
AcDbBlockBegin
  2
*Paper_Space0
 70
     0
 10
0.0
 20
0.0
 30
0.0
  3
*Paper_Space0
  1

  0
ENDBLK
  5
25
330
23
100
AcDbEntity
  8
0
100
AcDbBlockEnd
  0
ENDSEC
  0
SECTION
  2
ENTITIES
  0
SPLINE
  5
75
330
1F
100
AcDbEntity
  8
0
  6
SLD-実線
 62
     7
370
    25
100
AcDbSpline
210
0.0
220
0.0
230
1.0
 70
     8
 71
     3
 72
    15
 73
    11
 74
     0
 42
0.000000001
 43
0.00000001
 40
0.0
 40
0.0
 40
0.0
 40
0.0
 40
0.0838690973862177
 40
0.2015584688483684
 40
0.3217831083992228
 40
0.4536877198759401
 40
0.5967347982785536
 40
0.7422151002207538
 40
0.8907497616186384
 40
0.9999999999999999
 40
0.9999999999999999
 40
0.9999999999999999
 40
0.9999999999999999
 10
532.0340781017517
 20
1125.965605698614
 30
0.0
 10
531.7908276783286
 20
1125.791150970549
 30
0.0
 10
531.206235922606
 20
1125.37189251937
 30
0.0
 10
530.6812892899696
 20
1124.323817456022
 30
0.0
 10
530.4155216469178
 20
1123.037599899062
 30
0.0
 10
530.5185308337858
 20
1121.574292070412
 30
0.0
 10
531.0023972351514
 20
1120.005673489247
 30
0.0
 10
531.8641960408554
 20
1118.483709685952
 30
0.0
 10
532.9095685016981
 20
1117.281625949235
 30
0.0
 10
533.6999154015984
 20
1116.756221269264
 30
0.0
 10
534.0348674771158
 20
1116.533552732113
 30
0.0
  0
SPLINE
  5
76
330
1F
100
AcDbEntity
  8
0
  6
SLD-実線
 62
     7
370
    25
100
AcDbSpline
210
0.0
220
0.0
230
1.0
 70
     8
 71
     3
 72
    11
 73
     7
 74
     0
 42
0.000000001
 43
0.00000001
 40
0.0
 40
0.0
 40
0.0
 40
0.0
 40
0.2510476593281981
 40
0.6056503733395475
 40
0.9424122185368846
 40
1.0
 40
1.0
 40
1.0
 40
1.0
 10
534.0348674771158
 20
1116.533552732113
 30
0.0
 10
534.322092010411
 20
1116.386238725925
 30
0.0
 10
535.0150187888879
 20
1116.03084492108
 30
0.0
 10
536.1771850586508
 20
1115.859915302398
 30
0.0
 10
537.1715659494206
 20
1115.9230945809
 30
0.0
 10
537.5825013710415
 20
1116.200876881719
 30
0.0
 10
537.642511214226
 20
1116.241442068935
 30
0.0
  0
LINE
  5
77
330
1F
100
AcDbEntity
  8
0
  6
SLD-実線
 62
     7
370
    25
100
AcDbLine
 10
533.2125174314
 20
1126.9000216276
 30
0.0
 11
531.9797860462
 21
1126.0002558087
 31
0.0
  0
LINE
  5
78
330
1F
100
AcDbEntity
  8
0
  6
SLD-実線
 62
     7
370
    25
100
AcDbLine
 10
537.6385703741
 20
1116.1979085527
 30
0.0
 11
539.0342026216
 21
1116.8154850467
 31
0.0
  0
LINE
  5
79
330
1F
100
AcDbEntity
  8
0
  6
SLD-実線
 62
     7
370
    25
100
AcDbLine
 10
540.3641221425
 20
1120.4570009968
 30
0.0
 11
545.0414389008
 21
1123.1571584869
 31
0.0
  0
LINE
  5
7A
330
1F
100
AcDbEntity
  8
0
  6
SLD-実線
 62
     7
370
    25
100
AcDbLine
 10
541.7083763938
 20
1128.930818508
 30
0.0
 11
537.0310596356
 21
1126.230661018
 31
0.0
  0
LINE
  5
7B
330
1F
100
AcDbEntity
  8
0
  6
SLD-実線
 62
     7
370
    25
100
AcDbLine
 10
601.7527489861
 20
1136.6650816106
 30
0.0
 11
600.5742374909
 21
1137.3454218153
 31
0.0
  0
LINE
  5
7C
330
1F
100
AcDbEntity
  8
0
  6
SLD-実線
 62
     7
370
    25
100
AcDbLine
 10
526.2984336723
 20
1178.889623612
 30
0.0
 11
510.388525195
 21
1169.7050289477
 31
0.0
  0
LINE
  5
7D
330
1F
100
AcDbEntity
  8
0
  6
SLD-実線
 62
     7
370
    25
100
AcDbLine
 10
507.8765818044
 20
1168.2284674507
 30
0.0
 11
507.8765818044
 21
492.5409600209
 31
0.0
  0
LINE
  5
7E
330
1F
100
AcDbEntity
  8
0
  6
SLD-実線
 62
     7
370
    25
100
AcDbLine
 10
529.8635609528
 20
1178.165826494
 30
0.0
 11
528.6850494576
 21
1178.8461666987
 31
0.0
  0
LINE
  5
7F
330
1F
100
AcDbEntity
  8
0
  6
SLD-実線
 62
     7
370
    25
100
AcDbLine
 10
240.4137397645
 20
444.236817209
 30
0.0
 11
240.4137397645
 21
441.5150143734
 31
0.0
  0
LINE
  5
80
330
1F
100
AcDbEntity
  8
0
  6
SLD-実線
 62
     7
370
    25
100
AcDbLine
 10
787.4104903456
 20
461.925211327
 30
0.0
 11
787.4104903456
 21
464.6470141626
 31
0.0
  0
LWPOLYLINE
  5
81
330
1F
100
AcDbEntity
  8
0
  6
SLD-実線
 62
     7
370
    25
100
AcDbPolyline
 90
       17
 70
   128
 43
0.0
 10
533.6445349763
 20
1117.0752113084
 10
534.7552226296
 20
1116.6891349254
 10
535.6968181419
 20
1116.8720792341
 10
536.3259720829
 20
1117.5961963763
 10
536.546901692
 20
1118.7512632796
 10
536.3259720829
 20
1120.1613695219
 10
535.6968181419
 20
1121.6118923424
 10
534.7552226296
 20
1122.8819796892
 10
533.6445349763
 20
1123.7782759746
 10
532.5338473231
 20
1124.1643523576
 10
531.5922518108
 20
1123.9814080488
 10
530.9630978698
 20
1123.2572909066
 10
530.7421682607
 20
1122.1022645614
 10
530.9630978698
 20
1120.692117761
 10
531.5922518108
 20
1119.2415949405
 10
532.5338473231
 20
1117.9715075938
 10
533.6445349763
 20
1117.0752113084
  0
LWPOLYLINE
  5
82
330
1F
100
AcDbEntity
  8
0
  6
SLD-実線
 62
     7
370
    25
100
AcDbPolyline
 90
       12
 70
   128
 43
0.0
 10
539.0342026216
 20
1116.8154850467
 10
539.7569609814
 20
1117.3632830753
 10
540.3023977262
 20
1118.4843253155
 10
540.4145267276
 20
1119.9822140486
 10
540.0811978394
 20
1121.6946336678
 10
539.3385316792
 20
1123.4360260615
 10
538.2670082852
 20
1125.0176941136
 10
536.9827435284
 20
1126.2681686546
 10
535.6249074826
 20
1127.0520307188
 10
534.3406427259
 20
1127.2843367041
 10
533.2691193319
 20
1126.9398232292
 10
533.2125174314
 20
1126.9000216276
  0
ARC
  5
83
330
1F
100
AcDbEntity
  8
0
  6
SLD-実線
 62
     7
370
    25
100
AcDbCircle
 10
538.9911507118
 20
1129.8914471304
 30
0.0
 40
11.6768199921773
100
AcDbArc
 50
229.0676423489
 51
238.2305143287
  0
ARC
  5
84
330
1F
100
AcDbEntity
  8
0
  6
SLD-実線
 62
     7
370
    25
100
AcDbCircle
 10
544.5153301402
 20
1120.3252030096
 30
0.0
 40
11.67764482498036
100
AcDbArc
 50
181.7718812077
 51
190.9350549854
  0
ARC
  5
85
330
1F
100
AcDbEntity
  8
0
  6
SLD-実線
 62
     7
370
    25
100
AcDbCircle
 10
540.377540771
 20
1129.8509036189
 30
0.0
 40
13.84000876378451
100
AcDbArc
 50
238.0305770233
 51
241.9747995094
  0
ARC
  5
86
330
1F
100
AcDbEntity
  8
0
  6
SLD-実線
 62
     7
370
    25
100
AcDbCircle
 10
545.3402880222
 20
1119.8489649613
 30
0.0
 40
11.67764482498765
100
AcDbArc
 50
181.7718812077
 51
190.9350549854
  0
ARC
  5
87
330
1F
100
AcDbEntity
  8
0
  6
SLD-実線
 62
     7
370
    25
100
AcDbCircle
 10
541.5055205902
 20
1134.2465969961
 30
0.0
 40
16.71055419926841
100
AcDbArc
 50
242.0304257571
 51
249.2441205125
  0
ARC
  5
88
330
1F
100
AcDbEntity
  8
0
  6
SLD-実線
 62
     7
370
    25
100
AcDbCircle
 10
549.4159665971
 20
1119.0968904005
 30
0.0
 40
13.84064749307985
100
AcDbArc
 50
178.0278280234
 51
181.9721719766
  0
ARC
  5
89
330
1F
100
AcDbEntity
  8
0
  6
SLD-実線
 62
     7
370
    25
100
AcDbCircle
 10
541.5055205902
 20
1135.1992237901
 30
0.0
 40
16.71055419918327
100
AcDbArc
 50
242.0304257571
 51
249.2441205125
  0
ARC
  5
8A
330
1F
100
AcDbEntity
  8
0
  6
SLD-実線
 62
     7
370
    25
100
AcDbCircle
 10
550.369401094
 20
1119.8491746171
 30
0.0
 40
16.71163988701308
100
AcDbArc
 50
170.7584743249
 51
177.972164577
  0
ARC
  5
8B
330
1F
100
AcDbEntity
  8
0
  6
SLD-実線
 62
     7
370
    25
100
AcDbCircle
 10
540.3775407709
 20
1134.750150307
 30
0.0
 40
13.84000876352571
100
AcDbArc
 50
238.0305770233
 51
241.9747995094
  0
ARC
  5
8C
330
1F
100
AcDbEntity
  8
0
  6
SLD-実線
 62
     7
370
    25
100
AcDbCircle
 10
549.544443212
 20
1120.3254126654
 30
0.0
 40
16.71163988700142
100
AcDbArc
 50
170.7584743249
 51
177.972164577
  0
ARC
  5
8D
330
1F
100
AcDbEntity
  8
0
  6
SLD-実線
 62
     7
370
    25
100
AcDbCircle
 10
538.9911507118
 20
1130.8440739245
 30
0.0
 40
11.67681999222672
100
AcDbArc
 50
229.0676423489
 51
238.2305143287
  0
ARC
  5
8E
330
1F
100
AcDbEntity
  8
0
  6
SLD-実線
 62
     7
370
    25
100
AcDbCircle
 10
545.1733259831
 20
1121.5461146939
 30
0.0
 40
13.84064749324346
100
AcDbArc
 50
178.0278280234
 51
181.9721719766
  0
LINE
  5
8F
330
1F
100
AcDbEntity
  8
0
  6
SLD-実線
 62
     7
370
    25
100
AcDbLine
 10
534.5578062836
 20
1120.0014327787
 30
0.0
 11
533.668226801
 21
1119.4878894745
 31
0.0
  0
LINE
  5
90
330
1F
100
AcDbEntity
  8
0
  6
SLD-実線
 62
     7
370
    25
100
AcDbLine
 10
533.7326727897
 20
1121.4301962424
 30
0.0
 11
532.843268919
 21
1120.9167543168
 31
0.0
  0
LINE
  5
91
330
1F
100
AcDbEntity
  8
0
  6
SLD-実線
 62
     7
370
    25
100
AcDbLine
 10
532.0310666326
 20
1121.4682393682
 30
0.0
 11
531.3408768659
 21
1121.0698012968
 31
0.0
  0
LINE
  5
92
330
1F
100
AcDbEntity
  8
0
  6
SLD-実線
 62
     7
370
    25
100
AcDbLine
 10
533.6683812846
 20
1120.4404547524
 30
0.0
 11
532.843268919
 21
1119.9641275227
 31
0.0
  0
LINE
  5
93
330
1F
100
AcDbEntity
  8
0
  6
SLD-実線
 62
     7
370
    25
100
AcDbLine
 10
533.7398026316
 20
1118.5083754713
 30
0.0
 11
533.049718232
 21
1118.1099982271
 31
0.0
  0
ARC
  5
94
330
1F
100
AcDbEntity
  8
0
  6
SLD-実線
 62
     7
370
    25
100
AcDbCircle
 10
579.9087576621
 20
1130.4796248261
 30
0.0
 40
3.842509001515517
100
AcDbArc
 50
242.6093279909
 51
297.3905898635
  0
LINE
  5
95
330
1F
100
AcDbEntity
  8
0
  6
SLD-実線
 62
     7
370
    25
100
AcDbLine
 10
581.6765191664
 20
1127.0678958377
 30
0.0
 11
581.6765191664
 21
451.3803884079
 31
0.0
  0
ARC
  5
96
330
1F
100
AcDbEntity
  8
0
  6
SLD-実線
 62
     7
370
    25
100
AcDbCircle
 10
579.9087576621
 20
454.7921173964
 30
0.0
 40
3.842509001516225
100
AcDbArc
 50
242.6093279909
 51
297.3905898635
  0
LINE
  5
97
330
1F
100
AcDbEntity
  8
0
  6
SLD-実線
 62
     7
370
    25
100
AcDbLine
 10
578.1409912664
 20
451.3803909424
 30
0.0
 11
578.1409912664
 21
1127.0678983722
 31
0.0
  0
LINE
  5
98
330
1F
100
AcDbEntity
  8
0
  6
SLD-実線
 62
     7
370
    25
100
AcDbLine
 10
579.3194873955
 20
1127.7482297062
 30
0.0
 11
578.1409912664
 21
1127.0678983722
 31
0.0
  0
ARC
  5
99
330
1F
100
AcDbEntity
  8
0
  6
SLD-実線
 62
     7
370
    25
100
AcDbCircle
 10
579.9087414188
 20
1128.8855403418
 30
0.0
 40
1.280896477390976
100
AcDbArc
 50
242.610794579
 51
297.3898215076
  0
LINE
  5
9A
330
1F
100
AcDbEntity
  8
0
  6
SLD-実線
 62
     7
370
    25
100
AcDbLine
 10
580.4980076712
 20
1127.7482360424
 30
0.0
 11
581.6765191664
 21
1127.0678958377
 31
0.0
  0
LINE
  5
9B
330
1F
100
AcDbEntity
  8
0
  6
SLD-実線
 62
     7
370
    25
100
AcDbLine
 10
578.1409759003
 20
1128.4285699109
 30
0.0
 11
576.9624797712
 21
1127.7482385769
 31
0.0
  0
ARC
  5
9C
330
1F
100
AcDbEntity
  8
0
  6
SLD-実線
 62
     7
370
    25
100
AcDbCircle
 10
580.800474214
 20
1127.5736283283
 30
0.0
 40
3.841964351916002
100
AcDbArc
 50
122.6052140831
 51
177.395114406
  0
LINE
  5
9D
330
1F
100
AcDbEntity
  8
0
  6
SLD-実線
 62
     7
370
    25
100
AcDbLine
 10
578.7302415261
 20
1129.4492281899
 30
0.0
 11
578.7302415261
 21
1130.810112022
 31
0.0
  0
ARC
  5
9E
330
1F
100
AcDbEntity
  8
0
  6
SLD-実線
 62
     7
370
    25
100
AcDbCircle
 10
579.4204642789
 20
1128.3703037202
 30
0.0
 40
1.280814373704347
100
AcDbArc
 50
122.608357587
 51
177.3926281423
  0
ARC
  5
9F
330
1F
100
AcDbEntity
  8
0
  6
SLD-実線
 62
     7
370
    25
100
AcDbCircle
 10
513.6253299661
 20
1166.3530136601
 30
0.0
 40
3.84196435191522
100
AcDbArc
 50
122.6052140831
 51
177.395114406
  0
LINE
  5
A0
330
1F
100
AcDbEntity
  8
0
  6
SLD-実線
 62
     7
370
    25
100
AcDbLine
 10
511.5550972782
 20
1169.5894973538
 30
0.0
 11
578.7302415261
 21
1130.810112022
 31
0.0
  0
LINE
  5
A1
330
1F
100
AcDbEntity
  8
0
  6
SLD-実線
 62
     7
370
    25
100
AcDbLine
 10
576.9624797712
 20
1127.7482385769
 30
0.0
 11
509.7873355234
 21
1166.5276239087
 31
0.0
  0
ARC
  5
A2
330
1F
100
AcDbEntity
  8
0
  6
SLD-実線
 62
     7
370
    25
100
AcDbCircle
 10
576.7979815171
 20
1127.7893627641
 30
0.0
 40
3.585882711552245
100
AcDbArc
 50
2.605654672
 51
57.3944775149
  0
LINE
  5
A3
330
1F
100
AcDbEntity
  8
0
  6
SLD-実線
 62
     7
370
    25
100
AcDbLine
 10
579.2016452461
 20
1128.6327228589
 30
0.0
 11
580.3801567412
 21
1127.9523826542
 31
0.0
  0
ARC
  5
A4
330
1F
100
AcDbEntity
  8
0
  6
SLD-実線
 62
     7
370
    25
100
AcDbCircle
 10
578.1780782341
 20
1128.5861070142
 30
0.0
 40
1.024627964194029
100
AcDbArc
 50
2.6075936772
 51
57.3917902817
  0
ARC
  5
A5
330
1F
100
AcDbEntity
  8
0
  6
SLD-実線
 62
     7
370
    25
100
AcDbCircle
 10
592.7078899944
 20
1136.9739574285
 30
0.0
 40
3.585882711552028
100
AcDbArc
 50
2.605654672
 51
57.3944775149
  0
LINE
  5
A6
330
1F
100
AcDbEntity
  8
0
  6
SLD-実線
 62
     7
370
    25
100
AcDbLine
 10
596.2900652185
 20
1137.1369773185
 30
0.0
 11
580.3801567412
 21
1127.9523826542
 31
0.0
  0
LINE
  5
A7
330
1F
100
AcDbEntity
  8
0
  6
SLD-実線
 62
     7
370
    25
100
AcDbLine
 10
594.6401500033
 20
1139.9947066863
 30
0.0
 11
578.7302415261
 21
1130.810112022
 31
0.0
  0
LINE
  5
A8
330
1F
100
AcDbEntity
  8
0
  6
SLD-実線
 62
     7
370
    25
100
AcDbLine
 10
603.478978534
 20
463.9666802941
 30
0.0
 11
597.5864276436
 21
460.5649830723
 31
0.0
  0
LINE
  5
A9
330
1F
100
AcDbEntity
  8
0
  6
SLD-実線
 62
     7
370
    25
100
AcDbLine
 10
597.5864276436
 20
459.8846428681
 30
0.0
 11
597.5864276436
 21
460.5649830723
 31
0.0
  0
LINE
  5
AA
330
1F
100
AcDbEntity
  8
0
  6
SLD-実線
 62
     7
370
    25
100
AcDbLine
 10
585.8013083018
 20
453.7615784908
 30
0.0
 11
581.6765191664
 21
451.3803884079
 31
0.0
  0
LINE
  5
AB
330
1F
100
AcDbEntity
  8
0
  6
SLD-実線
 62
     7
370
    25
100
AcDbLine
 10
581.6765191664
 20
1127.0678958377
 30
0.0
 11
597.5864276436
 21
1136.252490502
 31
0.0
  0
ARC
  5
AC
330
1F
100
AcDbEntity
  8
0
  6
SLD-実線
 62
     7
370
    25
100
AcDbCircle
 10
599.886695421
 20
1133.4324132838
 30
0.0
 40
3.63923994321399
100
AcDbArc
 50
350.7859672374
 51
129.2032810078
  0
LINE
  5
AD
330
1F
100
AcDbEntity
  8
0
  6
SLD-実線
 62
     7
370
    25
100
AcDbLine
 10
603.478978534
 20
1132.8496874474
 30
0.0
 11
603.478978534
 21
463.9666802941
 31
0.0
  0
LINE
  5
AE
330
1F
100
AcDbEntity
  8
0
  6
SLD-実線
 62
     7
370
    25
100
AcDbLine
 10
580.4980076712
 20
1127.7482360424
 30
0.0
 11
596.4079161485
 21
1136.9328307067
 31
0.0
  0
LINE
  5
AF
330
1F
100
AcDbEntity
  8
0
  6
SLD-実線
 62
     7
370
    25
100
AcDbLine
 10
597.5864276436
 20
1136.252490502
 30
0.0
 11
596.4079161485
 21
1136.9328307067
 31
0.0
  0
LINE
  5
B0
330
1F
100
AcDbEntity
  8
0
  6
SLD-実線
 62
     7
370
    25
100
AcDbLine
 10
578.1409912664
 20
1127.0678983722
 30
0.0
 11
576.9624797712
 21
1127.7482385769
 31
0.0
  0
LINE
  5
B1
330
1F
100
AcDbEntity
  8
0
  6
SLD-実線
 62
     7
370
    25
100
AcDbLine
 10
579.3194873955
 20
1127.7482297062
 30
0.0
 11
578.1409759003
 21
1128.4285699109
 31
0.0
  0
LINE
  5
B2
330
1F
100
AcDbEntity
  8
0
  6
SLD-実線
 62
     7
370
    25
100
AcDbLine
 10
509.7873355234
 20
1166.5276239087
 30
0.0
 11
508.6088240282
 21
1167.2079641134
 31
0.0
  0
LINE
  5
B3
330
1F
100
AcDbEntity
  8
0
  6
SLD-実線
 62
     7
370
    25
100
AcDbLine
 10
559.8740663843
 20
461.9256622144
 30
0.0
 11
578.1409912664
 21
451.3803909424
 31
0.0
  0
LINE
  5
B4
330
1F
100
AcDbEntity
  8
0
  6
SLD-実線
 62
     7
370
    25
100
AcDbLine
 10
508.6088240282
 20
491.5204566837
 30
0.0
 11
526.8757489103
 21
480.9751854116
 31
0.0
  0
LINE
  5
B5
330
1F
100
AcDbEntity
  8
0
  6
SLD-実線
 62
     7
370
    25
100
AcDbLine
 10
508.6088240282
 20
1167.2079641134
 30
0.0
 11
508.6088240282
 21
491.5204566837
 31
0.0
  0
LWPOLYLINE
  5
B6
330
1F
100
AcDbEntity
  8
0
  6
SLD-実線
 62
     7
370
    25
100
AcDbPolyline
 90
       10
 70
   128
 43
0.0
 10
539.8393737106
 20
945.7242229311
 10
540.0525925867
 20
944.2047621936
 10
540.6665316801
 20
942.6224080594
 10
541.607140679
 20
941.1679861976
 10
542.7609686226
 20
940.0169432484
 10
543.988846672
 20
939.3081043385
 10
545.1426746156
 20
939.1269659003
 10
546.0832836146
 20
939.4953837282
 10
546.6972227079
 20
940.3688988733
 10
546.910441584
 20
941.6421823365
  0
LINE
  5
B7
330
1F
100
AcDbEntity
  8
0
  6
SLD-実線
 62
     7
370
    25
100
AcDbLine
 10
546.910441584
 20
941.6421823365
 30
0.0
 11
546.910441584
 21
949.807566445
 31
0.0
  0
LWPOLYLINE
  5
B8
330
1F
100
AcDbEntity
  8
0
  6
SLD-実線
 62
     7
370
    25
100
AcDbPolyline
 90
       10
 70
   128
 43
0.0
 10
546.910441584
 20
949.807566445
 10
546.6972227079
 20
951.3270271825
 10
546.0832836146
 20
952.9093813167
 10
545.1426746156
 20
954.3638031785
 10
543.988846672
 20
955.5148461277
 10
542.7609686226
 20
956.2236850376
 10
541.607140679
 20
956.4048234758
 10
540.6665316801
 20
956.0364056479
 10
540.0525925867
 20
955.1628905028
 10
539.8393737106
 20
953.8896070396
  0
LINE
  5
B9
330
1F
100
AcDbEntity
  8
0
  6
SLD-実線
 62
     7
370
    25
100
AcDbLine
 10
539.8393737106
 20
953.8896070396
 30
0.0
 11
539.8393737106
 21
945.7242229311
 31
0.0
  0
ARC
  5
BA
330
1F
100
AcDbEntity
  8
0
  6
SLD-実線
 62
     7
370
    25
100
AcDbCircle
 10
520.4506927367
 20
807.1526135356
 30
0.0
 40
3.639245350676716
100
AcDbArc
 50
50.7968034515
 51
189.2138374007
  0
LINE
  5
BB
330
1F
100
AcDbEntity
  8
0
  6
SLD-実線
 62
     7
370
    25
100
AcDbLine
 10
516.8584022991
 20
806.569899082
 30
0.0
 11
516.8584022991
 21
792.9608782501
 31
0.0
  0
ARC
  5
BC
330
1F
100
AcDbEntity
  8
0
  6
SLD-実線
 62
     7
370
    25
100
AcDbCircle
 10
529.6518700784
 20
793.5430590968
 30
0.0
 40
12.80670731911013
100
AcDbArc
 50
182.6055100636
 51
237.3945270535
  0
LINE
  5
BD
330
1F
100
AcDbEntity
  8
0
  6
SLD-実線
 62
     7
370
    25
100
AcDbLine
 10
522.7509597749
 20
782.7546769502
 30
0.0
 11
563.9988555197
 21
758.9427735873
 31
0.0
  0
ARC
  5
BE
330
1F
100
AcDbEntity
  8
0
  6
SLD-実線
 62
     7
370
    25
100
AcDbCircle
 10
566.2991268656
 20
761.762850927
 30
0.0
 40
3.63924229294166
100
AcDbArc
 50
230.7966766634
 51
9.2139641889
  0
LINE
  5
BF
330
1F
100
AcDbEntity
  8
0
  6
SLD-実線
 62
     7
370
    25
100
AcDbLine
 10
569.8914129955
 20
762.3455728402
 30
0.0
 11
569.8914129955
 21
775.9545936721
 31
0.0
  0
ARC
  5
C0
330
1F
100
AcDbEntity
  8
0
  6
SLD-実線
 62
     7
370
    25
100
AcDbCircle
 10
557.0979181651
 20
775.3723972075
 30
0.0
 40
12.8067350522764
100
AcDbArc
 50
2.6055743628
 51
57.3944627543
  0
LINE
  5
C1
330
1F
100
AcDbEntity
  8
0
  6
SLD-実線
 62
     7
370
    25
100
AcDbLine
 10
563.9988555197
 20
786.1607949721
 30
0.0
 11
522.7509597749
 21
809.9726983349
 31
0.0
  0
ARC
  5
C2
330
1F
100
AcDbEntity
  8
0
  6
SLD-実線
 62
     7
370
    25
100
AcDbCircle
 10
520.4506888584
 20
534.9723497688
 30
0.0
 40
3.639243270533042
100
AcDbArc
 50
50.7966979426
 51
189.2140168447
  0
LINE
  5
C3
330
1F
100
AcDbEntity
  8
0
  6
SLD-実線
 62
     7
370
    25
100
AcDbLine
 10
516.8584022991
 20
534.3896243976
 30
0.0
 11
516.8584022991
 21
520.7806111704
 31
0.0
  0
ARC
  5
C4
330
1F
100
AcDbEntity
  8
0
  6
SLD-実線
 62
     7
370
    25
100
AcDbCircle
 10
529.6518754032
 20
521.3627870529
 30
0.0
 40
12.80671241276671
100
AcDbArc
 50
182.6054867947
 51
237.3945133509
  0
LINE
  5
C5
330
1F
100
AcDbEntity
  8
0
  6
SLD-実線
 62
     7
370
    25
100
AcDbLine
 10
522.7509597749
 20
510.5744022658
 30
0.0
 11
563.9988555197
 21
486.7624989029
 31
0.0
  0
ARC
  5
C6
330
1F
100
AcDbEntity
  8
0
  6
SLD-実線
 62
     7
370
    25
100
AcDbCircle
 10
566.2991254762
 20
489.582579951
 30
0.0
 40
3.639244288358897
100
AcDbArc
 50
230.7967305183
 51
9.2140212364
  0
LINE
  5
C7
330
1F
100
AcDbEntity
  8
0
  6
SLD-実線
 62
     7
370
    25
100
AcDbLine
 10
569.8914129955
 20
490.1653057605
 30
0.0
 11
569.8914129955
 21
503.7743189877
 31
0.0
  0
ARC
  5
C8
330
1F
100
AcDbEntity
  8
0
  6
SLD-実線
 62
     7
370
    25
100
AcDbCircle
 10
557.0979451612
 20
503.1921434683
 30
0.0
 40
12.80670713191177
100
AcDbArc
 50
2.6054862439
 51
57.3945262255
  0
LINE
  5
C9
330
1F
100
AcDbEntity
  8
0
  6
SLD-実線
 62
     7
370
    25
100
AcDbLine
 10
563.9988555197
 20
513.9805253574
 30
0.0
 11
522.7509597749
 21
537.7924287203
 31
0.0
  0
LWPOLYLINE
  5
CA
330
1F
100
AcDbEntity
  8
0
  6
SLD-実線
 62
     7
370
    25
100
AcDbPolyline
 90
       17
 70
   128
 43
0.0
 10
541.0178849314
 20
1028.0588511501
 10
541.1973026387
 20
1028.9968866042
 10
541.7082409806
 20
1029.58491685
 10
542.4729141206
 20
1029.7335185301
 10
543.3749076473
 20
1029.4199791213
 10
544.276901174
 20
1028.6920989713
 10
545.041574314
 20
1027.6606244763
 10
545.552512656
 20
1026.4826773777
 10
545.7319303632
 20
1025.3374906481
 10
545.552512656
 20
1024.399495752
 10
545.041574314
 20
1023.8114249482
 10
544.276901174
 20
1023.6628638261
 10
543.3749076473
 20
1023.9763626769
 10
542.4729141206
 20
1024.7042833849
 10
541.7082409806
 20
1025.7357173218
 10
541.1973026387
 20
1026.9137049785
 10
541.0178849314
 20
1028.0588511501
  0
LINE
  5
CB
330
1F
100
AcDbEntity
  8
0
  6
SLD-実線
 62
     7
370
    25
100
AcDbLine
 10
579.2016452461
 20
1127.8162898989
 30
0.0
 11
579.2016452461
 21
1128.6327228589
 31
0.0
  0
LINE
  5
CC
330
1F
100
AcDbEntity
  8
0
  6
SLD-実線
 62
     7
370
    25
100
AcDbLine
 10
580.3801567412
 20
1127.6917162541
 30
0.0
 11
580.3801567412
 21
1127.9523826542
 31
0.0
  0
LINE
  5
CD
330
1F
100
AcDbEntity
  8
0
  6
SLD-実線
 62
     7
370
    25
100
AcDbLine
 10
596.2900652185
 20
1137.1369773185
 30
0.0
 11
596.2900652185
 21
1136.8647924405
 31
0.0
  0
LINE
  5
CE
330
1F
100
AcDbEntity
  8
0
  6
SLD-実線
 62
     7
370
    25
100
AcDbLine
 10
527.4650057555
 20
1178.7740920181
 30
0.0
 11
594.6401500033
 21
1139.9947066863
 31
0.0
  0
LINE
  5
CF
330
1F
100
AcDbEntity
  8
0
  6
SLD-実線
 62
     7
370
    25
100
AcDbLine
 10
511.5550972782
 20
1169.5894973538
 30
0.0
 11
527.4650057555
 21
1178.7740920181
 31
0.0
  0
ARC
  5
D0
330
1F
100
AcDbEntity
  8
0
  6
SLD-実線
 62
     7
370
    25
100
AcDbCircle
 10
598.8489307073
 20
1133.5255382357
 30
0.0
 40
4.191442956712454
100
AcDbArc
 50
65.6929831416
 51
125.6181476519
  0
LINE
  5
D1
330
1F
100
AcDbEntity
  8
0
  6
SLD-実線
 62
     7
370
    25
100
AcDbLine
 10
509.7873201573
 20
1167.8882954475
 30
0.0
 11
508.6088240282
 21
1167.2079641134
 31
0.0
  0
LINE
  5
D2
330
1F
100
AcDbEntity
  8
0
  6
SLD-実線
 62
     7
370
    25
100
AcDbLine
 10
510.0456210697
 20
1167.7391815048
 30
0.0
 11
509.7873201573
 21
1167.8882954475
 31
0.0
  0
ARC
  5
D3
330
1F
100
AcDbEntity
  8
0
  6
SLD-実線
 62
     7
370
    25
100
AcDbCircle
 10
510.9110221813
 20
1168.7998761264
 30
0.0
 40
1.018986954423048
100
AcDbArc
 50
50.7966998003
 51
189.2136558733
  0
ARC
  5
D4
330
1F
100
AcDbEntity
  8
0
  6
SLD-実線
 62
     7
370
    25
100
AcDbCircle
 10
526.7815005696
 20
1177.8199021071
 30
0.0
 40
1.173736650771838
100
AcDbArc
 50
54.3852226842
 51
114.303075048
  0
ARC
  5
D5
330
1F
100
AcDbEntity
  8
0
  6
SLD-実線
 62
     7
370
    25
100
AcDbCircle
 10
509.1276940134
 20
492.6657164168
 30
0.0
 40
1.257316952053555
100
AcDbArc
 50
185.6945040502
 51
245.6266789539
  0
ARC
  5
D6
330
1F
100
AcDbEntity
  8
0
  6
SLD-実線
 62
     7
370
    25
100
AcDbCircle
 10
508.9961278425
 20
1168.2284733527
 30
0.0
 40
1.091532570310261
100
AcDbArc
 50
110.7830091393
 51
249.2172373511
  0
LINE
  5
D7
330
1F
100
AcDbEntity
  8
0
  6
SLD-実線
 62
     7
370
    25
100
AcDbLine
 10
509.7873311331
 20
1168.5686407211
 30
0.0
 11
508.6088196379
 21
1169.2489809258
 31
0.0
  0
ARC
  5
D8
330
1F
100
AcDbEntity
  8
0
  6
SLD-実線
 62
     7
370
    25
100
AcDbCircle
 10
509.9164417051
 20
1168.2284660013
 30
0.0
 40
0.3638521400062516
100
AcDbArc
 50
110.7838540321
 51
249.2142973075
  0
LINE
  5
D9
330
1F
100
AcDbEntity
  8
0
  6
SLD-実線
 62
     7
370
    25
100
AcDbLine
 10
509.9051820631
 20
1168.6367195454
 30
0.0
 11
509.9051820631
 21
1167.8202865854
 31
0.0
  0
LINE
  5
DA
330
1F
100
AcDbEntity
  8
0
  6
SLD-実線
 62
     7
370
    25
100
AcDbLine
 10
524.5187281152
 20
1178.4335755901
 30
0.0
 11
508.6088196379
 21
1169.2489809258
 31
0.0
  0
LINE
  5
DB
330
1F
100
AcDbEntity
  8
0
  6
SLD-実線
 62
     7
370
    25
100
AcDbLine
 10
509.9051842582
 20
1168.6366758821
 30
0.0
 11
509.7873311331
 21
1168.5686407211
 31
0.0
  0
ARC
  5
DC
330
1F
100
AcDbEntity
  8
0
  6
SLD-実線
 62
     7
370
    25
100
AcDbCircle
 10
528.2918515518
 20
1175.4432281906
 30
0.0
 40
3.113273887626583
100
AcDbArc
 50
22.544486673
 51
97.4612350477
  0
LINE
  5
DD
330
1F
100
AcDbEntity
  8
0
  6
SLD-実線
 62
     7
370
    25
100
AcDbLine
 10
531.5897905007
 20
506.832528628
 30
0.0
 11
531.5897905007
 21
532.689875308
 31
0.0
  0
LINE
  5
DE
330
1F
100
AcDbEntity
  8
0
  6
SLD-実線
 62
     7
370
    25
100
AcDbLine
 10
531.5897905007
 20
779.0128071147
 30
0.0
 11
531.5897905007
 21
804.8701474575
 31
0.0
  0
ARC
  5
DF
330
1F
100
AcDbEntity
  8
0
  6
SLD-実線
 62
     7
370
    25
100
AcDbCircle
 10
526.959742674
 20
1175.0262831191
 30
0.0
 40
4.191442956713284
100
AcDbArc
 50
65.6929831416
 51
125.6181476519
  0
LWPOLYLINE
  5
E0
330
1F
100
AcDbEntity
  8
0
  6
SLD-実線
 62
     7
370
    25
100
AcDbPolyline
 90
        3
 70
   128
 43
0.0
 10
542.1963810605
 20
1028.7391824842
 10
542.3757987678
 20
1029.6772179383
 10
542.4052328262
 20
1029.7387463464
  0
ARC
  5
E1
330
1F
100
AcDbEntity
  8
0
  6
SLD-実線
 62
     7
370
    25
100
AcDbCircle
 10
546.5022070996
 20
1028.5358635836
 30
0.0
 40
4.310623673495789
100
AcDbArc
 50
177.2965307291
 51
256.8708597932
  0
LINE
  5
E2
330
1F
100
AcDbEntity
  8
0
  6
SLD-実線
 62
     7
370
    25
100
AcDbLine
 10
541.0178698398
 20
954.5699383737
 30
0.0
 11
539.8393737106
 21
953.8896070396
 31
0.0
  0
LWPOLYLINE
  5
E3
330
1F
100
AcDbEntity
  8
0
  6
SLD-実線
 62
     7
370
    25
100
AcDbPolyline
 90
        3
 70
   128
 43
0.0
 10
541.0178698398
 20
954.5699383737
 10
541.2310887159
 20
955.8432218369
 10
541.5347707535
 20
956.3970214692
  0
LINE
  5
E4
330
1F
100
AcDbEntity
  8
0
  6
SLD-実線
 62
     7
370
    25
100
AcDbLine
 10
541.0178698398
 20
946.4045542652
 30
0.0
 11
539.8393737106
 21
945.7242229311
 31
0.0
  0
ARC
  5
E5
330
1F
100
AcDbEntity
  8
0
  6
SLD-実線
 62
     7
370
    25
100
AcDbCircle
 10
547.4255018495
 20
946.1444214577
 30
0.0
 40
6.412910185736481
100
AcDbArc
 50
177.6752204581
 51
260.7396022287
  0
LINE
  5
E6
330
1F
100
AcDbEntity
  8
0
  6
SLD-実線
 62
     7
370
    25
100
AcDbLine
 10
541.0178698398
 20
946.4045542652
 30
0.0
 11
541.0178698398
 21
954.5699383737
 31
0.0
  0
LINE
  5
E7
330
1F
100
AcDbEntity
  8
0
  6
SLD-実線
 62
     7
370
    25
100
AcDbLine
 10
563.9988555197
 20
758.9427735873
 30
0.0
 11
565.1773516488
 21
759.6231049214
 31
0.0
  0
ARC
  5
E8
330
1F
100
AcDbEntity
  8
0
  6
SLD-実線
 62
     7
370
    25
100
AcDbCircle
 10
567.7214964422
 20
763.3188632102
 30
0.0
 40
4.486791956313684
100
AcDbArc
 50
235.4566359608
 51
282.7609580988
  0
LINE
  5
E9
330
1F
100
AcDbEntity
  8
0
  6
SLD-実線
 62
     7
370
    25
100
AcDbLine
 10
523.929455904
 20
783.4350082843
 30
0.0
 11
522.7509597749
 21
782.7546769502
 31
0.0
  0
LINE
  5
EA
330
1F
100
AcDbEntity
  8
0
  6
SLD-実線
 62
     7
370
    25
100
AcDbLine
 10
565.1773516488
 20
759.6231049214
 30
0.0
 11
523.929455904
 21
783.4350082843
 31
0.0
  0
LINE
  5
EB
330
1F
100
AcDbEntity
  8
0
  6
SLD-実線
 62
     7
370
    25
100
AcDbLine
 10
518.0368984283
 20
807.2502304161
 30
0.0
 11
516.8584022991
 21
806.569899082
 31
0.0
  0
ARC
  5
EC
330
1F
100
AcDbEntity
  8
0
  6
SLD-実線
 62
     7
370
    25
100
AcDbCircle
 10
522.5104956605
 20
807.6059074898
 30
0.0
 40
4.487714159512928
100
AcDbArc
 50
137.2373422659
 51
184.5457865187
  0
LINE
  5
ED
330
1F
100
AcDbEntity
  8
0
  6
SLD-実線
 62
     7
370
    25
100
AcDbLine
 10
516.8584022991
 20
792.9608782501
 30
0.0
 11
518.0368984283
 21
793.6412095842
 31
0.0
  0
LINE
  5
EE
330
1F
100
AcDbEntity
  8
0
  6
SLD-実線
 62
     7
370
    25
100
AcDbLine
 10
518.0368984283
 20
793.6412095842
 30
0.0
 11
518.0368984283
 21
807.2502304161
 31
0.0
  0
ARC
  5
EF
330
1F
100
AcDbEntity
  8
0
  6
SLD-実線
 62
     7
370
    25
100
AcDbCircle
 10
530.8303662075
 20
794.2233904308
 30
0.0
 40
12.80670731911029
100
AcDbArc
 50
182.6055100636
 51
237.3945270535
  0
LINE
  5
F0
330
1F
100
AcDbEntity
  8
0
  6
SLD-実線
 62
     7
370
    25
100
AcDbLine
 10
563.9988555197
 20
486.7624989029
 30
0.0
 11
565.1773516488
 21
487.442830237
 31
0.0
  0
ARC
  5
F1
330
1F
100
AcDbEntity
  8
0
  6
SLD-実線
 62
     7
370
    25
100
AcDbCircle
 10
567.7215272748
 20
491.1387324614
 30
0.0
 40
4.486927998973685
100
AcDbArc
 50
235.4573538497
 51
282.7601609768
  0
LINE
  5
F2
330
1F
100
AcDbEntity
  8
0
  6
SLD-実線
 62
     7
370
    25
100
AcDbLine
 10
523.929455904
 20
511.2547335999
 30
0.0
 11
522.7509597749
 21
510.5744022658
 31
0.0
  0
LINE
  5
F3
330
1F
100
AcDbEntity
  8
0
  6
SLD-実線
 62
     7
370
    25
100
AcDbLine
 10
565.1773516488
 20
487.442830237
 30
0.0
 11
523.929455904
 21
511.2547335999
 31
0.0
  0
LINE
  5
F4
330
1F
100
AcDbEntity
  8
0
  6
SLD-実線
 62
     7
370
    25
100
AcDbLine
 10
518.0368984283
 20
535.0699557317
 30
0.0
 11
516.8584022991
 21
534.3896243976
 31
0.0
  0
ARC
  5
F5
330
1F
100
AcDbEntity
  8
0
  6
SLD-実線
 62
     7
370
    25
100
AcDbCircle
 10
522.5105080133
 20
535.4256376055
 30
0.0
 40
4.487726853834831
100
AcDbArc
 50
137.237399297
 51
184.5458351101
  0
LINE
  5
F6
330
1F
100
AcDbEntity
  8
0
  6
SLD-実線
 62
     7
370
    25
100
AcDbLine
 10
516.8584022991
 20
520.7806111704
 30
0.0
 11
518.0368984283
 21
521.4609425045
 31
0.0
  0
LINE
  5
F7
330
1F
100
AcDbEntity
  8
0
  6
SLD-実線
 62
     7
370
    25
100
AcDbLine
 10
518.0368984283
 20
521.4609425045
 30
0.0
 11
518.0368984283
 21
535.0699557317
 31
0.0
  0
ARC
  5
F8
330
1F
100
AcDbEntity
  8
0
  6
SLD-実線
 62
     7
370
    25
100
AcDbCircle
 10
530.8303715323
 20
522.043118387
 30
0.0
 40
12.80671241276683
100
AcDbArc
 50
182.6054867947
 51
237.3945133509
  0
ARC
  5
F9
330
1F
100
AcDbEntity
  8
0
  6
SLD-実線
 62
     7
370
    25
100
AcDbCircle
 10
783.6786522411
 20
464.6470200997
 30
0.0
 40
3.638462885324216
100
AcDbArc
 50
290.7836055583
 51
69.2165423357
  0
LINE
  5
FA
330
1F
100
AcDbEntity
  8
0
  6
SLD-実線
 62
     7
370
    25
100
AcDbLine
 10
502.1270042195
 20
297.963696325
 30
0.0
 11
784.9697224454
 21
461.2453220097
 31
0.0
  0
ARC
  5
FB
330
1F
100
AcDbEntity
  8
0
  6
SLD-実線
 62
     7
370
    25
100
AcDbCircle
 10
496.2344480292
 20
309.3362935564
 30
0.0
 40
12.8085200644418
100
AcDbArc
 50
242.6096650182
 51
297.3903164991
  0
LINE
  5
FC
330
1F
100
AcDbEntity
  8
0
  6
SLD-実線
 62
     7
370
    25
100
AcDbLine
 10
242.854522482
 20
440.8351133342
 30
0.0
 11
490.3418881704
 21
297.9636982259
 31
0.0
  0
ARC
  5
FD
330
1F
100
AcDbEntity
  8
0
  6
SLD-実線
 62
     7
370
    25
100
AcDbCircle
 10
244.1455794213
 20
444.2368152994
 30
0.0
 40
3.638461801411602
100
AcDbArc
 50
110.7834440711
 51
249.2166113891
  0
LINE
  5
FE
330
1F
100
AcDbEntity
  8
0
  6
SLD-実線
 62
     7
370
    25
100
AcDbLine
 10
507.8765839995
 20
600.6324974613
 30
0.0
 11
242.8545191893
 21
447.6385160148
 31
0.0
  0
LINE
  5
FF
330
1F
100
AcDbEntity
  8
0
  6
SLD-実線
 62
     7
370
    25
100
AcDbLine
 10
784.9697136648
 20
468.0487215223
 30
0.0
 11
603.478978534
 21
572.8210927707
 31
0.0
  0
LINE
  5
100
330
1F
100
AcDbEntity
  8
0
  6
SLD-実線
 62
     7
370
    25
100
AcDbLine
 10
600.5326943082
 20
461.5854851423
 30
0.0
 11
586.390565147
 21
453.4214077548
 31
0.0
  0
LINE
  5
101
330
1F
100
AcDbEntity
  8
0
  6
SLD-実線
 62
     7
370
    25
100
AcDbLine
 10
599.9434374631
 20
461.9256558783
 30
0.0
 11
600.5326943082
 21
461.5854851423
 31
0.0
  0
LINE
  5
102
330
1F
100
AcDbEntity
  8
0
  6
SLD-実線
 62
     7
370
    25
100
AcDbLine
 10
586.390565147
 20
453.4214077548
 30
0.0
 11
585.8013083018
 21
453.7615784908
 31
0.0
  0
LINE
  5
103
330
1F
100
AcDbEntity
  8
0
  6
SLD-実線
 62
     7
370
    25
100
AcDbLine
 10
561.0525767818
 20
461.2453226433
 30
0.0
 11
525.6972385128
 21
481.6555249827
 31
0.0
  0
LWPOLYLINE
  5
104
330
1F
100
AcDbEntity
  8
0
  6
SLD-実線
 62
     7
370
    25
100
AcDbPolyline
 90
       24
 70
   128
 43
0.0
 10
505.073278567
 20
316.6730506871
 10
506.8815869073
 20
315.8814246873
 10
508.9927993794
 20
315.4008028078
 10
511.2503470266
 20
315.2668234189
 10
513.4867927126
 20
315.4894266899
 10
515.5362754177
 20
316.0521005855
 10
517.2467855082
 20
316.9131176847
 10
518.49146097
 20
318.0086196237
 10
519.1780045954
 20
319.2573540101
 10
519.2554801616
 20
320.5667165854
 10
518.7181605266
 20
321.8395854085
 10
517.6058788526
 20
322.9815694237
 10
516.0011463762
 20
323.9079617635
 10
514.0229576995
 20
324.5500683063
 10
511.8180453197
 20
324.860256329
 10
509.5499170574
 20
324.8155306367
 10
507.386811278
 20
324.419197438
 10
505.4891406432
 20
323.7006615883
 10
503.9976536755
 20
322.7132051316
 10
503.022968291
 20
321.5300639499
 10
502.637366335
 20
320.2389913366
 10
502.8694505905
 20
318.9357368204
 10
503.7020023138
 20
317.7169598026
 10
505.073278567
 20
316.6730506871
  0
LWPOLYLINE
  5
105
330
1F
100
AcDbEntity
  8
0
  6
SLD-実線
 62
     7
370
    25
100
AcDbPolyline
 90
       24
 70
   128
 43
0.0
 10
740.7755380845
 20
452.7410688173
 10
742.5838486199
 20
451.9494440848
 10
744.6950632871
 20
451.4688234725
 10
746.9526153246
 20
451.334846618
 10
749.1890500349
 20
451.5574435529
 10
751.2385371303
 20
452.1201199829
 10
752.9490494159
 20
452.9811383494
 10
754.1937160972
 20
454.0766352195
 10
754.8802619177
 20
455.3253708731
 10
754.9577418742
 20
456.6347359828
 10
754.4204134586
 20
457.907599737
 10
753.3081317846
 20
459.0495837522
 10
751.7033993082
 20
459.9759760921
 10
749.7252106315
 20
460.6180826348
 10
747.5203070323
 20
460.9282757265
 10
745.2521743797
 20
460.8835474996
 10
743.0890664052
 20
460.4872130337
 10
741.191404551
 20
459.768682253
 10
739.6999153881
 20
458.7812245291
 10
738.7252256133
 20
457.5980808129
 10
738.339634633
 20
456.3070145357
 10
738.5717144982
 20
455.0037574851
 10
739.4042640264
 20
453.7849792001
 10
740.7755380845
 20
452.7410688173
  0
LWPOLYLINE
  5
106
330
1F
100
AcDbEntity
  8
0
  6
SLD-実線
 62
     7
370
    25
100
AcDbPolyline
 90
       24
 70
   128
 43
0.0
 10
275.2635831108
 20
449.3393639921
 10
277.0718826704
 20
448.5477430613
 10
279.1830951425
 20
448.0671211817
 10
281.4406427897
 20
447.9331417928
 10
283.6770884758
 20
448.1557450638
 10
285.7265711808
 20
448.7184189594
 10
287.4370812713
 20
449.5794360586
 10
288.6817567332
 20
450.6749379977
 10
289.3683003585
 20
451.923672384
 10
289.4457759247
 20
453.2330349593
 10
288.9084562898
 20
454.5059037824
 10
287.7961746158
 20
455.6478877976
 10
286.1914421393
 20
456.5742801375
 10
284.2132534627
 20
457.2163866802
 10
282.0083410828
 20
457.526574703
 10
279.7402128205
 20
457.4818490106
 10
277.5771070412
 20
457.0855158119
 10
275.6794364064
 20
456.3669799622
 10
274.1879494387
 20
455.3795235056
 10
273.2132640542
 20
454.1963823238
 10
272.8276620981
 20
452.9053097105
 10
273.0597463536
 20
451.6020551943
 10
273.892298077
 20
450.3832781766
 10
275.2635831108
 20
449.3393639921
  0
ARC
  5
107
330
1F
100
AcDbEntity
  8
0
  6
SLD-実線
 62
     7
370
    25
100
AcDbCircle
 10
561.0525685976
 20
387.5753553535
 30
0.0
 40
12.80847551331788
100
AcDbArc
 50
242.6096094683
 51
297.390439819
  0
LINE
  5
108
330
1F
100
AcDbEntity
  8
0
  6
SLD-実線
 62
     7
370
    25
100
AcDbLine
 10
566.9451287697
 20
376.2028103615
 30
0.0
 11
619.9781394661
 21
406.8181157714
 31
0.0
  0
ARC
  5
109
330
1F
100
AcDbEntity
  8
0
  6
SLD-実線
 62
     7
370
    25
100
AcDbCircle
 10
618.6870775802
 20
410.2198129932
 30
0.0
 40
3.638459121925509
100
AcDbArc
 50
290.7834879409
 51
69.2165120591
  0
LINE
  5
10A
330
1F
100
AcDbEntity
  8
0
  6
SLD-実線
 62
     7
370
    25
100
AcDbLine
 10
619.9781394661
 20
413.621510215
 30
0.0
 11
443.201437145
 21
515.672528248
 31
0.0
  0
ARC
  5
10B
330
1F
100
AcDbEntity
  8
0
  6
SLD-実線
 62
     7
370
    25
100
AcDbCircle
 10
437.3088862546
 20
504.2999311634
 30
0.0
 40
12.80851749598567
100
AcDbArc
 50
62.6097042492
 51
117.3902957508
  0
LINE
  5
10C
330
1F
100
AcDbEntity
  8
0
  6
SLD-実線
 62
     7
370
    25
100
AcDbLine
 10
431.4163353643
 20
515.672528248
 30
0.0
 11
378.383324668
 21
485.0572228381
 31
0.0
  0
ARC
  5
10D
330
1F
100
AcDbEntity
  8
0
  6
SLD-実線
 62
     7
370
    25
100
AcDbCircle
 10
379.674368076
 20
481.6555214156
 30
0.0
 40
3.638456492710374
100
AcDbArc
 50
110.7831924272
 51
249.2166596788
  0
LINE
  5
10E
330
1F
100
AcDbEntity
  8
0
  6
SLD-実線
 62
     7
370
    25
100
AcDbLine
 10
378.3833158874
 20
478.2538233256
 30
0.0
 11
555.1600182085
 21
376.2028052926
 31
0.0
  0
LINE
  5
10F
330
1F
100
AcDbEntity
  8
0
  6
SLD-実線
 62
     7
370
    25
100
AcDbLine
 10
490.3418881704
 20
295.2418953903
 30
0.0
 11
490.3418881704
 21
297.9636982259
 31
0.0
  0
LINE
  5
110
330
1F
100
AcDbEntity
  8
0
  6
SLD-実線
 62
     7
370
    25
100
AcDbLine
 10
502.1270042195
 20
297.963696325
 30
0.0
 11
502.1270042195
 21
295.2418934895
 31
0.0
  0
ARC
  5
111
330
1F
100
AcDbEntity
  8
0
  6
SLD-実線
 62
     7
370
    25
100
AcDbCircle
 10
496.2344480292
 20
306.6144907208
 30
0.0
 40
12.80852006444188
100
AcDbArc
 50
242.6096650182
 51
297.3903164991
  0
LINE
  5
112
330
1F
100
AcDbEntity
  8
0
  6
SLD-実線
 62
     7
370
    25
100
AcDbLine
 10
784.9697224454
 20
458.5235191742
 30
0.0
 11
784.9697224454
 21
461.2453220097
 31
0.0
  0
LINE
  5
113
330
1F
100
AcDbEntity
  8
0
  6
SLD-実線
 62
     7
370
    25
100
AcDbLine
 10
502.1270042195
 20
295.2418934895
 30
0.0
 11
784.9697224454
 21
458.5235191742
 31
0.0
  0
LINE
  5
114
330
1F
100
AcDbEntity
  8
0
  6
SLD-実線
 62
     7
370
    25
100
AcDbLine
 10
242.854522482
 20
440.8351133342
 30
0.0
 11
242.854522482
 21
438.1133104986
 31
0.0
  0
LINE
  5
115
330
1F
100
AcDbEntity
  8
0
  6
SLD-実線
 62
     7
370
    25
100
AcDbLine
 10
242.854522482
 20
438.1133104986
 30
0.0
 11
490.3418881704
 21
295.2418953903
 31
0.0
  0
LWPOLYLINE
  5
116
330
1F
100
AcDbEntity
  8
0
  6
SLD-実線
 62
     7
370
    25
100
AcDbPolyline
 90
       12
 70
   128
 43
0.0
 10
518.9587795189
 20
318.7138472484
 10
518.7181605266
 20
319.1177825729
 10
517.6058788526
 20
320.2597665881
 10
516.0011463762
 20
321.186158928
 10
514.0229576995
 20
321.8282654707
 10
511.8180453197
 20
322.1384534935
 10
509.5499170574
 20
322.0937278011
 10
507.386811278
 20
321.6973946024
 10
505.4891406432
 20
320.9788587527
 10
503.9976536755
 20
319.9914022961
 10
503.022968291
 20
318.8082611143
 10
502.9729013472
 20
318.7138472484
  0
LINE
  5
117
330
1F
100
AcDbEntity
  8
0
  6
SLD-実線
 62
     7
370
    25
100
AcDbLine
 10
619.9781394661
 20
410.8997073795
 30
0.0
 11
619.9781394661
 21
413.621510215
 31
0.0
  0
ARC
  5
118
330
1F
100
AcDbEntity
  8
0
  6
SLD-実線
 62
     7
370
    25
100
AcDbCircle
 10
617.6300051565
 20
406.3817930104
 30
0.0
 40
5.091687832341648
100
AcDbArc
 50
29.1108834493
 51
62.5373607201
  0
LINE
  5
119
330
1F
100
AcDbEntity
  8
0
  6
SLD-実線
 62
     7
370
    25
100
AcDbLine
 10
443.201437145
 20
515.672528248
 30
0.0
 11
443.201437145
 21
512.9507254125
 31
0.0
  0
LINE
  5
11A
330
1F
100
AcDbEntity
  8
0
  6
SLD-実線
 62
     7
370
    25
100
AcDbLine
 10
619.9781394661
 20
410.8997073795
 30
0.0
 11
443.201437145
 21
512.9507254125
 31
0.0
  0
ARC
  5
11B
330
1F
100
AcDbEntity
  8
0
  6
SLD-実線
 62
     7
370
    25
100
AcDbCircle
 10
244.5842324811
 20
441.9309123573
 30
0.0
 40
4.191178907225614
100
AcDbArc
 50
185.6949324924
 51
245.625285144
  0
LWPOLYLINE
  5
11C
330
1F
100
AcDbEntity
  8
0
  6
SLD-実線
 62
     7
370
    25
100
AcDbPolyline
 90
       12
 70
   128
 43
0.0
 10
289.1490752821
 20
451.3801656223
 10
288.9084562898
 20
451.7841009469
 10
287.7961746158
 20
452.9260849621
 10
286.1914421393
 20
453.8524773019
 10
284.2132534627
 20
454.4945838447
 10
282.0083410828
 20
454.8047718674
 10
279.7402128205
 20
454.760046175
 10
277.5771070412
 20
454.3637129763
 10
275.6794364064
 20
453.6451771267
 10
274.1879494387
 20
452.65772067
 10
273.2132640542
 20
451.4745794883
 10
273.1631971104
 20
451.3801656223
  0
LWPOLYLINE
  5
11D
330
1F
100
AcDbEntity
  8
0
  6
SLD-実線
 62
     7
370
    25
100
AcDbPolyline
 90
       12
 70
   128
 43
0.0
 10
754.6610368412
 20
454.7818641114
 10
754.4204134586
 20
455.1857969014
 10
753.3081317846
 20
456.3277809167
 10
751.7033993082
 20
457.2541732565
 10
749.7252106315
 20
457.8962797993
 10
747.5203070323
 20
458.2064728909
 10
745.2521743797
 20
458.1617446641
 10
743.0890664052
 20
457.7654101981
 10
741.191404551
 20
457.0468794174
 10
739.6999153881
 20
456.0594216935
 10
738.7252256133
 20
454.8762779773
 10
738.6751586696
 20
454.7818641114
  0
LINE
  5
11E
330
1F
100
AcDbEntity
  8
0
  6
SLD-実線
 62
     7
370
    25
100
AcDbLine
 10
598.1756713179
 20
460.2248050497
 30
0.0
 11
598.1756713179
 21
460.905145177
 31
0.0
  0
ARC
  5
11F
330
1F
100
AcDbEntity
  8
0
  6
SLD-実線
 62
     7
370
    25
100
AcDbCircle
 10
783.2400063859
 20
462.3411086484
 30
0.0
 40
4.191170127758745
100
AcDbArc
 50
294.3748601912
 51
354.3050646413
  0
LINE
  5
120
330
1F
100
AcDbEntity
  8
0
  6
SLD-実線
 62
     7
370
    25
100
AcDbLine
 10
378.383324668
 20
485.0572228381
 30
0.0
 11
378.383324668
 21
482.3354200026
 31
0.0
  0
ARC
  5
121
330
1F
100
AcDbEntity
  8
0
  6
SLD-実線
 62
     7
370
    25
100
AcDbCircle
 10
380.7315497928
 20
477.817373887
 30
0.0
 40
5.091846613825535
100
AcDbArc
 50
117.4628623471
 51
150.8884146341
  0
LINE
  5
122
330
1F
100
AcDbEntity
  8
0
  6
SLD-実線
 62
     7
370
    25
100
AcDbLine
 10
431.4163353643
 20
512.9507254125
 30
0.0
 11
431.4163353643
 21
515.672528248
 31
0.0
  0
LINE
  5
123
330
1F
100
AcDbEntity
  8
0
  6
SLD-実線
 62
     7
370
    25
100
AcDbLine
 10
431.4163353643
 20
512.9507254125
 30
0.0
 11
378.383324668
 21
482.3354200026
 31
0.0
  0
ARC
  5
124
330
1F
100
AcDbEntity
  8
0
  6
SLD-実線
 62
     7
370
    25
100
AcDbCircle
 10
437.3088862546
 20
501.5781283278
 30
0.0
 40
12.80851749598508
100
AcDbArc
 50
62.6097042492
 51
117.3902957508
  0
LWPOLYLINE
  5
125
330
1F
100
AcDbEntity
  8
0
  6
SLD-実線
 62
     8
370
    25
100
AcDbPolyline
 90
       12
 70
   128
 43
0.0
 10
537.6495850798
 20
1116.2028250282
 10
538.3411048321
 20
1116.7303699494
 10
538.8712789847
 20
1117.8200300978
 10
538.9802705703
 20
1119.276008476
 10
538.6562688676
 20
1120.9405388198
 10
537.9343839024
 20
1122.6331889181
 10
536.8928436283
 20
1124.1705769996
 10
535.6445147536
 20
1125.3861108902
 10
534.3246732959
 20
1126.1480391455
 10
533.0763444212
 20
1126.373795095
 10
532.0348041471
 20
1126.0389438173
 10
531.9941368286
 20
1126.0106279679
  0
LINE
  5
126
330
1F
100
AcDbEntity
  8
0
  6
SLD-実線
 62
     8
370
    25
100
AcDbLine
 10
510.3653115011
 20
1168.3710924749
 30
0.0
 11
509.9051820631
 21
1168.6367195454
 31
0.0
  0
LINE
  5
127
330
1F
100
AcDbEntity
  8
0
  6
SLD-実線
 62
     8
370
    25
100
AcDbLine
 10
509.7873311331
 20
1167.8883204791
 30
0.0
 11
509.7873311331
 21
1168.5686407211
 31
0.0
  0
LINE
  5
128
330
1F
100
AcDbEntity
  8
0
  6
SLD-実線
 62
     8
370
    25
100
AcDbLine
 10
525.0136133372
 20
1178.1478844326
 30
0.0
 11
524.5187281152
 21
1178.4335755901
 31
0.0
  0
SPLINE
  5
129
330
1F
100
AcDbEntity
  8
0
  6
Continuous
 62
     7
370
    18
100
AcDbSpline
210
0.0
220
0.0
230
1.0
 70
     8
 71
     2
 72
     6
 73
     3
 74
     0
 42
0.000000001
 43
0.00000001
 40
0.0
 40
0.0
 40
0.0
 40
1.0
 40
1.0
 40
1.0
 10
541.7586215688374
 20
1128.959809990168
 30
0.0
 10
545.1691927529289
 20
1127.035090850042
 30
0.0
 10
544.9728165616607
 20
1123.117530189784
 30
0.0
  0
MTEXT
  5
12B
330
1F
100
AcDbEntity
  8
0
  6
Continuous
 62
     7
370
     0
100
AcDbMText
 10
739.6430811737
 20
296.1391674917
 30
0.0
 40
17.5
 41
0.0
 71
     1
 72
     1
  1
HEC-108S
  7
SLDTEXTSTYLE0
 73
     1
 44
1.0
  0
ENDSEC
  0
SECTION
  2
OBJECTS
  0
DICTIONARY
  5
C
330
0
100
AcDbDictionary
281
     1
  3
ACAD_GROUP
350
D
  3
ACAD_LAYOUT
350
1A
  3
ACAD_MLINESTYLE
350
17
  3
ACAD_PLOTSETTINGS
350
19
  3
ACAD_PLOTSTYLENAME
350
E
  3
ACAD_SCALELIST
350
47
  0
DICTIONARY
  5
D
102
{ACAD_REACTORS
330
C
102
}
330
C
100
AcDbDictionary
281
     1
  0
DICTIONARY
  5
1A
102
{ACAD_REACTORS
330
C
102
}
330
C
100
AcDbDictionary
281
     1
  3
Layout1
350
1E
  3
Layout2
350
26
  3
Model
350
22
  0
DICTIONARY
  5
17
102
{ACAD_REACTORS
330
C
102
}
330
C
100
AcDbDictionary
281
     1
  3
Standard
350
18
  0
DICTIONARY
  5
19
102
{ACAD_REACTORS
330
C
102
}
330
C
100
AcDbDictionary
281
     1
  0
ACDBDICTIONARYWDFLT
  5
E
102
{ACAD_REACTORS
330
C
102
}
330
C
100
AcDbDictionary
281
     1
  3
Normal
350
F
100
AcDbDictionaryWithDefault
340
F
  0
DICTIONARY
  5
47
102
{ACAD_REACTORS
330
C
102
}
330
C
100
AcDbDictionary
281
     1
  3
A0
350
48
  3
A1
350
49
  3
A2
350
4A
  3
A3
350
4B
  3
A4
350
4C
  3
A5
350
4D
  3
A6
350
4E
  3
A7
350
4F
  3
A8
350
50
  3
A9
350
51
  3
B0
350
52
  3
B1
350
53
  3
B2
350
54
  3
B3
350
55
  3
B4
350
56
  3
B5
350
57
  3
B6
350
58
  3
B7
350
59
  3
B8
350
5A
  3
B9
350
5B
  3
C0
350
5C
  3
C1
350
5D
  3
C2
350
5E
  3
C3
350
5F
  3
C4
350
60
  3
C5
350
61
  3
C6
350
62
  3
C7
350
63
  3
C8
350
64
  3
C9
350
65
  3
D0
350
66
  3
D1
350
67
  3
D2
350
68
  0
LAYOUT
  5
1E
102
{ACAD_REACTORS
330
1A
102
}
330
1A
100
AcDbPlotSettings
  1

  2
none_device
  4

  6

 40
0.0
 41
0.0
 42
0.0
 43
0.0
 44
0.0
 45
0.0
 46
0.0
 47
0.0
 48
0.0
 49
0.0
140
0.0
141
0.0
142
1.0
143
1.0
 70
   688
 72
     1
 73
     0
 74
     5
  7

 75
    16
147
1.0
148
0.0
149
0.0
100
AcDbLayout
  1
Layout1
 70
     1
 71
     1
 10
0.0
 20
0.0
 11
420.0
 21
297.0
 12
0.0
 22
0.0
 32
0.0
 14
1.0000000000E+20
 24
1.0000000000E+20
 34
1.0000000000E+20
 15
-1.0000000000E+20
 25
-1.0000000000E+20
 35
-1.0000000000E+20
146
0.0
 13
0.0
 23
0.0
 33
0.0
 16
1.0
 26
0.0
 36
0.0
 17
0.0
 27
1.0
 37
0.0
 76
     0
330
1B
  0
LAYOUT
  5
26
102
{ACAD_REACTORS
330
1A
102
}
330
1A
100
AcDbPlotSettings
  1

  2
none_device
  4

  6

 40
0.0
 41
0.0
 42
0.0
 43
0.0
 44
0.0
 45
0.0
 46
0.0
 47
0.0
 48
0.0
 49
0.0
140
0.0
141
0.0
142
1.0
143
1.0
 70
   688
 72
     1
 73
     0
 74
     5
  7

 75
    16
147
1.0
148
0.0
149
0.0
100
AcDbLayout
  1
Layout2
 70
     1
 71
     2
 10
0.0
 20
0.0
 11
0.0
 21
0.0
 12
0.0
 22
0.0
 32
0.0
 14
0.0
 24
0.0
 34
0.0
 15
0.0
 25
0.0
 35
0.0
146
0.0
 13
0.0
 23
0.0
 33
0.0
 16
1.0
 26
0.0
 36
0.0
 17
0.0
 27
1.0
 37
0.0
 76
     0
330
23
  0
LAYOUT
  5
22
102
{ACAD_REACTORS
330
1A
102
}
330
1A
100
AcDbPlotSettings
  1

  2
none_device
  4
Letter_(8.50_x_11.00_Inches)
  6

 40
6.35
 41
6.35
 42
6.35000508
 43
6.35000508
 44
215.9
 45
279.4
 46
0.0
 47
0.0
 48
0.0
 49
0.0
140
0.0
141
0.0
142
1.0
143
1.0
 70
  1712
 72
     1
 73
     0
 74
     0
  7

 75
     0
147
1.0
148
0.0
149
0.0
100
AcDbLayout
  1
Model
 70
     1
 71
     0
 10
0.0
 20
0.0
 11
1050.0
 21
1485.0
 12
0.0
 22
0.0
 32
0.0
 14
0.0
 24
0.0
 34
0.0
 15
1050.0
 25
1485.0
 35
0.0
146
0.0
 13
0.0
 23
0.0
 33
0.0
 16
1.0
 26
0.0
 36
0.0
 17
0.0
 27
1.0
 37
0.0
 76
     0
330
1F
331
29
  0
MLINESTYLE
  5
18
102
{ACAD_REACTORS
330
17
102
}
330
17
100
AcDbMlineStyle
  2
Standard
 70
     0
  3

 62
   256
 51
90.0
 52
90.0
 71
     2
 49
0.5
 62
   256
  6
BYLAYER
 49
-0.5
 62
   256
  6
BYLAYER
  0
ACDBPLACEHOLDER
  5
F
102
{ACAD_REACTORS
330
E
102
}
330
E
  0
SCALE
  5
48
102
{ACAD_REACTORS
330
47
102
}
330
47
100
AcDbScale
 70
     0
300
1:1
140
1.0
141
1.0
290
     1
  0
SCALE
  5
49
102
{ACAD_REACTORS
330
47
102
}
330
47
100
AcDbScale
 70
     0
300
1:2
140
1.0
141
2.0
290
     0
  0
SCALE
  5
4A
102
{ACAD_REACTORS
330
47
102
}
330
47
100
AcDbScale
 70
     0
300
1:4
140
1.0
141
4.0
290
     0
  0
SCALE
  5
4B
102
{ACAD_REACTORS
330
47
102
}
330
47
100
AcDbScale
 70
     0
300
1:5
140
1.0
141
5.0
290
     0
  0
SCALE
  5
4C
102
{ACAD_REACTORS
330
47
102
}
330
47
100
AcDbScale
 70
     0
300
1:8
140
1.0
141
8.0
290
     0
  0
SCALE
  5
4D
102
{ACAD_REACTORS
330
47
102
}
330
47
100
AcDbScale
 70
     0
300
1:10
140
1.0
141
10.0
290
     0
  0
SCALE
  5
4E
102
{ACAD_REACTORS
330
47
102
}
330
47
100
AcDbScale
 70
     0
300
1:16
140
1.0
141
16.0
290
     0
  0
SCALE
  5
4F
102
{ACAD_REACTORS
330
47
102
}
330
47
100
AcDbScale
 70
     0
300
1:20
140
1.0
141
20.0
290
     0
  0
SCALE
  5
50
102
{ACAD_REACTORS
330
47
102
}
330
47
100
AcDbScale
 70
     0
300
1:30
140
1.0
141
30.0
290
     0
  0
SCALE
  5
51
102
{ACAD_REACTORS
330
47
102
}
330
47
100
AcDbScale
 70
     0
300
1:40
140
1.0
141
40.0
290
     0
  0
SCALE
  5
52
102
{ACAD_REACTORS
330
47
102
}
330
47
100
AcDbScale
 70
     0
300
1:50
140
1.0
141
50.0
290
     0
  0
SCALE
  5
53
102
{ACAD_REACTORS
330
47
102
}
330
47
100
AcDbScale
 70
     0
300
1:100
140
1.0
141
100.0
290
     0
  0
SCALE
  5
54
102
{ACAD_REACTORS
330
47
102
}
330
47
100
AcDbScale
 70
     0
300
2:1
140
2.0
141
1.0
290
     0
  0
SCALE
  5
55
102
{ACAD_REACTORS
330
47
102
}
330
47
100
AcDbScale
 70
     0
300
4:1
140
4.0
141
1.0
290
     0
  0
SCALE
  5
56
102
{ACAD_REACTORS
330
47
102
}
330
47
100
AcDbScale
 70
     0
300
8:1
140
8.0
141
1.0
290
     0
  0
SCALE
  5
57
102
{ACAD_REACTORS
330
47
102
}
330
47
100
AcDbScale
 70
     0
300
10:1
140
10.0
141
1.0
290
     0
  0
SCALE
  5
58
102
{ACAD_REACTORS
330
47
102
}
330
47
100
AcDbScale
 70
     0
300
100:1
140
100.0
141
1.0
290
     0
  0
SCALE
  5
59
102
{ACAD_REACTORS
330
47
102
}
330
47
100
AcDbScale
 70
     0
300
1/128" = 1'-0"
140
0.0078125
141
12.0
290
     0
  0
SCALE
  5
5A
102
{ACAD_REACTORS
330
47
102
}
330
47
100
AcDbScale
 70
     0
300
1/64" = 1'-0"
140
0.015625
141
12.0
290
     0
  0
SCALE
  5
5B
102
{ACAD_REACTORS
330
47
102
}
330
47
100
AcDbScale
 70
     0
300
1/32" = 1'-0"
140
0.03125
141
12.0
290
     0
  0
SCALE
  5
5C
102
{ACAD_REACTORS
330
47
102
}
330
47
100
AcDbScale
 70
     0
300
1/16" = 1'-0"
140
0.0625
141
12.0
290
     0
  0
SCALE
  5
5D
102
{ACAD_REACTORS
330
47
102
}
330
47
100
AcDbScale
 70
     0
300
3/32" = 1'-0"
140
0.09375
141
12.0
290
     0
  0
SCALE
  5
5E
102
{ACAD_REACTORS
330
47
102
}
330
47
100
AcDbScale
 70
     0
300
1/8" = 1'-0"
140
0.125
141
12.0
290
     0
  0
SCALE
  5
5F
102
{ACAD_REACTORS
330
47
102
}
330
47
100
AcDbScale
 70
     0
300
3/16" = 1'-0"
140
0.1875
141
12.0
290
     0
  0
SCALE
  5
60
102
{ACAD_REACTORS
330
47
102
}
330
47
100
AcDbScale
 70
     0
300
1/4" = 1'-0"
140
0.25
141
12.0
290
     0
  0
SCALE
  5
61
102
{ACAD_REACTORS
330
47
102
}
330
47
100
AcDbScale
 70
     0
300
3/8" = 1'-0"
140
0.375
141
12.0
290
     0
  0
SCALE
  5
62
102
{ACAD_REACTORS
330
47
102
}
330
47
100
AcDbScale
 70
     0
300
1/2" = 1'-0"
140
0.5
141
12.0
290
     0
  0
SCALE
  5
63
102
{ACAD_REACTORS
330
47
102
}
330
47
100
AcDbScale
 70
     0
300
3/4" = 1'-0"
140
0.75
141
12.0
290
     0
  0
SCALE
  5
64
102
{ACAD_REACTORS
330
47
102
}
330
47
100
AcDbScale
 70
     0
300
1" = 1'-0"
140
1.0
141
12.0
290
     0
  0
SCALE
  5
65
102
{ACAD_REACTORS
330
47
102
}
330
47
100
AcDbScale
 70
     0
300
1-1/2" = 1'-0"
140
1.5
141
12.0
290
     0
  0
SCALE
  5
66
102
{ACAD_REACTORS
330
47
102
}
330
47
100
AcDbScale
 70
     0
300
3" = 1'-0"
140
3.0
141
12.0
290
     0
  0
SCALE
  5
67
102
{ACAD_REACTORS
330
47
102
}
330
47
100
AcDbScale
 70
     0
300
6" = 1'-0"
140
6.0
141
12.0
290
     0
  0
SCALE
  5
68
102
{ACAD_REACTORS
330
47
102
}
330
47
100
AcDbScale
 70
     0
300
1'-0" = 1'-0"
140
12.0
141
12.0
290
     0
  0
ENDSEC
  0
EOF
